  0
SECTION
  2
HEADER
  9
$ACADVER
  1
AC1024
  9
$ACADMAINTVER
 70
     6
  9
$DWGCODEPAGE
  3
UNDEFINED
  9
$INSBASE
 10
0.0
 20
0.0
 30
0.0
  9
$EXTMIN
 10
1.000000000000000E+20
 20
1.000000000000000E+20
 30
1.000000000000000E+20
  9
$EXTMAX
 10
-1.000000000000000E+20
 20
-1.000000000000000E+20
 30
-1.000000000000000E+20
  9
$LIMMIN
 10
0.0
 20
0.0
  9
$LIMMAX
 10
12.0
 20
9.0
  9
$ORTHOMODE
 70
     0
  9
$REGENMODE
 70
     1
  9
$FILLMODE
 70
     1
  9
$QTEXTMODE
 70
     0
  9
$MIRRTEXT
 70
     1
  9
$LTSCALE
 40
1.0
  9
$ATTMODE
 70
     1
  9
$TEXTSIZE
 40
0.2
  9
$TRACEWID
 40
0.05
  9
$TEXTSTYLE
  7
Standard
  9
$CLAYER
  8
0
  9
$CELTYPE
  6
ByLayer
  9
$CECOLOR
 62
   256
  9
$CELTSCALE
 40
1.0
  9
$DISPSILH
 70
     0
  9
$DIMSCALE
 40
1.0
  9
$DIMASZ
 40
0.18
  9
$DIMEXO
 40
0.0625
  9
$DIMDLI
 40
0.38
  9
$DIMRND
 40
0.0
  9
$DIMDLE
 40
0.0
  9
$DIMEXE
 40
0.18
  9
$DIMTP
 40
0.0
  9
$DIMTM
 40
0.0
  9
$DIMTXT
 40
0.18
  9
$DIMCEN
 40
0.09
  9
$DIMTSZ
 40
0.0
  9
$DIMTOL
 70
     0
  9
$DIMLIM
 70
     0
  9
$DIMTIH
 70
     1
  9
$DIMTOH
 70
     1
  9
$DIMSE1
 70
     0
  9
$DIMSE2
 70
     0
  9
$DIMTAD
 70
     0
  9
$DIMZIN
 70
     0
  9
$DIMBLK
  1

  9
$DIMASO
 70
     1
  9
$DIMSHO
 70
     1
  9
$DIMPOST
  1

  9
$DIMAPOST
  1

  9
$DIMALT
 70
     0
  9
$DIMALTD
 70
     2
  9
$DIMALTF
 40
25.4
  9
$DIMLFAC
 40
1.0
  9
$DIMTOFL
 70
     0
  9
$DIMTVP
 40
0.0
  9
$DIMTIX
 70
     0
  9
$DIMSOXD
 70
     0
  9
$DIMSAH
 70
     0
  9
$DIMBLK1
  1

  9
$DIMBLK2
  1

  9
$DIMSTYLE
  2
Standard
  9
$DIMCLRD
 70
     0
  9
$DIMCLRE
 70
     0
  9
$DIMCLRT
 70
     0
  9
$DIMTFAC
 40
1.0
  9
$DIMGAP
 40
0.09
  9
$DIMJUST
 70
     0
  9
$DIMSD1
 70
     0
  9
$DIMSD2
 70
     0
  9
$DIMTOLJ
 70
     1
  9
$DIMTZIN
 70
     0
  9
$DIMALTZ
 70
     0
  9
$DIMALTTZ
 70
     0
  9
$DIMUPT
 70
     0
  9
$DIMDEC
 70
     4
  9
$DIMTDEC
 70
     4
  9
$DIMALTU
 70
     2
  9
$DIMALTTD
 70
     2
  9
$DIMTXSTY
  7
Standard
  9
$DIMAUNIT
 70
     0
  9
$DIMADEC
 70
     0
  9
$DIMALTRND
 40
0.0
  9
$DIMAZIN
 70
     0
  9
$DIMDSEP
 70
    46
  9
$DIMATFIT
 70
     3
  9
$DIMFRAC
 70
     0
  9
$DIMLDRBLK
  1

  9
$DIMLUNIT
 70
     2
  9
$DIMLWD
 70
    -2
  9
$DIMLWE
 70
    -2
  9
$DIMTMOVE
 70
     0
  9
$DIMFXL
 40
1.0
  9
$DIMFXLON
 70
     0
  9
$DIMJOGANG
 40
0.7853981633974483
  9
$DIMTFILL
 70
     0
  9
$DIMTFILLCLR
 70
     0
  9
$DIMARCSYM
 70
     0
  9
$DIMLTYPE
  6

  9
$DIMLTEX1
  6

  9
$DIMLTEX2
  6

  9
$DIMTXTDIRECTION
 70
     0
  9
$LUNITS
 70
     2
  9
$LUPREC
 70
     4
  9
$SKETCHINC
 40
0.1
  9
$FILLETRAD
 40
0.5
  9
$AUNITS
 70
     0
  9
$AUPREC
 70
     0
  9
$MENU
  1
.
  9
$ELEVATION
 40
0.0
  9
$PELEVATION
 40
0.0
  9
$THICKNESS
 40
0.0
  9
$LIMCHECK
 70
     0
  9
$CHAMFERA
 40
0.5
  9
$CHAMFERB
 40
0.5
  9
$CHAMFERC
 40
1.0
  9
$CHAMFERD
 40
0.0
  9
$SKPOLY
 70
     0
  9
$TDCREATE
 40
2457917.621956019
  9
$TDUCREATE
 40
2457917.246956019
  9
$TDUPDATE
 40
2457917.621956019
  9
$TDUUPDATE
 40
2457917.246956019
  9
$TDINDWG
 40
0.0000000116
  9
$TDUSRTIMER
 40
0.0000000116
  9
$USRTIMER
 70
     1
  9
$ANGBASE
 50
0.0
  9
$ANGDIR
 70
     0
  9
$PDMODE
 70
     0
  9
$PDSIZE
 40
0.0
  9
$PLINEWID
 40
0.0
  9
$SPLFRAME
 70
     0
  9
$SPLINETYPE
 70
     6
  9
$SPLINESEGS
 70
     8
  9
$HANDSEED
  5
BC
  9
$SURFTAB1
 70
     6
  9
$SURFTAB2
 70
     6
  9
$SURFTYPE
 70
     6
  9
$SURFU
 70
     6
  9
$SURFV
 70
     6
  9
$UCSBASE
  2

  9
$UCSNAME
  2

  9
$UCSORG
 10
0.0
 20
0.0
 30
0.0
  9
$UCSXDIR
 10
1.0
 20
0.0
 30
0.0
  9
$UCSYDIR
 10
0.0
 20
1.0
 30
0.0
  9
$UCSORTHOREF
  2

  9
$UCSORTHOVIEW
 70
     0
  9
$UCSORGTOP
 10
0.0
 20
0.0
 30
0.0
  9
$UCSORGBOTTOM
 10
0.0
 20
0.0
 30
0.0
  9
$UCSORGLEFT
 10
0.0
 20
0.0
 30
0.0
  9
$UCSORGRIGHT
 10
0.0
 20
0.0
 30
0.0
  9
$UCSORGFRONT
 10
0.0
 20
0.0
 30
0.0
  9
$UCSORGBACK
 10
0.0
 20
0.0
 30
0.0
  9
$PUCSBASE
  2

  9
$PUCSNAME
  2

  9
$PUCSORG
 10
0.0
 20
0.0
 30
0.0
  9
$PUCSXDIR
 10
1.0
 20
0.0
 30
0.0
  9
$PUCSYDIR
 10
0.0
 20
1.0
 30
0.0
  9
$PUCSORTHOREF
  2

  9
$PUCSORTHOVIEW
 70
     0
  9
$PUCSORGTOP
 10
0.0
 20
0.0
 30
0.0
  9
$PUCSORGBOTTOM
 10
0.0
 20
0.0
 30
0.0
  9
$PUCSORGLEFT
 10
0.0
 20
0.0
 30
0.0
  9
$PUCSORGRIGHT
 10
0.0
 20
0.0
 30
0.0
  9
$PUCSORGFRONT
 10
0.0
 20
0.0
 30
0.0
  9
$PUCSORGBACK
 10
0.0
 20
0.0
 30
0.0
  9
$USERI1
 70
     0
  9
$USERI2
 70
     0
  9
$USERI3
 70
     0
  9
$USERI4
 70
     0
  9
$USERI5
 70
     0
  9
$USERR1
 40
0.0
  9
$USERR2
 40
0.0
  9
$USERR3
 40
0.0
  9
$USERR4
 40
0.0
  9
$USERR5
 40
0.0
  9
$WORLDVIEW
 70
     1
  9
$SHADEDGE
 70
     3
  9
$SHADEDIF
 70
    70
  9
$TILEMODE
 70
     1
  9
$MAXACTVP
 70
    64
  9
$PINSBASE
 10
0.0
 20
0.0
 30
0.0
  9
$PLIMCHECK
 70
     0
  9
$PEXTMIN
 10
1.000000000000000E+20
 20
1.000000000000000E+20
 30
1.000000000000000E+20
  9
$PEXTMAX
 10
-1.000000000000000E+20
 20
-1.000000000000000E+20
 30
-1.000000000000000E+20
  9
$PLIMMIN
 10
0.0
 20
0.0
  9
$PLIMMAX
 10
12.0
 20
9.0
  9
$UNITMODE
 70
     0
  9
$VISRETAIN
 70
     1
  9
$PLINEGEN
 70
     0
  9
$PSLTSCALE
 70
     1
  9
$TREEDEPTH
 70
  3020
  9
$CMLSTYLE
  2
Standard
  9
$CMLJUST
 70
     0
  9
$CMLSCALE
 40
1.0
  9
$PROXYGRAPHICS
 70
     1
  9
$MEASUREMENT
 70
     0
  9
$CELWEIGHT
370
    -1
  9
$ENDCAPS
280
     0
  9
$JOINSTYLE
280
     0
  9
$LWDISPLAY
290
     1
  9
$INSUNITS
 70
     1
  9
$HYPERLINKBASE
  1

  9
$STYLESHEET
  1

  9
$XEDIT
290
     1
  9
$CEPSNTYPE
380
     0
  9
$PSTYLEMODE
290
     1
  9
$FINGERPRINTGUID
  2
{139753E1-393E-391F-5FE6-35265A4FAC23}
  9
$VERSIONGUID
  2
{FAEB1C32-E019-11D5-929B-00C0DF256EC4}
  9
$EXTNAMES
290
     1
  9
$PSVPSCALE
 40
0.0
  9
$OLESTARTUP
290
     0
  9
$SORTENTS
280
   127
  9
$INDEXCTL
280
     0
  9
$HIDETEXT
280
     1
  9
$XCLIPFRAME
280
     2
  9
$HALOGAP
280
     0
  9
$OBSCOLOR
 70
   257
  9
$OBSLTYPE
280
     0
  9
$INTERSECTIONDISPLAY
280
     0
  9
$INTERSECTIONCOLOR
 70
   257
  9
$DIMASSOC
280
     2
  9
$PROJECTNAME
  1

  9
$CAMERADISPLAY
290
     0
  9
$LENSLENGTH
 40
50.0
  9
$CAMERAHEIGHT
 40
0.0
  9
$STEPSPERSEC
 40
2.0
  9
$STEPSIZE
 40
6.0
  9
$3DDWFPREC
 40
2.0
  9
$PSOLWIDTH
 40
0.25
  9
$PSOLHEIGHT
 40
4.0
  9
$LOFTANG1
 40
1.570796326794897
  9
$LOFTANG2
 40
1.570796326794897
  9
$LOFTMAG1
 40
0.0
  9
$LOFTMAG2
 40
0.0
  9
$LOFTPARAM
 70
     7
  9
$LOFTNORMALS
280
     1
  9
$LATITUDE
 40
37.795
  9
$LONGITUDE
 40
-122.394
  9
$NORTHDIRECTION
 40
0.0
  9
$TIMEZONE
 70
 -8000
  9
$LIGHTGLYPHDISPLAY
280
     1
  9
$TILEMODELIGHTSYNCH
280
     1
  9
$CMATERIAL
347
3C
  9
$SOLIDHIST
280
     1
  9
$SHOWHIST
280
     1
  9
$DWFFRAME
280
     2
  9
$DGNFRAME
280
     2
  9
$REALWORLDSCALE
290
     1
  9
$INTERFERECOLOR
 62
   256
  9
$CSHADOW
280
     0
  9
$SHADOWPLANELOCATION
 40
0.0
  0
ENDSEC
  0
SECTION
  2
CLASSES
  0
CLASS
  1
ACDBDICTIONARYWDFLT
  2
AcDbDictionaryWithDefault
  3
ObjectDBX Classes
 90
        0
 91
        4
280
     0
281
     0
  0
CLASS
  1
VISUALSTYLE
  2
AcDbVisualStyle
  3
ObjectDBX Classes
 90
     4095
 91
        4
280
     0
281
     0
  0
CLASS
  1
MATERIAL
  2
AcDbMaterial
  3
ObjectDBX Classes
 90
     1153
 91
        4
280
     0
281
     0
  0
CLASS
  1
SUN
  2
AcDbSun
  3
SCENEOE
 90
     1024
 91
        4
280
     0
281
     0
  0
ENDSEC
  0
SECTION
  2
TABLES
  0
TABLE
  2
VPORT
  5
8
330
0
100
AcDbSymbolTable
 70
     1
  0
VPORT
  5
29
330
8
100
AcDbSymbolTableRecord
100
AcDbViewportTableRecord
  2
*Active
 70
     0
 10
0.0
 20
0.0
 11
1.0
 21
1.0
 12
0.0
 22
0.0
 13
0.0
 23
0.0
 14
0.5
 24
0.5
 15
0.5
 25
0.5
 16
0.0
 26
0.0
 36
1.0
 17
91.00082462281999
 27
-128.4993055234307
 37
0.0
 40
256.9986110468615
 41
0.7081814508812795
 42
50.0
 43
0.0
 44
0.0
 50
0.0
 51
0.0
 71
     0
 72
   100
 73
     1
 74
     3
 75
     0
 76
     0
 77
     0
 78
     0
281
     0
 65
     1
110
0.0
120
0.0
130
0.0
111
1.0
121
0.0
131
0.0
112
0.0
122
1.0
132
0.0
 79
     0
146
0.0
 60
     3
 61
     5
292
     1
282
     1
141
0.0
142
0.0
 63
   250
361
3F
  0
ENDTAB
  0
TABLE
  2
LTYPE
  5
5
330
0
100
AcDbSymbolTable
 70
     1
  0
LTYPE
  5
14
330
5
100
AcDbSymbolTableRecord
100
AcDbLinetypeTableRecord
  2
ByBlock
 70
     0
  3

 72
    65
 73
     0
 40
0.0
  0
LTYPE
  5
15
330
5
100
AcDbSymbolTableRecord
100
AcDbLinetypeTableRecord
  2
ByLayer
 70
     0
  3

 72
    65
 73
     0
 40
0.0
  0
LTYPE
  5
16
330
5
100
AcDbSymbolTableRecord
100
AcDbLinetypeTableRecord
  2
Continuous
 70
     0
  3
Solid line
 72
    65
 73
     0
 40
0.0
  0
ENDTAB
  0
TABLE
  2
LAYER
  5
2
330
0
100
AcDbSymbolTable
 70
     2
  0
LAYER
  5
10
330
2
100
AcDbSymbolTableRecord
100
AcDbLayerTableRecord
  2
0
 70
     0
 62
     7
  6
Continuous
370
    -3
390
F
347
3E
  0
LAYER
  5
40
330
2
100
AcDbSymbolTableRecord
100
AcDbLayerTableRecord
  2
_U+30EC_U+30A4_U+30E4_U+30FC 1
 70
     0
 62
     7
  6
Continuous
370
    -3
390
F
347
3E
  0
ENDTAB
  0
TABLE
  2
STYLE
  5
3
330
0
100
AcDbSymbolTable
 70
     1
  0
STYLE
  5
11
330
3
100
AcDbSymbolTableRecord
100
AcDbTextStyleTableRecord
  2
Standard
 70
     0
 40
0.0
 41
1.0
 50
0.0
 71
     0
 42
0.2
  3
txt
  4

  0
ENDTAB
  0
TABLE
  2
VIEW
  5
6
330
0
100
AcDbSymbolTable
 70
     0
  0
ENDTAB
  0
TABLE
  2
UCS
  5
7
330
0
100
AcDbSymbolTable
 70
     0
  0
ENDTAB
  0
TABLE
  2
APPID
  5
9
330
0
100
AcDbSymbolTable
 70
     1
  0
APPID
  5
12
330
9
100
AcDbSymbolTableRecord
100
AcDbRegAppTableRecord
  2
ACAD
 70
     0
  0
ENDTAB
  0
TABLE
  2
DIMSTYLE
  5
A
330
0
100
AcDbSymbolTable
 70
     1
100
AcDbDimStyleTable
  0
DIMSTYLE
105
27
330
A
100
AcDbSymbolTableRecord
100
AcDbDimStyleTableRecord
  2
Standard
 70
     0
178
     0
340
11
  0
ENDTAB
  0
TABLE
  2
BLOCK_RECORD
  5
1
330
0
100
AcDbSymbolTable
 70
     6
  0
BLOCK_RECORD
  5
1F
330
1
100
AcDbSymbolTableRecord
100
AcDbBlockTableRecord
  2
*Model_Space
340
22
 70
     0
280
     1
281
     0
  0
BLOCK_RECORD
  5
1B
330
1
100
AcDbSymbolTableRecord
100
AcDbBlockTableRecord
  2
*Paper_Space
340
1E
 70
     0
280
     1
281
     0
  0
BLOCK_RECORD
  5
23
330
1
100
AcDbSymbolTableRecord
100
AcDbBlockTableRecord
  2
*Paper_Space0
340
26
 70
     0
280
     1
281
     0
  0
BLOCK_RECORD
  5
51
330
1
100
AcDbSymbolTableRecord
100
AcDbBlockTableRecord
  2
block 2
340
0
102
{BLKREFS
331
52
102
}
 70
     0
280
     1
281
     0
  0
BLOCK_RECORD
  5
79
330
1
100
AcDbSymbolTableRecord
100
AcDbBlockTableRecord
  2
block 3
340
0
102
{BLKREFS
331
7A
102
}
 70
     0
280
     1
281
     0
  0
BLOCK_RECORD
  5
9C
330
1
100
AcDbSymbolTableRecord
100
AcDbBlockTableRecord
  2
block 4
340
0
102
{BLKREFS
331
9D
102
}
 70
     0
280
     1
281
     0
  0
BLOCK_RECORD
  5
AC
330
1
100
AcDbSymbolTableRecord
100
AcDbBlockTableRecord
  2
block 5
340
0
102
{BLKREFS
331
AD
102
}
 70
     0
280
     1
281
     0
  0
BLOCK_RECORD
  5
B4
330
1
100
AcDbSymbolTableRecord
100
AcDbBlockTableRecord
  2
block 6
340
0
102
{BLKREFS
331
B5
102
}
 70
     0
280
     1
281
     0
  0
ENDTAB
  0
ENDSEC
  0
SECTION
  2
BLOCKS
  0
BLOCK
  5
20
330
1F
100
AcDbEntity
  8
0
100
AcDbBlockBegin
  2
*Model_Space
 70
     0
 10
0.0
 20
0.0
 30
0.0
  3
*Model_Space
  1

  0
ENDBLK
  5
21
330
1F
100
AcDbEntity
  8
0
100
AcDbBlockEnd
  0
BLOCK
  5
1C
330
1B
100
AcDbEntity
 67
     1
  8
0
100
AcDbBlockBegin
  2
*Paper_Space
 70
     0
 10
0.0
 20
0.0
 30
0.0
  3
*Paper_Space
  1

  0
ENDBLK
  5
1D
330
1B
100
AcDbEntity
 67
     1
  8
0
100
AcDbBlockEnd
  0
BLOCK
  5
24
330
23
100
AcDbEntity
  8
0
100
AcDbBlockBegin
  2
*Paper_Space0
 70
     0
 10
0.0
 20
0.0
 30
0.0
  3
*Paper_Space0
  1

  0
ENDBLK
  5
25
330
23
100
AcDbEntity
  8
0
100
AcDbBlockEnd
  0
BLOCK
  5
53
330
51
100
AcDbEntity
  8
0
100
AcDbBlockBegin
  2
block 2
 70
     0
 10
0.0
 20
0.0
 30
0.0
  3
block 2
  1

  0
POLYLINE
  5
55
330
51
100
AcDbEntity
  8
_U+30EC_U+30A4_U+30E4_U+30FC 1
370
     0
100
AcDb2dPolyline
 66
     1
 10
0.0
 20
0.0
 30
0.0
  0
VERTEX
  5
56
330
55
100
AcDbEntity
  8
_U+30EC_U+30A4_U+30E4_U+30FC 1
370
     0
100
AcDbVertex
100
AcDb2dVertex
 10
87.50060219166652
 20
-140.0810275257437
 30
0.0
  0
VERTEX
  5
57
330
55
100
AcDbEntity
  8
_U+30EC_U+30A4_U+30E4_U+30FC 1
370
     0
100
AcDbVertex
100
AcDb2dVertex
 10
87.50060219166652
 20
-140.4279486411083
 30
0.0
  0
VERTEX
  5
58
330
55
100
AcDbEntity
  8
_U+30EC_U+30A4_U+30E4_U+30FC 1
370
     0
100
AcDbVertex
100
AcDb2dVertex
 10
87.28287215699874
 20
-140.4279486411083
 30
0.0
  0
VERTEX
  5
59
330
55
100
AcDbEntity
  8
_U+30EC_U+30A4_U+30E4_U+30FC 1
370
     0
100
AcDbVertex
100
AcDb2dVertex
 10
87.28287215699874
 20
-140.0810275257437
 30
0.0
  0
VERTEX
  5
5A
330
55
100
AcDbEntity
  8
_U+30EC_U+30A4_U+30E4_U+30FC 1
370
     0
100
AcDbVertex
100
AcDb2dVertex
 10
86.62692597660717
 20
-140.0810275257437
 30
0.0
  0
VERTEX
  5
5B
330
55
100
AcDbEntity
  8
_U+30EC_U+30A4_U+30E4_U+30FC 1
370
     0
100
AcDbVertex
100
AcDb2dVertex
 10
86.62692597660717
 20
-139.8567518096539
 30
0.0
  0
VERTEX
  5
5C
330
55
100
AcDbEntity
  8
_U+30EC_U+30A4_U+30E4_U+30FC 1
370
     0
100
AcDbVertex
100
AcDb2dVertex
 10
87.3059542967499
 20
-138.8835123350708
 30
0.0
  0
VERTEX
  5
5D
330
55
100
AcDbEntity
  8
_U+30EC_U+30A4_U+30E4_U+30FC 1
370
     0
100
AcDbVertex
100
AcDb2dVertex
 10
87.50060219166652
 20
-138.8835123350708
 30
0.0
  0
VERTEX
  5
5E
330
55
100
AcDbEntity
  8
_U+30EC_U+30A4_U+30E4_U+30FC 1
370
     0
100
AcDbVertex
100
AcDb2dVertex
 10
87.50060219166652
 20
-139.8822455162447
 30
0.0
  0
VERTEX
  5
5F
330
55
100
AcDbEntity
  8
_U+30EC_U+30A4_U+30E4_U+30FC 1
370
     0
100
AcDbVertex
100
AcDb2dVertex
 10
87.70799693987856
 20
-139.8822455162447
 30
0.0
  0
VERTEX
  5
60
330
55
100
AcDbEntity
  8
_U+30EC_U+30A4_U+30E4_U+30FC 1
370
     0
100
AcDbVertex
100
AcDb2dVertex
 10
87.70799693987856
 20
-140.0810275257437
 30
0.0
  0
VERTEX
  5
61
330
55
100
AcDbEntity
  8
_U+30EC_U+30A4_U+30E4_U+30FC 1
370
     0
100
AcDbVertex
100
AcDb2dVertex
 10
87.50060219166652
 20
-140.0810275257437
 30
0.0
  0
SEQEND
  5
62
330
55
100
AcDbEntity
  8
_U+30EC_U+30A4_U+30E4_U+30FC 1
370
     0
  0
POLYLINE
  5
63
330
51
100
AcDbEntity
  8
_U+30EC_U+30A4_U+30E4_U+30FC 1
370
     0
100
AcDb2dPolyline
 66
     1
 10
0.0
 20
0.0
 30
0.0
  0
VERTEX
  5
64
330
63
100
AcDbEntity
  8
_U+30EC_U+30A4_U+30E4_U+30FC 1
370
     0
100
AcDbVertex
100
AcDb2dVertex
 10
87.28287215699874
 20
-139.2262993358532
 30
0.0
  0
VERTEX
  5
65
330
63
100
AcDbEntity
  8
_U+30EC_U+30A4_U+30E4_U+30FC 1
370
     0
100
AcDbVertex
100
AcDb2dVertex
 10
86.82570798610608
 20
-139.8822455162447
 30
0.0
  0
VERTEX
  5
66
330
63
100
AcDbEntity
  8
_U+30EC_U+30A4_U+30E4_U+30FC 1
370
     0
100
AcDbVertex
100
AcDb2dVertex
 10
87.28287215699874
 20
-139.8822455162447
 30
0.0
  0
VERTEX
  5
67
330
63
100
AcDbEntity
  8
_U+30EC_U+30A4_U+30E4_U+30FC 1
370
     0
100
AcDbVertex
100
AcDb2dVertex
 10
87.28287215699874
 20
-139.2262993358532
 30
0.0
  0
SEQEND
  5
68
330
63
100
AcDbEntity
  8
_U+30EC_U+30A4_U+30E4_U+30FC 1
370
     0
  0
HATCH
  5
69
330
51
100
AcDbEntity
  8
_U+30EC_U+30A4_U+30E4_U+30FC 1
 62
   179
420
  2234388
100
AcDbHatch
 10
0.0
 20
0.0
 30
0.0
210
0.0
220
0.0
230
1.0
  2
SOLID
 70
     1
 71
     0
 91
        2
 92
        1
 93
       11
 72
     1
 10
87.50060219166652
 20
-140.0810275257437
 11
87.50060219166652
 21
-140.4279486411083
 72
     1
 10
87.50060219166652
 20
-140.4279486411083
 11
87.28287215699874
 21
-140.4279486411083
 72
     1
 10
87.28287215699874
 20
-140.4279486411083
 11
87.28287215699874
 21
-140.0810275257437
 72
     1
 10
87.28287215699874
 20
-140.0810275257437
 11
86.62692597660717
 21
-140.0810275257437
 72
     1
 10
86.62692597660717
 20
-140.0810275257437
 11
86.62692597660717
 21
-139.8567518096539
 72
     1
 10
86.62692597660717
 20
-139.8567518096539
 11
87.3059542967499
 21
-138.8835123350708
 72
     1
 10
87.3059542967499
 20
-138.8835123350708
 11
87.50060219166652
 21
-138.8835123350708
 72
     1
 10
87.50060219166652
 20
-138.8835123350708
 11
87.50060219166652
 21
-139.8822455162447
 72
     1
 10
87.50060219166652
 20
-139.8822455162447
 11
87.70799693987856
 21
-139.8822455162447
 72
     1
 10
87.70799693987856
 20
-139.8822455162447
 11
87.70799693987856
 21
-140.0810275257437
 72
     1
 10
87.70799693987856
 20
-140.0810275257437
 11
87.50060219166652
 21
-140.0810275257437
 97
        0
 92
        1
 93
        3
 72
     1
 10
87.28287215699874
 20
-139.2262993358532
 11
86.82570798610608
 21
-139.8822455162447
 72
     1
 10
86.82570798610608
 20
-139.8822455162447
 11
87.28287215699874
 21
-139.8822455162447
 72
     1
 10
87.28287215699874
 20
-139.8822455162447
 11
87.28287215699874
 21
-139.2262993358532
 97
        0
 75
     2
 76
     1
 98
        0
  0
SPLINE
  5
6A
330
51
100
AcDbEntity
  8
_U+30EC_U+30A4_U+30E4_U+30FC 1
370
     0
100
AcDbSpline
210
0.0
220
0.0
230
1.0
 70
    11
 71
     3
 72
    29
 73
    25
 74
     0
 42
0.0000000001
 43
0.0000000001
 12
1.0
 22
0.0
 32
0.0
 13
1.0
 23
0.0
 33
0.0
 40
0.0
 40
0.0
 40
0.0
 40
0.0
 40
1.0
 40
1.0
 40
1.0
 40
2.0
 40
2.0
 40
2.0
 40
3.0
 40
3.0
 40
3.0
 40
4.0
 40
4.0
 40
4.0
 40
5.0
 40
5.0
 40
5.0
 40
6.0
 40
6.0
 40
6.0
 40
7.0
 40
7.0
 40
7.0
 40
8.0
 40
8.0
 40
8.0
 40
8.0
 10
88.74324813319613
 20
-140.2501817140694
 30
0.0
 10
88.63507213495929
 20
-140.4596435195726
 30
0.0
 10
88.46178383205122
 20
-140.4785915447415
 30
0.0
 10
88.34533960464978
 20
-140.4785915447415
 30
0.0
 10
88.18445364548862
 20
-140.4785915447415
 30
0.0
 10
88.04286022104485
 20
-140.4320827556906
 30
0.0
 10
87.94777558565195
 20
-140.2501817140694
 30
0.0
 10
87.84407821154593
 20
-140.0555338191528
 30
0.0
 10
87.82513018637705
 20
-139.8185112497676
 30
0.0
 10
87.82513018637705
 20
-139.6559027428638
 30
0.0
 10
87.82513018637705
 20
-139.5118977515804
 30
0.0
 10
87.84201115425478
 20
-139.2600612716086
 30
0.0
 10
87.94777558565195
 20
-139.0612792621097
 30
0.0
 10
88.05560707434027
 20
-138.8583631380285
 30
0.0
 10
88.21649303350144
 20
-138.8349364887288
 30
0.0
 10
88.34533960464978
 20
-138.8349364887288
 30
0.0
 10
88.5041585065198
 20
-138.8349364887288
 30
0.0
 10
88.64781898825471
 20
-138.8793782204885
 30
0.0
 10
88.74324813319613
 20
-139.0612792621097
 30
0.0
 10
88.84246688317133
 20
-139.2538600997352
 30
0.0
 10
88.86589353247103
 20
-139.4822699304072
 30
0.0
 10
88.86589353247103
 20
-139.6559027428638
 30
0.0
 10
88.86589353247103
 20
-139.8271239884807
 30
0.0
 10
88.84453394046248
 20
-140.0576008764439
 30
0.0
 10
88.74324813319613
 20
-140.2501817140694
 30
0.0
  0
SPLINE
  5
6B
330
51
100
AcDbEntity
  8
_U+30EC_U+30A4_U+30E4_U+30FC 1
370
     0
100
AcDbSpline
210
0.0
220
0.0
230
1.0
 70
    11
 71
     3
 72
    17
 73
    13
 74
     0
 42
0.0000000001
 43
0.0000000001
 12
1.0
 22
0.0
 32
0.0
 13
1.0
 23
0.0
 33
0.0
 40
0.0
 40
0.0
 40
0.0
 40
0.0
 40
1.0
 40
1.0
 40
1.0
 40
2.0
 40
2.0
 40
2.0
 40
3.0
 40
3.0
 40
3.0
 40
4.0
 40
4.0
 40
4.0
 40
4.0
 10
88.34533960464978
 20
-139.0275173263542
 30
0.0
 10
88.09591469151769
 20
-139.0275173263542
 30
0.0
 10
88.04906139291829
 20
-139.3110486847903
 30
0.0
 10
88.04906139291829
 20
-139.6559027428638
 30
0.0
 10
88.04906139291829
 20
-139.9752630943465
 30
0.0
 10
88.08523489551342
 20
-140.2839436498249
 30
0.0
 10
88.34533960464978
 20
-140.2839436498249
 30
0.0
 10
88.59304197003924
 20
-140.2839436498249
 30
0.0
 10
88.64161781638127
 20
-140.0028238582285
 30
0.0
 10
88.64161781638127
 20
-139.6559027428638
 30
0.0
 10
88.64161781638127
 20
-139.3361978818326
 30
0.0
 10
88.603377256495
 20
-139.0275173263542
 30
0.0
 10
88.34533960464978
 20
-139.0275173263542
 30
0.0
  0
HATCH
  5
6C
330
51
100
AcDbEntity
  8
_U+30EC_U+30A4_U+30E4_U+30FC 1
 62
   179
420
  2234388
100
AcDbHatch
 10
0.0
 20
0.0
 30
0.0
210
0.0
220
0.0
230
1.0
  2
SOLID
 70
     1
 71
     0
 91
        2
 92
        1
 93
        1
 72
     4
 94
        3
 73
     0
 74
     1
 95
       29
 96
       25
 40
0.0
 40
0.0
 40
0.0
 40
0.0
 40
1.0
 40
1.0
 40
1.0
 40
2.0
 40
2.0
 40
2.0
 40
3.0
 40
3.0
 40
3.0
 40
4.0
 40
4.0
 40
4.0
 40
5.0
 40
5.0
 40
5.0
 40
6.0
 40
6.0
 40
6.0
 40
7.0
 40
7.0
 40
7.0
 40
8.0
 40
8.0
 40
8.0
 40
8.0
 10
88.74324813319613
 20
-140.2501817140694
 10
88.63507213495929
 20
-140.4596435195726
 10
88.46178383205122
 20
-140.4785915447415
 10
88.34533960464978
 20
-140.4785915447415
 10
88.18445364548862
 20
-140.4785915447415
 10
88.04286022104485
 20
-140.4320827556906
 10
87.94777558565195
 20
-140.2501817140694
 10
87.84407821154593
 20
-140.0555338191528
 10
87.82513018637705
 20
-139.8185112497676
 10
87.82513018637705
 20
-139.6559027428638
 10
87.82513018637705
 20
-139.5118977515804
 10
87.84201115425478
 20
-139.2600612716086
 10
87.94777558565195
 20
-139.0612792621097
 10
88.05560707434027
 20
-138.8583631380285
 10
88.21649303350144
 20
-138.8349364887288
 10
88.34533960464978
 20
-138.8349364887288
 10
88.5041585065198
 20
-138.8349364887288
 10
88.64781898825471
 20
-138.8793782204885
 10
88.74324813319613
 20
-139.0612792621097
 10
88.84246688317133
 20
-139.2538600997352
 10
88.86589353247103
 20
-139.4822699304072
 10
88.86589353247103
 20
-139.6559027428638
 10
88.86589353247103
 20
-139.8271239884807
 10
88.84453394046248
 20
-140.0576008764439
 10
88.74324813319613
 20
-140.2501817140694
 97
        0
 97
        0
 92
        1
 93
        1
 72
     4
 94
        3
 73
     0
 74
     1
 95
       17
 96
       13
 40
0.0
 40
0.0
 40
0.0
 40
0.0
 40
1.0
 40
1.0
 40
1.0
 40
2.0
 40
2.0
 40
2.0
 40
3.0
 40
3.0
 40
3.0
 40
4.0
 40
4.0
 40
4.0
 40
4.0
 10
88.34533960464978
 20
-139.0275173263542
 10
88.09591469151769
 20
-139.0275173263542
 10
88.04906139291829
 20
-139.3110486847903
 10
88.04906139291829
 20
-139.6559027428638
 10
88.04906139291829
 20
-139.9752630943465
 10
88.08523489551342
 20
-140.2839436498249
 10
88.34533960464978
 20
-140.2839436498249
 10
88.59304197003924
 20
-140.2839436498249
 10
88.64161781638127
 20
-140.0028238582285
 10
88.64161781638127
 20
-139.6559027428638
 10
88.64161781638127
 20
-139.3361978818326
 10
88.603377256495
 20
-139.0275173263542
 10
88.34533960464978
 20
-139.0275173263542
 97
        0
 97
        0
 75
     2
 76
     1
 98
        0
  0
ENDBLK
  5
54
330
51
100
AcDbEntity
  8
0
100
AcDbBlockEnd
  0
BLOCK
  5
7B
330
79
100
AcDbEntity
  8
0
100
AcDbBlockBegin
  2
block 3
 70
     0
 10
0.0
 20
0.0
 30
0.0
  3
block 3
  1

  0
SPLINE
  5
7D
330
79
100
AcDbEntity
  8
_U+30EC_U+30A4_U+30E4_U+30FC 1
370
     0
100
AcDbSpline
210
0.0
220
0.0
230
1.0
 70
    11
 71
     3
 72
    44
 73
    40
 74
     0
 42
0.0000000001
 43
0.0000000001
 12
1.0
 22
0.0
 32
0.0
 13
1.0
 23
0.0
 33
0.0
 40
0.0
 40
0.0
 40
0.0
 40
0.0
 40
1.0
 40
1.0
 40
1.0
 40
2.0
 40
2.0
 40
2.0
 40
3.0
 40
3.0
 40
3.0
 40
4.0
 40
4.0
 40
4.0
 40
5.0
 40
5.0
 40
5.0
 40
6.0
 40
6.0
 40
6.0
 40
7.0
 40
7.0
 40
7.0
 40
8.0
 40
8.0
 40
8.0
 40
9.0
 40
9.0
 40
9.0
 40
10.0
 40
10.0
 40
10.0
 40
11.0
 40
11.0
 40
11.0
 40
12.0
 40
12.0
 40
12.0
 40
13.0
 40
13.0
 40
13.0
 40
13.0
 10
87.31198321384909
 20
-116.2860975186715
 30
0.0
 10
87.09425317918131
 20
-116.4449164205416
 30
0.0
 10
87.00123560107956
 20
-116.5189859734744
 30
0.0
 10
86.95231524518901
 20
-116.6626464552093
 30
0.0
 10
86.95231524518901
 20
-116.6626464552093
 30
0.0
 10
87.73090682485547
 20
-116.6626464552093
 30
0.0
 10
87.73090682485547
 20
-116.6626464552093
 30
0.0
 10
87.73090682485547
 20
-116.6626464552093
 30
0.0
 10
87.73090682485547
 20
-116.8679741461302
 30
0.0
 10
87.73090682485547
 20
-116.8679741461302
 30
0.0
 10
87.73090682485547
 20
-116.8679741461302
 30
0.0
 10
86.70289033205692
 20
-116.8679741461302
 30
0.0
 10
86.70289033205692
 20
-116.8679741461302
 30
0.0
 10
86.73458521052122
 20
-116.5103732347613
 30
0.0
 10
86.80004202474096
 20
-116.4321695672461
 30
0.0
 10
87.1852036999919
 20
-116.1338242982235
 30
0.0
 10
87.44117429454596
 20
-115.9350422887246
 30
0.0
 10
87.5066311087657
 20
-115.8671739076652
 30
0.0
 10
87.5066311087657
 20
-115.7297145978037
 30
0.0
 10
87.5066311087657
 20
-115.6112033131111
 30
0.0
 10
87.43462861312399
 20
-115.4802896846716
 30
0.0
 10
87.23791366091622
 20
-115.4802896846716
 30
0.0
 10
86.97780895177986
 20
-115.4802896846716
 30
0.0
 10
86.96954072261526
 20
-115.7107665726348
 30
0.0
 10
86.96506209848444
 20
-115.8272108000363
 30
0.0
 10
86.96506209848444
 20
-115.8272108000363
 30
0.0
 10
86.74078638239467
 20
-115.8272108000363
 30
0.0
 10
86.74078638239467
 20
-115.8272108000363
 30
0.0
 10
86.7493991211078
 20
-115.7000867766305
 30
0.0
 10
86.76007891711207
 20
-115.5881211733599
 30
0.0
 10
86.8403496419184
 20
-115.4696098886673
 30
0.0
 10
86.95024818789786
 20
-115.3087239295062
 30
0.0
 10
87.13662785364987
 20
-115.2749619937507
 30
0.0
 10
87.25272757150279
 20
-115.2749619937507
 30
0.0
 10
87.53005775806541
 20
-115.2749619937507
 30
0.0
 10
87.73745250627745
 20
-115.4589300926631
 30
0.0
 10
87.73745250627745
 20
-115.7317816550948
 30
0.0
 10
87.73745250627745
 20
-115.9605359953154
 30
0.0
 10
87.621008278876
 20
-116.0597547452906
 30
0.0
 10
87.31198321384909
 20
-116.2860975186715
 30
0.0
  0
HATCH
  5
7E
330
79
100
AcDbEntity
  8
_U+30EC_U+30A4_U+30E4_U+30FC 1
 62
   179
420
  2234388
100
AcDbHatch
 10
0.0
 20
0.0
 30
0.0
210
0.0
220
0.0
230
1.0
  2
SOLID
 70
     1
 71
     0
 91
        1
 92
        1
 93
        1
 72
     4
 94
        3
 73
     0
 74
     1
 95
       44
 96
       40
 40
0.0
 40
0.0
 40
0.0
 40
0.0
 40
1.0
 40
1.0
 40
1.0
 40
2.0
 40
2.0
 40
2.0
 40
3.0
 40
3.0
 40
3.0
 40
4.0
 40
4.0
 40
4.0
 40
5.0
 40
5.0
 40
5.0
 40
6.0
 40
6.0
 40
6.0
 40
7.0
 40
7.0
 40
7.0
 40
8.0
 40
8.0
 40
8.0
 40
9.0
 40
9.0
 40
9.0
 40
10.0
 40
10.0
 40
10.0
 40
11.0
 40
11.0
 40
11.0
 40
12.0
 40
12.0
 40
12.0
 40
13.0
 40
13.0
 40
13.0
 40
13.0
 10
87.31198321384909
 20
-116.2860975186715
 10
87.09425317918131
 20
-116.4449164205416
 10
87.00123560107956
 20
-116.5189859734744
 10
86.95231524518901
 20
-116.6626464552093
 10
86.95231524518901
 20
-116.6626464552093
 10
87.73090682485547
 20
-116.6626464552093
 10
87.73090682485547
 20
-116.6626464552093
 10
87.73090682485547
 20
-116.6626464552093
 10
87.73090682485547
 20
-116.8679741461302
 10
87.73090682485547
 20
-116.8679741461302
 10
87.73090682485547
 20
-116.8679741461302
 10
86.70289033205692
 20
-116.8679741461302
 10
86.70289033205692
 20
-116.8679741461302
 10
86.73458521052122
 20
-116.5103732347613
 10
86.80004202474096
 20
-116.4321695672461
 10
87.1852036999919
 20
-116.1338242982235
 10
87.44117429454596
 20
-115.9350422887246
 10
87.5066311087657
 20
-115.8671739076652
 10
87.5066311087657
 20
-115.7297145978037
 10
87.5066311087657
 20
-115.6112033131111
 10
87.43462861312399
 20
-115.4802896846716
 10
87.23791366091622
 20
-115.4802896846716
 10
86.97780895177986
 20
-115.4802896846716
 10
86.96954072261526
 20
-115.7107665726348
 10
86.96506209848444
 20
-115.8272108000363
 10
86.96506209848444
 20
-115.8272108000363
 10
86.74078638239467
 20
-115.8272108000363
 10
86.74078638239467
 20
-115.8272108000363
 10
86.7493991211078
 20
-115.7000867766305
 10
86.76007891711207
 20
-115.5881211733599
 10
86.8403496419184
 20
-115.4696098886673
 10
86.95024818789786
 20
-115.3087239295062
 10
87.13662785364987
 20
-115.2749619937507
 10
87.25272757150279
 20
-115.2749619937507
 10
87.53005775806541
 20
-115.2749619937507
 10
87.73745250627745
 20
-115.4589300926631
 10
87.73745250627745
 20
-115.7317816550948
 10
87.73745250627745
 20
-115.9605359953154
 10
87.621008278876
 20
-116.0597547452906
 10
87.31198321384909
 20
-116.2860975186715
 97
        0
 97
        0
 75
     2
 76
     1
 98
        0
  0
SPLINE
  5
7F
330
79
100
AcDbEntity
  8
_U+30EC_U+30A4_U+30E4_U+30FC 1
370
     0
100
AcDbSpline
210
0.0
220
0.0
230
1.0
 70
    11
 71
     3
 72
    29
 73
    25
 74
     0
 42
0.0000000001
 43
0.0000000001
 12
1.0
 22
0.0
 32
0.0
 13
1.0
 23
0.0
 33
0.0
 40
0.0
 40
0.0
 40
0.0
 40
0.0
 40
1.0
 40
1.0
 40
1.0
 40
2.0
 40
2.0
 40
2.0
 40
3.0
 40
3.0
 40
3.0
 40
4.0
 40
4.0
 40
4.0
 40
5.0
 40
5.0
 40
5.0
 40
6.0
 40
6.0
 40
6.0
 40
7.0
 40
7.0
 40
7.0
 40
8.0
 40
8.0
 40
8.0
 40
8.0
 10
88.79371878205505
 20
-116.6902072190913
 30
0.0
 10
88.6855427838182
 20
-116.8996690245945
 30
0.0
 10
88.51225448091013
 20
-116.9186170497634
 30
0.0
 10
88.39581025350869
 20
-116.9186170497634
 30
0.0
 10
88.23492429434752
 20
-116.9186170497634
 30
0.0
 10
88.09333086990375
 20
-116.8721082607125
 30
0.0
 10
87.99824623451086
 20
-116.6902072190913
 30
0.0
 10
87.89454886040484
 20
-116.4955593241747
 30
0.0
 10
87.87560083523597
 20
-116.2588812643381
 30
0.0
 10
87.87560083523597
 20
-116.0959282478858
 30
0.0
 10
87.87560083523597
 20
-115.9519232566023
 30
0.0
 10
87.89248180311368
 20
-115.7000867766305
 30
0.0
 10
87.99824623451086
 20
-115.5013047671316
 30
0.0
 10
88.10607772319918
 20
-115.2983886430504
 30
0.0
 10
88.26696368236034
 20
-115.2749619937507
 30
0.0
 10
88.39581025350869
 20
-115.2749619937507
 30
0.0
 10
88.5546291553787
 20
-115.2749619937507
 30
0.0
 10
88.69828963711363
 20
-115.3194037255104
 30
0.0
 10
88.79371878205505
 20
-115.5013047671316
 30
0.0
 10
88.89293753203025
 20
-115.6938856047571
 30
0.0
 10
88.91636418132994
 20
-115.9222954354291
 30
0.0
 10
88.91636418132994
 20
-116.0959282478858
 30
0.0
 10
88.91636418132994
 20
-116.2671494935027
 30
0.0
 10
88.89500458932139
 20
-116.4976263814659
 30
0.0
 10
88.79371878205505
 20
-116.6902072190913
 30
0.0
  0
SPLINE
  5
80
330
79
100
AcDbEntity
  8
_U+30EC_U+30A4_U+30E4_U+30FC 1
370
     0
100
AcDbSpline
210
0.0
220
0.0
230
1.0
 70
    11
 71
     3
 72
    17
 73
    13
 74
     0
 42
0.0000000001
 43
0.0000000001
 12
1.0
 22
0.0
 32
0.0
 13
1.0
 23
0.0
 33
0.0
 40
0.0
 40
0.0
 40
0.0
 40
0.0
 40
1.0
 40
1.0
 40
1.0
 40
2.0
 40
2.0
 40
2.0
 40
3.0
 40
3.0
 40
3.0
 40
4.0
 40
4.0
 40
4.0
 40
4.0
 10
88.39581025350869
 20
-115.4675428313762
 30
0.0
 10
88.1463853403766
 20
-115.4675428313762
 30
0.0
 10
88.09953204177721
 20
-115.7510741898122
 30
0.0
 10
88.09953204177721
 20
-116.0959282478858
 30
0.0
 10
88.09953204177721
 20
-116.4152885993684
 30
0.0
 10
88.13570554437233
 20
-116.7239691548468
 30
0.0
 10
88.39581025350869
 20
-116.7239691548468
 30
0.0
 10
88.64351261889816
 20
-116.7239691548468
 30
0.0
 10
88.69208846524018
 20
-116.4428493632504
 30
0.0
 10
88.69208846524018
 20
-116.0959282478858
 30
0.0
 10
88.69208846524018
 20
-115.7762233868546
 30
0.0
 10
88.6538479053539
 20
-115.4675428313762
 30
0.0
 10
88.39581025350869
 20
-115.4675428313762
 30
0.0
  0
HATCH
  5
81
330
79
100
AcDbEntity
  8
_U+30EC_U+30A4_U+30E4_U+30FC 1
 62
   179
420
  2234388
100
AcDbHatch
 10
0.0
 20
0.0
 30
0.0
210
0.0
220
0.0
230
1.0
  2
SOLID
 70
     1
 71
     0
 91
        2
 92
        1
 93
        1
 72
     4
 94
        3
 73
     0
 74
     1
 95
       29
 96
       25
 40
0.0
 40
0.0
 40
0.0
 40
0.0
 40
1.0
 40
1.0
 40
1.0
 40
2.0
 40
2.0
 40
2.0
 40
3.0
 40
3.0
 40
3.0
 40
4.0
 40
4.0
 40
4.0
 40
5.0
 40
5.0
 40
5.0
 40
6.0
 40
6.0
 40
6.0
 40
7.0
 40
7.0
 40
7.0
 40
8.0
 40
8.0
 40
8.0
 40
8.0
 10
88.79371878205505
 20
-116.6902072190913
 10
88.6855427838182
 20
-116.8996690245945
 10
88.51225448091013
 20
-116.9186170497634
 10
88.39581025350869
 20
-116.9186170497634
 10
88.23492429434752
 20
-116.9186170497634
 10
88.09333086990375
 20
-116.8721082607125
 10
87.99824623451086
 20
-116.6902072190913
 10
87.89454886040484
 20
-116.4955593241747
 10
87.87560083523597
 20
-116.2588812643381
 10
87.87560083523597
 20
-116.0959282478858
 10
87.87560083523597
 20
-115.9519232566023
 10
87.89248180311368
 20
-115.7000867766305
 10
87.99824623451086
 20
-115.5013047671316
 10
88.10607772319918
 20
-115.2983886430504
 10
88.26696368236034
 20
-115.2749619937507
 10
88.39581025350869
 20
-115.2749619937507
 10
88.5546291553787
 20
-115.2749619937507
 10
88.69828963711363
 20
-115.3194037255104
 10
88.79371878205505
 20
-115.5013047671316
 10
88.89293753203025
 20
-115.6938856047571
 10
88.91636418132994
 20
-115.9222954354291
 10
88.91636418132994
 20
-116.0959282478858
 10
88.91636418132994
 20
-116.2671494935027
 10
88.89500458932139
 20
-116.4976263814659
 10
88.79371878205505
 20
-116.6902072190913
 97
        0
 97
        0
 92
        1
 93
        1
 72
     4
 94
        3
 73
     0
 74
     1
 95
       17
 96
       13
 40
0.0
 40
0.0
 40
0.0
 40
0.0
 40
1.0
 40
1.0
 40
1.0
 40
2.0
 40
2.0
 40
2.0
 40
3.0
 40
3.0
 40
3.0
 40
4.0
 40
4.0
 40
4.0
 40
4.0
 10
88.39581025350869
 20
-115.4675428313762
 10
88.1463853403766
 20
-115.4675428313762
 10
88.09953204177721
 20
-115.7510741898122
 10
88.09953204177721
 20
-116.0959282478858
 10
88.09953204177721
 20
-116.4152885993684
 10
88.13570554437233
 20
-116.7239691548468
 10
88.39581025350869
 20
-116.7239691548468
 10
88.64351261889816
 20
-116.7239691548468
 10
88.69208846524018
 20
-116.4428493632504
 10
88.69208846524018
 20
-116.0959282478858
 10
88.69208846524018
 20
-115.7762233868546
 10
88.6538479053539
 20
-115.4675428313762
 10
88.39581025350869
 20
-115.4675428313762
 97
        0
 97
        0
 75
     2
 76
     1
 98
        0
  0
ENDBLK
  5
7C
330
79
100
AcDbEntity
  8
0
100
AcDbBlockEnd
  0
BLOCK
  5
9E
330
9C
100
AcDbEntity
  8
0
100
AcDbBlockBegin
  2
block 4
 70
     0
 10
0.0
 20
0.0
 30
0.0
  3
block 4
  1

  0
SPLINE
  5
A0
330
9C
100
AcDbEntity
  8
_U+30EC_U+30A4_U+30E4_U+30FC 1
370
     0
100
AcDbSpline
210
0.0
220
0.0
230
1.0
 70
    11
 71
     3
 72
    26
 73
    22
 74
     0
 42
0.0000000001
 43
0.0000000001
 12
1.0
 22
0.0
 32
0.0
 13
1.0
 23
0.0
 33
0.0
 40
0.0
 40
0.0
 40
0.0
 40
0.0
 40
1.0
 40
1.0
 40
1.0
 40
2.0
 40
2.0
 40
2.0
 40
3.0
 40
3.0
 40
3.0
 40
4.0
 40
4.0
 40
4.0
 40
5.0
 40
5.0
 40
5.0
 40
6.0
 40
6.0
 40
6.0
 40
7.0
 40
7.0
 40
7.0
 40
7.0
 10
113.6127034221177
 20
-137.6667046096806
 30
0.0
 10
113.6127034221177
 20
-137.6667046096806
 30
0.0
 10
112.5085503190951
 20
-137.6667046096806
 30
0.0
 10
112.5085503190951
 20
-137.6667046096806
 30
0.0
 10
112.5085503190951
 20
-137.6667046096806
 30
0.0
 10
112.5085503190951
 20
-137.9967447571675
 30
0.0
 10
112.5085503190951
 20
-137.9967447571675
 30
0.0
 10
112.5085503190951
 20
-137.9967447571675
 30
0.0
 10
112.3604112132293
 20
-137.9967447571675
 30
0.0
 10
112.3604112132293
 20
-137.9967447571675
 30
0.0
 10
112.3455973026428
 20
-137.6646375523894
 30
0.0
 10
112.1826442861905
 20
-137.6181287633385
 30
0.0
 10
112.0682671160802
 20
-137.5885009421654
 30
0.0
 10
112.0682671160802
 20
-137.5885009421654
 30
0.0
 10
112.0682671160802
 20
-137.4424288935908
 30
0.0
 10
112.0682671160802
 20
-137.4424288935908
 30
0.0
 10
112.0682671160802
 20
-137.4424288935908
 30
0.0
 10
113.6127034221177
 20
-137.4424288935908
 30
0.0
 10
113.6127034221177
 20
-137.4424288935908
 30
0.0
 10
113.6127034221177
 20
-137.4424288935908
 30
0.0
 10
113.6127034221177
 20
-137.6667046096806
 30
0.0
 10
113.6127034221177
 20
-137.6667046096806
 30
0.0
  0
HATCH
  5
A1
330
9C
100
AcDbEntity
  8
_U+30EC_U+30A4_U+30E4_U+30FC 1
 62
   179
420
  2234388
100
AcDbHatch
 10
0.0
 20
0.0
 30
0.0
210
0.0
220
0.0
230
1.0
  2
SOLID
 70
     1
 71
     0
 91
        1
 92
        1
 93
        1
 72
     4
 94
        3
 73
     0
 74
     1
 95
       26
 96
       22
 40
0.0
 40
0.0
 40
0.0
 40
0.0
 40
1.0
 40
1.0
 40
1.0
 40
2.0
 40
2.0
 40
2.0
 40
3.0
 40
3.0
 40
3.0
 40
4.0
 40
4.0
 40
4.0
 40
5.0
 40
5.0
 40
5.0
 40
6.0
 40
6.0
 40
6.0
 40
7.0
 40
7.0
 40
7.0
 40
7.0
 10
113.6127034221177
 20
-137.6667046096806
 10
113.6127034221177
 20
-137.6667046096806
 10
112.5085503190951
 20
-137.6667046096806
 10
112.5085503190951
 20
-137.6667046096806
 10
112.5085503190951
 20
-137.6667046096806
 10
112.5085503190951
 20
-137.9967447571675
 10
112.5085503190951
 20
-137.9967447571675
 10
112.5085503190951
 20
-137.9967447571675
 10
112.3604112132293
 20
-137.9967447571675
 10
112.3604112132293
 20
-137.9967447571675
 10
112.3455973026428
 20
-137.6646375523894
 10
112.1826442861905
 20
-137.6181287633385
 10
112.0682671160802
 20
-137.5885009421654
 10
112.0682671160802
 20
-137.5885009421654
 10
112.0682671160802
 20
-137.4424288935908
 10
112.0682671160802
 20
-137.4424288935908
 10
112.0682671160802
 20
-137.4424288935908
 10
113.6127034221177
 20
-137.4424288935908
 10
113.6127034221177
 20
-137.4424288935908
 10
113.6127034221177
 20
-137.4424288935908
 10
113.6127034221177
 20
-137.6667046096806
 10
113.6127034221177
 20
-137.6667046096806
 97
        0
 97
        0
 75
     2
 76
     1
 98
        0
  0
POLYLINE
  5
A2
330
9C
100
AcDbEntity
  8
_U+30EC_U+30A4_U+30E4_U+30FC 1
370
     0
100
AcDb2dPolyline
 66
     1
 10
0.0
 20
0.0
 30
0.0
  0
VERTEX
  5
A3
330
A2
100
AcDbEntity
  8
_U+30EC_U+30A4_U+30E4_U+30FC 1
370
     0
100
AcDbVertex
100
AcDb2dVertex
 10
113.6127034221177
 20
-136.8812228390436
 30
0.0
  0
VERTEX
  5
A4
330
A2
100
AcDbEntity
  8
_U+30EC_U+30A4_U+30E4_U+30FC 1
370
     0
100
AcDbVertex
100
AcDb2dVertex
 10
113.3608669421459
 20
-136.8812228390436
 30
0.0
  0
VERTEX
  5
A5
330
A2
100
AcDbEntity
  8
_U+30EC_U+30A4_U+30E4_U+30FC 1
370
     0
100
AcDbVertex
100
AcDb2dVertex
 10
113.3608669421459
 20
-136.6293863590718
 30
0.0
  0
VERTEX
  5
A6
330
A2
100
AcDbEntity
  8
_U+30EC_U+30A4_U+30E4_U+30FC 1
370
     0
100
AcDbVertex
100
AcDb2dVertex
 10
113.6127034221177
 20
-136.6293863590718
 30
0.0
  0
VERTEX
  5
A7
330
A2
100
AcDbEntity
  8
_U+30EC_U+30A4_U+30E4_U+30FC 1
370
     0
100
AcDbVertex
100
AcDb2dVertex
 10
113.6127034221177
 20
-136.8812228390436
 30
0.0
  0
SEQEND
  5
A8
330
A2
100
AcDbEntity
  8
_U+30EC_U+30A4_U+30E4_U+30FC 1
370
     0
  0
HATCH
  5
A9
330
9C
100
AcDbEntity
  8
_U+30EC_U+30A4_U+30E4_U+30FC 1
 62
   179
420
  2234388
100
AcDbHatch
 10
0.0
 20
0.0
 30
0.0
210
0.0
220
0.0
230
1.0
  2
SOLID
 70
     1
 71
     0
 91
        1
 92
        1
 93
        4
 72
     1
 10
113.6127034221177
 20
-136.8812228390436
 11
113.3608669421459
 21
-136.8812228390436
 72
     1
 10
113.3608669421459
 20
-136.8812228390436
 11
113.3608669421459
 21
-136.6293863590718
 72
     1
 10
113.3608669421459
 20
-136.6293863590718
 11
113.6127034221177
 21
-136.6293863590718
 72
     1
 10
113.6127034221177
 20
-136.6293863590718
 11
113.6127034221177
 21
-136.8812228390436
 97
        0
 75
     2
 76
     1
 98
        0
  0
SPLINE
  5
AA
330
9C
100
AcDbEntity
  8
_U+30EC_U+30A4_U+30E4_U+30FC 1
370
     0
100
AcDbSpline
210
0.0
220
0.0
230
1.0
 70
    11
 71
     3
 72
    26
 73
    22
 74
     0
 42
0.0000000001
 43
0.0000000001
 12
1.0
 22
0.0
 32
0.0
 13
1.0
 23
0.0
 33
0.0
 40
0.0
 40
0.0
 40
0.0
 40
0.0
 40
1.0
 40
1.0
 40
1.0
 40
2.0
 40
2.0
 40
2.0
 40
3.0
 40
3.0
 40
3.0
 40
4.0
 40
4.0
 40
4.0
 40
5.0
 40
5.0
 40
5.0
 40
6.0
 40
6.0
 40
6.0
 40
7.0
 40
7.0
 40
7.0
 40
7.0
 10
113.6127034221177
 20
-135.941745300216
 30
0.0
 10
113.6127034221177
 20
-135.941745300216
 30
0.0
 10
112.5085503190951
 20
-135.941745300216
 30
0.0
 10
112.5085503190951
 20
-135.941745300216
 30
0.0
 10
112.5085503190951
 20
-135.941745300216
 30
0.0
 10
112.5085503190951
 20
-136.2717854477029
 30
0.0
 10
112.5085503190951
 20
-136.2717854477029
 30
0.0
 10
112.5085503190951
 20
-136.2717854477029
 30
0.0
 10
112.3604112132293
 20
-136.2717854477029
 30
0.0
 10
112.3604112132293
 20
-136.2717854477029
 30
0.0
 10
112.3455973026428
 20
-135.9396782429248
 30
0.0
 10
112.1826442861905
 20
-135.8931694538739
 30
0.0
 10
112.0682671160802
 20
-135.8635416327008
 30
0.0
 10
112.0682671160802
 20
-135.8635416327008
 30
0.0
 10
112.0682671160802
 20
-135.7174695841262
 30
0.0
 10
112.0682671160802
 20
-135.7174695841262
 30
0.0
 10
112.0682671160802
 20
-135.7174695841262
 30
0.0
 10
113.6127034221177
 20
-135.7174695841262
 30
0.0
 10
113.6127034221177
 20
-135.7174695841262
 30
0.0
 10
113.6127034221177
 20
-135.7174695841262
 30
0.0
 10
113.6127034221177
 20
-135.941745300216
 30
0.0
 10
113.6127034221177
 20
-135.941745300216
 30
0.0
  0
HATCH
  5
AB
330
9C
100
AcDbEntity
  8
_U+30EC_U+30A4_U+30E4_U+30FC 1
 62
   179
420
  2234388
100
AcDbHatch
 10
0.0
 20
0.0
 30
0.0
210
0.0
220
0.0
230
1.0
  2
SOLID
 70
     1
 71
     0
 91
        1
 92
        1
 93
        1
 72
     4
 94
        3
 73
     0
 74
     1
 95
       26
 96
       22
 40
0.0
 40
0.0
 40
0.0
 40
0.0
 40
1.0
 40
1.0
 40
1.0
 40
2.0
 40
2.0
 40
2.0
 40
3.0
 40
3.0
 40
3.0
 40
4.0
 40
4.0
 40
4.0
 40
5.0
 40
5.0
 40
5.0
 40
6.0
 40
6.0
 40
6.0
 40
7.0
 40
7.0
 40
7.0
 40
7.0
 10
113.6127034221177
 20
-135.941745300216
 10
113.6127034221177
 20
-135.941745300216
 10
112.5085503190951
 20
-135.941745300216
 10
112.5085503190951
 20
-135.941745300216
 10
112.5085503190951
 20
-135.941745300216
 10
112.5085503190951
 20
-136.2717854477029
 10
112.5085503190951
 20
-136.2717854477029
 10
112.5085503190951
 20
-136.2717854477029
 10
112.3604112132293
 20
-136.2717854477029
 10
112.3604112132293
 20
-136.2717854477029
 10
112.3455973026428
 20
-135.9396782429248
 10
112.1826442861905
 20
-135.8931694538739
 10
112.0682671160802
 20
-135.8635416327008
 10
112.0682671160802
 20
-135.8635416327008
 10
112.0682671160802
 20
-135.7174695841262
 10
112.0682671160802
 20
-135.7174695841262
 10
112.0682671160802
 20
-135.7174695841262
 10
113.6127034221177
 20
-135.7174695841262
 10
113.6127034221177
 20
-135.7174695841262
 10
113.6127034221177
 20
-135.7174695841262
 10
113.6127034221177
 20
-135.941745300216
 10
113.6127034221177
 20
-135.941745300216
 97
        0
 97
        0
 75
     2
 76
     1
 98
        0
  0
ENDBLK
  5
9F
330
9C
100
AcDbEntity
  8
0
100
AcDbBlockEnd
  0
BLOCK
  5
AE
330
AC
100
AcDbEntity
  8
0
100
AcDbBlockBegin
  2
block 5
 70
     0
 10
0.0
 20
0.0
 30
0.0
  3
block 5
  1

  0
SPLINE
  5
B0
330
AC
100
AcDbEntity
  8
_U+30EC_U+30A4_U+30E4_U+30FC 1
370
     0
100
AcDbSpline
210
0.0
220
0.0
230
1.0
 70
    11
 71
     3
 72
    26
 73
    22
 74
     0
 42
0.0000000001
 43
0.0000000001
 12
1.0
 22
0.0
 32
0.0
 13
1.0
 23
0.0
 33
0.0
 40
0.0
 40
0.0
 40
0.0
 40
0.0
 40
1.0
 40
1.0
 40
1.0
 40
2.0
 40
2.0
 40
2.0
 40
3.0
 40
3.0
 40
3.0
 40
4.0
 40
4.0
 40
4.0
 40
5.0
 40
5.0
 40
5.0
 40
6.0
 40
6.0
 40
6.0
 40
7.0
 40
7.0
 40
7.0
 40
7.0
 10
113.6127034221177
 20
-130.0854274848398
 30
0.0
 10
113.6127034221177
 20
-130.0854274848398
 30
0.0
 10
112.5085503190951
 20
-130.0854274848398
 30
0.0
 10
112.5085503190951
 20
-130.0854274848398
 30
0.0
 10
112.5085503190951
 20
-130.0854274848398
 30
0.0
 10
112.5085503190951
 20
-130.4154676323267
 30
0.0
 10
112.5085503190951
 20
-130.4154676323267
 30
0.0
 10
112.5085503190951
 20
-130.4154676323267
 30
0.0
 10
112.3604112132293
 20
-130.4154676323267
 30
0.0
 10
112.3604112132293
 20
-130.4154676323267
 30
0.0
 10
112.3455973026428
 20
-130.0833604275486
 30
0.0
 10
112.1826442861905
 20
-130.0368516384978
 30
0.0
 10
112.0682671160802
 20
-130.0072238173246
 30
0.0
 10
112.0682671160802
 20
-130.0072238173246
 30
0.0
 10
112.0682671160802
 20
-129.86115176875
 30
0.0
 10
112.0682671160802
 20
-129.86115176875
 30
0.0
 10
112.0682671160802
 20
-129.86115176875
 30
0.0
 10
113.6127034221177
 20
-129.86115176875
 30
0.0
 10
113.6127034221177
 20
-129.86115176875
 30
0.0
 10
113.6127034221177
 20
-129.86115176875
 30
0.0
 10
113.6127034221177
 20
-130.0854274848398
 30
0.0
 10
113.6127034221177
 20
-130.0854274848398
 30
0.0
  0
HATCH
  5
B1
330
AC
100
AcDbEntity
  8
_U+30EC_U+30A4_U+30E4_U+30FC 1
 62
   179
420
  2234388
100
AcDbHatch
 10
0.0
 20
0.0
 30
0.0
210
0.0
220
0.0
230
1.0
  2
SOLID
 70
     1
 71
     0
 91
        1
 92
        1
 93
        1
 72
     4
 94
        3
 73
     0
 74
     1
 95
       26
 96
       22
 40
0.0
 40
0.0
 40
0.0
 40
0.0
 40
1.0
 40
1.0
 40
1.0
 40
2.0
 40
2.0
 40
2.0
 40
3.0
 40
3.0
 40
3.0
 40
4.0
 40
4.0
 40
4.0
 40
5.0
 40
5.0
 40
5.0
 40
6.0
 40
6.0
 40
6.0
 40
7.0
 40
7.0
 40
7.0
 40
7.0
 10
113.6127034221177
 20
-130.0854274848398
 10
113.6127034221177
 20
-130.0854274848398
 10
112.5085503190951
 20
-130.0854274848398
 10
112.5085503190951
 20
-130.0854274848398
 10
112.5085503190951
 20
-130.0854274848398
 10
112.5085503190951
 20
-130.4154676323267
 10
112.5085503190951
 20
-130.4154676323267
 10
112.5085503190951
 20
-130.4154676323267
 10
112.3604112132293
 20
-130.4154676323267
 10
112.3604112132293
 20
-130.4154676323267
 10
112.3455973026428
 20
-130.0833604275486
 10
112.1826442861905
 20
-130.0368516384978
 10
112.0682671160802
 20
-130.0072238173246
 10
112.0682671160802
 20
-130.0072238173246
 10
112.0682671160802
 20
-129.86115176875
 10
112.0682671160802
 20
-129.86115176875
 10
112.0682671160802
 20
-129.86115176875
 10
113.6127034221177
 20
-129.86115176875
 10
113.6127034221177
 20
-129.86115176875
 10
113.6127034221177
 20
-129.86115176875
 10
113.6127034221177
 20
-130.0854274848398
 10
113.6127034221177
 20
-130.0854274848398
 97
        0
 97
        0
 75
     2
 76
     1
 98
        0
  0
SPLINE
  5
B2
330
AC
100
AcDbEntity
  8
_U+30EC_U+30A4_U+30E4_U+30FC 1
370
     0
100
AcDbSpline
210
0.0
220
0.0
230
1.0
 70
    11
 71
     3
 72
    62
 73
    58
 74
     0
 42
0.0000000001
 43
0.0000000001
 12
1.0
 22
0.0
 32
0.0
 13
1.0
 23
0.0
 33
0.0
 40
0.0
 40
0.0
 40
0.0
 40
0.0
 40
1.0
 40
1.0
 40
1.0
 40
2.0
 40
2.0
 40
2.0
 40
3.0
 40
3.0
 40
3.0
 40
4.0
 40
4.0
 40
4.0
 40
5.0
 40
5.0
 40
5.0
 40
6.0
 40
6.0
 40
6.0
 40
7.0
 40
7.0
 40
7.0
 40
8.0
 40
8.0
 40
8.0
 40
9.0
 40
9.0
 40
9.0
 40
10.0
 40
10.0
 40
10.0
 40
11.0
 40
11.0
 40
11.0
 40
12.0
 40
12.0
 40
12.0
 40
13.0
 40
13.0
 40
13.0
 40
14.0
 40
14.0
 40
14.0
 40
15.0
 40
15.0
 40
15.0
 40
16.0
 40
16.0
 40
16.0
 40
17.0
 40
17.0
 40
17.0
 40
18.0
 40
18.0
 40
18.0
 40
19.0
 40
19.0
 40
19.0
 40
19.0
 10
113.6633463257508
 20
-128.868275249901
 30
0.0
 10
113.6633463257508
 20
-128.9637043948424
 30
0.0
 10
113.6423312432908
 20
-129.1814344295102
 30
0.0
 10
113.4562960870873
 20
-129.3064913956248
 30
0.0
 10
113.3439859742682
 20
-129.3805609485576
 30
0.0
 10
113.244767224293
 20
-129.3846950631399
 30
0.0
 10
113.1600178753558
 20
-129.3888291777222
 30
0.0
 10
113.1600178753558
 20
-129.3888291777222
 30
0.0
 10
113.1600178753558
 20
-129.1686875762148
 30
0.0
 10
113.1600178753558
 20
-129.1686875762148
 30
0.0
 10
113.2340874282887
 20
-129.1666205189236
 30
0.0
 10
113.4686984308342
 20
-129.1562852324679
 30
0.0
 10
113.4686984308342
 20
-128.8727538740318
 30
0.0
 10
113.4686984308342
 20
-128.7352945641703
 30
0.0
 10
113.3991075020322
 20
-128.5826768341738
 30
0.0
 10
113.1706976713601
 20
-128.5826768341738
 30
0.0
 10
113.0542534439587
 20
-128.5826768341738
 30
0.0
 10
113.0056775976166
 20
-128.6209173940601
 30
0.0
 10
112.9739827191523
 20
-128.6526122725244
 30
0.0
 10
112.8999131662195
 20
-128.7266818254572
 30
0.0
 10
112.8871663129241
 20
-128.8431260528587
 30
0.0
 10
112.8871663129241
 20
-128.8979030710742
 30
0.0
 10
112.8871663129241
 20
-128.9171956057915
 30
0.0
 10
112.8892333702152
 20
-128.9530245988381
 30
0.0
 10
112.8933674847975
 20
-128.9805853627201
 30
0.0
 10
112.8933674847975
 20
-128.9805853627201
 30
0.0
 10
112.6987195898809
 20
-128.9805853627201
 30
0.0
 10
112.6987195898809
 20
-128.9805853627201
 30
0.0
 10
112.7052652713028
 20
-128.9423448028339
 30
0.0
 10
112.707332328594
 20
-128.9003146379138
 30
0.0
 10
112.707332328594
 20
-128.8937689564918
 30
0.0
 10
112.707332328594
 20
-128.8283121422721
 30
0.0
 10
112.6859727365855
 20
-128.6295301327732
 30
0.0
 10
112.4492946767488
 20
-128.6295301327732
 30
0.0
 10
112.2715277497099
 20
-128.6295301327732
 30
0.0
 10
112.2164062219459
 20
-128.7604437612127
 30
0.0
 10
112.2164062219459
 20
-128.8706868167407
 30
0.0
 10
112.2164062219459
 20
-129.1349256404593
 30
0.0
 10
112.4492946767488
 20
-129.1435383791724
 30
0.0
 10
112.520952662842
 20
-129.1476724937548
 30
0.0
 10
112.520952662842
 20
-129.1476724937548
 30
0.0
 10
112.520952662842
 20
-129.3509331273845
 30
0.0
 10
112.520952662842
 20
-129.3509331273845
 30
0.0
 10
112.3962402062759
 20
-129.3423203886714
 30
0.0
 10
112.0196912697381
 20
-129.3147596247894
 30
0.0
 10
112.0196912697381
 20
-128.8579399634452
 30
0.0
 10
112.0196912697381
 20
-128.6336642473555
 30
0.0
 10
112.1468152931439
 20
-128.392507563388
 30
0.0
 10
112.4427489953268
 20
-128.392507563388
 30
0.0
 10
112.6291286610788
 20
-128.392507563388
 30
0.0
 10
112.7114664431763
 20
-128.4875921987809
 30
0.0
 10
112.7727891428137
 20
-128.5871554583046
 30
0.0
 10
112.8003499066958
 20
-128.5258327586671
 30
0.0
 10
112.8806206315021
 20
-128.343931717046
 30
0.0
 10
113.1579508180647
 20
-128.343931717046
 30
0.0
 10
113.4962591947162
 20
-128.343931717046
 30
0.0
 10
113.6633463257508
 20
-128.5912895728869
 30
0.0
 10
113.6633463257508
 20
-128.868275249901
 30
0.0
  0
HATCH
  5
B3
330
AC
100
AcDbEntity
  8
_U+30EC_U+30A4_U+30E4_U+30FC 1
 62
   179
420
  2234388
100
AcDbHatch
 10
0.0
 20
0.0
 30
0.0
210
0.0
220
0.0
230
1.0
  2
SOLID
 70
     1
 71
     0
 91
        1
 92
        1
 93
        1
 72
     4
 94
        3
 73
     0
 74
     1
 95
       62
 96
       58
 40
0.0
 40
0.0
 40
0.0
 40
0.0
 40
1.0
 40
1.0
 40
1.0
 40
2.0
 40
2.0
 40
2.0
 40
3.0
 40
3.0
 40
3.0
 40
4.0
 40
4.0
 40
4.0
 40
5.0
 40
5.0
 40
5.0
 40
6.0
 40
6.0
 40
6.0
 40
7.0
 40
7.0
 40
7.0
 40
8.0
 40
8.0
 40
8.0
 40
9.0
 40
9.0
 40
9.0
 40
10.0
 40
10.0
 40
10.0
 40
11.0
 40
11.0
 40
11.0
 40
12.0
 40
12.0
 40
12.0
 40
13.0
 40
13.0
 40
13.0
 40
14.0
 40
14.0
 40
14.0
 40
15.0
 40
15.0
 40
15.0
 40
16.0
 40
16.0
 40
16.0
 40
17.0
 40
17.0
 40
17.0
 40
18.0
 40
18.0
 40
18.0
 40
19.0
 40
19.0
 40
19.0
 40
19.0
 10
113.6633463257508
 20
-128.868275249901
 10
113.6633463257508
 20
-128.9637043948424
 10
113.6423312432908
 20
-129.1814344295102
 10
113.4562960870873
 20
-129.3064913956248
 10
113.3439859742682
 20
-129.3805609485576
 10
113.244767224293
 20
-129.3846950631399
 10
113.1600178753558
 20
-129.3888291777222
 10
113.1600178753558
 20
-129.3888291777222
 10
113.1600178753558
 20
-129.1686875762148
 10
113.1600178753558
 20
-129.1686875762148
 10
113.2340874282887
 20
-129.1666205189236
 10
113.4686984308342
 20
-129.1562852324679
 10
113.4686984308342
 20
-128.8727538740318
 10
113.4686984308342
 20
-128.7352945641703
 10
113.3991075020322
 20
-128.5826768341738
 10
113.1706976713601
 20
-128.5826768341738
 10
113.0542534439587
 20
-128.5826768341738
 10
113.0056775976166
 20
-128.6209173940601
 10
112.9739827191523
 20
-128.6526122725244
 10
112.8999131662195
 20
-128.7266818254572
 10
112.8871663129241
 20
-128.8431260528587
 10
112.8871663129241
 20
-128.8979030710742
 10
112.8871663129241
 20
-128.9171956057915
 10
112.8892333702152
 20
-128.9530245988381
 10
112.8933674847975
 20
-128.9805853627201
 10
112.8933674847975
 20
-128.9805853627201
 10
112.6987195898809
 20
-128.9805853627201
 10
112.6987195898809
 20
-128.9805853627201
 10
112.7052652713028
 20
-128.9423448028339
 10
112.707332328594
 20
-128.9003146379138
 10
112.707332328594
 20
-128.8937689564918
 10
112.707332328594
 20
-128.8283121422721
 10
112.6859727365855
 20
-128.6295301327732
 10
112.4492946767488
 20
-128.6295301327732
 10
112.2715277497099
 20
-128.6295301327732
 10
112.2164062219459
 20
-128.7604437612127
 10
112.2164062219459
 20
-128.8706868167407
 10
112.2164062219459
 20
-129.1349256404593
 10
112.4492946767488
 20
-129.1435383791724
 10
112.520952662842
 20
-129.1476724937548
 10
112.520952662842
 20
-129.1476724937548
 10
112.520952662842
 20
-129.3509331273845
 10
112.520952662842
 20
-129.3509331273845
 10
112.3962402062759
 20
-129.3423203886714
 10
112.0196912697381
 20
-129.3147596247894
 10
112.0196912697381
 20
-128.8579399634452
 10
112.0196912697381
 20
-128.6336642473555
 10
112.1468152931439
 20
-128.392507563388
 10
112.4427489953268
 20
-128.392507563388
 10
112.6291286610788
 20
-128.392507563388
 10
112.7114664431763
 20
-128.4875921987809
 10
112.7727891428137
 20
-128.5871554583046
 10
112.8003499066958
 20
-128.5258327586671
 10
112.8806206315021
 20
-128.343931717046
 10
113.1579508180647
 20
-128.343931717046
 10
113.4962591947162
 20
-128.343931717046
 10
113.6633463257508
 20
-128.5912895728869
 10
113.6633463257508
 20
-128.868275249901
 97
        0
 97
        0
 75
     2
 76
     1
 98
        0
  0
ENDBLK
  5
AF
330
AC
100
AcDbEntity
  8
0
100
AcDbBlockEnd
  0
BLOCK
  5
B6
330
B4
100
AcDbEntity
  8
0
100
AcDbBlockBegin
  2
block 6
 70
     0
 10
0.0
 20
0.0
 30
0.0
  3
block 6
  1

  0
SPLINE
  5
B8
330
B4
100
AcDbEntity
  8
_U+30EC_U+30A4_U+30E4_U+30FC 1
370
     0
100
AcDbSpline
210
0.0
220
0.0
230
1.0
 70
    11
 71
     3
 72
    62
 73
    58
 74
     0
 42
0.0000000001
 43
0.0000000001
 12
1.0
 22
0.0
 32
0.0
 13
1.0
 23
0.0
 33
0.0
 40
0.0
 40
0.0
 40
0.0
 40
0.0
 40
1.0
 40
1.0
 40
1.0
 40
2.0
 40
2.0
 40
2.0
 40
3.0
 40
3.0
 40
3.0
 40
4.0
 40
4.0
 40
4.0
 40
5.0
 40
5.0
 40
5.0
 40
6.0
 40
6.0
 40
6.0
 40
7.0
 40
7.0
 40
7.0
 40
8.0
 40
8.0
 40
8.0
 40
9.0
 40
9.0
 40
9.0
 40
10.0
 40
10.0
 40
10.0
 40
11.0
 40
11.0
 40
11.0
 40
12.0
 40
12.0
 40
12.0
 40
13.0
 40
13.0
 40
13.0
 40
14.0
 40
14.0
 40
14.0
 40
15.0
 40
15.0
 40
15.0
 40
16.0
 40
16.0
 40
16.0
 40
17.0
 40
17.0
 40
17.0
 40
18.0
 40
18.0
 40
18.0
 40
19.0
 40
19.0
 40
19.0
 40
19.0
 10
113.6633463257508
 20
-121.6266845399058
 30
0.0
 10
113.6633463257508
 20
-121.7221136848473
 30
0.0
 10
113.6423312432908
 20
-121.939843719515
 30
0.0
 10
113.4562960870873
 20
-122.0649006856296
 30
0.0
 10
113.3439859742682
 20
-122.1389702385625
 30
0.0
 10
113.244767224293
 20
-122.1431043531448
 30
0.0
 10
113.1600178753558
 20
-122.1472384677271
 30
0.0
 10
113.1600178753558
 20
-122.1472384677271
 30
0.0
 10
113.1600178753558
 20
-121.9270968662196
 30
0.0
 10
113.1600178753558
 20
-121.9270968662196
 30
0.0
 10
113.2340874282887
 20
-121.9250298089285
 30
0.0
 10
113.4686984308342
 20
-121.9146945224727
 30
0.0
 10
113.4686984308342
 20
-121.6311631640367
 30
0.0
 10
113.4686984308342
 20
-121.4937038541752
 30
0.0
 10
113.3991075020322
 20
-121.3410861241786
 30
0.0
 10
113.1706976713601
 20
-121.3410861241786
 30
0.0
 10
113.0542534439587
 20
-121.3410861241786
 30
0.0
 10
113.0056775976166
 20
-121.3793266840649
 30
0.0
 10
112.9739827191523
 20
-121.4110215625292
 30
0.0
 10
112.8999131662195
 20
-121.4850911154621
 30
0.0
 10
112.8871663129241
 20
-121.6015353428635
 30
0.0
 10
112.8871663129241
 20
-121.656312361079
 30
0.0
 10
112.8871663129241
 20
-121.6756048957964
 30
0.0
 10
112.8892333702152
 20
-121.711433888843
 30
0.0
 10
112.8933674847975
 20
-121.738994652725
 30
0.0
 10
112.8933674847975
 20
-121.738994652725
 30
0.0
 10
112.6987195898809
 20
-121.738994652725
 30
0.0
 10
112.6987195898809
 20
-121.738994652725
 30
0.0
 10
112.7052652713028
 20
-121.7007540928387
 30
0.0
 10
112.707332328594
 20
-121.6587239279187
 30
0.0
 10
112.707332328594
 20
-121.6521782464967
 30
0.0
 10
112.707332328594
 20
-121.5867214322769
 30
0.0
 10
112.6859727365855
 20
-121.387939422778
 30
0.0
 10
112.4492946767488
 20
-121.387939422778
 30
0.0
 10
112.2715277497099
 20
-121.387939422778
 30
0.0
 10
112.2164062219459
 20
-121.5188530512175
 30
0.0
 10
112.2164062219459
 20
-121.6290961067455
 30
0.0
 10
112.2164062219459
 20
-121.8933349304642
 30
0.0
 10
112.4492946767488
 20
-121.9019476691773
 30
0.0
 10
112.520952662842
 20
-121.9060817837596
 30
0.0
 10
112.520952662842
 20
-121.9060817837596
 30
0.0
 10
112.520952662842
 20
-122.1093424173893
 30
0.0
 10
112.520952662842
 20
-122.1093424173893
 30
0.0
 10
112.3962402062759
 20
-122.1007296786762
 30
0.0
 10
112.0196912697381
 20
-122.0731689147942
 30
0.0
 10
112.0196912697381
 20
-121.6163492534501
 30
0.0
 10
112.0196912697381
 20
-121.3920735373603
 30
0.0
 10
112.1468152931439
 20
-121.1509168533928
 30
0.0
 10
112.4427489953268
 20
-121.1509168533928
 30
0.0
 10
112.6291286610788
 20
-121.1509168533928
 30
0.0
 10
112.7114664431763
 20
-121.2460014887857
 30
0.0
 10
112.7727891428137
 20
-121.3455647483094
 30
0.0
 10
112.8003499066958
 20
-121.284242048672
 30
0.0
 10
112.8806206315021
 20
-121.1023410070508
 30
0.0
 10
113.1579508180647
 20
-121.1023410070508
 30
0.0
 10
113.4962591947162
 20
-121.1023410070508
 30
0.0
 10
113.6633463257508
 20
-121.3496988628917
 30
0.0
 10
113.6633463257508
 20
-121.6266845399058
 30
0.0
  0
HATCH
  5
B9
330
B4
100
AcDbEntity
  8
_U+30EC_U+30A4_U+30E4_U+30FC 1
 62
   179
420
  2234388
100
AcDbHatch
 10
0.0
 20
0.0
 30
0.0
210
0.0
220
0.0
230
1.0
  2
SOLID
 70
     1
 71
     0
 91
        1
 92
        1
 93
        1
 72
     4
 94
        3
 73
     0
 74
     1
 95
       62
 96
       58
 40
0.0
 40
0.0
 40
0.0
 40
0.0
 40
1.0
 40
1.0
 40
1.0
 40
2.0
 40
2.0
 40
2.0
 40
3.0
 40
3.0
 40
3.0
 40
4.0
 40
4.0
 40
4.0
 40
5.0
 40
5.0
 40
5.0
 40
6.0
 40
6.0
 40
6.0
 40
7.0
 40
7.0
 40
7.0
 40
8.0
 40
8.0
 40
8.0
 40
9.0
 40
9.0
 40
9.0
 40
10.0
 40
10.0
 40
10.0
 40
11.0
 40
11.0
 40
11.0
 40
12.0
 40
12.0
 40
12.0
 40
13.0
 40
13.0
 40
13.0
 40
14.0
 40
14.0
 40
14.0
 40
15.0
 40
15.0
 40
15.0
 40
16.0
 40
16.0
 40
16.0
 40
17.0
 40
17.0
 40
17.0
 40
18.0
 40
18.0
 40
18.0
 40
19.0
 40
19.0
 40
19.0
 40
19.0
 10
113.6633463257508
 20
-121.6266845399058
 10
113.6633463257508
 20
-121.7221136848473
 10
113.6423312432908
 20
-121.939843719515
 10
113.4562960870873
 20
-122.0649006856296
 10
113.3439859742682
 20
-122.1389702385625
 10
113.244767224293
 20
-122.1431043531448
 10
113.1600178753558
 20
-122.1472384677271
 10
113.1600178753558
 20
-122.1472384677271
 10
113.1600178753558
 20
-121.9270968662196
 10
113.1600178753558
 20
-121.9270968662196
 10
113.2340874282887
 20
-121.9250298089285
 10
113.4686984308342
 20
-121.9146945224727
 10
113.4686984308342
 20
-121.6311631640367
 10
113.4686984308342
 20
-121.4937038541752
 10
113.3991075020322
 20
-121.3410861241786
 10
113.1706976713601
 20
-121.3410861241786
 10
113.0542534439587
 20
-121.3410861241786
 10
113.0056775976166
 20
-121.3793266840649
 10
112.9739827191523
 20
-121.4110215625292
 10
112.8999131662195
 20
-121.4850911154621
 10
112.8871663129241
 20
-121.6015353428635
 10
112.8871663129241
 20
-121.656312361079
 10
112.8871663129241
 20
-121.6756048957964
 10
112.8892333702152
 20
-121.711433888843
 10
112.8933674847975
 20
-121.738994652725
 10
112.8933674847975
 20
-121.738994652725
 10
112.6987195898809
 20
-121.738994652725
 10
112.6987195898809
 20
-121.738994652725
 10
112.7052652713028
 20
-121.7007540928387
 10
112.707332328594
 20
-121.6587239279187
 10
112.707332328594
 20
-121.6521782464967
 10
112.707332328594
 20
-121.5867214322769
 10
112.6859727365855
 20
-121.387939422778
 10
112.4492946767488
 20
-121.387939422778
 10
112.2715277497099
 20
-121.387939422778
 10
112.2164062219459
 20
-121.5188530512175
 10
112.2164062219459
 20
-121.6290961067455
 10
112.2164062219459
 20
-121.8933349304642
 10
112.4492946767488
 20
-121.9019476691773
 10
112.520952662842
 20
-121.9060817837596
 10
112.520952662842
 20
-121.9060817837596
 10
112.520952662842
 20
-122.1093424173893
 10
112.520952662842
 20
-122.1093424173893
 10
112.3962402062759
 20
-122.1007296786762
 10
112.0196912697381
 20
-122.0731689147942
 10
112.0196912697381
 20
-121.6163492534501
 10
112.0196912697381
 20
-121.3920735373603
 10
112.1468152931439
 20
-121.1509168533928
 10
112.4427489953268
 20
-121.1509168533928
 10
112.6291286610788
 20
-121.1509168533928
 10
112.7114664431763
 20
-121.2460014887857
 10
112.7727891428137
 20
-121.3455647483094
 10
112.8003499066958
 20
-121.284242048672
 10
112.8806206315021
 20
-121.1023410070508
 10
113.1579508180647
 20
-121.1023410070508
 10
113.4962591947162
 20
-121.1023410070508
 10
113.6633463257508
 20
-121.3496988628917
 10
113.6633463257508
 20
-121.6266845399058
 97
        0
 97
        0
 75
     2
 76
     1
 98
        0
  0
ENDBLK
  5
B7
330
B4
100
AcDbEntity
  8
0
100
AcDbBlockEnd
  0
ENDSEC
  0
SECTION
  2
ENTITIES
  0
SPLINE
  5
41
330
1F
100
AcDbEntity
  8
_U+30EC_U+30A4_U+30E4_U+30FC 1
 62
   179
420
  2234388
370
     9
100
AcDbSpline
210
0.0
220
0.0
230
1.0
 70
    11
 71
     3
 72
    17
 73
    13
 74
     0
 42
0.0000000001
 43
0.0000000001
 12
1.0
 22
0.0
 32
0.0
 13
1.0
 23
0.0
 33
0.0
 40
0.0
 40
0.0
 40
0.0
 40
0.0
 40
1.0
 40
1.0
 40
1.0
 40
2.0
 40
2.0
 40
2.0
 40
3.0
 40
3.0
 40
3.0
 40
4.0
 40
4.0
 40
4.0
 40
4.0
 10
107.9334519686105
 20
-141.0256682980767
 30
0.0
 10
107.9334519686105
 20
-140.9705644092018
 30
0.0
 10
107.8886844697526
 20
-140.9257616314351
 30
0.0
 10
107.8335453044926
 20
-140.9257616314351
 30
0.0
 10
107.7784414170095
 20
-140.9257616314351
 30
0.0
 10
107.7336386403748
 20
-140.9705644092018
 30
0.0
 10
107.7336386403748
 20
-141.0256682980767
 30
0.0
 10
107.7336386403748
 20
-141.0808074647298
 30
0.0
 10
107.7784414170095
 20
-141.1255749647183
 30
0.0
 10
107.8335453044926
 20
-141.1255749647183
 30
0.0
 10
107.8886844697526
 20
-141.1255749647183
 30
0.0
 10
107.9334519686105
 20
-141.0808074647298
 30
0.0
 10
107.9334519686105
 20
-141.0256682980767
 30
0.0
  0
SPLINE
  5
42
330
1F
100
AcDbEntity
  8
_U+30EC_U+30A4_U+30E4_U+30FC 1
 62
   179
420
  2234388
370
     9
100
AcDbSpline
210
0.0
220
0.0
230
1.0
 70
    11
 71
     3
 72
    17
 73
    13
 74
     0
 42
0.0000000001
 43
0.0000000001
 12
1.0
 22
0.0
 32
0.0
 13
1.0
 23
0.0
 33
0.0
 40
0.0
 40
0.0
 40
0.0
 40
0.0
 40
1.0
 40
1.0
 40
1.0
 40
2.0
 40
2.0
 40
2.0
 40
3.0
 40
3.0
 40
3.0
 40
4.0
 40
4.0
 40
4.0
 40
4.0
 10
67.93314493354775
 20
-141.0256682980767
 30
0.0
 10
67.93314493354775
 20
-140.9705644092018
 30
0.0
 10
67.88837743468987
 20
-140.9257616314351
 30
0.0
 10
67.83323826942991
 20
-140.9257616314351
 30
0.0
 10
67.77813609416673
 20
-140.9257616314351
 30
0.0
 10
67.7333333164
 20
-140.9705644092018
 30
0.0
 10
67.7333333164
 20
-141.0256682980767
 30
0.0
 10
67.7333333164
 20
-141.0808074647298
 30
0.0
 10
67.77813609416673
 20
-141.1255749647183
 30
0.0
 10
67.83323826942991
 20
-141.1255749647183
 30
0.0
 10
67.88837743468987
 20
-141.1255749647183
 30
0.0
 10
67.93314493354775
 20
-141.0808074647298
 30
0.0
 10
67.93314493354775
 20
-141.0256682980767
 30
0.0
  0
SPLINE
  5
43
330
1F
100
AcDbEntity
  8
_U+30EC_U+30A4_U+30E4_U+30FC 1
 62
   179
420
  2234388
370
     9
100
AcDbSpline
210
0.0
220
0.0
230
1.0
 70
    11
 71
     3
 72
    17
 73
    13
 74
     0
 42
0.0000000001
 43
0.0000000001
 12
1.0
 22
0.0
 32
0.0
 13
1.0
 23
0.0
 33
0.0
 40
0.0
 40
0.0
 40
0.0
 40
0.0
 40
1.0
 40
1.0
 40
1.0
 40
2.0
 40
2.0
 40
2.0
 40
3.0
 40
3.0
 40
3.0
 40
4.0
 40
4.0
 40
4.0
 40
4.0
 10
97.93304889040866
 20
-117.464487192856
 30
0.0
 10
97.93304889040866
 20
-117.4093833039811
 30
0.0
 10
97.8882461137739
 20
-117.3645805262144
 30
0.0
 10
97.83314222629083
 20
-117.3645805262144
 30
0.0
 10
97.7780055311108
 20
-117.3645805262144
 30
0.0
 10
97.733235562173
 20
-117.4093833039811
 30
0.0
 10
97.733235562173
 20
-117.464487192856
 30
0.0
 10
97.733235562173
 20
-117.5202966372865
 30
0.0
 10
97.7780055311108
 20
-117.5650994150532
 30
0.0
 10
97.83314222629083
 20
-117.5650994150532
 30
0.0
 10
97.8882461137739
 20
-117.5650994150532
 30
0.0
 10
97.93304889040866
 20
-117.5202966372865
 30
0.0
 10
97.93304889040866
 20
-117.464487192856
 30
0.0
  0
SPLINE
  5
44
330
1F
100
AcDbEntity
  8
_U+30EC_U+30A4_U+30E4_U+30FC 1
 62
   179
420
  2234388
370
     9
100
AcDbSpline
210
0.0
220
0.0
230
1.0
 70
    11
 71
     3
 72
    17
 73
    13
 74
     0
 42
0.0000000001
 43
0.0000000001
 12
1.0
 22
0.0
 32
0.0
 13
1.0
 23
0.0
 33
0.0
 40
0.0
 40
0.0
 40
0.0
 40
0.0
 40
1.0
 40
1.0
 40
1.0
 40
2.0
 40
2.0
 40
2.0
 40
3.0
 40
3.0
 40
3.0
 40
4.0
 40
4.0
 40
4.0
 40
4.0
 10
77.93287773398887
 20
-117.464487192856
 30
0.0
 10
77.93287773398887
 20
-117.4093833039811
 30
0.0
 10
77.88811023513098
 20
-117.3645805262144
 30
0.0
 10
77.83297106987104
 20
-117.3645805262144
 30
0.0
 10
77.77786718238796
 20
-117.3645805262144
 30
0.0
 10
77.7330644057532
 20
-117.4093833039811
 30
0.0
 10
77.7330644057532
 20
-117.464487192856
 30
0.0
 10
77.7330644057532
 20
-117.5202966372865
 30
0.0
 10
77.77786718238796
 20
-117.5650994150532
 30
0.0
 10
77.83297106987104
 20
-117.5650994150532
 30
0.0
 10
77.88811023513098
 20
-117.5650994150532
 30
0.0
 10
77.93287773398887
 20
-117.5202966372865
 30
0.0
 10
77.93287773398887
 20
-117.464487192856
 30
0.0
  0
POLYLINE
  5
45
330
1F
100
AcDbEntity
  8
_U+30EC_U+30A4_U+30E4_U+30FC 1
 62
   179
420
  2234388
370
     9
100
AcDb2dPolyline
 66
     1
 10
0.0
 20
0.0
 30
0.0
  0
VERTEX
  5
46
330
45
100
AcDbEntity
  8
_U+30EC_U+30A4_U+30E4_U+30FC 1
 62
   179
420
  2234388
370
     9
100
AcDbVertex
100
AcDb2dVertex
 10
67.83323826942991
 20
-141.0256682980767
 30
0.0
  0
VERTEX
  5
47
330
45
100
AcDbEntity
  8
_U+30EC_U+30A4_U+30E4_U+30FC 1
 62
   179
420
  2234388
370
     9
100
AcDbVertex
100
AcDb2dVertex
 10
107.8335453044926
 20
-141.0256682980767
 30
0.0
  0
SEQEND
  5
48
330
45
100
AcDbEntity
  8
_U+30EC_U+30A4_U+30E4_U+30FC 1
 62
   179
420
  2234388
370
     9
  0
POLYLINE
  5
49
330
1F
100
AcDbEntity
  8
_U+30EC_U+30A4_U+30E4_U+30FC 1
 62
   179
420
  2234388
370
     9
100
AcDb2dPolyline
 66
     1
 10
0.0
 20
0.0
 30
0.0
  0
VERTEX
  5
4A
330
49
100
AcDbEntity
  8
_U+30EC_U+30A4_U+30E4_U+30FC 1
 62
   179
420
  2234388
370
     9
100
AcDbVertex
100
AcDb2dVertex
 10
67.83323826942991
 20
-139.565626909553
 30
0.0
  0
VERTEX
  5
4B
330
49
100
AcDbEntity
  8
_U+30EC_U+30A4_U+30E4_U+30FC 1
 62
   179
420
  2234388
370
     9
100
AcDbVertex
100
AcDb2dVertex
 10
67.83323826942991
 20
-142.0254405200492
 30
0.0
  0
SEQEND
  5
4C
330
49
100
AcDbEntity
  8
_U+30EC_U+30A4_U+30E4_U+30FC 1
 62
   179
420
  2234388
370
     9
  0
POLYLINE
  5
4D
330
1F
100
AcDbEntity
  8
_U+30EC_U+30A4_U+30E4_U+30FC 1
 62
   179
420
  2234388
370
     9
100
AcDb2dPolyline
 66
     1
 10
0.0
 20
0.0
 30
0.0
  0
VERTEX
  5
4E
330
4D
100
AcDbEntity
  8
_U+30EC_U+30A4_U+30E4_U+30FC 1
 62
   179
420
  2234388
370
     9
100
AcDbVertex
100
AcDb2dVertex
 10
107.8335453044926
 20
-139.565626909553
 30
0.0
  0
VERTEX
  5
4F
330
4D
100
AcDbEntity
  8
_U+30EC_U+30A4_U+30E4_U+30FC 1
 62
   179
420
  2234388
370
     9
100
AcDbVertex
100
AcDb2dVertex
 10
107.8335453044926
 20
-142.0254405200492
 30
0.0
  0
SEQEND
  5
50
330
4D
100
AcDbEntity
  8
_U+30EC_U+30A4_U+30E4_U+30FC 1
 62
   179
420
  2234388
370
     9
  0
INSERT
  5
52
330
1F
100
AcDbEntity
  8
_U+30EC_U+30A4_U+30E4_U+30FC 1
100
AcDbBlockReference
  2
block 2
 10
0.0
 20
0.0
 30
0.0
  0
POLYLINE
  5
6D
330
1F
100
AcDbEntity
  8
_U+30EC_U+30A4_U+30E4_U+30FC 1
 62
   179
420
  2234388
370
     9
100
AcDb2dPolyline
 66
     1
 10
0.0
 20
0.0
 30
0.0
  0
VERTEX
  5
6E
330
6D
100
AcDbEntity
  8
_U+30EC_U+30A4_U+30E4_U+30FC 1
 62
   179
420
  2234388
370
     9
100
AcDbVertex
100
AcDb2dVertex
 10
97.83314222629083
 20
-117.464487192856
 30
0.0
  0
VERTEX
  5
6F
330
6D
100
AcDbEntity
  8
_U+30EC_U+30A4_U+30E4_U+30FC 1
 62
   179
420
  2234388
370
     9
100
AcDbVertex
100
AcDb2dVertex
 10
77.83297106987104
 20
-117.464487192856
 30
0.0
  0
SEQEND
  5
70
330
6D
100
AcDbEntity
  8
_U+30EC_U+30A4_U+30E4_U+30FC 1
 62
   179
420
  2234388
370
     9
  0
POLYLINE
  5
71
330
1F
100
AcDbEntity
  8
_U+30EC_U+30A4_U+30E4_U+30FC 1
 62
   179
420
  2234388
370
     9
100
AcDb2dPolyline
 66
     1
 10
0.0
 20
0.0
 30
0.0
  0
VERTEX
  5
72
330
71
100
AcDbEntity
  8
_U+30EC_U+30A4_U+30E4_U+30FC 1
 62
   179
420
  2234388
370
     9
100
AcDbVertex
100
AcDb2dVertex
 10
97.83314222629083
 20
-118.9247049702689
 30
0.0
  0
VERTEX
  5
73
330
71
100
AcDbEntity
  8
_U+30EC_U+30A4_U+30E4_U+30FC 1
 62
   179
420
  2234388
370
     9
100
AcDbVertex
100
AcDb2dVertex
 10
97.83314222629083
 20
-116.4647149708838
 30
0.0
  0
SEQEND
  5
74
330
71
100
AcDbEntity
  8
_U+30EC_U+30A4_U+30E4_U+30FC 1
 62
   179
420
  2234388
370
     9
  0
POLYLINE
  5
75
330
1F
100
AcDbEntity
  8
_U+30EC_U+30A4_U+30E4_U+30FC 1
 62
   179
420
  2234388
370
     9
100
AcDb2dPolyline
 66
     1
 10
0.0
 20
0.0
 30
0.0
  0
VERTEX
  5
76
330
75
100
AcDbEntity
  8
_U+30EC_U+30A4_U+30E4_U+30FC 1
 62
   179
420
  2234388
370
     9
100
AcDbVertex
100
AcDb2dVertex
 10
77.83297106987104
 20
-118.9247049702689
 30
0.0
  0
VERTEX
  5
77
330
75
100
AcDbEntity
  8
_U+30EC_U+30A4_U+30E4_U+30FC 1
 62
   179
420
  2234388
370
     9
100
AcDbVertex
100
AcDb2dVertex
 10
77.83297106987104
 20
-116.4647149708838
 30
0.0
  0
SEQEND
  5
78
330
75
100
AcDbEntity
  8
_U+30EC_U+30A4_U+30E4_U+30FC 1
 62
   179
420
  2234388
370
     9
  0
INSERT
  5
7A
330
1F
100
AcDbEntity
  8
_U+30EC_U+30A4_U+30E4_U+30FC 1
100
AcDbBlockReference
  2
block 3
 10
0.0
 20
0.0
 30
0.0
  0
SPLINE
  5
82
330
1F
100
AcDbEntity
  8
_U+30EC_U+30A4_U+30E4_U+30FC 1
 62
   179
420
  2234388
370
    25
100
AcDbSpline
210
0.0
220
0.0
230
1.0
 70
    11
 71
     3
 72
    59
 73
    55
 74
     0
 42
0.0000000001
 43
0.0000000001
 12
1.0
 22
0.0
 32
0.0
 13
1.0
 23
0.0
 33
0.0
 40
0.0
 40
0.0
 40
0.0
 40
0.0
 40
1.0
 40
1.0
 40
1.0
 40
2.0
 40
2.0
 40
2.0
 40
3.0
 40
3.0
 40
3.0
 40
4.0
 40
4.0
 40
4.0
 40
5.0
 40
5.0
 40
5.0
 40
6.0
 40
6.0
 40
6.0
 40
7.0
 40
7.0
 40
7.0
 40
8.0
 40
8.0
 40
8.0
 40
9.0
 40
9.0
 40
9.0
 40
10.0
 40
10.0
 40
10.0
 40
11.0
 40
11.0
 40
11.0
 40
12.0
 40
12.0
 40
12.0
 40
13.0
 40
13.0
 40
13.0
 40
14.0
 40
14.0
 40
14.0
 40
15.0
 40
15.0
 40
15.0
 40
16.0
 40
16.0
 40
16.0
 40
17.0
 40
17.0
 40
17.0
 40
18.0
 40
18.0
 40
18.0
 40
18.0
 10
68.49469658588804
 20
-137.0252388546325
 30
0.0
 10
67.67131327356097
 20
-137.0252388546325
 30
0.0
 10
67.8435746580551
 20
-136.3024324659244
 30
0.0
 10
67.8435746580551
 20
-136.3024324659244
 30
0.0
 10
67.87666521276645
 20
-135.9000541326914
 30
0.0
 10
68.49469658588804
 20
-135.9248544104634
 30
0.0
 10
68.49469658588804
 20
-135.9248544104634
 30
0.0
 10
68.49469658588804
 20
-135.9248544104634
 30
0.0
 10
87.33317054972298
 20
-135.9248544104634
 30
0.0
 10
87.33317054972298
 20
-135.9248544104634
 30
0.0
 10
87.33317054972298
 20
-135.9248544104634
 30
0.0
 10
87.33317054972298
 20
-120.9250960808799
 30
0.0
 10
87.33317054972298
 20
-120.9250960808799
 30
0.0
 10
87.33317054972298
 20
-120.9250960808799
 30
0.0
 10
78.83341354434762
 20
-120.9250960808799
 30
0.0
 10
78.83341354434762
 20
-120.9250960808799
 30
0.0
 10
78.83341354434762
 20
-120.9250960808799
 30
0.0
 10
78.83341354434762
 20
-122.9249580248243
 30
0.0
 10
78.83341354434762
 20
-122.9249580248243
 30
0.0
 10
78.83341354434762
 20
-122.9249580248243
 30
0.0
 10
77.83297106987104
 20
-122.9249580248243
 30
0.0
 10
77.83297106987104
 20
-122.9249580248243
 30
0.0
 10
77.83297106987104
 20
-122.9249580248243
 30
0.0
 10
77.83297106987104
 20
-119.92497108113
 30
0.0
 10
77.83297106987104
 20
-119.92497108113
 30
0.0
 10
77.83297106987104
 20
-119.92497108113
 30
0.0
 10
97.83314222629083
 20
-119.92497108113
 30
0.0
 10
97.83314222629083
 20
-119.92497108113
 30
0.0
 10
97.83314222629083
 20
-119.92497108113
 30
0.0
 10
97.83314222629083
 20
-122.9249580248243
 30
0.0
 10
97.83314222629083
 20
-122.9249580248243
 30
0.0
 10
97.83314222629083
 20
-122.9249580248243
 30
0.0
 10
96.83337002957492
 20
-122.9249580248243
 30
0.0
 10
96.83337002957492
 20
-122.9249580248243
 30
0.0
 10
96.83337002957492
 20
-122.9249580248243
 30
0.0
 10
96.83337002957492
 20
-120.9250960808799
 30
0.0
 10
96.83337002957492
 20
-120.9250960808799
 30
0.0
 10
96.83337002957492
 20
-120.9250960808799
 30
0.0
 10
88.33294274643889
 20
-120.9250960808799
 30
0.0
 10
88.33294274643889
 20
-120.9250960808799
 30
0.0
 10
88.33294274643889
 20
-120.9250960808799
 30
0.0
 10
88.33294274643889
 20
-135.9248544104634
 30
0.0
 10
88.33294274643889
 20
-135.9248544104634
 30
0.0
 10
88.33294274643889
 20
-135.9248544104634
 30
0.0
 10
107.1714194176515
 20
-135.9248544104634
 30
0.0
 10
107.1714194176515
 20
-135.9248544104634
 30
0.0
 10
107.1714194176515
 20
-135.9248544104634
 30
0.0
 10
107.7894480833954
 20
-135.9000541326914
 30
0.0
 10
107.8225386381068
 20
-136.3024324659244
 30
0.0
 10
107.8225386381068
 20
-136.3024324659244
 30
0.0
 10
107.9948027507792
 20
-137.0252388546325
 30
0.0
 10
107.1714194176515
 20
-137.0252388546325
 30
0.0
 10
107.1714194176515
 20
-137.0252388546325
 30
0.0
 10
68.49469658588804
 20
-137.0252388546325
 30
0.0
 10
68.49469658588804
 20
-137.0252388546325
 30
0.0
  0
HATCH
  5
83
330
1F
100
AcDbEntity
  8
_U+30EC_U+30A4_U+30E4_U+30FC 1
 62
     9
420
 13224394
100
AcDbHatch
 10
0.0
 20
0.0
 30
0.0
210
0.0
220
0.0
230
1.0
  2
SOLID
 70
     1
 71
     0
 91
        1
 92
        1
 93
        1
 72
     4
 94
        3
 73
     0
 74
     1
 95
       59
 96
       55
 40
0.0
 40
0.0
 40
0.0
 40
0.0
 40
1.0
 40
1.0
 40
1.0
 40
2.0
 40
2.0
 40
2.0
 40
3.0
 40
3.0
 40
3.0
 40
4.0
 40
4.0
 40
4.0
 40
5.0
 40
5.0
 40
5.0
 40
6.0
 40
6.0
 40
6.0
 40
7.0
 40
7.0
 40
7.0
 40
8.0
 40
8.0
 40
8.0
 40
9.0
 40
9.0
 40
9.0
 40
10.0
 40
10.0
 40
10.0
 40
11.0
 40
11.0
 40
11.0
 40
12.0
 40
12.0
 40
12.0
 40
13.0
 40
13.0
 40
13.0
 40
14.0
 40
14.0
 40
14.0
 40
15.0
 40
15.0
 40
15.0
 40
16.0
 40
16.0
 40
16.0
 40
17.0
 40
17.0
 40
17.0
 40
18.0
 40
18.0
 40
18.0
 40
18.0
 10
68.49469658588804
 20
-137.0252388546325
 10
67.67131327356097
 20
-137.0252388546325
 10
67.8435746580551
 20
-136.3024324659244
 10
67.8435746580551
 20
-136.3024324659244
 10
67.87666521276645
 20
-135.9000541326914
 10
68.49469658588804
 20
-135.9248544104634
 10
68.49469658588804
 20
-135.9248544104634
 10
68.49469658588804
 20
-135.9248544104634
 10
87.33317054972298
 20
-135.9248544104634
 10
87.33317054972298
 20
-135.9248544104634
 10
87.33317054972298
 20
-135.9248544104634
 10
87.33317054972298
 20
-120.9250960808799
 10
87.33317054972298
 20
-120.9250960808799
 10
87.33317054972298
 20
-120.9250960808799
 10
78.83341354434762
 20
-120.9250960808799
 10
78.83341354434762
 20
-120.9250960808799
 10
78.83341354434762
 20
-120.9250960808799
 10
78.83341354434762
 20
-122.9249580248243
 10
78.83341354434762
 20
-122.9249580248243
 10
78.83341354434762
 20
-122.9249580248243
 10
77.83297106987104
 20
-122.9249580248243
 10
77.83297106987104
 20
-122.9249580248243
 10
77.83297106987104
 20
-122.9249580248243
 10
77.83297106987104
 20
-119.92497108113
 10
77.83297106987104
 20
-119.92497108113
 10
77.83297106987104
 20
-119.92497108113
 10
97.83314222629083
 20
-119.92497108113
 10
97.83314222629083
 20
-119.92497108113
 10
97.83314222629083
 20
-119.92497108113
 10
97.83314222629083
 20
-122.9249580248243
 10
97.83314222629083
 20
-122.9249580248243
 10
97.83314222629083
 20
-122.9249580248243
 10
96.83337002957492
 20
-122.9249580248243
 10
96.83337002957492
 20
-122.9249580248243
 10
96.83337002957492
 20
-122.9249580248243
 10
96.83337002957492
 20
-120.9250960808799
 10
96.83337002957492
 20
-120.9250960808799
 10
96.83337002957492
 20
-120.9250960808799
 10
88.33294274643889
 20
-120.9250960808799
 10
88.33294274643889
 20
-120.9250960808799
 10
88.33294274643889
 20
-120.9250960808799
 10
88.33294274643889
 20
-135.9248544104634
 10
88.33294274643889
 20
-135.9248544104634
 10
88.33294274643889
 20
-135.9248544104634
 10
107.1714194176515
 20
-135.9248544104634
 10
107.1714194176515
 20
-135.9248544104634
 10
107.1714194176515
 20
-135.9248544104634
 10
107.7894480833954
 20
-135.9000541326914
 10
107.8225386381068
 20
-136.3024324659244
 10
107.8225386381068
 20
-136.3024324659244
 10
107.9948027507792
 20
-137.0252388546325
 10
107.1714194176515
 20
-137.0252388546325
 10
107.1714194176515
 20
-137.0252388546325
 10
68.49469658588804
 20
-137.0252388546325
 10
68.49469658588804
 20
-137.0252388546325
 97
        0
 97
        0
 75
     2
 76
     1
 98
        0
  0
SPLINE
  5
84
330
1F
100
AcDbEntity
  8
_U+30EC_U+30A4_U+30E4_U+30FC 1
 62
   179
420
  2234388
370
     9
100
AcDbSpline
210
0.0
220
0.0
230
1.0
 70
    11
 71
     3
 72
    17
 73
    13
 74
     0
 42
0.0000000001
 43
0.0000000001
 12
1.0
 22
0.0
 32
0.0
 13
1.0
 23
0.0
 33
0.0
 40
0.0
 40
0.0
 40
0.0
 40
0.0
 40
1.0
 40
1.0
 40
1.0
 40
2.0
 40
2.0
 40
2.0
 40
3.0
 40
3.0
 40
3.0
 40
4.0
 40
4.0
 40
4.0
 40
4.0
 10
110.4060007944194
 20
-137.0252388546325
 30
0.0
 10
110.4060007944194
 20
-136.9700996879794
 30
0.0
 10
110.3612360835205
 20
-136.9253321879908
 30
0.0
 10
110.3060941303015
 20
-136.9253321879908
 30
0.0
 10
110.2509902428185
 20
-136.9253321879908
 30
0.0
 10
110.2061874661837
 20
-136.9700996879794
 30
0.0
 10
110.2061874661837
 20
-137.0252388546325
 30
0.0
 10
110.2061874661837
 20
-137.0803427435074
 30
0.0
 10
110.2509902428185
 20
-137.1251455212741
 30
0.0
 10
110.3060941303015
 20
-137.1251455212741
 30
0.0
 10
110.3612360835205
 20
-137.1251455212741
 30
0.0
 10
110.4060007944194
 20
-137.0803427435074
 30
0.0
 10
110.4060007944194
 20
-137.0252388546325
 30
0.0
  0
SPLINE
  5
85
330
1F
100
AcDbEntity
  8
_U+30EC_U+30A4_U+30E4_U+30FC 1
 62
   179
420
  2234388
370
     9
100
AcDbSpline
210
0.0
220
0.0
230
1.0
 70
    11
 71
     3
 72
    17
 73
    13
 74
     0
 42
0.0000000001
 43
0.0000000001
 12
1.0
 22
0.0
 32
0.0
 13
1.0
 23
0.0
 33
0.0
 40
0.0
 40
0.0
 40
0.0
 40
0.0
 40
1.0
 40
1.0
 40
1.0
 40
2.0
 40
2.0
 40
2.0
 40
3.0
 40
3.0
 40
3.0
 40
4.0
 40
4.0
 40
4.0
 40
4.0
 10
110.4060007944194
 20
-135.9248544104634
 30
0.0
 10
110.4060007944194
 20
-135.8697505215879
 30
0.0
 10
110.3612360835205
 20
-135.8253005215995
 30
0.0
 10
110.3060941303015
 20
-135.8253005215995
 30
0.0
 10
110.2509902428185
 20
-135.8253005215995
 30
0.0
 10
110.2061874661837
 20
-135.8697505215879
 30
0.0
 10
110.2061874661837
 20
-135.9248544104634
 30
0.0
 10
110.2061874661837
 20
-135.9799935771158
 30
0.0
 10
110.2509902428185
 20
-136.024761077105
 30
0.0
 10
110.3060941303015
 20
-136.024761077105
 30
0.0
 10
110.3612360835205
 20
-136.024761077105
 30
0.0
 10
110.4060007944194
 20
-135.9799935771158
 30
0.0
 10
110.4060007944194
 20
-135.9248544104634
 30
0.0
  0
SPLINE
  5
86
330
1F
100
AcDbEntity
  8
_U+30EC_U+30A4_U+30E4_U+30FC 1
 62
   179
420
  2234388
370
     9
100
AcDbSpline
210
0.0
220
0.0
230
1.0
 70
    11
 71
     3
 72
    17
 73
    13
 74
     0
 42
0.0000000001
 43
0.0000000001
 12
1.0
 22
0.0
 32
0.0
 13
1.0
 23
0.0
 33
0.0
 40
0.0
 40
0.0
 40
0.0
 40
0.0
 40
1.0
 40
1.0
 40
1.0
 40
2.0
 40
2.0
 40
2.0
 40
3.0
 40
3.0
 40
3.0
 40
4.0
 40
4.0
 40
4.0
 40
4.0
 10
110.4060007944194
 20
-122.9249580248243
 30
0.0
 10
110.4060007944194
 20
-122.8698541359491
 30
0.0
 10
110.3612360835205
 20
-122.8252277470715
 30
0.0
 10
110.3060941303015
 20
-122.8252277470715
 30
0.0
 10
110.2509902428185
 20
-122.8252277470715
 30
0.0
 10
110.2061874661837
 20
-122.8698541359491
 30
0.0
 10
110.2061874661837
 20
-122.9249580248243
 30
0.0
 10
110.2061874661837
 20
-122.980097191477
 30
0.0
 10
110.2509902428185
 20
-123.0248646914659
 30
0.0
 10
110.3060941303015
 20
-123.0248646914659
 30
0.0
 10
110.3612360835205
 20
-123.0248646914659
 30
0.0
 10
110.4060007944194
 20
-122.980097191477
 30
0.0
 10
110.4060007944194
 20
-122.9249580248243
 30
0.0
  0
SPLINE
  5
87
330
1F
100
AcDbEntity
  8
_U+30EC_U+30A4_U+30E4_U+30FC 1
 62
   179
420
  2234388
370
     9
100
AcDbSpline
210
0.0
220
0.0
230
1.0
 70
    11
 71
     3
 72
    17
 73
    13
 74
     0
 42
0.0000000001
 43
0.0000000001
 12
1.0
 22
0.0
 32
0.0
 13
1.0
 23
0.0
 33
0.0
 40
0.0
 40
0.0
 40
0.0
 40
0.0
 40
1.0
 40
1.0
 40
1.0
 40
2.0
 40
2.0
 40
2.0
 40
3.0
 40
3.0
 40
3.0
 40
4.0
 40
4.0
 40
4.0
 40
4.0
 10
110.4060007944194
 20
-119.92497108113
 30
0.0
 10
110.4060007944194
 20
-119.8698671922547
 30
0.0
 10
110.3612360835205
 20
-119.8252408033769
 30
0.0
 10
110.3060941303015
 20
-119.8252408033769
 30
0.0
 10
110.2509902428185
 20
-119.8252408033769
 30
0.0
 10
110.2061874661837
 20
-119.8698671922547
 30
0.0
 10
110.2061874661837
 20
-119.92497108113
 30
0.0
 10
110.2061874661837
 20
-119.9801102477827
 30
0.0
 10
110.2509902428185
 20
-120.0248777477716
 30
0.0
 10
110.3060941303015
 20
-120.0248777477716
 30
0.0
 10
110.3612360835205
 20
-120.0248777477716
 30
0.0
 10
110.4060007944194
 20
-119.9801102477827
 30
0.0
 10
110.4060007944194
 20
-119.92497108113
 30
0.0
  0
POLYLINE
  5
88
330
1F
100
AcDbEntity
  8
_U+30EC_U+30A4_U+30E4_U+30FC 1
 62
   179
420
  2234388
370
     9
100
AcDb2dPolyline
 66
     1
 10
0.0
 20
0.0
 30
0.0
  0
VERTEX
  5
89
330
88
100
AcDbEntity
  8
_U+30EC_U+30A4_U+30E4_U+30FC 1
 62
   179
420
  2234388
370
     9
100
AcDbVertex
100
AcDb2dVertex
 10
110.3060941303015
 20
-137.0266146879653
 30
0.0
  0
VERTEX
  5
8A
330
88
100
AcDbEntity
  8
_U+30EC_U+30A4_U+30E4_U+30FC 1
 62
   179
420
  2234388
370
     9
100
AcDbVertex
100
AcDb2dVertex
 10
110.3060941303015
 20
-119.9265233033517
 30
0.0
  0
SEQEND
  5
8B
330
88
100
AcDbEntity
  8
_U+30EC_U+30A4_U+30E4_U+30FC 1
 62
   179
420
  2234388
370
     9
  0
POLYLINE
  5
8C
330
1F
100
AcDbEntity
  8
_U+30EC_U+30A4_U+30E4_U+30FC 1
 62
   179
420
  2234388
370
     9
100
AcDb2dPolyline
 66
     1
 10
0.0
 20
0.0
 30
0.0
  0
VERTEX
  5
8D
330
8C
100
AcDbEntity
  8
_U+30EC_U+30A4_U+30E4_U+30FC 1
 62
   179
420
  2234388
370
     9
100
AcDbVertex
100
AcDb2dVertex
 10
108.8460555283444
 20
-137.0252388546325
 30
0.0
  0
VERTEX
  5
8E
330
8C
100
AcDbEntity
  8
_U+30EC_U+30A4_U+30E4_U+30FC 1
 62
   179
420
  2234388
370
     9
100
AcDbVertex
100
AcDb2dVertex
 10
111.3065366047781
 20
-137.0252388546325
 30
0.0
  0
SEQEND
  5
8F
330
8C
100
AcDbEntity
  8
_U+30EC_U+30A4_U+30E4_U+30FC 1
 62
   179
420
  2234388
370
     9
  0
POLYLINE
  5
90
330
1F
100
AcDbEntity
  8
_U+30EC_U+30A4_U+30E4_U+30FC 1
 62
   179
420
  2234388
370
     9
100
AcDb2dPolyline
 66
     1
 10
0.0
 20
0.0
 30
0.0
  0
VERTEX
  5
91
330
90
100
AcDbEntity
  8
_U+30EC_U+30A4_U+30E4_U+30FC 1
 62
   179
420
  2234388
370
     9
100
AcDbVertex
100
AcDb2dVertex
 10
108.8460555283444
 20
-135.9248544104634
 30
0.0
  0
VERTEX
  5
92
330
90
100
AcDbEntity
  8
_U+30EC_U+30A4_U+30E4_U+30FC 1
 62
   179
420
  2234388
370
     9
100
AcDbVertex
100
AcDb2dVertex
 10
111.3065366047781
 20
-135.9248544104634
 30
0.0
  0
SEQEND
  5
93
330
90
100
AcDbEntity
  8
_U+30EC_U+30A4_U+30E4_U+30FC 1
 62
   179
420
  2234388
370
     9
  0
POLYLINE
  5
94
330
1F
100
AcDbEntity
  8
_U+30EC_U+30A4_U+30E4_U+30FC 1
 62
   179
420
  2234388
370
     9
100
AcDb2dPolyline
 66
     1
 10
0.0
 20
0.0
 30
0.0
  0
VERTEX
  5
95
330
94
100
AcDbEntity
  8
_U+30EC_U+30A4_U+30E4_U+30FC 1
 62
   179
420
  2234388
370
     9
100
AcDbVertex
100
AcDb2dVertex
 10
104.8459762140452
 20
-122.9249580248243
 30
0.0
  0
VERTEX
  5
96
330
94
100
AcDbEntity
  8
_U+30EC_U+30A4_U+30E4_U+30FC 1
 62
   179
420
  2234388
370
     9
100
AcDbVertex
100
AcDb2dVertex
 10
111.3065366047781
 20
-122.9249580248243
 30
0.0
  0
SEQEND
  5
97
330
94
100
AcDbEntity
  8
_U+30EC_U+30A4_U+30E4_U+30FC 1
 62
   179
420
  2234388
370
     9
  0
POLYLINE
  5
98
330
1F
100
AcDbEntity
  8
_U+30EC_U+30A4_U+30E4_U+30FC 1
 62
   179
420
  2234388
370
     9
100
AcDb2dPolyline
 66
     1
 10
0.0
 20
0.0
 30
0.0
  0
VERTEX
  5
99
330
98
100
AcDbEntity
  8
_U+30EC_U+30A4_U+30E4_U+30FC 1
 62
   179
420
  2234388
370
     9
100
AcDbVertex
100
AcDb2dVertex
 10
104.8459762140452
 20
-119.92497108113
 30
0.0
  0
VERTEX
  5
9A
330
98
100
AcDbEntity
  8
_U+30EC_U+30A4_U+30E4_U+30FC 1
 62
   179
420
  2234388
370
     9
100
AcDbVertex
100
AcDb2dVertex
 10
111.3065366047781
 20
-119.92497108113
 30
0.0
  0
SEQEND
  5
9B
330
98
100
AcDbEntity
  8
_U+30EC_U+30A4_U+30E4_U+30FC 1
 62
   179
420
  2234388
370
     9
  0
INSERT
  5
9D
330
1F
100
AcDbEntity
  8
_U+30EC_U+30A4_U+30E4_U+30FC 1
100
AcDbBlockReference
  2
block 4
 10
0.0
 20
0.0
 30
0.0
  0
INSERT
  5
AD
330
1F
100
AcDbEntity
  8
_U+30EC_U+30A4_U+30E4_U+30FC 1
100
AcDbBlockReference
  2
block 5
 10
0.0
 20
0.0
 30
0.0
  0
INSERT
  5
B5
330
1F
100
AcDbEntity
  8
_U+30EC_U+30A4_U+30E4_U+30FC 1
100
AcDbBlockReference
  2
block 6
 10
0.0
 20
0.0
 30
0.0
  0
ENDSEC
  0
SECTION
  2
OBJECTS
  0
DICTIONARY
  5
C
330
0
100
AcDbDictionary
281
     1
  3
ACAD_GROUP
350
D
  3
ACAD_LAYOUT
350
1A
  3
ACAD_MATERIAL
350
3B
  3
ACAD_MLEADERSTYLE
350
BB
  3
ACAD_MLINESTYLE
350
17
  3
ACAD_PLOTSETTINGS
350
19
  3
ACAD_PLOTSTYLENAME
350
E
  3
ACAD_TABLESTYLE
350
BA
  3
ACAD_VISUALSTYLE
350
2A
  0
SUN
  5
3F
330
29
100
AcDbSun
 90
        1
290
     0
 63
     7
421
 16777215
 40
1.0
291
     1
 91
  2455826
 92
 54000000
292
     0
 70
     2
 71
   256
280
     1
  0
DICTIONARY
  5
D
102
{ACAD_REACTORS
330
C
102
}
330
C
100
AcDbDictionary
281
     1
  0
DICTIONARY
  5
1A
102
{ACAD_REACTORS
330
C
102
}
330
C
100
AcDbDictionary
281
     1
  3
Layout1
350
1E
  3
Layout2
350
26
  3
Model
350
22
  0
DICTIONARY
  5
3B
102
{ACAD_REACTORS
330
C
102
}
330
C
100
AcDbDictionary
281
     1
  3
ByBlock
350
3D
  3
ByLayer
350
3C
  3
Global
350
3E
  0
DICTIONARY
  5
BB
102
{ACAD_REACTORS
330
C
102
}
330
C
100
AcDbDictionary
281
     1
  0
DICTIONARY
  5
17
102
{ACAD_REACTORS
330
C
102
}
330
C
100
AcDbDictionary
281
     1
  3
Standard
350
18
  0
DICTIONARY
  5
19
102
{ACAD_REACTORS
330
C
102
}
330
C
100
AcDbDictionary
281
     1
  0
ACDBDICTIONARYWDFLT
  5
E
102
{ACAD_REACTORS
330
C
102
}
330
C
100
AcDbDictionary
281
     1
  3
Normal
350
F
100
AcDbDictionaryWithDefault
340
F
  0
DICTIONARY
  5
BA
102
{ACAD_REACTORS
330
C
102
}
330
C
100
AcDbDictionary
281
     1
  0
DICTIONARY
  5
2A
102
{ACAD_REACTORS
330
C
102
}
330
C
100
AcDbDictionary
281
     1
  3
2dWireframe
350
2F
  3
3D Hidden
350
31
  3
3dWireframe
350
30
  3
Basic
350
32
  3
Brighten
350
36
  3
ColorChange
350
3A
  3
Conceptual
350
34
  3
Dim
350
35
  3
Facepattern
350
39
  3
Flat
350
2B
  3
FlatWithEdges
350
2C
  3
Gouraud
350
2D
  3
GouraudWithEdges
350
2E
  3
Linepattern
350
38
  3
Realistic
350
33
  3
Thicken
350
37
  0
LAYOUT
  5
1E
102
{ACAD_REACTORS
330
1A
102
}
330
1A
100
AcDbPlotSettings
  1

  2
none_device
  4

  6

 40
0.0
 41
0.0
 42
0.0
 43
0.0
 44
0.0
 45
0.0
 46
0.0
 47
0.0
 48
0.0
 49
0.0
140
0.0
141
0.0
142
1.0
143
1.0
 70
   688
 72
     0
 73
     0
 74
     5
  7

 75
    16
 76
     0
 77
     2
 78
   300
147
1.0
148
0.0
149
0.0
100
AcDbLayout
  1
Layout1
 70
     1
 71
     1
 10
0.0
 20
0.0
 11
12.0
 21
9.0
 12
0.0
 22
0.0
 32
0.0
 14
1.000000000000000E+20
 24
1.000000000000000E+20
 34
1.000000000000000E+20
 15
-1.000000000000000E+20
 25
-1.000000000000000E+20
 35
-1.000000000000000E+20
146
0.0
 13
0.0
 23
0.0
 33
0.0
 16
1.0
 26
0.0
 36
0.0
 17
0.0
 27
1.0
 37
0.0
 76
     0
330
1B
  0
LAYOUT
  5
26
102
{ACAD_REACTORS
330
1A
102
}
330
1A
100
AcDbPlotSettings
  1

  2
none_device
  4

  6

 40
0.0
 41
0.0
 42
0.0
 43
0.0
 44
0.0
 45
0.0
 46
0.0
 47
0.0
 48
0.0
 49
0.0
140
0.0
141
0.0
142
1.0
143
1.0
 70
   688
 72
     0
 73
     0
 74
     5
  7

 75
    16
 76
     0
 77
     2
 78
   300
147
1.0
148
0.0
149
0.0
100
AcDbLayout
  1
Layout2
 70
     1
 71
     2
 10
0.0
 20
0.0
 11
0.0
 21
0.0
 12
0.0
 22
0.0
 32
0.0
 14
0.0
 24
0.0
 34
0.0
 15
0.0
 25
0.0
 35
0.0
146
0.0
 13
0.0
 23
0.0
 33
0.0
 16
1.0
 26
0.0
 36
0.0
 17
0.0
 27
1.0
 37
0.0
 76
     0
330
23
  0
LAYOUT
  5
22
102
{ACAD_REACTORS
330
1A
102
}
330
1A
100
AcDbPlotSettings
  1

  2
none_device
  4

  6

 40
0.0
 41
0.0
 42
0.0
 43
0.0
 44
0.0
 45
0.0
 46
0.0
 47
0.0
 48
0.0
 49
0.0
140
0.0
141
0.0
142
1.0
143
1.0
 70
  1712
 72
     0
 73
     0
 74
     0
  7

 75
     0
 76
     0
 77
     2
 78
   300
147
1.0
148
0.0
149
0.0
100
AcDbLayout
  1
Model
 70
     1
 71
     0
 10
0.0
 20
0.0
 11
12.0
 21
9.0
 12
0.0
 22
0.0
 32
0.0
 14
1.000000000000000E+20
 24
1.000000000000000E+20
 34
1.000000000000000E+20
 15
-1.000000000000000E+20
 25
-1.000000000000000E+20
 35
-1.000000000000000E+20
146
0.0
 13
0.0
 23
0.0
 33
0.0
 16
1.0
 26
0.0
 36
0.0
 17
0.0
 27
1.0
 37
0.0
 76
     0
330
1F
331
29
  0
MATERIAL
  5
3D
102
{ACAD_REACTORS
330
3B
102
}
330
3B
100
AcDbMaterial
  1
ByBlock
 72
     1
 94
      127
  0
MATERIAL
  5
3C
102
{ACAD_REACTORS
330
3B
102
}
330
3B
100
AcDbMaterial
  1
ByLayer
 72
     1
 94
      127
  0
MATERIAL
  5
3E
102
{ACAD_REACTORS
330
3B
102
}
330
3B
100
AcDbMaterial
  1
Global
 72
     1
 94
      127
  0
MLINESTYLE
  5
18
102
{ACAD_REACTORS
330
17
102
}
330
17
100
AcDbMlineStyle
  2
Standard
 70
     0
  3

 62
   256
 51
90.0
 52
90.0
 71
     2
 49
0.5
 62
   256
  6
BYLAYER
 49
-0.5
 62
   256
  6
BYLAYER
  0
ACDBPLACEHOLDER
  5
F
102
{ACAD_REACTORS
330
E
102
}
330
E
  0
VISUALSTYLE
  5
2F
102
{ACAD_REACTORS
330
2A
102
}
330
2A
100
AcDbVisualStyle
  2
2dWireframe
 70
     4
177
     2
291
     0
 71
     0
176
     1
 72
     2
176
     1
 73
     0
176
     1
 90
        0
176
     1
 40
-0.6
176
     1
 41
-30.0
176
     1
 62
     5
 63
     7
421
 16777215
176
     1
 74
     1
176
     1
 91
        4
176
     1
 64
     7
176
     1
 65
   257
176
     1
 75
     1
176
     1
175
     1
176
     1
 42
1.0
176
     1
 92
        0
176
     1
 66
   257
176
     1
 43
1.0
176
     1
 76
     1
176
     1
 77
     6
176
     1
 78
     2
176
     1
 67
     7
176
     1
 79
     5
176
     1
170
     0
176
     1
171
     0
176
     1
290
     0
176
     1
 93
        1
176
     1
 44
0.0
176
     1
173
     0
176
     1
  0
VISUALSTYLE
  5
31
102
{ACAD_REACTORS
330
2A
102
}
330
2A
100
AcDbVisualStyle
  2
3D Hidden
 70
     6
177
     2
291
     0
 71
     1
176
     1
 72
     2
176
     1
 73
     2
176
     1
 90
        0
176
     1
 40
-0.6
176
     1
 41
-30.0
176
     1
 62
     5
 63
     7
421
 16777215
176
     1
 74
     2
176
     1
 91
        2
176
     1
 64
     7
176
     1
 65
   257
176
     1
 75
     2
176
     1
175
     1
176
     1
 42
40.0
176
     1
 92
        0
176
     1
 66
   257
176
     1
 43
1.0
176
     1
 76
     1
176
     1
 77
     6
176
     1
 78
     2
176
     1
 67
     7
176
     1
 79
     3
176
     1
170
     0
176
     1
171
     0
176
     1
290
     0
176
     1
 93
        1
176
     1
 44
0.0
176
     1
173
     0
176
     1
  0
VISUALSTYLE
  5
30
102
{ACAD_REACTORS
330
2A
102
}
330
2A
100
AcDbVisualStyle
  2
3dWireframe
 70
     5
177
     2
291
     0
 71
     0
176
     1
 72
     2
176
     1
 73
     0
176
     1
 90
        0
176
     1
 40
-0.6
176
     1
 41
-30.0
176
     1
 62
     5
 63
     7
421
 16777215
176
     1
 74
     1
176
     1
 91
        4
176
     1
 64
     7
176
     1
 65
   257
176
     1
 75
     1
176
     1
175
     1
176
     1
 42
1.0
176
     1
 92
        0
176
     1
 66
   257
176
     1
 43
1.0
176
     1
 76
     1
176
     1
 77
     6
176
     1
 78
     2
176
     1
 67
     7
176
     1
 79
     5
176
     1
170
     0
176
     1
171
     0
176
     1
290
     0
176
     1
 93
        1
176
     1
 44
0.0
176
     1
173
     0
176
     1
  0
VISUALSTYLE
  5
32
102
{ACAD_REACTORS
330
2A
102
}
330
2A
100
AcDbVisualStyle
  2
Basic
 70
     7
177
     2
291
     1
 71
     1
176
     1
 72
     0
176
     1
 73
     1
176
     1
 90
        0
176
     1
 40
-0.6
176
     1
 41
-30.0
176
     1
 62
     5
 63
     7
421
 16777215
176
     1
 74
     0
176
     1
 91
        4
176
     1
 64
     7
176
     1
 65
   257
176
     1
 75
     1
176
     1
175
     1
176
     1
 42
1.0
176
     1
 92
        8
176
     1
 66
     7
176
     1
 43
1.0
176
     1
 76
     1
176
     1
 77
     6
176
     1
 78
     2
176
     1
 67
     7
176
     1
 79
     5
176
     1
170
     0
176
     1
171
     0
176
     1
290
     0
176
     1
 93
        1
176
     1
 44
0.0
176
     1
173
     0
176
     1
  0
VISUALSTYLE
  5
36
102
{ACAD_REACTORS
330
2A
102
}
330
2A
100
AcDbVisualStyle
  2
Brighten
 70
    12
177
     2
291
     1
 71
     2
176
     1
 72
     2
176
     1
 73
     0
176
     1
 90
        0
176
     1
 40
-0.6
176
     1
 41
-30.0
176
     1
 62
     5
 63
     7
421
 16777215
176
     1
 74
     1
176
     1
 91
        4
176
     1
 64
     7
176
     1
 65
   257
176
     1
 75
     1
176
     1
175
     1
176
     1
 42
1.0
176
     1
 92
        8
176
     1
 66
     7
176
     1
 43
1.0
176
     1
 76
     1
176
     1
 77
     6
176
     1
 78
     2
176
     1
 67
     7
176
     1
 79
     5
176
     1
170
     0
176
     1
171
     0
176
     1
290
     0
176
     1
 93
        1
176
     1
 44
50.0
176
     1
173
     0
176
     1
  0
VISUALSTYLE
  5
3A
102
{ACAD_REACTORS
330
2A
102
}
330
2A
100
AcDbVisualStyle
  2
ColorChange
 70
    16
177
     2
291
     1
 71
     2
176
     1
 72
     2
176
     1
 73
     3
176
     1
 90
        0
176
     1
 40
-0.6
176
     1
 41
-30.0
176
     1
 62
     5
 63
     8
421
  8421504
176
     1
 74
     1
176
     1
 91
        4
176
     1
 64
     7
176
     1
 65
   257
176
     1
 75
     1
176
     1
175
     1
176
     1
 42
1.0
176
     1
 92
        8
176
     1
 66
     8
424
  8421504
176
     1
 43
1.0
176
     1
 76
     1
176
     1
 77
     6
176
     1
 78
     2
176
     1
 67
     7
176
     1
 79
     5
176
     1
170
     0
176
     1
171
     0
176
     1
290
     0
176
     1
 93
        1
176
     1
 44
0.0
176
     1
173
     0
176
     1
  0
VISUALSTYLE
  5
34
102
{ACAD_REACTORS
330
2A
102
}
330
2A
100
AcDbVisualStyle
  2
Conceptual
 70
     9
177
     2
291
     0
 71
     3
176
     1
 72
     2
176
     1
 73
     0
176
     1
 90
        0
176
     1
 40
-0.6
176
     1
 41
-30.0
176
     1
 62
     5
 63
     7
421
 16777215
176
     1
 74
     2
176
     1
 91
        2
176
     1
 64
     7
176
     1
 65
   257
176
     1
 75
     1
176
     1
175
     1
176
     1
 42
40.0
176
     1
 92
        8
176
     1
 66
     7
176
     1
 43
1.0
176
     1
 76
     1
176
     1
 77
     6
176
     1
 78
     2
176
     1
 67
     7
176
     1
 79
     3
176
     1
170
     0
176
     1
171
     0
176
     1
290
     0
176
     1
 93
        1
176
     1
 44
0.0
176
     1
173
     0
176
     1
  0
VISUALSTYLE
  5
35
102
{ACAD_REACTORS
330
2A
102
}
330
2A
100
AcDbVisualStyle
  2
Dim
 70
    11
177
     2
291
     1
 71
     2
176
     1
 72
     2
176
     1
 73
     0
176
     1
 90
        0
176
     1
 40
-0.6
176
     1
 41
-30.0
176
     1
 62
     5
 63
     7
421
 16777215
176
     1
 74
     1
176
     1
 91
        4
176
     1
 64
     7
176
     1
 65
   257
176
     1
 75
     1
176
     1
175
     1
176
     1
 42
1.0
176
     1
 92
        8
176
     1
 66
     7
176
     1
 43
1.0
176
     1
 76
     1
176
     1
 77
     6
176
     1
 78
     2
176
     1
 67
     7
176
     1
 79
     5
176
     1
170
     0
176
     1
171
     0
176
     1
290
     0
176
     1
 93
        1
176
     1
 44
-50.0
176
     1
173
     0
176
     1
  0
VISUALSTYLE
  5
39
102
{ACAD_REACTORS
330
2A
102
}
330
2A
100
AcDbVisualStyle
  2
Facepattern
 70
    15
177
     2
291
     1
 71
     2
176
     1
 72
     2
176
     1
 73
     0
176
     1
 90
        0
176
     1
 40
-0.6
176
     1
 41
-30.0
176
     1
 62
     5
 63
     7
421
 16777215
176
     1
 74
     1
176
     1
 91
        4
176
     1
 64
     7
176
     1
 65
   257
176
     1
 75
     1
176
     1
175
     1
176
     1
 42
1.0
176
     1
 92
        8
176
     1
 66
     7
176
     1
 43
1.0
176
     1
 76
     1
176
     1
 77
     6
176
     1
 78
     2
176
     1
 67
     7
176
     1
 79
     5
176
     1
170
     0
176
     1
171
     0
176
     1
290
     0
176
     1
 93
        1
176
     1
 44
0.0
176
     1
173
     0
176
     1
  0
VISUALSTYLE
  5
2B
102
{ACAD_REACTORS
330
2A
102
}
330
2A
100
AcDbVisualStyle
  2
Flat
 70
     0
177
     2
291
     1
 71
     2
176
     1
 72
     1
176
     1
 73
     1
176
     1
 90
        2
176
     1
 40
-0.6
176
     1
 41
30.0
176
     1
 62
     5
 63
     7
421
 16777215
176
     1
 74
     0
176
     1
 91
        4
176
     1
 64
     7
176
     1
 65
   257
176
     1
 75
     1
176
     1
175
     1
176
     1
 42
1.0
176
     1
 92
        8
176
     1
 66
     7
176
     1
 43
1.0
176
     1
 76
     1
176
     1
 77
     6
176
     1
 78
     2
176
     1
 67
     7
176
     1
 79
     5
176
     1
170
     0
176
     1
171
     0
176
     1
290
     0
176
     1
 93
       13
176
     1
 44
0.0
176
     1
173
     0
176
     1
  0
VISUALSTYLE
  5
2C
102
{ACAD_REACTORS
330
2A
102
}
330
2A
100
AcDbVisualStyle
  2
FlatWithEdges
 70
     1
177
     2
291
     1
 71
     2
176
     1
 72
     1
176
     1
 73
     1
176
     1
 90
        2
176
     1
 40
-0.6
176
     1
 41
30.0
176
     1
 62
     5
 63
     7
421
 16777215
176
     1
 74
     1
176
     1
 91
        4
176
     1
 64
     7
176
     1
 65
   257
176
     1
 75
     1
176
     1
175
     1
176
     1
 42
1.0
176
     1
 92
        0
176
     1
 66
   257
176
     1
 43
1.0
176
     1
 76
     1
176
     1
 77
     6
176
     1
 78
     2
176
     1
 67
     7
176
     1
 79
     5
176
     1
170
     0
176
     1
171
     0
176
     1
290
     0
176
     1
 93
       13
176
     1
 44
0.0
176
     1
173
     0
176
     1
  0
VISUALSTYLE
  5
2D
102
{ACAD_REACTORS
330
2A
102
}
330
2A
100
AcDbVisualStyle
  2
Gouraud
 70
     2
177
     2
291
     1
 71
     2
176
     1
 72
     2
176
     1
 73
     1
176
     1
 90
        2
176
     1
 40
-0.6
176
     1
 41
30.0
176
     1
 62
     5
 63
     7
421
 16777215
176
     1
 74
     0
176
     1
 91
        4
176
     1
 64
     7
176
     1
 65
   257
176
     1
 75
     1
176
     1
175
     1
176
     1
 42
1.0
176
     1
 92
        0
176
     1
 66
     7
176
     1
 43
1.0
176
     1
 76
     1
176
     1
 77
     6
176
     1
 78
     2
176
     1
 67
     7
176
     1
 79
     5
176
     1
170
     0
176
     1
171
     0
176
     1
290
     0
176
     1
 93
       13
176
     1
 44
0.0
176
     1
173
     0
176
     1
  0
VISUALSTYLE
  5
2E
102
{ACAD_REACTORS
330
2A
102
}
330
2A
100
AcDbVisualStyle
  2
GouraudWithEdges
 70
     3
177
     2
291
     1
 71
     2
176
     1
 72
     2
176
     1
 73
     1
176
     1
 90
        2
176
     1
 40
-0.6
176
     1
 41
30.0
176
     1
 62
     5
 63
     7
421
 16777215
176
     1
 74
     1
176
     1
 91
        4
176
     1
 64
     7
176
     1
 65
   257
176
     1
 75
     1
176
     1
175
     1
176
     1
 42
1.0
176
     1
 92
        0
176
     1
 66
   257
176
     1
 43
1.0
176
     1
 76
     1
176
     1
 77
     6
176
     1
 78
     2
176
     1
 67
     7
176
     1
 79
     5
176
     1
170
     0
176
     1
171
     0
176
     1
290
     0
176
     1
 93
       13
176
     1
 44
0.0
176
     1
173
     0
176
     1
  0
VISUALSTYLE
  5
38
102
{ACAD_REACTORS
330
2A
102
}
330
2A
100
AcDbVisualStyle
  2
Linepattern
 70
    14
177
     2
291
     1
 71
     2
176
     1
 72
     2
176
     1
 73
     0
176
     1
 90
        0
176
     1
 40
-0.6
176
     1
 41
-30.0
176
     1
 62
     5
 63
     7
421
 16777215
176
     1
 74
     1
176
     1
 91
        4
176
     1
 64
     7
176
     1
 65
   257
176
     1
 75
     7
176
     1
175
     7
176
     1
 42
1.0
176
     1
 92
        8
176
     1
 66
     7
176
     1
 43
1.0
176
     1
 76
     1
176
     1
 77
     6
176
     1
 78
     2
176
     1
 67
     7
176
     1
 79
     5
176
     1
170
     0
176
     1
171
     0
176
     1
290
     0
176
     1
 93
        1
176
     1
 44
0.0
176
     1
173
     0
176
     1
  0
VISUALSTYLE
  5
33
102
{ACAD_REACTORS
330
2A
102
}
330
2A
100
AcDbVisualStyle
  2
Realistic
 70
     8
177
     2
291
     0
 71
     2
176
     1
 72
     2
176
     1
 73
     0
176
     1
 90
        0
176
     1
 40
-0.6
176
     1
 41
-30.0
176
     1
 62
     5
 63
     7
421
 16777215
176
     1
 74
     1
176
     1
 91
        0
176
     1
 64
     7
176
     1
 65
   257
176
     1
 75
     1
176
     1
175
     1
176
     1
 42
1.0
176
     1
 92
        8
176
     1
 66
     8
424
  7895160
176
     1
 43
1.0
176
     1
 76
     1
176
     1
 77
     6
176
     1
 78
     2
176
     1
 67
     7
176
     1
 79
     5
176
     1
170
     0
176
     1
171
     0
176
     1
290
     0
176
     1
 93
       13
176
     1
 44
0.0
176
     1
173
     0
176
     1
  0
VISUALSTYLE
  5
37
102
{ACAD_REACTORS
330
2A
102
}
330
2A
100
AcDbVisualStyle
  2
Thicken
 70
    13
177
     2
291
     1
 71
     2
176
     1
 72
     2
176
     1
 73
     0
176
     1
 90
        0
176
     1
 40
-0.6
176
     1
 41
-30.0
176
     1
 62
     5
 63
     7
421
 16777215
176
     1
 74
     1
176
     1
 91
        4
176
     1
 64
     7
176
     1
 65
   257
176
     1
 75
     1
176
     1
175
     1
176
     1
 42
1.0
176
     1
 92
       12
176
     1
 66
     7
176
     1
 43
1.0
176
     1
 76
     1
176
     1
 77
     6
176
     1
 78
     2
176
     1
 67
     7
176
     1
 79
     5
176
     1
170
     0
176
     1
171
     0
176
     1
290
     0
176
     1
 93
        1
176
     1
 44
0.0
176
     1
173
     0
176
     1
  0
ENDSEC
  0
EOF
