  0
SECTION
  2
HEADER
  9
$ACADVER
  1
AC1024
  9
$ACADMAINTVER
 70
     6
  9
$DWGCODEPAGE
  3
UNDEFINED
  9
$INSBASE
 10
0.0
 20
0.0
 30
0.0
  9
$EXTMIN
 10
1.000000000000000E+20
 20
1.000000000000000E+20
 30
1.000000000000000E+20
  9
$EXTMAX
 10
-1.000000000000000E+20
 20
-1.000000000000000E+20
 30
-1.000000000000000E+20
  9
$LIMMIN
 10
0.0
 20
0.0
  9
$LIMMAX
 10
12.0
 20
9.0
  9
$ORTHOMODE
 70
     0
  9
$REGENMODE
 70
     1
  9
$FILLMODE
 70
     1
  9
$QTEXTMODE
 70
     0
  9
$MIRRTEXT
 70
     1
  9
$LTSCALE
 40
1.0
  9
$ATTMODE
 70
     1
  9
$TEXTSIZE
 40
0.2
  9
$TRACEWID
 40
0.05
  9
$TEXTSTYLE
  7
Standard
  9
$CLAYER
  8
0
  9
$CELTYPE
  6
ByLayer
  9
$CECOLOR
 62
   256
  9
$CELTSCALE
 40
1.0
  9
$DISPSILH
 70
     0
  9
$DIMSCALE
 40
1.0
  9
$DIMASZ
 40
0.18
  9
$DIMEXO
 40
0.0625
  9
$DIMDLI
 40
0.38
  9
$DIMRND
 40
0.0
  9
$DIMDLE
 40
0.0
  9
$DIMEXE
 40
0.18
  9
$DIMTP
 40
0.0
  9
$DIMTM
 40
0.0
  9
$DIMTXT
 40
0.18
  9
$DIMCEN
 40
0.09
  9
$DIMTSZ
 40
0.0
  9
$DIMTOL
 70
     0
  9
$DIMLIM
 70
     0
  9
$DIMTIH
 70
     1
  9
$DIMTOH
 70
     1
  9
$DIMSE1
 70
     0
  9
$DIMSE2
 70
     0
  9
$DIMTAD
 70
     0
  9
$DIMZIN
 70
     0
  9
$DIMBLK
  1

  9
$DIMASO
 70
     1
  9
$DIMSHO
 70
     1
  9
$DIMPOST
  1

  9
$DIMAPOST
  1

  9
$DIMALT
 70
     0
  9
$DIMALTD
 70
     2
  9
$DIMALTF
 40
25.4
  9
$DIMLFAC
 40
1.0
  9
$DIMTOFL
 70
     0
  9
$DIMTVP
 40
0.0
  9
$DIMTIX
 70
     0
  9
$DIMSOXD
 70
     0
  9
$DIMSAH
 70
     0
  9
$DIMBLK1
  1

  9
$DIMBLK2
  1

  9
$DIMSTYLE
  2
Standard
  9
$DIMCLRD
 70
     0
  9
$DIMCLRE
 70
     0
  9
$DIMCLRT
 70
     0
  9
$DIMTFAC
 40
1.0
  9
$DIMGAP
 40
0.09
  9
$DIMJUST
 70
     0
  9
$DIMSD1
 70
     0
  9
$DIMSD2
 70
     0
  9
$DIMTOLJ
 70
     1
  9
$DIMTZIN
 70
     0
  9
$DIMALTZ
 70
     0
  9
$DIMALTTZ
 70
     0
  9
$DIMUPT
 70
     0
  9
$DIMDEC
 70
     4
  9
$DIMTDEC
 70
     4
  9
$DIMALTU
 70
     2
  9
$DIMALTTD
 70
     2
  9
$DIMTXSTY
  7
Standard
  9
$DIMAUNIT
 70
     0
  9
$DIMADEC
 70
     0
  9
$DIMALTRND
 40
0.0
  9
$DIMAZIN
 70
     0
  9
$DIMDSEP
 70
    46
  9
$DIMATFIT
 70
     3
  9
$DIMFRAC
 70
     0
  9
$DIMLDRBLK
  1

  9
$DIMLUNIT
 70
     2
  9
$DIMLWD
 70
    -2
  9
$DIMLWE
 70
    -2
  9
$DIMTMOVE
 70
     0
  9
$DIMFXL
 40
1.0
  9
$DIMFXLON
 70
     0
  9
$DIMJOGANG
 40
0.7853981633974483
  9
$DIMTFILL
 70
     0
  9
$DIMTFILLCLR
 70
     0
  9
$DIMARCSYM
 70
     0
  9
$DIMLTYPE
  6

  9
$DIMLTEX1
  6

  9
$DIMLTEX2
  6

  9
$DIMTXTDIRECTION
 70
     0
  9
$LUNITS
 70
     2
  9
$LUPREC
 70
     4
  9
$SKETCHINC
 40
0.1
  9
$FILLETRAD
 40
0.5
  9
$AUNITS
 70
     0
  9
$AUPREC
 70
     0
  9
$MENU
  1
.
  9
$ELEVATION
 40
0.0
  9
$PELEVATION
 40
0.0
  9
$THICKNESS
 40
0.0
  9
$LIMCHECK
 70
     0
  9
$CHAMFERA
 40
0.5
  9
$CHAMFERB
 40
0.5
  9
$CHAMFERC
 40
1.0
  9
$CHAMFERD
 40
0.0
  9
$SKPOLY
 70
     0
  9
$TDCREATE
 40
2457917.621921285
  9
$TDUCREATE
 40
2457917.246921296
  9
$TDUPDATE
 40
2457917.621921285
  9
$TDUUPDATE
 40
2457917.246921296
  9
$TDINDWG
 40
0.0000000116
  9
$TDUSRTIMER
 40
0.0000000116
  9
$USRTIMER
 70
     1
  9
$ANGBASE
 50
0.0
  9
$ANGDIR
 70
     0
  9
$PDMODE
 70
     0
  9
$PDSIZE
 40
0.0
  9
$PLINEWID
 40
0.0
  9
$SPLFRAME
 70
     0
  9
$SPLINETYPE
 70
     6
  9
$SPLINESEGS
 70
     8
  9
$HANDSEED
  5
C5
  9
$SURFTAB1
 70
     6
  9
$SURFTAB2
 70
     6
  9
$SURFTYPE
 70
     6
  9
$SURFU
 70
     6
  9
$SURFV
 70
     6
  9
$UCSBASE
  2

  9
$UCSNAME
  2

  9
$UCSORG
 10
0.0
 20
0.0
 30
0.0
  9
$UCSXDIR
 10
1.0
 20
0.0
 30
0.0
  9
$UCSYDIR
 10
0.0
 20
1.0
 30
0.0
  9
$UCSORTHOREF
  2

  9
$UCSORTHOVIEW
 70
     0
  9
$UCSORGTOP
 10
0.0
 20
0.0
 30
0.0
  9
$UCSORGBOTTOM
 10
0.0
 20
0.0
 30
0.0
  9
$UCSORGLEFT
 10
0.0
 20
0.0
 30
0.0
  9
$UCSORGRIGHT
 10
0.0
 20
0.0
 30
0.0
  9
$UCSORGFRONT
 10
0.0
 20
0.0
 30
0.0
  9
$UCSORGBACK
 10
0.0
 20
0.0
 30
0.0
  9
$PUCSBASE
  2

  9
$PUCSNAME
  2

  9
$PUCSORG
 10
0.0
 20
0.0
 30
0.0
  9
$PUCSXDIR
 10
1.0
 20
0.0
 30
0.0
  9
$PUCSYDIR
 10
0.0
 20
1.0
 30
0.0
  9
$PUCSORTHOREF
  2

  9
$PUCSORTHOVIEW
 70
     0
  9
$PUCSORGTOP
 10
0.0
 20
0.0
 30
0.0
  9
$PUCSORGBOTTOM
 10
0.0
 20
0.0
 30
0.0
  9
$PUCSORGLEFT
 10
0.0
 20
0.0
 30
0.0
  9
$PUCSORGRIGHT
 10
0.0
 20
0.0
 30
0.0
  9
$PUCSORGFRONT
 10
0.0
 20
0.0
 30
0.0
  9
$PUCSORGBACK
 10
0.0
 20
0.0
 30
0.0
  9
$USERI1
 70
     0
  9
$USERI2
 70
     0
  9
$USERI3
 70
     0
  9
$USERI4
 70
     0
  9
$USERI5
 70
     0
  9
$USERR1
 40
0.0
  9
$USERR2
 40
0.0
  9
$USERR3
 40
0.0
  9
$USERR4
 40
0.0
  9
$USERR5
 40
0.0
  9
$WORLDVIEW
 70
     1
  9
$SHADEDGE
 70
     3
  9
$SHADEDIF
 70
    70
  9
$TILEMODE
 70
     1
  9
$MAXACTVP
 70
    64
  9
$PINSBASE
 10
0.0
 20
0.0
 30
0.0
  9
$PLIMCHECK
 70
     0
  9
$PEXTMIN
 10
1.000000000000000E+20
 20
1.000000000000000E+20
 30
1.000000000000000E+20
  9
$PEXTMAX
 10
-1.000000000000000E+20
 20
-1.000000000000000E+20
 30
-1.000000000000000E+20
  9
$PLIMMIN
 10
0.0
 20
0.0
  9
$PLIMMAX
 10
12.0
 20
9.0
  9
$UNITMODE
 70
     0
  9
$VISRETAIN
 70
     1
  9
$PLINEGEN
 70
     0
  9
$PSLTSCALE
 70
     1
  9
$TREEDEPTH
 70
  3020
  9
$CMLSTYLE
  2
Standard
  9
$CMLJUST
 70
     0
  9
$CMLSCALE
 40
1.0
  9
$PROXYGRAPHICS
 70
     1
  9
$MEASUREMENT
 70
     0
  9
$CELWEIGHT
370
    -1
  9
$ENDCAPS
280
     0
  9
$JOINSTYLE
280
     0
  9
$LWDISPLAY
290
     1
  9
$INSUNITS
 70
     1
  9
$HYPERLINKBASE
  1

  9
$STYLESHEET
  1

  9
$XEDIT
290
     1
  9
$CEPSNTYPE
380
     0
  9
$PSTYLEMODE
290
     1
  9
$FINGERPRINTGUID
  2
{996368AE-5D9A-CFD3-13E7-A295F720E2C8}
  9
$VERSIONGUID
  2
{FAEB1C32-E019-11D5-929B-00C0DF256EC4}
  9
$EXTNAMES
290
     1
  9
$PSVPSCALE
 40
0.0
  9
$OLESTARTUP
290
     0
  9
$SORTENTS
280
   127
  9
$INDEXCTL
280
     0
  9
$HIDETEXT
280
     1
  9
$XCLIPFRAME
280
     2
  9
$HALOGAP
280
     0
  9
$OBSCOLOR
 70
   257
  9
$OBSLTYPE
280
     0
  9
$INTERSECTIONDISPLAY
280
     0
  9
$INTERSECTIONCOLOR
 70
   257
  9
$DIMASSOC
280
     2
  9
$PROJECTNAME
  1

  9
$CAMERADISPLAY
290
     0
  9
$LENSLENGTH
 40
50.0
  9
$CAMERAHEIGHT
 40
0.0
  9
$STEPSPERSEC
 40
2.0
  9
$STEPSIZE
 40
6.0
  9
$3DDWFPREC
 40
2.0
  9
$PSOLWIDTH
 40
0.25
  9
$PSOLHEIGHT
 40
4.0
  9
$LOFTANG1
 40
1.570796326794897
  9
$LOFTANG2
 40
1.570796326794897
  9
$LOFTMAG1
 40
0.0
  9
$LOFTMAG2
 40
0.0
  9
$LOFTPARAM
 70
     7
  9
$LOFTNORMALS
280
     1
  9
$LATITUDE
 40
37.795
  9
$LONGITUDE
 40
-122.394
  9
$NORTHDIRECTION
 40
0.0
  9
$TIMEZONE
 70
 -8000
  9
$LIGHTGLYPHDISPLAY
280
     1
  9
$TILEMODELIGHTSYNCH
280
     1
  9
$CMATERIAL
347
3C
  9
$SOLIDHIST
280
     1
  9
$SHOWHIST
280
     1
  9
$DWFFRAME
280
     2
  9
$DGNFRAME
280
     2
  9
$REALWORLDSCALE
290
     1
  9
$INTERFERECOLOR
 62
   256
  9
$CSHADOW
280
     0
  9
$SHADOWPLANELOCATION
 40
0.0
  0
ENDSEC
  0
SECTION
  2
CLASSES
  0
CLASS
  1
ACDBDICTIONARYWDFLT
  2
AcDbDictionaryWithDefault
  3
ObjectDBX Classes
 90
        0
 91
        4
280
     0
281
     0
  0
CLASS
  1
VISUALSTYLE
  2
AcDbVisualStyle
  3
ObjectDBX Classes
 90
     4095
 91
        4
280
     0
281
     0
  0
CLASS
  1
MATERIAL
  2
AcDbMaterial
  3
ObjectDBX Classes
 90
     1153
 91
        4
280
     0
281
     0
  0
CLASS
  1
SUN
  2
AcDbSun
  3
SCENEOE
 90
     1024
 91
        4
280
     0
281
     0
  0
ENDSEC
  0
SECTION
  2
TABLES
  0
TABLE
  2
VPORT
  5
8
330
0
100
AcDbSymbolTable
 70
     1
  0
VPORT
  5
29
330
8
100
AcDbSymbolTableRecord
100
AcDbViewportTableRecord
  2
*Active
 70
     0
 10
0.0
 20
0.0
 11
1.0
 21
1.0
 12
0.0
 22
0.0
 13
0.0
 23
0.0
 14
0.5
 24
0.5
 15
0.5
 25
0.5
 16
0.0
 26
0.0
 36
1.0
 17
91.00082462281999
 27
-128.4993055234307
 37
0.0
 40
256.9986110468615
 41
0.7081814508812795
 42
50.0
 43
0.0
 44
0.0
 50
0.0
 51
0.0
 71
     0
 72
   100
 73
     1
 74
     3
 75
     0
 76
     0
 77
     0
 78
     0
281
     0
 65
     1
110
0.0
120
0.0
130
0.0
111
1.0
121
0.0
131
0.0
112
0.0
122
1.0
132
0.0
 79
     0
146
0.0
 60
     3
 61
     5
292
     1
282
     1
141
0.0
142
0.0
 63
   250
361
3F
  0
ENDTAB
  0
TABLE
  2
LTYPE
  5
5
330
0
100
AcDbSymbolTable
 70
     1
  0
LTYPE
  5
14
330
5
100
AcDbSymbolTableRecord
100
AcDbLinetypeTableRecord
  2
ByBlock
 70
     0
  3

 72
    65
 73
     0
 40
0.0
  0
LTYPE
  5
15
330
5
100
AcDbSymbolTableRecord
100
AcDbLinetypeTableRecord
  2
ByLayer
 70
     0
  3

 72
    65
 73
     0
 40
0.0
  0
LTYPE
  5
16
330
5
100
AcDbSymbolTableRecord
100
AcDbLinetypeTableRecord
  2
Continuous
 70
     0
  3
Solid line
 72
    65
 73
     0
 40
0.0
  0
ENDTAB
  0
TABLE
  2
LAYER
  5
2
330
0
100
AcDbSymbolTable
 70
     2
  0
LAYER
  5
10
330
2
100
AcDbSymbolTableRecord
100
AcDbLayerTableRecord
  2
0
 70
     0
 62
     7
  6
Continuous
370
    -3
390
F
347
3E
  0
LAYER
  5
40
330
2
100
AcDbSymbolTableRecord
100
AcDbLayerTableRecord
  2
_U+30EC_U+30A4_U+30E4_U+30FC 1
 70
     0
 62
     7
  6
Continuous
370
    -3
390
F
347
3E
  0
ENDTAB
  0
TABLE
  2
STYLE
  5
3
330
0
100
AcDbSymbolTable
 70
     1
  0
STYLE
  5
11
330
3
100
AcDbSymbolTableRecord
100
AcDbTextStyleTableRecord
  2
Standard
 70
     0
 40
0.0
 41
1.0
 50
0.0
 71
     0
 42
0.2
  3
txt
  4

  0
ENDTAB
  0
TABLE
  2
VIEW
  5
6
330
0
100
AcDbSymbolTable
 70
     0
  0
ENDTAB
  0
TABLE
  2
UCS
  5
7
330
0
100
AcDbSymbolTable
 70
     0
  0
ENDTAB
  0
TABLE
  2
APPID
  5
9
330
0
100
AcDbSymbolTable
 70
     1
  0
APPID
  5
12
330
9
100
AcDbSymbolTableRecord
100
AcDbRegAppTableRecord
  2
ACAD
 70
     0
  0
ENDTAB
  0
TABLE
  2
DIMSTYLE
  5
A
330
0
100
AcDbSymbolTable
 70
     1
100
AcDbDimStyleTable
  0
DIMSTYLE
105
27
330
A
100
AcDbSymbolTableRecord
100
AcDbDimStyleTableRecord
  2
Standard
 70
     0
178
     0
340
11
  0
ENDTAB
  0
TABLE
  2
BLOCK_RECORD
  5
1
330
0
100
AcDbSymbolTable
 70
     6
  0
BLOCK_RECORD
  5
1F
330
1
100
AcDbSymbolTableRecord
100
AcDbBlockTableRecord
  2
*Model_Space
340
22
 70
     0
280
     1
281
     0
  0
BLOCK_RECORD
  5
1B
330
1
100
AcDbSymbolTableRecord
100
AcDbBlockTableRecord
  2
*Paper_Space
340
1E
 70
     0
280
     1
281
     0
  0
BLOCK_RECORD
  5
23
330
1
100
AcDbSymbolTableRecord
100
AcDbBlockTableRecord
  2
*Paper_Space0
340
26
 70
     0
280
     1
281
     0
  0
BLOCK_RECORD
  5
51
330
1
100
AcDbSymbolTableRecord
100
AcDbBlockTableRecord
  2
block 2
340
0
102
{BLKREFS
331
52
102
}
 70
     0
280
     1
281
     0
  0
BLOCK_RECORD
  5
79
330
1
100
AcDbSymbolTableRecord
100
AcDbBlockTableRecord
  2
block 3
340
0
102
{BLKREFS
331
7A
102
}
 70
     0
280
     1
281
     0
  0
BLOCK_RECORD
  5
9C
330
1
100
AcDbSymbolTableRecord
100
AcDbBlockTableRecord
  2
block 4
340
0
102
{BLKREFS
331
9D
102
}
 70
     0
280
     1
281
     0
  0
BLOCK_RECORD
  5
AC
330
1
100
AcDbSymbolTableRecord
100
AcDbBlockTableRecord
  2
block 5
340
0
102
{BLKREFS
331
AD
102
}
 70
     0
280
     1
281
     0
  0
BLOCK_RECORD
  5
BD
330
1
100
AcDbSymbolTableRecord
100
AcDbBlockTableRecord
  2
block 6
340
0
102
{BLKREFS
331
BE
102
}
 70
     0
280
     1
281
     0
  0
ENDTAB
  0
ENDSEC
  0
SECTION
  2
BLOCKS
  0
BLOCK
  5
20
330
1F
100
AcDbEntity
  8
0
100
AcDbBlockBegin
  2
*Model_Space
 70
     0
 10
0.0
 20
0.0
 30
0.0
  3
*Model_Space
  1

  0
ENDBLK
  5
21
330
1F
100
AcDbEntity
  8
0
100
AcDbBlockEnd
  0
BLOCK
  5
1C
330
1B
100
AcDbEntity
 67
     1
  8
0
100
AcDbBlockBegin
  2
*Paper_Space
 70
     0
 10
0.0
 20
0.0
 30
0.0
  3
*Paper_Space
  1

  0
ENDBLK
  5
1D
330
1B
100
AcDbEntity
 67
     1
  8
0
100
AcDbBlockEnd
  0
BLOCK
  5
24
330
23
100
AcDbEntity
  8
0
100
AcDbBlockBegin
  2
*Paper_Space0
 70
     0
 10
0.0
 20
0.0
 30
0.0
  3
*Paper_Space0
  1

  0
ENDBLK
  5
25
330
23
100
AcDbEntity
  8
0
100
AcDbBlockEnd
  0
BLOCK
  5
53
330
51
100
AcDbEntity
  8
0
100
AcDbBlockBegin
  2
block 2
 70
     0
 10
0.0
 20
0.0
 30
0.0
  3
block 2
  1

  0
POLYLINE
  5
55
330
51
100
AcDbEntity
  8
_U+30EC_U+30A4_U+30E4_U+30FC 1
370
     0
100
AcDb2dPolyline
 66
     1
 10
0.0
 20
0.0
 30
0.0
  0
VERTEX
  5
56
330
55
100
AcDbEntity
  8
_U+30EC_U+30A4_U+30E4_U+30FC 1
370
     0
100
AcDbVertex
100
AcDb2dVertex
 10
87.35332435967209
 20
-136.9060275265374
 30
0.0
  0
VERTEX
  5
57
330
55
100
AcDbEntity
  8
_U+30EC_U+30A4_U+30E4_U+30FC 1
370
     0
100
AcDbVertex
100
AcDb2dVertex
 10
87.35332435967209
 20
-137.252948641902
 30
0.0
  0
VERTEX
  5
58
330
55
100
AcDbEntity
  8
_U+30EC_U+30A4_U+30E4_U+30FC 1
370
     0
100
AcDbVertex
100
AcDb2dVertex
 10
87.1355943250043
 20
-137.252948641902
 30
0.0
  0
VERTEX
  5
59
330
55
100
AcDbEntity
  8
_U+30EC_U+30A4_U+30E4_U+30FC 1
370
     0
100
AcDbVertex
100
AcDb2dVertex
 10
87.1355943250043
 20
-136.9060275265374
 30
0.0
  0
VERTEX
  5
5A
330
55
100
AcDbEntity
  8
_U+30EC_U+30A4_U+30E4_U+30FC 1
370
     0
100
AcDbVertex
100
AcDb2dVertex
 10
86.47964814461272
 20
-136.9060275265374
 30
0.0
  0
VERTEX
  5
5B
330
55
100
AcDbEntity
  8
_U+30EC_U+30A4_U+30E4_U+30FC 1
370
     0
100
AcDbVertex
100
AcDb2dVertex
 10
86.47964814461272
 20
-136.6817518104476
 30
0.0
  0
VERTEX
  5
5C
330
55
100
AcDbEntity
  8
_U+30EC_U+30A4_U+30E4_U+30FC 1
370
     0
100
AcDbVertex
100
AcDb2dVertex
 10
87.15867646475547
 20
-135.7085123358646
 30
0.0
  0
VERTEX
  5
5D
330
55
100
AcDbEntity
  8
_U+30EC_U+30A4_U+30E4_U+30FC 1
370
     0
100
AcDbVertex
100
AcDb2dVertex
 10
87.35332435967209
 20
-135.7085123358646
 30
0.0
  0
VERTEX
  5
5E
330
55
100
AcDbEntity
  8
_U+30EC_U+30A4_U+30E4_U+30FC 1
370
     0
100
AcDbVertex
100
AcDb2dVertex
 10
87.35332435967209
 20
-136.7072455170385
 30
0.0
  0
VERTEX
  5
5F
330
55
100
AcDbEntity
  8
_U+30EC_U+30A4_U+30E4_U+30FC 1
370
     0
100
AcDbVertex
100
AcDb2dVertex
 10
87.56071910788413
 20
-136.7072455170385
 30
0.0
  0
VERTEX
  5
60
330
55
100
AcDbEntity
  8
_U+30EC_U+30A4_U+30E4_U+30FC 1
370
     0
100
AcDbVertex
100
AcDb2dVertex
 10
87.56071910788413
 20
-136.9060275265374
 30
0.0
  0
VERTEX
  5
61
330
55
100
AcDbEntity
  8
_U+30EC_U+30A4_U+30E4_U+30FC 1
370
     0
100
AcDbVertex
100
AcDb2dVertex
 10
87.35332435967209
 20
-136.9060275265374
 30
0.0
  0
SEQEND
  5
62
330
55
100
AcDbEntity
  8
_U+30EC_U+30A4_U+30E4_U+30FC 1
370
     0
  0
POLYLINE
  5
63
330
51
100
AcDbEntity
  8
_U+30EC_U+30A4_U+30E4_U+30FC 1
370
     0
100
AcDb2dPolyline
 66
     1
 10
0.0
 20
0.0
 30
0.0
  0
VERTEX
  5
64
330
63
100
AcDbEntity
  8
_U+30EC_U+30A4_U+30E4_U+30FC 1
370
     0
100
AcDbVertex
100
AcDb2dVertex
 10
87.1355943250043
 20
-136.0512993366469
 30
0.0
  0
VERTEX
  5
65
330
63
100
AcDbEntity
  8
_U+30EC_U+30A4_U+30E4_U+30FC 1
370
     0
100
AcDbVertex
100
AcDb2dVertex
 10
86.67843015411165
 20
-136.7072455170385
 30
0.0
  0
VERTEX
  5
66
330
63
100
AcDbEntity
  8
_U+30EC_U+30A4_U+30E4_U+30FC 1
370
     0
100
AcDbVertex
100
AcDb2dVertex
 10
87.1355943250043
 20
-136.7072455170385
 30
0.0
  0
VERTEX
  5
67
330
63
100
AcDbEntity
  8
_U+30EC_U+30A4_U+30E4_U+30FC 1
370
     0
100
AcDbVertex
100
AcDb2dVertex
 10
87.1355943250043
 20
-136.0512993366469
 30
0.0
  0
SEQEND
  5
68
330
63
100
AcDbEntity
  8
_U+30EC_U+30A4_U+30E4_U+30FC 1
370
     0
  0
HATCH
  5
69
330
51
100
AcDbEntity
  8
_U+30EC_U+30A4_U+30E4_U+30FC 1
 62
   179
420
  2234388
100
AcDbHatch
 10
0.0
 20
0.0
 30
0.0
210
0.0
220
0.0
230
1.0
  2
SOLID
 70
     1
 71
     0
 91
        2
 92
        1
 93
       11
 72
     1
 10
87.35332435967209
 20
-136.9060275265374
 11
87.35332435967209
 21
-137.252948641902
 72
     1
 10
87.35332435967209
 20
-137.252948641902
 11
87.1355943250043
 21
-137.252948641902
 72
     1
 10
87.1355943250043
 20
-137.252948641902
 11
87.1355943250043
 21
-136.9060275265374
 72
     1
 10
87.1355943250043
 20
-136.9060275265374
 11
86.47964814461272
 21
-136.9060275265374
 72
     1
 10
86.47964814461272
 20
-136.9060275265374
 11
86.47964814461272
 21
-136.6817518104476
 72
     1
 10
86.47964814461272
 20
-136.6817518104476
 11
87.15867646475547
 21
-135.7085123358646
 72
     1
 10
87.15867646475547
 20
-135.7085123358646
 11
87.35332435967209
 21
-135.7085123358646
 72
     1
 10
87.35332435967209
 20
-135.7085123358646
 11
87.35332435967209
 21
-136.7072455170385
 72
     1
 10
87.35332435967209
 20
-136.7072455170385
 11
87.56071910788413
 21
-136.7072455170385
 72
     1
 10
87.56071910788413
 20
-136.7072455170385
 11
87.56071910788413
 21
-136.9060275265374
 72
     1
 10
87.56071910788413
 20
-136.9060275265374
 11
87.35332435967209
 21
-136.9060275265374
 97
        0
 92
        1
 93
        3
 72
     1
 10
87.1355943250043
 20
-136.0512993366469
 11
86.67843015411165
 21
-136.7072455170385
 72
     1
 10
86.67843015411165
 20
-136.7072455170385
 11
87.1355943250043
 21
-136.7072455170385
 72
     1
 10
87.1355943250043
 20
-136.7072455170385
 11
87.1355943250043
 21
-136.0512993366469
 97
        0
 75
     2
 76
     1
 98
        0
  0
SPLINE
  5
6A
330
51
100
AcDbEntity
  8
_U+30EC_U+30A4_U+30E4_U+30FC 1
370
     0
100
AcDbSpline
210
0.0
220
0.0
230
1.0
 70
    11
 71
     3
 72
    29
 73
    25
 74
     0
 42
0.0000000001
 43
0.0000000001
 12
1.0
 22
0.0
 32
0.0
 13
1.0
 23
0.0
 33
0.0
 40
0.0
 40
0.0
 40
0.0
 40
0.0
 40
1.0
 40
1.0
 40
1.0
 40
2.0
 40
2.0
 40
2.0
 40
3.0
 40
3.0
 40
3.0
 40
4.0
 40
4.0
 40
4.0
 40
5.0
 40
5.0
 40
5.0
 40
6.0
 40
6.0
 40
6.0
 40
7.0
 40
7.0
 40
7.0
 40
8.0
 40
8.0
 40
8.0
 40
8.0
 10
88.5959703012017
 20
-137.0751817148632
 30
0.0
 10
88.48779430296486
 20
-137.2846435203664
 30
0.0
 10
88.3145060000568
 20
-137.3035915455352
 30
0.0
 10
88.19806177265535
 20
-137.3035915455352
 30
0.0
 10
88.03717581349419
 20
-137.3035915455352
 30
0.0
 10
87.89558238905042
 20
-137.2570827564844
 30
0.0
 10
87.80049775365752
 20
-137.0751817148632
 30
0.0
 10
87.6968003795515
 20
-136.8805338199465
 30
0.0
 10
87.67785235438262
 20
-136.6435112505613
 30
0.0
 10
87.67785235438262
 20
-136.4809027436576
 30
0.0
 10
87.67785235438262
 20
-136.3368977523741
 30
0.0
 10
87.69473332226035
 20
-136.0850612724024
 30
0.0
 10
87.80049775365752
 20
-135.8862792629034
 30
0.0
 10
87.90832924234584
 20
-135.6833631388222
 30
0.0
 10
88.069215201507
 20
-135.6599364895225
 30
0.0
 10
88.19806177265535
 20
-135.6599364895225
 30
0.0
 10
88.35688067452537
 20
-135.6599364895225
 30
0.0
 10
88.50054115626028
 20
-135.7043782212822
 30
0.0
 10
88.5959703012017
 20
-135.8862792629034
 30
0.0
 10
88.6951890511769
 20
-136.0788601005289
 30
0.0
 10
88.7186157004766
 20
-136.307269931201
 30
0.0
 10
88.7186157004766
 20
-136.4809027436576
 30
0.0
 10
88.7186157004766
 20
-136.6521239892745
 30
0.0
 10
88.69725610846805
 20
-136.8826008772377
 30
0.0
 10
88.5959703012017
 20
-137.0751817148632
 30
0.0
  0
SPLINE
  5
6B
330
51
100
AcDbEntity
  8
_U+30EC_U+30A4_U+30E4_U+30FC 1
370
     0
100
AcDbSpline
210
0.0
220
0.0
230
1.0
 70
    11
 71
     3
 72
    17
 73
    13
 74
     0
 42
0.0000000001
 43
0.0000000001
 12
1.0
 22
0.0
 32
0.0
 13
1.0
 23
0.0
 33
0.0
 40
0.0
 40
0.0
 40
0.0
 40
0.0
 40
1.0
 40
1.0
 40
1.0
 40
2.0
 40
2.0
 40
2.0
 40
3.0
 40
3.0
 40
3.0
 40
4.0
 40
4.0
 40
4.0
 40
4.0
 10
88.19806177265535
 20
-135.852517327148
 30
0.0
 10
87.94863685952326
 20
-135.852517327148
 30
0.0
 10
87.90178356092386
 20
-136.1360486855841
 30
0.0
 10
87.90178356092386
 20
-136.4809027436576
 30
0.0
 10
87.90178356092386
 20
-136.8002630951402
 30
0.0
 10
87.937957063519
 20
-137.1089436506186
 30
0.0
 10
88.19806177265535
 20
-137.1089436506186
 30
0.0
 10
88.44576413804481
 20
-137.1089436506186
 30
0.0
 10
88.49433998438684
 20
-136.8278238590222
 30
0.0
 10
88.49433998438684
 20
-136.4809027436576
 30
0.0
 10
88.49433998438684
 20
-136.1611978826264
 30
0.0
 10
88.45609942450056
 20
-135.852517327148
 30
0.0
 10
88.19806177265535
 20
-135.852517327148
 30
0.0
  0
HATCH
  5
6C
330
51
100
AcDbEntity
  8
_U+30EC_U+30A4_U+30E4_U+30FC 1
 62
   179
420
  2234388
100
AcDbHatch
 10
0.0
 20
0.0
 30
0.0
210
0.0
220
0.0
230
1.0
  2
SOLID
 70
     1
 71
     0
 91
        2
 92
        1
 93
        1
 72
     4
 94
        3
 73
     0
 74
     1
 95
       29
 96
       25
 40
0.0
 40
0.0
 40
0.0
 40
0.0
 40
1.0
 40
1.0
 40
1.0
 40
2.0
 40
2.0
 40
2.0
 40
3.0
 40
3.0
 40
3.0
 40
4.0
 40
4.0
 40
4.0
 40
5.0
 40
5.0
 40
5.0
 40
6.0
 40
6.0
 40
6.0
 40
7.0
 40
7.0
 40
7.0
 40
8.0
 40
8.0
 40
8.0
 40
8.0
 10
88.5959703012017
 20
-137.0751817148632
 10
88.48779430296486
 20
-137.2846435203664
 10
88.3145060000568
 20
-137.3035915455352
 10
88.19806177265535
 20
-137.3035915455352
 10
88.03717581349419
 20
-137.3035915455352
 10
87.89558238905042
 20
-137.2570827564844
 10
87.80049775365752
 20
-137.0751817148632
 10
87.6968003795515
 20
-136.8805338199465
 10
87.67785235438262
 20
-136.6435112505613
 10
87.67785235438262
 20
-136.4809027436576
 10
87.67785235438262
 20
-136.3368977523741
 10
87.69473332226035
 20
-136.0850612724024
 10
87.80049775365752
 20
-135.8862792629034
 10
87.90832924234584
 20
-135.6833631388222
 10
88.069215201507
 20
-135.6599364895225
 10
88.19806177265535
 20
-135.6599364895225
 10
88.35688067452537
 20
-135.6599364895225
 10
88.50054115626028
 20
-135.7043782212822
 10
88.5959703012017
 20
-135.8862792629034
 10
88.6951890511769
 20
-136.0788601005289
 10
88.7186157004766
 20
-136.307269931201
 10
88.7186157004766
 20
-136.4809027436576
 10
88.7186157004766
 20
-136.6521239892745
 10
88.69725610846805
 20
-136.8826008772377
 10
88.5959703012017
 20
-137.0751817148632
 97
        0
 97
        0
 92
        1
 93
        1
 72
     4
 94
        3
 73
     0
 74
     1
 95
       17
 96
       13
 40
0.0
 40
0.0
 40
0.0
 40
0.0
 40
1.0
 40
1.0
 40
1.0
 40
2.0
 40
2.0
 40
2.0
 40
3.0
 40
3.0
 40
3.0
 40
4.0
 40
4.0
 40
4.0
 40
4.0
 10
88.19806177265535
 20
-135.852517327148
 10
87.94863685952326
 20
-135.852517327148
 10
87.90178356092386
 20
-136.1360486855841
 10
87.90178356092386
 20
-136.4809027436576
 10
87.90178356092386
 20
-136.8002630951402
 10
87.937957063519
 20
-137.1089436506186
 10
88.19806177265535
 20
-137.1089436506186
 10
88.44576413804481
 20
-137.1089436506186
 10
88.49433998438684
 20
-136.8278238590222
 10
88.49433998438684
 20
-136.4809027436576
 10
88.49433998438684
 20
-136.1611978826264
 10
88.45609942450056
 20
-135.852517327148
 10
88.19806177265535
 20
-135.852517327148
 97
        0
 97
        0
 75
     2
 76
     1
 98
        0
  0
ENDBLK
  5
54
330
51
100
AcDbEntity
  8
0
100
AcDbBlockEnd
  0
BLOCK
  5
7B
330
79
100
AcDbEntity
  8
0
100
AcDbBlockBegin
  2
block 3
 70
     0
 10
0.0
 20
0.0
 30
0.0
  3
block 3
  1

  0
SPLINE
  5
7D
330
79
100
AcDbEntity
  8
_U+30EC_U+30A4_U+30E4_U+30FC 1
370
     0
100
AcDbSpline
210
0.0
220
0.0
230
1.0
 70
    11
 71
     3
 72
    44
 73
    40
 74
     0
 42
0.0000000001
 43
0.0000000001
 12
1.0
 22
0.0
 32
0.0
 13
1.0
 23
0.0
 33
0.0
 40
0.0
 40
0.0
 40
0.0
 40
0.0
 40
1.0
 40
1.0
 40
1.0
 40
2.0
 40
2.0
 40
2.0
 40
3.0
 40
3.0
 40
3.0
 40
4.0
 40
4.0
 40
4.0
 40
5.0
 40
5.0
 40
5.0
 40
6.0
 40
6.0
 40
6.0
 40
7.0
 40
7.0
 40
7.0
 40
8.0
 40
8.0
 40
8.0
 40
9.0
 40
9.0
 40
9.0
 40
10.0
 40
10.0
 40
10.0
 40
11.0
 40
11.0
 40
11.0
 40
12.0
 40
12.0
 40
12.0
 40
13.0
 40
13.0
 40
13.0
 40
13.0
 10
87.16470538185466
 20
-119.6106146619376
 30
0.0
 10
86.94697534718686
 20
-119.7694335638077
 30
0.0
 10
86.85395776908513
 20
-119.8435031167405
 30
0.0
 10
86.80503741319458
 20
-119.9871635984754
 30
0.0
 10
86.80503741319458
 20
-119.9871635984754
 30
0.0
 10
87.58362899286104
 20
-119.9871635984754
 30
0.0
 10
87.58362899286104
 20
-119.9871635984754
 30
0.0
 10
87.58362899286104
 20
-119.9871635984754
 30
0.0
 10
87.58362899286104
 20
-120.1924912893963
 30
0.0
 10
87.58362899286104
 20
-120.1924912893963
 30
0.0
 10
87.58362899286104
 20
-120.1924912893963
 30
0.0
 10
86.5556125000625
 20
-120.1924912893963
 30
0.0
 10
86.5556125000625
 20
-120.1924912893963
 30
0.0
 10
86.58730737852679
 20
-119.8348903780274
 30
0.0
 10
86.65276419274653
 20
-119.7566867105122
 30
0.0
 10
87.03792586799747
 20
-119.4583414414896
 30
0.0
 10
87.29389646255153
 20
-119.2595594319907
 30
0.0
 10
87.35935327677127
 20
-119.1916910509313
 30
0.0
 10
87.35935327677127
 20
-119.0542317410698
 30
0.0
 10
87.35935327677127
 20
-118.9357204563772
 30
0.0
 10
87.28735078112956
 20
-118.8048068279377
 30
0.0
 10
87.09063582892179
 20
-118.8048068279377
 30
0.0
 10
86.83053111978543
 20
-118.8048068279377
 30
0.0
 10
86.82226289062082
 20
-119.0352837159009
 30
0.0
 10
86.81778426649001
 20
-119.1517279433023
 30
0.0
 10
86.81778426649001
 20
-119.1517279433023
 30
0.0
 10
86.59350855040024
 20
-119.1517279433023
 30
0.0
 10
86.59350855040024
 20
-119.1517279433023
 30
0.0
 10
86.60212128911336
 20
-119.0246039198966
 30
0.0
 10
86.61280108511764
 20
-118.912638316626
 30
0.0
 10
86.69307180992396
 20
-118.7941270319334
 30
0.0
 10
86.80297035590343
 20
-118.6332410727723
 30
0.0
 10
86.98935002165544
 20
-118.5994791370168
 30
0.0
 10
87.10544973950836
 20
-118.5994791370168
 30
0.0
 10
87.38277992607098
 20
-118.5994791370168
 30
0.0
 10
87.59017467428302
 20
-118.7834472359291
 30
0.0
 10
87.59017467428302
 20
-119.0562987983609
 30
0.0
 10
87.59017467428302
 20
-119.2850531385815
 30
0.0
 10
87.47373044688158
 20
-119.3842718885567
 30
0.0
 10
87.16470538185466
 20
-119.6106146619376
 30
0.0
  0
HATCH
  5
7E
330
79
100
AcDbEntity
  8
_U+30EC_U+30A4_U+30E4_U+30FC 1
 62
   179
420
  2234388
100
AcDbHatch
 10
0.0
 20
0.0
 30
0.0
210
0.0
220
0.0
230
1.0
  2
SOLID
 70
     1
 71
     0
 91
        1
 92
        1
 93
        1
 72
     4
 94
        3
 73
     0
 74
     1
 95
       44
 96
       40
 40
0.0
 40
0.0
 40
0.0
 40
0.0
 40
1.0
 40
1.0
 40
1.0
 40
2.0
 40
2.0
 40
2.0
 40
3.0
 40
3.0
 40
3.0
 40
4.0
 40
4.0
 40
4.0
 40
5.0
 40
5.0
 40
5.0
 40
6.0
 40
6.0
 40
6.0
 40
7.0
 40
7.0
 40
7.0
 40
8.0
 40
8.0
 40
8.0
 40
9.0
 40
9.0
 40
9.0
 40
10.0
 40
10.0
 40
10.0
 40
11.0
 40
11.0
 40
11.0
 40
12.0
 40
12.0
 40
12.0
 40
13.0
 40
13.0
 40
13.0
 40
13.0
 10
87.16470538185466
 20
-119.6106146619376
 10
86.94697534718686
 20
-119.7694335638077
 10
86.85395776908513
 20
-119.8435031167405
 10
86.80503741319458
 20
-119.9871635984754
 10
86.80503741319458
 20
-119.9871635984754
 10
87.58362899286104
 20
-119.9871635984754
 10
87.58362899286104
 20
-119.9871635984754
 10
87.58362899286104
 20
-119.9871635984754
 10
87.58362899286104
 20
-120.1924912893963
 10
87.58362899286104
 20
-120.1924912893963
 10
87.58362899286104
 20
-120.1924912893963
 10
86.5556125000625
 20
-120.1924912893963
 10
86.5556125000625
 20
-120.1924912893963
 10
86.58730737852679
 20
-119.8348903780274
 10
86.65276419274653
 20
-119.7566867105122
 10
87.03792586799747
 20
-119.4583414414896
 10
87.29389646255153
 20
-119.2595594319907
 10
87.35935327677127
 20
-119.1916910509313
 10
87.35935327677127
 20
-119.0542317410698
 10
87.35935327677127
 20
-118.9357204563772
 10
87.28735078112956
 20
-118.8048068279377
 10
87.09063582892179
 20
-118.8048068279377
 10
86.83053111978543
 20
-118.8048068279377
 10
86.82226289062082
 20
-119.0352837159009
 10
86.81778426649001
 20
-119.1517279433023
 10
86.81778426649001
 20
-119.1517279433023
 10
86.59350855040024
 20
-119.1517279433023
 10
86.59350855040024
 20
-119.1517279433023
 10
86.60212128911336
 20
-119.0246039198966
 10
86.61280108511764
 20
-118.912638316626
 10
86.69307180992396
 20
-118.7941270319334
 10
86.80297035590343
 20
-118.6332410727723
 10
86.98935002165544
 20
-118.5994791370168
 10
87.10544973950836
 20
-118.5994791370168
 10
87.38277992607098
 20
-118.5994791370168
 10
87.59017467428302
 20
-118.7834472359291
 10
87.59017467428302
 20
-119.0562987983609
 10
87.59017467428302
 20
-119.2850531385815
 10
87.47373044688158
 20
-119.3842718885567
 10
87.16470538185466
 20
-119.6106146619376
 97
        0
 97
        0
 75
     2
 76
     1
 98
        0
  0
SPLINE
  5
7F
330
79
100
AcDbEntity
  8
_U+30EC_U+30A4_U+30E4_U+30FC 1
370
     0
100
AcDbSpline
210
0.0
220
0.0
230
1.0
 70
    11
 71
     3
 72
    29
 73
    25
 74
     0
 42
0.0000000001
 43
0.0000000001
 12
1.0
 22
0.0
 32
0.0
 13
1.0
 23
0.0
 33
0.0
 40
0.0
 40
0.0
 40
0.0
 40
0.0
 40
1.0
 40
1.0
 40
1.0
 40
2.0
 40
2.0
 40
2.0
 40
3.0
 40
3.0
 40
3.0
 40
4.0
 40
4.0
 40
4.0
 40
5.0
 40
5.0
 40
5.0
 40
6.0
 40
6.0
 40
6.0
 40
7.0
 40
7.0
 40
7.0
 40
8.0
 40
8.0
 40
8.0
 40
8.0
 10
88.64644095006062
 20
-120.0147243623574
 30
0.0
 10
88.53826495182378
 20
-120.2241861678606
 30
0.0
 10
88.3649766489157
 20
-120.2431341930295
 30
0.0
 10
88.24853242151426
 20
-120.2431341930295
 30
0.0
 10
88.08764646235309
 20
-120.2431341930295
 30
0.0
 10
87.94605303790932
 20
-120.1966254039786
 30
0.0
 10
87.85096840251643
 20
-120.0147243623574
 30
0.0
 10
87.74727102841041
 20
-119.8200764674408
 30
0.0
 10
87.72832300324153
 20
-119.5833984076042
 30
0.0
 10
87.72832300324153
 20
-119.4204453911518
 30
0.0
 10
87.72832300324153
 20
-119.2764403998684
 30
0.0
 10
87.74520397111925
 20
-119.0246039198966
 30
0.0
 10
87.85096840251643
 20
-118.8258219103977
 30
0.0
 10
87.95879989120475
 20
-118.6229057863165
 30
0.0
 10
88.11968585036591
 20
-118.5994791370168
 30
0.0
 10
88.24853242151426
 20
-118.5994791370168
 30
0.0
 10
88.40735132338428
 20
-118.5994791370168
 30
0.0
 10
88.5510118051192
 20
-118.6439208687765
 30
0.0
 10
88.64644095006062
 20
-118.8258219103977
 30
0.0
 10
88.74565970003582
 20
-119.0184027480232
 30
0.0
 10
88.76908634933551
 20
-119.2468125786952
 30
0.0
 10
88.76908634933551
 20
-119.4204453911518
 30
0.0
 10
88.76908634933551
 20
-119.5916666367687
 30
0.0
 10
88.74772675732696
 20
-119.822143524732
 30
0.0
 10
88.64644095006062
 20
-120.0147243623574
 30
0.0
  0
SPLINE
  5
80
330
79
100
AcDbEntity
  8
_U+30EC_U+30A4_U+30E4_U+30FC 1
370
     0
100
AcDbSpline
210
0.0
220
0.0
230
1.0
 70
    11
 71
     3
 72
    17
 73
    13
 74
     0
 42
0.0000000001
 43
0.0000000001
 12
1.0
 22
0.0
 32
0.0
 13
1.0
 23
0.0
 33
0.0
 40
0.0
 40
0.0
 40
0.0
 40
0.0
 40
1.0
 40
1.0
 40
1.0
 40
2.0
 40
2.0
 40
2.0
 40
3.0
 40
3.0
 40
3.0
 40
4.0
 40
4.0
 40
4.0
 40
4.0
 10
88.24853242151426
 20
-118.7920599746423
 30
0.0
 10
87.99910750838217
 20
-118.7920599746423
 30
0.0
 10
87.95225420978278
 20
-119.0755913330783
 30
0.0
 10
87.95225420978278
 20
-119.4204453911518
 30
0.0
 10
87.95225420978278
 20
-119.7398057426345
 30
0.0
 10
87.9884277123779
 20
-120.0484862981129
 30
0.0
 10
88.24853242151426
 20
-120.0484862981129
 30
0.0
 10
88.49623478690373
 20
-120.0484862981129
 30
0.0
 10
88.54481063324575
 20
-119.7673665065165
 30
0.0
 10
88.54481063324575
 20
-119.4204453911518
 30
0.0
 10
88.54481063324575
 20
-119.1007405301207
 30
0.0
 10
88.50657007335947
 20
-118.7920599746423
 30
0.0
 10
88.24853242151426
 20
-118.7920599746423
 30
0.0
  0
HATCH
  5
81
330
79
100
AcDbEntity
  8
_U+30EC_U+30A4_U+30E4_U+30FC 1
 62
   179
420
  2234388
100
AcDbHatch
 10
0.0
 20
0.0
 30
0.0
210
0.0
220
0.0
230
1.0
  2
SOLID
 70
     1
 71
     0
 91
        2
 92
        1
 93
        1
 72
     4
 94
        3
 73
     0
 74
     1
 95
       29
 96
       25
 40
0.0
 40
0.0
 40
0.0
 40
0.0
 40
1.0
 40
1.0
 40
1.0
 40
2.0
 40
2.0
 40
2.0
 40
3.0
 40
3.0
 40
3.0
 40
4.0
 40
4.0
 40
4.0
 40
5.0
 40
5.0
 40
5.0
 40
6.0
 40
6.0
 40
6.0
 40
7.0
 40
7.0
 40
7.0
 40
8.0
 40
8.0
 40
8.0
 40
8.0
 10
88.64644095006062
 20
-120.0147243623574
 10
88.53826495182378
 20
-120.2241861678606
 10
88.3649766489157
 20
-120.2431341930295
 10
88.24853242151426
 20
-120.2431341930295
 10
88.08764646235309
 20
-120.2431341930295
 10
87.94605303790932
 20
-120.1966254039786
 10
87.85096840251643
 20
-120.0147243623574
 10
87.74727102841041
 20
-119.8200764674408
 10
87.72832300324153
 20
-119.5833984076042
 10
87.72832300324153
 20
-119.4204453911518
 10
87.72832300324153
 20
-119.2764403998684
 10
87.74520397111925
 20
-119.0246039198966
 10
87.85096840251643
 20
-118.8258219103977
 10
87.95879989120475
 20
-118.6229057863165
 10
88.11968585036591
 20
-118.5994791370168
 10
88.24853242151426
 20
-118.5994791370168
 10
88.40735132338428
 20
-118.5994791370168
 10
88.5510118051192
 20
-118.6439208687765
 10
88.64644095006062
 20
-118.8258219103977
 10
88.74565970003582
 20
-119.0184027480232
 10
88.76908634933551
 20
-119.2468125786952
 10
88.76908634933551
 20
-119.4204453911518
 10
88.76908634933551
 20
-119.5916666367687
 10
88.74772675732696
 20
-119.822143524732
 10
88.64644095006062
 20
-120.0147243623574
 97
        0
 97
        0
 92
        1
 93
        1
 72
     4
 94
        3
 73
     0
 74
     1
 95
       17
 96
       13
 40
0.0
 40
0.0
 40
0.0
 40
0.0
 40
1.0
 40
1.0
 40
1.0
 40
2.0
 40
2.0
 40
2.0
 40
3.0
 40
3.0
 40
3.0
 40
4.0
 40
4.0
 40
4.0
 40
4.0
 10
88.24853242151426
 20
-118.7920599746423
 10
87.99910750838217
 20
-118.7920599746423
 10
87.95225420978278
 20
-119.0755913330783
 10
87.95225420978278
 20
-119.4204453911518
 10
87.95225420978278
 20
-119.7398057426345
 10
87.9884277123779
 20
-120.0484862981129
 10
88.24853242151426
 20
-120.0484862981129
 10
88.49623478690373
 20
-120.0484862981129
 10
88.54481063324575
 20
-119.7673665065165
 10
88.54481063324575
 20
-119.4204453911518
 10
88.54481063324575
 20
-119.1007405301207
 10
88.50657007335947
 20
-118.7920599746423
 10
88.24853242151426
 20
-118.7920599746423
 97
        0
 97
        0
 75
     2
 76
     1
 98
        0
  0
ENDBLK
  5
7C
330
79
100
AcDbEntity
  8
0
100
AcDbBlockEnd
  0
BLOCK
  5
9E
330
9C
100
AcDbEntity
  8
0
100
AcDbBlockBegin
  2
block 4
 70
     0
 10
0.0
 20
0.0
 30
0.0
  3
block 4
  1

  0
SPLINE
  5
A0
330
9C
100
AcDbEntity
  8
_U+30EC_U+30A4_U+30E4_U+30FC 1
370
     0
100
AcDbSpline
210
0.0
220
0.0
230
1.0
 70
    11
 71
     3
 72
    26
 73
    22
 74
     0
 42
0.0000000001
 43
0.0000000001
 12
1.0
 22
0.0
 32
0.0
 13
1.0
 23
0.0
 33
0.0
 40
0.0
 40
0.0
 40
0.0
 40
0.0
 40
1.0
 40
1.0
 40
1.0
 40
2.0
 40
2.0
 40
2.0
 40
3.0
 40
3.0
 40
3.0
 40
4.0
 40
4.0
 40
4.0
 40
5.0
 40
5.0
 40
5.0
 40
6.0
 40
6.0
 40
6.0
 40
7.0
 40
7.0
 40
7.0
 40
7.0
 10
113.465253335349
 20
-134.4917046104743
 30
0.0
 10
113.465253335349
 20
-134.4917046104743
 30
0.0
 10
112.3611002323264
 20
-134.4917046104743
 30
0.0
 10
112.3611002323264
 20
-134.4917046104743
 30
0.0
 10
112.3611002323264
 20
-134.4917046104743
 30
0.0
 10
112.3611002323264
 20
-134.8217447579612
 30
0.0
 10
112.3611002323264
 20
-134.8217447579612
 30
0.0
 10
112.3611002323264
 20
-134.8217447579612
 30
0.0
 10
112.2129611264607
 20
-134.8217447579612
 30
0.0
 10
112.2129611264607
 20
-134.8217447579612
 30
0.0
 10
112.1981472158741
 20
-134.4896375531831
 30
0.0
 10
112.0351941994218
 20
-134.4431287641323
 30
0.0
 10
111.9208170293115
 20
-134.4135009429591
 30
0.0
 10
111.9208170293115
 20
-134.4135009429591
 30
0.0
 10
111.9208170293115
 20
-134.2674288943846
 30
0.0
 10
111.9208170293115
 20
-134.2674288943846
 30
0.0
 10
111.9208170293115
 20
-134.2674288943846
 30
0.0
 10
113.465253335349
 20
-134.2674288943846
 30
0.0
 10
113.465253335349
 20
-134.2674288943846
 30
0.0
 10
113.465253335349
 20
-134.2674288943846
 30
0.0
 10
113.465253335349
 20
-134.4917046104743
 30
0.0
 10
113.465253335349
 20
-134.4917046104743
 30
0.0
  0
HATCH
  5
A1
330
9C
100
AcDbEntity
  8
_U+30EC_U+30A4_U+30E4_U+30FC 1
 62
   179
420
  2234388
100
AcDbHatch
 10
0.0
 20
0.0
 30
0.0
210
0.0
220
0.0
230
1.0
  2
SOLID
 70
     1
 71
     0
 91
        1
 92
        1
 93
        1
 72
     4
 94
        3
 73
     0
 74
     1
 95
       26
 96
       22
 40
0.0
 40
0.0
 40
0.0
 40
0.0
 40
1.0
 40
1.0
 40
1.0
 40
2.0
 40
2.0
 40
2.0
 40
3.0
 40
3.0
 40
3.0
 40
4.0
 40
4.0
 40
4.0
 40
5.0
 40
5.0
 40
5.0
 40
6.0
 40
6.0
 40
6.0
 40
7.0
 40
7.0
 40
7.0
 40
7.0
 10
113.465253335349
 20
-134.4917046104743
 10
113.465253335349
 20
-134.4917046104743
 10
112.3611002323264
 20
-134.4917046104743
 10
112.3611002323264
 20
-134.4917046104743
 10
112.3611002323264
 20
-134.4917046104743
 10
112.3611002323264
 20
-134.8217447579612
 10
112.3611002323264
 20
-134.8217447579612
 10
112.3611002323264
 20
-134.8217447579612
 10
112.2129611264607
 20
-134.8217447579612
 10
112.2129611264607
 20
-134.8217447579612
 10
112.1981472158741
 20
-134.4896375531831
 10
112.0351941994218
 20
-134.4431287641323
 10
111.9208170293115
 20
-134.4135009429591
 10
111.9208170293115
 20
-134.4135009429591
 10
111.9208170293115
 20
-134.2674288943846
 10
111.9208170293115
 20
-134.2674288943846
 10
111.9208170293115
 20
-134.2674288943846
 10
113.465253335349
 20
-134.2674288943846
 10
113.465253335349
 20
-134.2674288943846
 10
113.465253335349
 20
-134.2674288943846
 10
113.465253335349
 20
-134.4917046104743
 10
113.465253335349
 20
-134.4917046104743
 97
        0
 97
        0
 75
     2
 76
     1
 98
        0
  0
POLYLINE
  5
A2
330
9C
100
AcDbEntity
  8
_U+30EC_U+30A4_U+30E4_U+30FC 1
370
     0
100
AcDb2dPolyline
 66
     1
 10
0.0
 20
0.0
 30
0.0
  0
VERTEX
  5
A3
330
A2
100
AcDbEntity
  8
_U+30EC_U+30A4_U+30E4_U+30FC 1
370
     0
100
AcDbVertex
100
AcDb2dVertex
 10
113.465253335349
 20
-133.7062228398374
 30
0.0
  0
VERTEX
  5
A4
330
A2
100
AcDbEntity
  8
_U+30EC_U+30A4_U+30E4_U+30FC 1
370
     0
100
AcDbVertex
100
AcDb2dVertex
 10
113.2134168553772
 20
-133.7062228398374
 30
0.0
  0
VERTEX
  5
A5
330
A2
100
AcDbEntity
  8
_U+30EC_U+30A4_U+30E4_U+30FC 1
370
     0
100
AcDbVertex
100
AcDb2dVertex
 10
113.2134168553772
 20
-133.4543863598656
 30
0.0
  0
VERTEX
  5
A6
330
A2
100
AcDbEntity
  8
_U+30EC_U+30A4_U+30E4_U+30FC 1
370
     0
100
AcDbVertex
100
AcDb2dVertex
 10
113.465253335349
 20
-133.4543863598656
 30
0.0
  0
VERTEX
  5
A7
330
A2
100
AcDbEntity
  8
_U+30EC_U+30A4_U+30E4_U+30FC 1
370
     0
100
AcDbVertex
100
AcDb2dVertex
 10
113.465253335349
 20
-133.7062228398374
 30
0.0
  0
SEQEND
  5
A8
330
A2
100
AcDbEntity
  8
_U+30EC_U+30A4_U+30E4_U+30FC 1
370
     0
  0
HATCH
  5
A9
330
9C
100
AcDbEntity
  8
_U+30EC_U+30A4_U+30E4_U+30FC 1
 62
   179
420
  2234388
100
AcDbHatch
 10
0.0
 20
0.0
 30
0.0
210
0.0
220
0.0
230
1.0
  2
SOLID
 70
     1
 71
     0
 91
        1
 92
        1
 93
        4
 72
     1
 10
113.465253335349
 20
-133.7062228398374
 11
113.2134168553772
 21
-133.7062228398374
 72
     1
 10
113.2134168553772
 20
-133.7062228398374
 11
113.2134168553772
 21
-133.4543863598656
 72
     1
 10
113.2134168553772
 20
-133.4543863598656
 11
113.465253335349
 21
-133.4543863598656
 72
     1
 10
113.465253335349
 20
-133.4543863598656
 11
113.465253335349
 21
-133.7062228398374
 97
        0
 75
     2
 76
     1
 98
        0
  0
SPLINE
  5
AA
330
9C
100
AcDbEntity
  8
_U+30EC_U+30A4_U+30E4_U+30FC 1
370
     0
100
AcDbSpline
210
0.0
220
0.0
230
1.0
 70
    11
 71
     3
 72
    26
 73
    22
 74
     0
 42
0.0000000001
 43
0.0000000001
 12
1.0
 22
0.0
 32
0.0
 13
1.0
 23
0.0
 33
0.0
 40
0.0
 40
0.0
 40
0.0
 40
0.0
 40
1.0
 40
1.0
 40
1.0
 40
2.0
 40
2.0
 40
2.0
 40
3.0
 40
3.0
 40
3.0
 40
4.0
 40
4.0
 40
4.0
 40
5.0
 40
5.0
 40
5.0
 40
6.0
 40
6.0
 40
6.0
 40
7.0
 40
7.0
 40
7.0
 40
7.0
 10
113.465253335349
 20
-132.7667453010097
 30
0.0
 10
113.465253335349
 20
-132.7667453010097
 30
0.0
 10
112.3611002323264
 20
-132.7667453010097
 30
0.0
 10
112.3611002323264
 20
-132.7667453010097
 30
0.0
 10
112.3611002323264
 20
-132.7667453010097
 30
0.0
 10
112.3611002323264
 20
-133.0967854484966
 30
0.0
 10
112.3611002323264
 20
-133.0967854484966
 30
0.0
 10
112.3611002323264
 20
-133.0967854484966
 30
0.0
 10
112.2129611264607
 20
-133.0967854484966
 30
0.0
 10
112.2129611264607
 20
-133.0967854484966
 30
0.0
 10
112.1981472158741
 20
-132.7646782437185
 30
0.0
 10
112.0351941994218
 20
-132.7181694546677
 30
0.0
 10
111.9208170293115
 20
-132.6885416334945
 30
0.0
 10
111.9208170293115
 20
-132.6885416334945
 30
0.0
 10
111.9208170293115
 20
-132.54246958492
 30
0.0
 10
111.9208170293115
 20
-132.54246958492
 30
0.0
 10
111.9208170293115
 20
-132.54246958492
 30
0.0
 10
113.465253335349
 20
-132.54246958492
 30
0.0
 10
113.465253335349
 20
-132.54246958492
 30
0.0
 10
113.465253335349
 20
-132.54246958492
 30
0.0
 10
113.465253335349
 20
-132.7667453010097
 30
0.0
 10
113.465253335349
 20
-132.7667453010097
 30
0.0
  0
HATCH
  5
AB
330
9C
100
AcDbEntity
  8
_U+30EC_U+30A4_U+30E4_U+30FC 1
 62
   179
420
  2234388
100
AcDbHatch
 10
0.0
 20
0.0
 30
0.0
210
0.0
220
0.0
230
1.0
  2
SOLID
 70
     1
 71
     0
 91
        1
 92
        1
 93
        1
 72
     4
 94
        3
 73
     0
 74
     1
 95
       26
 96
       22
 40
0.0
 40
0.0
 40
0.0
 40
0.0
 40
1.0
 40
1.0
 40
1.0
 40
2.0
 40
2.0
 40
2.0
 40
3.0
 40
3.0
 40
3.0
 40
4.0
 40
4.0
 40
4.0
 40
5.0
 40
5.0
 40
5.0
 40
6.0
 40
6.0
 40
6.0
 40
7.0
 40
7.0
 40
7.0
 40
7.0
 10
113.465253335349
 20
-132.7667453010097
 10
113.465253335349
 20
-132.7667453010097
 10
112.3611002323264
 20
-132.7667453010097
 10
112.3611002323264
 20
-132.7667453010097
 10
112.3611002323264
 20
-132.7667453010097
 10
112.3611002323264
 20
-133.0967854484966
 10
112.3611002323264
 20
-133.0967854484966
 10
112.3611002323264
 20
-133.0967854484966
 10
112.2129611264607
 20
-133.0967854484966
 10
112.2129611264607
 20
-133.0967854484966
 10
112.1981472158741
 20
-132.7646782437185
 10
112.0351941994218
 20
-132.7181694546677
 10
111.9208170293115
 20
-132.6885416334945
 10
111.9208170293115
 20
-132.6885416334945
 10
111.9208170293115
 20
-132.54246958492
 10
111.9208170293115
 20
-132.54246958492
 10
111.9208170293115
 20
-132.54246958492
 10
113.465253335349
 20
-132.54246958492
 10
113.465253335349
 20
-132.54246958492
 10
113.465253335349
 20
-132.54246958492
 10
113.465253335349
 20
-132.7667453010097
 10
113.465253335349
 20
-132.7667453010097
 97
        0
 97
        0
 75
     2
 76
     1
 98
        0
  0
ENDBLK
  5
9F
330
9C
100
AcDbEntity
  8
0
100
AcDbBlockEnd
  0
BLOCK
  5
AE
330
AC
100
AcDbEntity
  8
0
100
AcDbBlockBegin
  2
block 5
 70
     0
 10
0.0
 20
0.0
 30
0.0
  3
block 5
  1

  0
SPLINE
  5
B0
330
AC
100
AcDbEntity
  8
_U+30EC_U+30A4_U+30E4_U+30FC 1
370
     0
100
AcDbSpline
210
0.0
220
0.0
230
1.0
 70
    11
 71
     3
 72
    32
 73
    28
 74
     0
 42
0.0000000001
 43
0.0000000001
 12
1.0
 22
0.0
 32
0.0
 13
1.0
 23
0.0
 33
0.0
 40
0.0
 40
0.0
 40
0.0
 40
0.0
 40
1.0
 40
1.0
 40
1.0
 40
2.0
 40
2.0
 40
2.0
 40
3.0
 40
3.0
 40
3.0
 40
4.0
 40
4.0
 40
4.0
 40
5.0
 40
5.0
 40
5.0
 40
6.0
 40
6.0
 40
6.0
 40
7.0
 40
7.0
 40
7.0
 40
8.0
 40
8.0
 40
8.0
 40
9.0
 40
9.0
 40
9.0
 40
9.0
 10
113.5158962389821
 20
-130.4640434786687
 30
0.0
 10
113.5158962389821
 20
-130.9801187823591
 30
0.0
 10
112.961924884954
 20
-130.9887315210723
 30
0.0
 10
112.74798445532
 20
-130.9887315210723
 30
0.0
 10
112.5175075673567
 20
-130.9887315210723
 30
0.0
 10
111.8701741256783
 20
-130.9694389863549
 30
0.0
 10
111.8701741256783
 20
-130.4258029187824
 30
0.0
 10
111.8701741256783
 20
-130.2525146158744
 30
0.0
 10
111.9401095640289
 20
-130.0068793077761
 30
0.0
 10
112.272216768807
 20
-129.9689832574383
 30
0.0
 10
112.272216768807
 20
-129.9689832574383
 30
0.0
 10
112.272216768807
 20
-130.1825791775238
 30
0.0
 10
112.272216768807
 20
-130.1825791775238
 30
0.0
 10
112.2150281837518
 20
-130.1932589735281
 30
0.0
 10
112.0668890778861
 20
-130.2249538519924
 30
0.0
 10
112.0668890778861
 20
-130.4278699760736
 30
0.0
 10
112.0668890778861
 20
-130.7200140732228
 30
0.0
 10
112.3948621680818
 20
-130.7599771808517
 30
0.0
 10
112.5998453494542
 20
-130.7727240341471
 30
0.0
 10
112.521641681939
 20
-130.6797064560454
 30
0.0
 10
112.4623860395927
 20
-130.6118380749859
 30
0.0
 10
112.4623860395927
 20
-130.4299370333648
 30
0.0
 10
112.4623860395927
 20
-130.2501030490347
 30
0.0
 10
112.5705620378296
 20
-129.9476236654298
 30
0.0
 10
112.9767387955405
 20
-129.9476236654298
 30
0.0
 10
113.2960991470232
 20
-129.9476236654298
 30
0.0
 10
113.5158962389821
 20
-130.1467501844772
 30
0.0
 10
113.5158962389821
 20
-130.4640434786687
 30
0.0
  0
SPLINE
  5
B1
330
AC
100
AcDbEntity
  8
_U+30EC_U+30A4_U+30E4_U+30FC 1
370
     0
100
AcDbSpline
210
0.0
220
0.0
230
1.0
 70
    11
 71
     3
 72
    17
 73
    13
 74
     0
 42
0.0000000001
 43
0.0000000001
 12
1.0
 22
0.0
 32
0.0
 13
1.0
 23
0.0
 33
0.0
 40
0.0
 40
0.0
 40
0.0
 40
0.0
 40
1.0
 40
1.0
 40
1.0
 40
2.0
 40
2.0
 40
2.0
 40
3.0
 40
3.0
 40
3.0
 40
4.0
 40
4.0
 40
4.0
 40
4.0
 10
112.6570339345094
 20
-130.447162510791
 30
0.0
 10
112.6570339345094
 20
-130.7093342772185
 30
0.0
 10
112.8685627973037
 20
-130.7472303275563
 30
0.0
 10
112.9850070247051
 20
-130.7472303275563
 30
0.0
 10
113.1607068944529
 20
-130.7472303275563
 30
0.0
 10
113.3236599109052
 20
-130.6521456921633
 30
0.0
 10
113.3236599109052
 20
-130.468177593251
 30
0.0
 10
113.3236599109052
 20
-130.3475992512673
 30
0.0
 10
113.2644042685589
 20
-130.1718993815195
 30
0.0
 10
112.9788058528317
 20
-130.1718993815195
 30
0.0
 10
112.7545301367419
 20
-130.1718993815195
 30
0.0
 10
112.6570339345094
 20
-130.3114257486721
 30
0.0
 10
112.6570339345094
 20
-130.447162510791
 30
0.0
  0
HATCH
  5
B2
330
AC
100
AcDbEntity
  8
_U+30EC_U+30A4_U+30E4_U+30FC 1
 62
   179
420
  2234388
100
AcDbHatch
 10
0.0
 20
0.0
 30
0.0
210
0.0
220
0.0
230
1.0
  2
SOLID
 70
     1
 71
     0
 91
        2
 92
        1
 93
        1
 72
     4
 94
        3
 73
     0
 74
     1
 95
       32
 96
       28
 40
0.0
 40
0.0
 40
0.0
 40
0.0
 40
1.0
 40
1.0
 40
1.0
 40
2.0
 40
2.0
 40
2.0
 40
3.0
 40
3.0
 40
3.0
 40
4.0
 40
4.0
 40
4.0
 40
5.0
 40
5.0
 40
5.0
 40
6.0
 40
6.0
 40
6.0
 40
7.0
 40
7.0
 40
7.0
 40
8.0
 40
8.0
 40
8.0
 40
9.0
 40
9.0
 40
9.0
 40
9.0
 10
113.5158962389821
 20
-130.4640434786687
 10
113.5158962389821
 20
-130.9801187823591
 10
112.961924884954
 20
-130.9887315210723
 10
112.74798445532
 20
-130.9887315210723
 10
112.5175075673567
 20
-130.9887315210723
 10
111.8701741256783
 20
-130.9694389863549
 10
111.8701741256783
 20
-130.4258029187824
 10
111.8701741256783
 20
-130.2525146158744
 10
111.9401095640289
 20
-130.0068793077761
 10
112.272216768807
 20
-129.9689832574383
 10
112.272216768807
 20
-129.9689832574383
 10
112.272216768807
 20
-130.1825791775238
 10
112.272216768807
 20
-130.1825791775238
 10
112.2150281837518
 20
-130.1932589735281
 10
112.0668890778861
 20
-130.2249538519924
 10
112.0668890778861
 20
-130.4278699760736
 10
112.0668890778861
 20
-130.7200140732228
 10
112.3948621680818
 20
-130.7599771808517
 10
112.5998453494542
 20
-130.7727240341471
 10
112.521641681939
 20
-130.6797064560454
 10
112.4623860395927
 20
-130.6118380749859
 10
112.4623860395927
 20
-130.4299370333648
 10
112.4623860395927
 20
-130.2501030490347
 10
112.5705620378296
 20
-129.9476236654298
 10
112.9767387955405
 20
-129.9476236654298
 10
113.2960991470232
 20
-129.9476236654298
 10
113.5158962389821
 20
-130.1467501844772
 10
113.5158962389821
 20
-130.4640434786687
 97
        0
 97
        0
 92
        1
 93
        1
 72
     4
 94
        3
 73
     0
 74
     1
 95
       17
 96
       13
 40
0.0
 40
0.0
 40
0.0
 40
0.0
 40
1.0
 40
1.0
 40
1.0
 40
2.0
 40
2.0
 40
2.0
 40
3.0
 40
3.0
 40
3.0
 40
4.0
 40
4.0
 40
4.0
 40
4.0
 10
112.6570339345094
 20
-130.447162510791
 10
112.6570339345094
 20
-130.7093342772185
 10
112.8685627973037
 20
-130.7472303275563
 10
112.9850070247051
 20
-130.7472303275563
 10
113.1607068944529
 20
-130.7472303275563
 10
113.3236599109052
 20
-130.6521456921633
 10
113.3236599109052
 20
-130.468177593251
 10
113.3236599109052
 20
-130.3475992512673
 10
113.2644042685589
 20
-130.1718993815195
 10
112.9788058528317
 20
-130.1718993815195
 10
112.7545301367419
 20
-130.1718993815195
 10
112.6570339345094
 20
-130.3114257486721
 10
112.6570339345094
 20
-130.447162510791
 97
        0
 97
        0
 75
     2
 76
     1
 98
        0
  0
POLYLINE
  5
B3
330
AC
100
AcDbEntity
  8
_U+30EC_U+30A4_U+30E4_U+30FC 1
370
     0
100
AcDb2dPolyline
 66
     1
 10
0.0
 20
0.0
 30
0.0
  0
VERTEX
  5
B4
330
B3
100
AcDbEntity
  8
_U+30EC_U+30A4_U+30E4_U+30FC 1
370
     0
100
AcDbVertex
100
AcDb2dVertex
 10
113.465253335349
 20
-129.7312716689561
 30
0.0
  0
VERTEX
  5
B5
330
B3
100
AcDbEntity
  8
_U+30EC_U+30A4_U+30E4_U+30FC 1
370
     0
100
AcDbVertex
100
AcDb2dVertex
 10
113.2134168553772
 20
-129.7312716689561
 30
0.0
  0
VERTEX
  5
B6
330
B3
100
AcDbEntity
  8
_U+30EC_U+30A4_U+30E4_U+30FC 1
370
     0
100
AcDbVertex
100
AcDb2dVertex
 10
113.2134168553772
 20
-129.4794351889843
 30
0.0
  0
VERTEX
  5
B7
330
B3
100
AcDbEntity
  8
_U+30EC_U+30A4_U+30E4_U+30FC 1
370
     0
100
AcDbVertex
100
AcDb2dVertex
 10
113.465253335349
 20
-129.4794351889843
 30
0.0
  0
VERTEX
  5
B8
330
B3
100
AcDbEntity
  8
_U+30EC_U+30A4_U+30E4_U+30FC 1
370
     0
100
AcDbVertex
100
AcDb2dVertex
 10
113.465253335349
 20
-129.7312716689561
 30
0.0
  0
SEQEND
  5
B9
330
B3
100
AcDbEntity
  8
_U+30EC_U+30A4_U+30E4_U+30FC 1
370
     0
  0
HATCH
  5
BA
330
AC
100
AcDbEntity
  8
_U+30EC_U+30A4_U+30E4_U+30FC 1
 62
   179
420
  2234388
100
AcDbHatch
 10
0.0
 20
0.0
 30
0.0
210
0.0
220
0.0
230
1.0
  2
SOLID
 70
     1
 71
     0
 91
        1
 92
        1
 93
        4
 72
     1
 10
113.465253335349
 20
-129.7312716689561
 11
113.2134168553772
 21
-129.7312716689561
 72
     1
 10
113.2134168553772
 20
-129.7312716689561
 11
113.2134168553772
 21
-129.4794351889843
 72
     1
 10
113.2134168553772
 20
-129.4794351889843
 11
113.465253335349
 21
-129.4794351889843
 72
     1
 10
113.465253335349
 20
-129.4794351889843
 11
113.465253335349
 21
-129.7312716689561
 97
        0
 75
     2
 76
     1
 98
        0
  0
SPLINE
  5
BB
330
AC
100
AcDbEntity
  8
_U+30EC_U+30A4_U+30E4_U+30FC 1
370
     0
100
AcDbSpline
210
0.0
220
0.0
230
1.0
 70
    11
 71
     3
 72
    53
 73
    49
 74
     0
 42
0.0000000001
 43
0.0000000001
 12
1.0
 22
0.0
 32
0.0
 13
1.0
 23
0.0
 33
0.0
 40
0.0
 40
0.0
 40
0.0
 40
0.0
 40
1.0
 40
1.0
 40
1.0
 40
2.0
 40
2.0
 40
2.0
 40
3.0
 40
3.0
 40
3.0
 40
4.0
 40
4.0
 40
4.0
 40
5.0
 40
5.0
 40
5.0
 40
6.0
 40
6.0
 40
6.0
 40
7.0
 40
7.0
 40
7.0
 40
8.0
 40
8.0
 40
8.0
 40
9.0
 40
9.0
 40
9.0
 40
10.0
 40
10.0
 40
10.0
 40
11.0
 40
11.0
 40
11.0
 40
12.0
 40
12.0
 40
12.0
 40
13.0
 40
13.0
 40
13.0
 40
14.0
 40
14.0
 40
14.0
 40
15.0
 40
15.0
 40
15.0
 40
16.0
 40
16.0
 40
16.0
 40
16.0
 10
113.5158962389821
 20
-128.7621663089553
 30
0.0
 10
113.5158962389821
 20
-128.8403699764705
 30
0.0
 10
113.4990152711044
 20
-128.9420002932853
 30
0.0
 10
113.4356255141758
 20
-129.0436306101002
 30
0.0
 10
113.3257269681963
 20
-129.2169189130083
 30
0.0
 10
113.1944688302083
 20
-129.2382785050168
 30
0.0
 10
113.08663734152
 20
-129.2572265301857
 30
0.0
 10
113.08663734152
 20
-129.2572265301857
 30
0.0
 10
113.08663734152
 20
-129.0350178713871
 30
0.0
 10
113.08663734152
 20
-129.0350178713871
 30
0.0
 10
113.2854193510189
 20
-128.9802408531716
 30
0.0
 10
113.3150471721921
 20
-128.8531168297659
 30
0.0
 10
113.3150471721921
 20
-128.7600992516641
 30
0.0
 10
113.3150471721921
 20
-128.6205728845115
 30
0.0
 10
113.2154839126684
 20
-128.4682996640635
 30
0.0
 10
112.982939967414
 20
-128.4682996640635
 30
0.0
 10
112.7269693728599
 20
-128.4682996640635
 30
0.0
 10
112.6570339345094
 20
-128.6481336483935
 30
0.0
 10
112.6570339345094
 20
-128.7687119903773
 30
0.0
 10
112.6570339345094
 20
-128.8004068688416
 30
0.0
 10
112.6570339345094
 20
-128.9420002932853
 30
0.0
 10
112.7862250152062
 20
-129.0308837568048
 30
0.0
 10
112.7862250152062
 20
-129.0308837568048
 30
0.0
 10
112.7672769900374
 20
-129.2065836265525
 30
0.0
 10
112.7672769900374
 20
-129.2065836265525
 30
0.0
 10
112.7672769900374
 20
-129.2065836265525
 30
0.0
 10
111.9208170293115
 20
-129.0860052845688
 30
0.0
 10
111.9208170293115
 20
-129.0860052845688
 30
0.0
 10
111.9208170293115
 20
-129.0860052845688
 30
0.0
 10
111.9208170293115
 20
-128.3074137049023
 30
0.0
 10
111.9208170293115
 20
-128.3074137049023
 30
0.0
 10
111.9208170293115
 20
-128.3074137049023
 30
0.0
 10
112.1154649242281
 20
-128.3074137049023
 30
0.0
 10
112.1154649242281
 20
-128.3074137049023
 30
0.0
 10
112.1154649242281
 20
-128.3074137049023
 30
0.0
 10
112.1154649242281
 20
-128.9230522681165
 30
0.0
 10
112.1154649242281
 20
-128.9230522681165
 30
0.0
 10
112.1154649242281
 20
-128.9230522681165
 30
0.0
 10
112.5385226498168
 20
-128.9885090823362
 30
0.0
 10
112.5385226498168
 20
-128.9885090823362
 30
0.0
 10
112.5047607140613
 20
-128.9271863826988
 30
0.0
 10
112.4644530968839
 20
-128.8448486006013
 30
0.0
 10
112.4644530968839
 20
-128.7263373159087
 30
0.0
 10
112.4644530968839
 20
-128.4724337786458
 30
0.0
 10
112.6508327626359
 20
-128.2354112092606
 30
0.0
 10
112.9639919422451
 20
-128.2354112092606
 30
0.0
 10
113.2812852364366
 20
-128.2354112092606
 30
0.0
 10
113.5158962389821
 20
-128.4596869253504
 30
0.0
 10
113.5158962389821
 20
-128.7621663089553
 30
0.0
  0
HATCH
  5
BC
330
AC
100
AcDbEntity
  8
_U+30EC_U+30A4_U+30E4_U+30FC 1
 62
   179
420
  2234388
100
AcDbHatch
 10
0.0
 20
0.0
 30
0.0
210
0.0
220
0.0
230
1.0
  2
SOLID
 70
     1
 71
     0
 91
        1
 92
        1
 93
        1
 72
     4
 94
        3
 73
     0
 74
     1
 95
       53
 96
       49
 40
0.0
 40
0.0
 40
0.0
 40
0.0
 40
1.0
 40
1.0
 40
1.0
 40
2.0
 40
2.0
 40
2.0
 40
3.0
 40
3.0
 40
3.0
 40
4.0
 40
4.0
 40
4.0
 40
5.0
 40
5.0
 40
5.0
 40
6.0
 40
6.0
 40
6.0
 40
7.0
 40
7.0
 40
7.0
 40
8.0
 40
8.0
 40
8.0
 40
9.0
 40
9.0
 40
9.0
 40
10.0
 40
10.0
 40
10.0
 40
11.0
 40
11.0
 40
11.0
 40
12.0
 40
12.0
 40
12.0
 40
13.0
 40
13.0
 40
13.0
 40
14.0
 40
14.0
 40
14.0
 40
15.0
 40
15.0
 40
15.0
 40
16.0
 40
16.0
 40
16.0
 40
16.0
 10
113.5158962389821
 20
-128.7621663089553
 10
113.5158962389821
 20
-128.8403699764705
 10
113.4990152711044
 20
-128.9420002932853
 10
113.4356255141758
 20
-129.0436306101002
 10
113.3257269681963
 20
-129.2169189130083
 10
113.1944688302083
 20
-129.2382785050168
 10
113.08663734152
 20
-129.2572265301857
 10
113.08663734152
 20
-129.2572265301857
 10
113.08663734152
 20
-129.0350178713871
 10
113.08663734152
 20
-129.0350178713871
 10
113.2854193510189
 20
-128.9802408531716
 10
113.3150471721921
 20
-128.8531168297659
 10
113.3150471721921
 20
-128.7600992516641
 10
113.3150471721921
 20
-128.6205728845115
 10
113.2154839126684
 20
-128.4682996640635
 10
112.982939967414
 20
-128.4682996640635
 10
112.7269693728599
 20
-128.4682996640635
 10
112.6570339345094
 20
-128.6481336483935
 10
112.6570339345094
 20
-128.7687119903773
 10
112.6570339345094
 20
-128.8004068688416
 10
112.6570339345094
 20
-128.9420002932853
 10
112.7862250152062
 20
-129.0308837568048
 10
112.7862250152062
 20
-129.0308837568048
 10
112.7672769900374
 20
-129.2065836265525
 10
112.7672769900374
 20
-129.2065836265525
 10
112.7672769900374
 20
-129.2065836265525
 10
111.9208170293115
 20
-129.0860052845688
 10
111.9208170293115
 20
-129.0860052845688
 10
111.9208170293115
 20
-129.0860052845688
 10
111.9208170293115
 20
-128.3074137049023
 10
111.9208170293115
 20
-128.3074137049023
 10
111.9208170293115
 20
-128.3074137049023
 10
112.1154649242281
 20
-128.3074137049023
 10
112.1154649242281
 20
-128.3074137049023
 10
112.1154649242281
 20
-128.3074137049023
 10
112.1154649242281
 20
-128.9230522681165
 10
112.1154649242281
 20
-128.9230522681165
 10
112.1154649242281
 20
-128.9230522681165
 10
112.5385226498168
 20
-128.9885090823362
 10
112.5385226498168
 20
-128.9885090823362
 10
112.5047607140613
 20
-128.9271863826988
 10
112.4644530968839
 20
-128.8448486006013
 10
112.4644530968839
 20
-128.7263373159087
 10
112.4644530968839
 20
-128.4724337786458
 10
112.6508327626359
 20
-128.2354112092606
 10
112.9639919422451
 20
-128.2354112092606
 10
113.2812852364366
 20
-128.2354112092606
 10
113.5158962389821
 20
-128.4596869253504
 10
113.5158962389821
 20
-128.7621663089553
 97
        0
 97
        0
 75
     2
 76
     1
 98
        0
  0
ENDBLK
  5
AF
330
AC
100
AcDbEntity
  8
0
100
AcDbBlockEnd
  0
BLOCK
  5
BF
330
BD
100
AcDbEntity
  8
0
100
AcDbBlockBegin
  2
block 6
 70
     0
 10
0.0
 20
0.0
 30
0.0
  3
block 6
  1

  0
SPLINE
  5
C1
330
BD
100
AcDbEntity
  8
_U+30EC_U+30A4_U+30E4_U+30FC 1
370
     0
100
AcDbSpline
210
0.0
220
0.0
230
1.0
 70
    11
 71
     3
 72
    62
 73
    58
 74
     0
 42
0.0000000001
 43
0.0000000001
 12
1.0
 22
0.0
 32
0.0
 13
1.0
 23
0.0
 33
0.0
 40
0.0
 40
0.0
 40
0.0
 40
0.0
 40
1.0
 40
1.0
 40
1.0
 40
2.0
 40
2.0
 40
2.0
 40
3.0
 40
3.0
 40
3.0
 40
4.0
 40
4.0
 40
4.0
 40
5.0
 40
5.0
 40
5.0
 40
6.0
 40
6.0
 40
6.0
 40
7.0
 40
7.0
 40
7.0
 40
8.0
 40
8.0
 40
8.0
 40
9.0
 40
9.0
 40
9.0
 40
10.0
 40
10.0
 40
10.0
 40
11.0
 40
11.0
 40
11.0
 40
12.0
 40
12.0
 40
12.0
 40
13.0
 40
13.0
 40
13.0
 40
14.0
 40
14.0
 40
14.0
 40
15.0
 40
15.0
 40
15.0
 40
16.0
 40
16.0
 40
16.0
 40
17.0
 40
17.0
 40
17.0
 40
18.0
 40
18.0
 40
18.0
 40
19.0
 40
19.0
 40
19.0
 40
19.0
 10
113.5158962389821
 20
-124.8512939140997
 30
0.0
 10
113.5158962389821
 20
-124.9467230590411
 30
0.0
 10
113.4948811565221
 20
-125.1644530937089
 30
0.0
 10
113.3088460003186
 20
-125.2895100598235
 30
0.0
 10
113.1965358874995
 20
-125.3635796127563
 30
0.0
 10
113.0973171375243
 20
-125.3677137273386
 30
0.0
 10
113.0125677885871
 20
-125.3718478419209
 30
0.0
 10
113.0125677885871
 20
-125.3718478419209
 30
0.0
 10
113.0125677885871
 20
-125.1517062404135
 30
0.0
 10
113.0125677885871
 20
-125.1517062404135
 30
0.0
 10
113.08663734152
 20
-125.1496391831223
 30
0.0
 10
113.3212483440655
 20
-125.1393038966666
 30
0.0
 10
113.3212483440655
 20
-124.8557725382305
 30
0.0
 10
113.3212483440655
 20
-124.718313228369
 30
0.0
 10
113.2516574152635
 20
-124.5656954983725
 30
0.0
 10
113.0232475845914
 20
-124.5656954983725
 30
0.0
 10
112.90680335719
 20
-124.5656954983725
 30
0.0
 10
112.858227510848
 20
-124.6039360582587
 30
0.0
 10
112.8265326323836
 20
-124.635630936723
 30
0.0
 10
112.7524630794508
 20
-124.7097004896559
 30
0.0
 10
112.7397162261554
 20
-124.8261447170574
 30
0.0
 10
112.7397162261554
 20
-124.8809217352728
 30
0.0
 10
112.7397162261554
 20
-124.9002142699902
 30
0.0
 10
112.7417832834465
 20
-124.9360432630368
 30
0.0
 10
112.7459173980288
 20
-124.9636040269188
 30
0.0
 10
112.7459173980288
 20
-124.9636040269188
 30
0.0
 10
112.5512695031122
 20
-124.9636040269188
 30
0.0
 10
112.5512695031122
 20
-124.9636040269188
 30
0.0
 10
112.5578151845342
 20
-124.9253634670326
 30
0.0
 10
112.5598822418253
 20
-124.8833333021125
 30
0.0
 10
112.5598822418253
 20
-124.8767876206905
 30
0.0
 10
112.5598822418253
 20
-124.8113308064708
 30
0.0
 10
112.5385226498168
 20
-124.6125487969719
 30
0.0
 10
112.3018445899801
 20
-124.6125487969719
 30
0.0
 10
112.1240776629412
 20
-124.6125487969719
 30
0.0
 10
112.0689561351772
 20
-124.7434624254114
 30
0.0
 10
112.0689561351772
 20
-124.8537054809394
 30
0.0
 10
112.0689561351772
 20
-125.117944304658
 30
0.0
 10
112.3018445899801
 20
-125.1265570433712
 30
0.0
 10
112.3735025760733
 20
-125.1306911579534
 30
0.0
 10
112.3735025760733
 20
-125.1306911579534
 30
0.0
 10
112.3735025760733
 20
-125.3339517915832
 30
0.0
 10
112.3735025760733
 20
-125.3339517915832
 30
0.0
 10
112.2487901195072
 20
-125.3253390528701
 30
0.0
 10
111.8722411829694
 20
-125.2977782889881
 30
0.0
 10
111.8722411829694
 20
-124.8409586276439
 30
0.0
 10
111.8722411829694
 20
-124.6166829115542
 30
0.0
 10
111.9993652063752
 20
-124.3755262275867
 30
0.0
 10
112.2952989085581
 20
-124.3755262275867
 30
0.0
 10
112.4816785743101
 20
-124.3755262275867
 30
0.0
 10
112.5640163564076
 20
-124.4706108629796
 30
0.0
 10
112.6253390560451
 20
-124.5701741225033
 30
0.0
 10
112.6528998199271
 20
-124.5088514228658
 30
0.0
 10
112.7331705447334
 20
-124.3269503812447
 30
0.0
 10
113.010500731296
 20
-124.3269503812447
 30
0.0
 10
113.3488091079475
 20
-124.3269503812447
 30
0.0
 10
113.5158962389821
 20
-124.5743082370856
 30
0.0
 10
113.5158962389821
 20
-124.8512939140997
 30
0.0
  0
HATCH
  5
C2
330
BD
100
AcDbEntity
  8
_U+30EC_U+30A4_U+30E4_U+30FC 1
 62
   179
420
  2234388
100
AcDbHatch
 10
0.0
 20
0.0
 30
0.0
210
0.0
220
0.0
230
1.0
  2
SOLID
 70
     1
 71
     0
 91
        1
 92
        1
 93
        1
 72
     4
 94
        3
 73
     0
 74
     1
 95
       62
 96
       58
 40
0.0
 40
0.0
 40
0.0
 40
0.0
 40
1.0
 40
1.0
 40
1.0
 40
2.0
 40
2.0
 40
2.0
 40
3.0
 40
3.0
 40
3.0
 40
4.0
 40
4.0
 40
4.0
 40
5.0
 40
5.0
 40
5.0
 40
6.0
 40
6.0
 40
6.0
 40
7.0
 40
7.0
 40
7.0
 40
8.0
 40
8.0
 40
8.0
 40
9.0
 40
9.0
 40
9.0
 40
10.0
 40
10.0
 40
10.0
 40
11.0
 40
11.0
 40
11.0
 40
12.0
 40
12.0
 40
12.0
 40
13.0
 40
13.0
 40
13.0
 40
14.0
 40
14.0
 40
14.0
 40
15.0
 40
15.0
 40
15.0
 40
16.0
 40
16.0
 40
16.0
 40
17.0
 40
17.0
 40
17.0
 40
18.0
 40
18.0
 40
18.0
 40
19.0
 40
19.0
 40
19.0
 40
19.0
 10
113.5158962389821
 20
-124.8512939140997
 10
113.5158962389821
 20
-124.9467230590411
 10
113.4948811565221
 20
-125.1644530937089
 10
113.3088460003186
 20
-125.2895100598235
 10
113.1965358874995
 20
-125.3635796127563
 10
113.0973171375243
 20
-125.3677137273386
 10
113.0125677885871
 20
-125.3718478419209
 10
113.0125677885871
 20
-125.3718478419209
 10
113.0125677885871
 20
-125.1517062404135
 10
113.0125677885871
 20
-125.1517062404135
 10
113.08663734152
 20
-125.1496391831223
 10
113.3212483440655
 20
-125.1393038966666
 10
113.3212483440655
 20
-124.8557725382305
 10
113.3212483440655
 20
-124.718313228369
 10
113.2516574152635
 20
-124.5656954983725
 10
113.0232475845914
 20
-124.5656954983725
 10
112.90680335719
 20
-124.5656954983725
 10
112.858227510848
 20
-124.6039360582587
 10
112.8265326323836
 20
-124.635630936723
 10
112.7524630794508
 20
-124.7097004896559
 10
112.7397162261554
 20
-124.8261447170574
 10
112.7397162261554
 20
-124.8809217352728
 10
112.7397162261554
 20
-124.9002142699902
 10
112.7417832834465
 20
-124.9360432630368
 10
112.7459173980288
 20
-124.9636040269188
 10
112.7459173980288
 20
-124.9636040269188
 10
112.5512695031122
 20
-124.9636040269188
 10
112.5512695031122
 20
-124.9636040269188
 10
112.5578151845342
 20
-124.9253634670326
 10
112.5598822418253
 20
-124.8833333021125
 10
112.5598822418253
 20
-124.8767876206905
 10
112.5598822418253
 20
-124.8113308064708
 10
112.5385226498168
 20
-124.6125487969719
 10
112.3018445899801
 20
-124.6125487969719
 10
112.1240776629412
 20
-124.6125487969719
 10
112.0689561351772
 20
-124.7434624254114
 10
112.0689561351772
 20
-124.8537054809394
 10
112.0689561351772
 20
-125.117944304658
 10
112.3018445899801
 20
-125.1265570433712
 10
112.3735025760733
 20
-125.1306911579534
 10
112.3735025760733
 20
-125.1306911579534
 10
112.3735025760733
 20
-125.3339517915832
 10
112.3735025760733
 20
-125.3339517915832
 10
112.2487901195072
 20
-125.3253390528701
 10
111.8722411829694
 20
-125.2977782889881
 10
111.8722411829694
 20
-124.8409586276439
 10
111.8722411829694
 20
-124.6166829115542
 10
111.9993652063752
 20
-124.3755262275867
 10
112.2952989085581
 20
-124.3755262275867
 10
112.4816785743101
 20
-124.3755262275867
 10
112.5640163564076
 20
-124.4706108629796
 10
112.6253390560451
 20
-124.5701741225033
 10
112.6528998199271
 20
-124.5088514228658
 10
112.7331705447334
 20
-124.3269503812447
 10
113.010500731296
 20
-124.3269503812447
 10
113.3488091079475
 20
-124.3269503812447
 10
113.5158962389821
 20
-124.5743082370856
 10
113.5158962389821
 20
-124.8512939140997
 97
        0
 97
        0
 75
     2
 76
     1
 98
        0
  0
ENDBLK
  5
C0
330
BD
100
AcDbEntity
  8
0
100
AcDbBlockEnd
  0
ENDSEC
  0
SECTION
  2
ENTITIES
  0
SPLINE
  5
41
330
1F
100
AcDbEntity
  8
_U+30EC_U+30A4_U+30E4_U+30FC 1
 62
   179
420
  2234388
370
     9
100
AcDbSpline
210
0.0
220
0.0
230
1.0
 70
    11
 71
     3
 72
    17
 73
    13
 74
     0
 42
0.0000000001
 43
0.0000000001
 12
1.0
 22
0.0
 32
0.0
 13
1.0
 23
0.0
 33
0.0
 40
0.0
 40
0.0
 40
0.0
 40
0.0
 40
1.0
 40
1.0
 40
1.0
 40
2.0
 40
2.0
 40
2.0
 40
3.0
 40
3.0
 40
3.0
 40
4.0
 40
4.0
 40
4.0
 40
4.0
 10
107.7860261390383
 20
-137.8506682988705
 30
0.0
 10
107.7860261390383
 20
-137.7955644099955
 30
0.0
 10
107.7412233624035
 20
-137.7507616322288
 30
0.0
 10
107.6861221953008
 20
-137.7507616322288
 30
0.0
 10
107.6309803096605
 20
-137.7507616322288
 30
0.0
 10
107.5862128108026
 20
-137.7955644099955
 30
0.0
 10
107.5862128108026
 20
-137.8506682988705
 30
0.0
 10
107.5862128108026
 20
-137.9058074655235
 30
0.0
 10
107.6309803096605
 20
-137.9505749655121
 30
0.0
 10
107.6861221953008
 20
-137.9505749655121
 30
0.0
 10
107.7412233624035
 20
-137.9505749655121
 30
0.0
 10
107.7860261390383
 20
-137.9058074655235
 30
0.0
 10
107.7860261390383
 20
-137.8506682988705
 30
0.0
  0
SPLINE
  5
42
330
1F
100
AcDbEntity
  8
_U+30EC_U+30A4_U+30E4_U+30FC 1
 62
   179
420
  2234388
370
     9
100
AcDbSpline
210
0.0
220
0.0
230
1.0
 70
    11
 71
     3
 72
    17
 73
    13
 74
     0
 42
0.0000000001
 43
0.0000000001
 12
1.0
 22
0.0
 32
0.0
 13
1.0
 23
0.0
 33
0.0
 40
0.0
 40
0.0
 40
0.0
 40
0.0
 40
1.0
 40
1.0
 40
1.0
 40
2.0
 40
2.0
 40
2.0
 40
3.0
 40
3.0
 40
3.0
 40
4.0
 40
4.0
 40
4.0
 40
4.0
 10
67.78586021508308
 20
-137.8506682988705
 30
0.0
 10
67.78586021508308
 20
-137.7955644099955
 30
0.0
 10
67.74109442750915
 20
-137.7507616322288
 30
0.0
 10
67.68595355096524
 20
-137.7507616322288
 30
0.0
 10
67.63084966348217
 20
-137.7507616322288
 30
0.0
 10
67.5860468868474
 20
-137.7955644099955
 30
0.0
 10
67.5860468868474
 20
-137.8506682988705
 30
0.0
 10
67.5860468868474
 20
-137.9058074655235
 30
0.0
 10
67.63084966348217
 20
-137.9505749655121
 30
0.0
 10
67.68595355096524
 20
-137.9505749655121
 30
0.0
 10
67.74109442750915
 20
-137.9505749655121
 30
0.0
 10
67.78586021508308
 20
-137.9058074655235
 30
0.0
 10
67.78586021508308
 20
-137.8506682988705
 30
0.0
  0
SPLINE
  5
43
330
1F
100
AcDbEntity
  8
_U+30EC_U+30A4_U+30E4_U+30FC 1
 62
   179
420
  2234388
370
     9
100
AcDbSpline
210
0.0
220
0.0
230
1.0
 70
    11
 71
     3
 72
    17
 73
    13
 74
     0
 42
0.0000000001
 43
0.0000000001
 12
1.0
 22
0.0
 32
0.0
 13
1.0
 23
0.0
 33
0.0
 40
0.0
 40
0.0
 40
0.0
 40
0.0
 40
1.0
 40
1.0
 40
1.0
 40
2.0
 40
2.0
 40
2.0
 40
3.0
 40
3.0
 40
3.0
 40
4.0
 40
4.0
 40
4.0
 40
4.0
 10
97.7855877830596
 20
-120.7895235809136
 30
0.0
 10
97.7855877830596
 20
-120.7344196920387
 30
0.0
 10
97.74078500642483
 20
-120.689616914272
 30
0.0
 10
97.68568111894176
 20
-120.689616914272
 30
0.0
 10
97.63054442003667
 20
-120.689616914272
 30
0.0
 10
97.58577445482392
 20
-120.7344196920387
 30
0.0
 10
97.58577445482392
 20
-120.7895235809136
 30
0.0
 10
97.58577445482392
 20
-120.8453330253444
 30
0.0
 10
97.63054442003667
 20
-120.8901358031108
 30
0.0
 10
97.68568111894176
 20
-120.8901358031108
 30
0.0
 10
97.74078500642483
 20
-120.8901358031108
 30
0.0
 10
97.7855877830596
 20
-120.8453330253444
 30
0.0
 10
97.7855877830596
 20
-120.7895235809136
 30
0.0
  0
SPLINE
  5
44
330
1F
100
AcDbEntity
  8
_U+30EC_U+30A4_U+30E4_U+30FC 1
 62
   179
420
  2234388
370
     9
100
AcDbSpline
210
0.0
220
0.0
230
1.0
 70
    11
 71
     3
 72
    17
 73
    13
 74
     0
 42
0.0000000001
 43
0.0000000001
 12
1.0
 22
0.0
 32
0.0
 13
1.0
 23
0.0
 33
0.0
 40
0.0
 40
0.0
 40
0.0
 40
0.0
 40
1.0
 40
1.0
 40
1.0
 40
2.0
 40
2.0
 40
2.0
 40
3.0
 40
3.0
 40
3.0
 40
4.0
 40
4.0
 40
4.0
 40
4.0
 10
77.78576940440858
 20
-120.7895235809136
 30
0.0
 10
77.78576940440858
 20
-120.7344196920387
 30
0.0
 10
77.7410019055507
 20
-120.689616914272
 30
0.0
 10
77.68586274029074
 20
-120.689616914272
 30
0.0
 10
77.63075885280767
 20
-120.689616914272
 30
0.0
 10
77.5859560761729
 20
-120.7344196920387
 30
0.0
 10
77.5859560761729
 20
-120.7895235809136
 30
0.0
 10
77.5859560761729
 20
-120.8453330253444
 30
0.0
 10
77.63075885280767
 20
-120.8901358031108
 30
0.0
 10
77.68586274029074
 20
-120.8901358031108
 30
0.0
 10
77.7410019055507
 20
-120.8901358031108
 30
0.0
 10
77.78576940440858
 20
-120.8453330253444
 30
0.0
 10
77.78576940440858
 20
-120.7895235809136
 30
0.0
  0
POLYLINE
  5
45
330
1F
100
AcDbEntity
  8
_U+30EC_U+30A4_U+30E4_U+30FC 1
 62
   179
420
  2234388
370
     9
100
AcDb2dPolyline
 66
     1
 10
0.0
 20
0.0
 30
0.0
  0
VERTEX
  5
46
330
45
100
AcDbEntity
  8
_U+30EC_U+30A4_U+30E4_U+30FC 1
 62
   179
420
  2234388
370
     9
100
AcDbVertex
100
AcDb2dVertex
 10
67.68595355096524
 20
-137.8506682988705
 30
0.0
  0
VERTEX
  5
47
330
45
100
AcDbEntity
  8
_U+30EC_U+30A4_U+30E4_U+30FC 1
 62
   179
420
  2234388
370
     9
100
AcDbVertex
100
AcDb2dVertex
 10
107.6861221953008
 20
-137.8506682988705
 30
0.0
  0
SEQEND
  5
48
330
45
100
AcDbEntity
  8
_U+30EC_U+30A4_U+30E4_U+30FC 1
 62
   179
420
  2234388
370
     9
  0
POLYLINE
  5
49
330
1F
100
AcDbEntity
  8
_U+30EC_U+30A4_U+30E4_U+30FC 1
 62
   179
420
  2234388
370
     9
100
AcDb2dPolyline
 66
     1
 10
0.0
 20
0.0
 30
0.0
  0
VERTEX
  5
4A
330
49
100
AcDbEntity
  8
_U+30EC_U+30A4_U+30E4_U+30FC 1
 62
   179
420
  2234388
370
     9
100
AcDbVertex
100
AcDb2dVertex
 10
67.68595355096524
 20
-136.3906269103468
 30
0.0
  0
VERTEX
  5
4B
330
49
100
AcDbEntity
  8
_U+30EC_U+30A4_U+30E4_U+30FC 1
 62
   179
420
  2234388
370
     9
100
AcDbVertex
100
AcDb2dVertex
 10
67.68595355096524
 20
-138.850440520843
 30
0.0
  0
SEQEND
  5
4C
330
49
100
AcDbEntity
  8
_U+30EC_U+30A4_U+30E4_U+30FC 1
 62
   179
420
  2234388
370
     9
  0
POLYLINE
  5
4D
330
1F
100
AcDbEntity
  8
_U+30EC_U+30A4_U+30E4_U+30FC 1
 62
   179
420
  2234388
370
     9
100
AcDb2dPolyline
 66
     1
 10
0.0
 20
0.0
 30
0.0
  0
VERTEX
  5
4E
330
4D
100
AcDbEntity
  8
_U+30EC_U+30A4_U+30E4_U+30FC 1
 62
   179
420
  2234388
370
     9
100
AcDbVertex
100
AcDb2dVertex
 10
107.6861221953008
 20
-136.3906269103468
 30
0.0
  0
VERTEX
  5
4F
330
4D
100
AcDbEntity
  8
_U+30EC_U+30A4_U+30E4_U+30FC 1
 62
   179
420
  2234388
370
     9
100
AcDbVertex
100
AcDb2dVertex
 10
107.6861221953008
 20
-138.850440520843
 30
0.0
  0
SEQEND
  5
50
330
4D
100
AcDbEntity
  8
_U+30EC_U+30A4_U+30E4_U+30FC 1
 62
   179
420
  2234388
370
     9
  0
INSERT
  5
52
330
1F
100
AcDbEntity
  8
_U+30EC_U+30A4_U+30E4_U+30FC 1
100
AcDbBlockReference
  2
block 2
 10
0.0
 20
0.0
 30
0.0
  0
POLYLINE
  5
6D
330
1F
100
AcDbEntity
  8
_U+30EC_U+30A4_U+30E4_U+30FC 1
 62
   179
420
  2234388
370
     9
100
AcDb2dPolyline
 66
     1
 10
0.0
 20
0.0
 30
0.0
  0
VERTEX
  5
6E
330
6D
100
AcDbEntity
  8
_U+30EC_U+30A4_U+30E4_U+30FC 1
 62
   179
420
  2234388
370
     9
100
AcDbVertex
100
AcDb2dVertex
 10
97.68568111894176
 20
-120.7895235809136
 30
0.0
  0
VERTEX
  5
6F
330
6D
100
AcDbEntity
  8
_U+30EC_U+30A4_U+30E4_U+30FC 1
 62
   179
420
  2234388
370
     9
100
AcDbVertex
100
AcDb2dVertex
 10
77.68586274029074
 20
-120.7895235809136
 30
0.0
  0
SEQEND
  5
70
330
6D
100
AcDbEntity
  8
_U+30EC_U+30A4_U+30E4_U+30FC 1
 62
   179
420
  2234388
370
     9
  0
POLYLINE
  5
71
330
1F
100
AcDbEntity
  8
_U+30EC_U+30A4_U+30E4_U+30FC 1
 62
   179
420
  2234388
370
     9
100
AcDb2dPolyline
 66
     1
 10
0.0
 20
0.0
 30
0.0
  0
VERTEX
  5
72
330
71
100
AcDbEntity
  8
_U+30EC_U+30A4_U+30E4_U+30FC 1
 62
   179
420
  2234388
370
     9
100
AcDbVertex
100
AcDb2dVertex
 10
97.68568111894176
 20
-122.2497413583265
 30
0.0
  0
VERTEX
  5
73
330
71
100
AcDbEntity
  8
_U+30EC_U+30A4_U+30E4_U+30FC 1
 62
   179
420
  2234388
370
     9
100
AcDbVertex
100
AcDb2dVertex
 10
97.68568111894176
 20
-119.7897513589414
 30
0.0
  0
SEQEND
  5
74
330
71
100
AcDbEntity
  8
_U+30EC_U+30A4_U+30E4_U+30FC 1
 62
   179
420
  2234388
370
     9
  0
POLYLINE
  5
75
330
1F
100
AcDbEntity
  8
_U+30EC_U+30A4_U+30E4_U+30FC 1
 62
   179
420
  2234388
370
     9
100
AcDb2dPolyline
 66
     1
 10
0.0
 20
0.0
 30
0.0
  0
VERTEX
  5
76
330
75
100
AcDbEntity
  8
_U+30EC_U+30A4_U+30E4_U+30FC 1
 62
   179
420
  2234388
370
     9
100
AcDbVertex
100
AcDb2dVertex
 10
77.68586274029074
 20
-122.2497413583265
 30
0.0
  0
VERTEX
  5
77
330
75
100
AcDbEntity
  8
_U+30EC_U+30A4_U+30E4_U+30FC 1
 62
   179
420
  2234388
370
     9
100
AcDbVertex
100
AcDb2dVertex
 10
77.68586274029074
 20
-119.7897513589414
 30
0.0
  0
SEQEND
  5
78
330
75
100
AcDbEntity
  8
_U+30EC_U+30A4_U+30E4_U+30FC 1
 62
   179
420
  2234388
370
     9
  0
INSERT
  5
7A
330
1F
100
AcDbEntity
  8
_U+30EC_U+30A4_U+30E4_U+30FC 1
100
AcDbBlockReference
  2
block 3
 10
0.0
 20
0.0
 30
0.0
  0
SPLINE
  5
82
330
1F
100
AcDbEntity
  8
_U+30EC_U+30A4_U+30E4_U+30FC 1
 62
   179
420
  2234388
370
    25
100
AcDbSpline
210
0.0
220
0.0
230
1.0
 70
    11
 71
     3
 72
    59
 73
    55
 74
     0
 42
0.0000000001
 43
0.0000000001
 12
1.0
 22
0.0
 32
0.0
 13
1.0
 23
0.0
 33
0.0
 40
0.0
 40
0.0
 40
0.0
 40
0.0
 40
1.0
 40
1.0
 40
1.0
 40
2.0
 40
2.0
 40
2.0
 40
3.0
 40
3.0
 40
3.0
 40
4.0
 40
4.0
 40
4.0
 40
5.0
 40
5.0
 40
5.0
 40
6.0
 40
6.0
 40
6.0
 40
7.0
 40
7.0
 40
7.0
 40
8.0
 40
8.0
 40
8.0
 40
9.0
 40
9.0
 40
9.0
 40
10.0
 40
10.0
 40
10.0
 40
11.0
 40
11.0
 40
11.0
 40
12.0
 40
12.0
 40
12.0
 40
13.0
 40
13.0
 40
13.0
 40
14.0
 40
14.0
 40
14.0
 40
15.0
 40
15.0
 40
15.0
 40
16.0
 40
16.0
 40
16.0
 40
17.0
 40
17.0
 40
17.0
 40
18.0
 40
18.0
 40
18.0
 40
18.0
 10
68.34741186742336
 20
-133.8502388554262
 30
0.0
 10
67.5240285550963
 20
-133.8502388554262
 30
0.0
 10
67.69646632847481
 20
-133.1274324667181
 30
0.0
 10
67.69646632847481
 20
-133.1274324667181
 30
0.0
 10
67.72955688318616
 20
-132.7250541334851
 30
0.0
 10
68.34741186742336
 20
-132.7498544112572
 30
0.0
 10
68.34741186742336
 20
-132.7498544112572
 30
0.0
 10
68.34741186742336
 20
-132.7498544112572
 30
0.0
 10
87.1858858312583
 20
-132.7498544112572
 30
0.0
 10
87.1858858312583
 20
-132.7498544112572
 30
0.0
 10
87.1858858312583
 20
-132.7498544112572
 30
0.0
 10
87.1858858312583
 20
-124.2501324689375
 30
0.0
 10
87.1858858312583
 20
-124.2501324689375
 30
0.0
 10
87.1858858312583
 20
-124.2501324689375
 30
0.0
 10
78.68598771477544
 20
-124.2501324689375
 30
0.0
 10
78.68598771477544
 20
-124.2501324689375
 30
0.0
 10
78.68598771477544
 20
-124.2501324689375
 30
0.0
 10
78.68598771477544
 20
-126.2499944128819
 30
0.0
 10
78.68598771477544
 20
-126.2499944128819
 30
0.0
 10
78.68598771477544
 20
-126.2499944128819
 30
0.0
 10
77.68586274029074
 20
-126.2499944128819
 30
0.0
 10
77.68586274029074
 20
-126.2499944128819
 30
0.0
 10
77.68586274029074
 20
-126.2499944128819
 30
0.0
 10
77.68586274029074
 20
-123.2500074691875
 30
0.0
 10
77.68586274029074
 20
-123.2500074691875
 30
0.0
 10
77.68586274029074
 20
-123.2500074691875
 30
0.0
 10
97.68568111894176
 20
-123.2500074691875
 30
0.0
 10
97.68568111894176
 20
-123.2500074691875
 30
0.0
 10
97.68568111894176
 20
-123.2500074691875
 30
0.0
 10
97.68568111894176
 20
-126.2499944128819
 30
0.0
 10
97.68568111894176
 20
-126.2499944128819
 30
0.0
 10
97.68568111894176
 20
-126.2499944128819
 30
0.0
 10
96.68590892222585
 20
-126.2499944128819
 30
0.0
 10
96.68590892222585
 20
-126.2499944128819
 30
0.0
 10
96.68590892222585
 20
-126.2499944128819
 30
0.0
 10
96.68590892222585
 20
-124.2501324689375
 30
0.0
 10
96.68590892222585
 20
-124.2501324689375
 30
0.0
 10
96.68590892222585
 20
-124.2501324689375
 30
0.0
 10
88.18565802797421
 20
-124.2501324689375
 30
0.0
 10
88.18565802797421
 20
-124.2501324689375
 30
0.0
 10
88.18565802797421
 20
-124.2501324689375
 30
0.0
 10
88.18565802797421
 20
-132.7498544112572
 30
0.0
 10
88.18565802797421
 20
-132.7498544112572
 30
0.0
 10
88.18565802797421
 20
-132.7498544112572
 30
0.0
 10
107.0239583065773
 20
-132.7498544112572
 30
0.0
 10
107.0239583065773
 20
-132.7498544112572
 30
0.0
 10
107.0239583065773
 20
-132.7498544112572
 30
0.0
 10
107.6420249730896
 20
-132.7250541334851
 30
0.0
 10
107.6750775307577
 20
-133.1274324667181
 30
0.0
 10
107.6750775307577
 20
-133.1274324667181
 30
0.0
 10
107.8473416397051
 20
-133.8502388554262
 30
0.0
 10
107.0239583065773
 20
-133.8502388554262
 30
0.0
 10
107.0239583065773
 20
-133.8502388554262
 30
0.0
 10
68.34741186742336
 20
-133.8502388554262
 30
0.0
 10
68.34741186742336
 20
-133.8502388554262
 30
0.0
  0
HATCH
  5
83
330
1F
100
AcDbEntity
  8
_U+30EC_U+30A4_U+30E4_U+30FC 1
 62
     9
420
 13224394
100
AcDbHatch
 10
0.0
 20
0.0
 30
0.0
210
0.0
220
0.0
230
1.0
  2
SOLID
 70
     1
 71
     0
 91
        1
 92
        1
 93
        1
 72
     4
 94
        3
 73
     0
 74
     1
 95
       59
 96
       55
 40
0.0
 40
0.0
 40
0.0
 40
0.0
 40
1.0
 40
1.0
 40
1.0
 40
2.0
 40
2.0
 40
2.0
 40
3.0
 40
3.0
 40
3.0
 40
4.0
 40
4.0
 40
4.0
 40
5.0
 40
5.0
 40
5.0
 40
6.0
 40
6.0
 40
6.0
 40
7.0
 40
7.0
 40
7.0
 40
8.0
 40
8.0
 40
8.0
 40
9.0
 40
9.0
 40
9.0
 40
10.0
 40
10.0
 40
10.0
 40
11.0
 40
11.0
 40
11.0
 40
12.0
 40
12.0
 40
12.0
 40
13.0
 40
13.0
 40
13.0
 40
14.0
 40
14.0
 40
14.0
 40
15.0
 40
15.0
 40
15.0
 40
16.0
 40
16.0
 40
16.0
 40
17.0
 40
17.0
 40
17.0
 40
18.0
 40
18.0
 40
18.0
 40
18.0
 10
68.34741186742336
 20
-133.8502388554262
 10
67.5240285550963
 20
-133.8502388554262
 10
67.69646632847481
 20
-133.1274324667181
 10
67.69646632847481
 20
-133.1274324667181
 10
67.72955688318616
 20
-132.7250541334851
 10
68.34741186742336
 20
-132.7498544112572
 10
68.34741186742336
 20
-132.7498544112572
 10
68.34741186742336
 20
-132.7498544112572
 10
87.1858858312583
 20
-132.7498544112572
 10
87.1858858312583
 20
-132.7498544112572
 10
87.1858858312583
 20
-132.7498544112572
 10
87.1858858312583
 20
-124.2501324689375
 10
87.1858858312583
 20
-124.2501324689375
 10
87.1858858312583
 20
-124.2501324689375
 10
78.68598771477544
 20
-124.2501324689375
 10
78.68598771477544
 20
-124.2501324689375
 10
78.68598771477544
 20
-124.2501324689375
 10
78.68598771477544
 20
-126.2499944128819
 10
78.68598771477544
 20
-126.2499944128819
 10
78.68598771477544
 20
-126.2499944128819
 10
77.68586274029074
 20
-126.2499944128819
 10
77.68586274029074
 20
-126.2499944128819
 10
77.68586274029074
 20
-126.2499944128819
 10
77.68586274029074
 20
-123.2500074691875
 10
77.68586274029074
 20
-123.2500074691875
 10
77.68586274029074
 20
-123.2500074691875
 10
97.68568111894176
 20
-123.2500074691875
 10
97.68568111894176
 20
-123.2500074691875
 10
97.68568111894176
 20
-123.2500074691875
 10
97.68568111894176
 20
-126.2499944128819
 10
97.68568111894176
 20
-126.2499944128819
 10
97.68568111894176
 20
-126.2499944128819
 10
96.68590892222585
 20
-126.2499944128819
 10
96.68590892222585
 20
-126.2499944128819
 10
96.68590892222585
 20
-126.2499944128819
 10
96.68590892222585
 20
-124.2501324689375
 10
96.68590892222585
 20
-124.2501324689375
 10
96.68590892222585
 20
-124.2501324689375
 10
88.18565802797421
 20
-124.2501324689375
 10
88.18565802797421
 20
-124.2501324689375
 10
88.18565802797421
 20
-124.2501324689375
 10
88.18565802797421
 20
-132.7498544112572
 10
88.18565802797421
 20
-132.7498544112572
 10
88.18565802797421
 20
-132.7498544112572
 10
107.0239583065773
 20
-132.7498544112572
 10
107.0239583065773
 20
-132.7498544112572
 10
107.0239583065773
 20
-132.7498544112572
 10
107.6420249730896
 20
-132.7250541334851
 10
107.6750775307577
 20
-133.1274324667181
 10
107.6750775307577
 20
-133.1274324667181
 10
107.8473416397051
 20
-133.8502388554262
 10
107.0239583065773
 20
-133.8502388554262
 10
107.0239583065773
 20
-133.8502388554262
 10
68.34741186742336
 20
-133.8502388554262
 10
68.34741186742336
 20
-133.8502388554262
 97
        0
 97
        0
 75
     2
 76
     1
 98
        0
  0
SPLINE
  5
84
330
1F
100
AcDbEntity
  8
_U+30EC_U+30A4_U+30E4_U+30FC 1
 62
   179
420
  2234388
370
     9
100
AcDbSpline
210
0.0
220
0.0
230
1.0
 70
    11
 71
     3
 72
    17
 73
    13
 74
     0
 42
0.0000000001
 43
0.0000000001
 12
1.0
 22
0.0
 32
0.0
 13
1.0
 23
0.0
 33
0.0
 40
0.0
 40
0.0
 40
0.0
 40
0.0
 40
1.0
 40
1.0
 40
1.0
 40
2.0
 40
2.0
 40
2.0
 40
3.0
 40
3.0
 40
3.0
 40
4.0
 40
4.0
 40
4.0
 40
4.0
 10
110.2588924648391
 20
-133.8502388554262
 30
0.0
 10
110.2588924648391
 20
-133.7950996887731
 30
0.0
 10
110.2141277502241
 20
-133.7503321887846
 30
0.0
 10
110.1589858007213
 20
-133.7503321887846
 30
0.0
 10
110.1038819132382
 20
-133.7503321887846
 30
0.0
 10
110.0590791366034
 20
-133.7950996887731
 30
0.0
 10
110.0590791366034
 20
-133.8502388554262
 30
0.0
 10
110.0590791366034
 20
-133.9053427443011
 30
0.0
 10
110.1038819132382
 20
-133.9501455220679
 30
0.0
 10
110.1589858007213
 20
-133.9501455220679
 30
0.0
 10
110.2141277502241
 20
-133.9501455220679
 30
0.0
 10
110.2588924648391
 20
-133.9053427443011
 30
0.0
 10
110.2588924648391
 20
-133.8502388554262
 30
0.0
  0
SPLINE
  5
85
330
1F
100
AcDbEntity
  8
_U+30EC_U+30A4_U+30E4_U+30FC 1
 62
   179
420
  2234388
370
     9
100
AcDbSpline
210
0.0
220
0.0
230
1.0
 70
    11
 71
     3
 72
    17
 73
    13
 74
     0
 42
0.0000000001
 43
0.0000000001
 12
1.0
 22
0.0
 32
0.0
 13
1.0
 23
0.0
 33
0.0
 40
0.0
 40
0.0
 40
0.0
 40
0.0
 40
1.0
 40
1.0
 40
1.0
 40
2.0
 40
2.0
 40
2.0
 40
3.0
 40
3.0
 40
3.0
 40
4.0
 40
4.0
 40
4.0
 40
4.0
 10
110.2588924648391
 20
-132.7498544112572
 30
0.0
 10
110.2588924648391
 20
-132.6947505223816
 30
0.0
 10
110.2141277502241
 20
-132.6503005223933
 30
0.0
 10
110.1589858007213
 20
-132.6503005223933
 30
0.0
 10
110.1038819132382
 20
-132.6503005223933
 30
0.0
 10
110.0590791366034
 20
-132.6947505223816
 30
0.0
 10
110.0590791366034
 20
-132.7498544112572
 30
0.0
 10
110.0590791366034
 20
-132.8049935779096
 30
0.0
 10
110.1038819132382
 20
-132.8497610778988
 30
0.0
 10
110.1589858007213
 20
-132.8497610778988
 30
0.0
 10
110.2141277502241
 20
-132.8497610778988
 30
0.0
 10
110.2588924648391
 20
-132.8049935779096
 30
0.0
 10
110.2588924648391
 20
-132.7498544112572
 30
0.0
  0
SPLINE
  5
86
330
1F
100
AcDbEntity
  8
_U+30EC_U+30A4_U+30E4_U+30FC 1
 62
   179
420
  2234388
370
     9
100
AcDbSpline
210
0.0
220
0.0
230
1.0
 70
    11
 71
     3
 72
    17
 73
    13
 74
     0
 42
0.0000000001
 43
0.0000000001
 12
1.0
 22
0.0
 32
0.0
 13
1.0
 23
0.0
 33
0.0
 40
0.0
 40
0.0
 40
0.0
 40
0.0
 40
1.0
 40
1.0
 40
1.0
 40
2.0
 40
2.0
 40
2.0
 40
3.0
 40
3.0
 40
3.0
 40
4.0
 40
4.0
 40
4.0
 40
4.0
 10
110.2588924648391
 20
-126.2499944128819
 30
0.0
 10
110.2588924648391
 20
-126.194890524007
 30
0.0
 10
110.2141277502241
 20
-126.1502641351291
 30
0.0
 10
110.1589858007213
 20
-126.1502641351291
 30
0.0
 10
110.1038819132382
 20
-126.1502641351291
 30
0.0
 10
110.0590791366034
 20
-126.194890524007
 30
0.0
 10
110.0590791366034
 20
-126.2499944128819
 30
0.0
 10
110.0590791366034
 20
-126.305133579535
 30
0.0
 10
110.1038819132382
 20
-126.3499010795235
 30
0.0
 10
110.1589858007213
 20
-126.3499010795235
 30
0.0
 10
110.2141277502241
 20
-126.3499010795235
 30
0.0
 10
110.2588924648391
 20
-126.305133579535
 30
0.0
 10
110.2588924648391
 20
-126.2499944128819
 30
0.0
  0
SPLINE
  5
87
330
1F
100
AcDbEntity
  8
_U+30EC_U+30A4_U+30E4_U+30FC 1
 62
   179
420
  2234388
370
     9
100
AcDbSpline
210
0.0
220
0.0
230
1.0
 70
    11
 71
     3
 72
    17
 73
    13
 74
     0
 42
0.0000000001
 43
0.0000000001
 12
1.0
 22
0.0
 32
0.0
 13
1.0
 23
0.0
 33
0.0
 40
0.0
 40
0.0
 40
0.0
 40
0.0
 40
1.0
 40
1.0
 40
1.0
 40
2.0
 40
2.0
 40
2.0
 40
3.0
 40
3.0
 40
3.0
 40
4.0
 40
4.0
 40
4.0
 40
4.0
 10
110.2588924648391
 20
-123.2500074691875
 30
0.0
 10
110.2588924648391
 20
-123.1949035803123
 30
0.0
 10
110.2141277502241
 20
-123.1502771914348
 30
0.0
 10
110.1589858007213
 20
-123.1502771914348
 30
0.0
 10
110.1038819132382
 20
-123.1502771914348
 30
0.0
 10
110.0590791366034
 20
-123.1949035803123
 30
0.0
 10
110.0590791366034
 20
-123.2500074691875
 30
0.0
 10
110.0590791366034
 20
-123.3051466358403
 30
0.0
 10
110.1038819132382
 20
-123.3499141358292
 30
0.0
 10
110.1589858007213
 20
-123.3499141358292
 30
0.0
 10
110.2141277502241
 20
-123.3499141358292
 30
0.0
 10
110.2588924648391
 20
-123.3051466358403
 30
0.0
 10
110.2588924648391
 20
-123.2500074691875
 30
0.0
  0
POLYLINE
  5
88
330
1F
100
AcDbEntity
  8
_U+30EC_U+30A4_U+30E4_U+30FC 1
 62
   179
420
  2234388
370
     9
100
AcDb2dPolyline
 66
     1
 10
0.0
 20
0.0
 30
0.0
  0
VERTEX
  5
89
330
88
100
AcDbEntity
  8
_U+30EC_U+30A4_U+30E4_U+30FC 1
 62
   179
420
  2234388
370
     9
100
AcDbVertex
100
AcDb2dVertex
 10
110.1589858007213
 20
-133.8516146887591
 30
0.0
  0
VERTEX
  5
8A
330
88
100
AcDbEntity
  8
_U+30EC_U+30A4_U+30E4_U+30FC 1
 62
   179
420
  2234388
370
     9
100
AcDbVertex
100
AcDb2dVertex
 10
110.1589858007213
 20
-123.2515596914093
 30
0.0
  0
SEQEND
  5
8B
330
88
100
AcDbEntity
  8
_U+30EC_U+30A4_U+30E4_U+30FC 1
 62
   179
420
  2234388
370
     9
  0
POLYLINE
  5
8C
330
1F
100
AcDbEntity
  8
_U+30EC_U+30A4_U+30E4_U+30FC 1
 62
   179
420
  2234388
370
     9
100
AcDb2dPolyline
 66
     1
 10
0.0
 20
0.0
 30
0.0
  0
VERTEX
  5
8D
330
8C
100
AcDbEntity
  8
_U+30EC_U+30A4_U+30E4_U+30FC 1
 62
   179
420
  2234388
370
     9
100
AcDbVertex
100
AcDb2dVertex
 10
108.6989471950474
 20
-133.8502388554262
 30
0.0
  0
VERTEX
  5
8E
330
8C
100
AcDbEntity
  8
_U+30EC_U+30A4_U+30E4_U+30FC 1
 62
   179
420
  2234388
370
     9
100
AcDbVertex
100
AcDb2dVertex
 10
111.1594635529747
 20
-133.8502388554262
 30
0.0
  0
SEQEND
  5
8F
330
8C
100
AcDbEntity
  8
_U+30EC_U+30A4_U+30E4_U+30FC 1
 62
   179
420
  2234388
370
     9
  0
POLYLINE
  5
90
330
1F
100
AcDbEntity
  8
_U+30EC_U+30A4_U+30E4_U+30FC 1
 62
   179
420
  2234388
370
     9
100
AcDb2dPolyline
 66
     1
 10
0.0
 20
0.0
 30
0.0
  0
VERTEX
  5
91
330
90
100
AcDbEntity
  8
_U+30EC_U+30A4_U+30E4_U+30FC 1
 62
   179
420
  2234388
370
     9
100
AcDbVertex
100
AcDb2dVertex
 10
108.6989471950474
 20
-132.7498544112572
 30
0.0
  0
VERTEX
  5
92
330
90
100
AcDbEntity
  8
_U+30EC_U+30A4_U+30E4_U+30FC 1
 62
   179
420
  2234388
370
     9
100
AcDbVertex
100
AcDb2dVertex
 10
111.1594635529747
 20
-132.7498544112572
 30
0.0
  0
SEQEND
  5
93
330
90
100
AcDbEntity
  8
_U+30EC_U+30A4_U+30E4_U+30FC 1
 62
   179
420
  2234388
370
     9
  0
POLYLINE
  5
94
330
1F
100
AcDbEntity
  8
_U+30EC_U+30A4_U+30E4_U+30FC 1
 62
   179
420
  2234388
370
     9
100
AcDb2dPolyline
 66
     1
 10
0.0
 20
0.0
 30
0.0
  0
VERTEX
  5
95
330
94
100
AcDbEntity
  8
_U+30EC_U+30A4_U+30E4_U+30FC 1
 62
   179
420
  2234388
370
     9
100
AcDbVertex
100
AcDb2dVertex
 10
104.6985151066961
 20
-126.2499944128819
 30
0.0
  0
VERTEX
  5
96
330
94
100
AcDbEntity
  8
_U+30EC_U+30A4_U+30E4_U+30FC 1
 62
   179
420
  2234388
370
     9
100
AcDbVertex
100
AcDb2dVertex
 10
111.1594635529747
 20
-126.2499944128819
 30
0.0
  0
SEQEND
  5
97
330
94
100
AcDbEntity
  8
_U+30EC_U+30A4_U+30E4_U+30FC 1
 62
   179
420
  2234388
370
     9
  0
POLYLINE
  5
98
330
1F
100
AcDbEntity
  8
_U+30EC_U+30A4_U+30E4_U+30FC 1
 62
   179
420
  2234388
370
     9
100
AcDb2dPolyline
 66
     1
 10
0.0
 20
0.0
 30
0.0
  0
VERTEX
  5
99
330
98
100
AcDbEntity
  8
_U+30EC_U+30A4_U+30E4_U+30FC 1
 62
   179
420
  2234388
370
     9
100
AcDbVertex
100
AcDb2dVertex
 10
104.6985151066961
 20
-123.2500074691875
 30
0.0
  0
VERTEX
  5
9A
330
98
100
AcDbEntity
  8
_U+30EC_U+30A4_U+30E4_U+30FC 1
 62
   179
420
  2234388
370
     9
100
AcDbVertex
100
AcDb2dVertex
 10
111.1594635529747
 20
-123.2500074691875
 30
0.0
  0
SEQEND
  5
9B
330
98
100
AcDbEntity
  8
_U+30EC_U+30A4_U+30E4_U+30FC 1
 62
   179
420
  2234388
370
     9
  0
INSERT
  5
9D
330
1F
100
AcDbEntity
  8
_U+30EC_U+30A4_U+30E4_U+30FC 1
100
AcDbBlockReference
  2
block 4
 10
0.0
 20
0.0
 30
0.0
  0
INSERT
  5
AD
330
1F
100
AcDbEntity
  8
_U+30EC_U+30A4_U+30E4_U+30FC 1
100
AcDbBlockReference
  2
block 5
 10
0.0
 20
0.0
 30
0.0
  0
INSERT
  5
BE
330
1F
100
AcDbEntity
  8
_U+30EC_U+30A4_U+30E4_U+30FC 1
100
AcDbBlockReference
  2
block 6
 10
0.0
 20
0.0
 30
0.0
  0
ENDSEC
  0
SECTION
  2
OBJECTS
  0
DICTIONARY
  5
C
330
0
100
AcDbDictionary
281
     1
  3
ACAD_GROUP
350
D
  3
ACAD_LAYOUT
350
1A
  3
ACAD_MATERIAL
350
3B
  3
ACAD_MLEADERSTYLE
350
C4
  3
ACAD_MLINESTYLE
350
17
  3
ACAD_PLOTSETTINGS
350
19
  3
ACAD_PLOTSTYLENAME
350
E
  3
ACAD_TABLESTYLE
350
C3
  3
ACAD_VISUALSTYLE
350
2A
  0
SUN
  5
3F
330
29
100
AcDbSun
 90
        1
290
     0
 63
     7
421
 16777215
 40
1.0
291
     1
 91
  2455826
 92
 54000000
292
     0
 70
     2
 71
   256
280
     1
  0
DICTIONARY
  5
D
102
{ACAD_REACTORS
330
C
102
}
330
C
100
AcDbDictionary
281
     1
  0
DICTIONARY
  5
1A
102
{ACAD_REACTORS
330
C
102
}
330
C
100
AcDbDictionary
281
     1
  3
Layout1
350
1E
  3
Layout2
350
26
  3
Model
350
22
  0
DICTIONARY
  5
3B
102
{ACAD_REACTORS
330
C
102
}
330
C
100
AcDbDictionary
281
     1
  3
ByBlock
350
3D
  3
ByLayer
350
3C
  3
Global
350
3E
  0
DICTIONARY
  5
C4
102
{ACAD_REACTORS
330
C
102
}
330
C
100
AcDbDictionary
281
     1
  0
DICTIONARY
  5
17
102
{ACAD_REACTORS
330
C
102
}
330
C
100
AcDbDictionary
281
     1
  3
Standard
350
18
  0
DICTIONARY
  5
19
102
{ACAD_REACTORS
330
C
102
}
330
C
100
AcDbDictionary
281
     1
  0
ACDBDICTIONARYWDFLT
  5
E
102
{ACAD_REACTORS
330
C
102
}
330
C
100
AcDbDictionary
281
     1
  3
Normal
350
F
100
AcDbDictionaryWithDefault
340
F
  0
DICTIONARY
  5
C3
102
{ACAD_REACTORS
330
C
102
}
330
C
100
AcDbDictionary
281
     1
  0
DICTIONARY
  5
2A
102
{ACAD_REACTORS
330
C
102
}
330
C
100
AcDbDictionary
281
     1
  3
2dWireframe
350
2F
  3
3D Hidden
350
31
  3
3dWireframe
350
30
  3
Basic
350
32
  3
Brighten
350
36
  3
ColorChange
350
3A
  3
Conceptual
350
34
  3
Dim
350
35
  3
Facepattern
350
39
  3
Flat
350
2B
  3
FlatWithEdges
350
2C
  3
Gouraud
350
2D
  3
GouraudWithEdges
350
2E
  3
Linepattern
350
38
  3
Realistic
350
33
  3
Thicken
350
37
  0
LAYOUT
  5
1E
102
{ACAD_REACTORS
330
1A
102
}
330
1A
100
AcDbPlotSettings
  1

  2
none_device
  4

  6

 40
0.0
 41
0.0
 42
0.0
 43
0.0
 44
0.0
 45
0.0
 46
0.0
 47
0.0
 48
0.0
 49
0.0
140
0.0
141
0.0
142
1.0
143
1.0
 70
   688
 72
     0
 73
     0
 74
     5
  7

 75
    16
 76
     0
 77
     2
 78
   300
147
1.0
148
0.0
149
0.0
100
AcDbLayout
  1
Layout1
 70
     1
 71
     1
 10
0.0
 20
0.0
 11
12.0
 21
9.0
 12
0.0
 22
0.0
 32
0.0
 14
1.000000000000000E+20
 24
1.000000000000000E+20
 34
1.000000000000000E+20
 15
-1.000000000000000E+20
 25
-1.000000000000000E+20
 35
-1.000000000000000E+20
146
0.0
 13
0.0
 23
0.0
 33
0.0
 16
1.0
 26
0.0
 36
0.0
 17
0.0
 27
1.0
 37
0.0
 76
     0
330
1B
  0
LAYOUT
  5
26
102
{ACAD_REACTORS
330
1A
102
}
330
1A
100
AcDbPlotSettings
  1

  2
none_device
  4

  6

 40
0.0
 41
0.0
 42
0.0
 43
0.0
 44
0.0
 45
0.0
 46
0.0
 47
0.0
 48
0.0
 49
0.0
140
0.0
141
0.0
142
1.0
143
1.0
 70
   688
 72
     0
 73
     0
 74
     5
  7

 75
    16
 76
     0
 77
     2
 78
   300
147
1.0
148
0.0
149
0.0
100
AcDbLayout
  1
Layout2
 70
     1
 71
     2
 10
0.0
 20
0.0
 11
0.0
 21
0.0
 12
0.0
 22
0.0
 32
0.0
 14
0.0
 24
0.0
 34
0.0
 15
0.0
 25
0.0
 35
0.0
146
0.0
 13
0.0
 23
0.0
 33
0.0
 16
1.0
 26
0.0
 36
0.0
 17
0.0
 27
1.0
 37
0.0
 76
     0
330
23
  0
LAYOUT
  5
22
102
{ACAD_REACTORS
330
1A
102
}
330
1A
100
AcDbPlotSettings
  1

  2
none_device
  4

  6

 40
0.0
 41
0.0
 42
0.0
 43
0.0
 44
0.0
 45
0.0
 46
0.0
 47
0.0
 48
0.0
 49
0.0
140
0.0
141
0.0
142
1.0
143
1.0
 70
  1712
 72
     0
 73
     0
 74
     0
  7

 75
     0
 76
     0
 77
     2
 78
   300
147
1.0
148
0.0
149
0.0
100
AcDbLayout
  1
Model
 70
     1
 71
     0
 10
0.0
 20
0.0
 11
12.0
 21
9.0
 12
0.0
 22
0.0
 32
0.0
 14
1.000000000000000E+20
 24
1.000000000000000E+20
 34
1.000000000000000E+20
 15
-1.000000000000000E+20
 25
-1.000000000000000E+20
 35
-1.000000000000000E+20
146
0.0
 13
0.0
 23
0.0
 33
0.0
 16
1.0
 26
0.0
 36
0.0
 17
0.0
 27
1.0
 37
0.0
 76
     0
330
1F
331
29
  0
MATERIAL
  5
3D
102
{ACAD_REACTORS
330
3B
102
}
330
3B
100
AcDbMaterial
  1
ByBlock
 72
     1
 94
      127
  0
MATERIAL
  5
3C
102
{ACAD_REACTORS
330
3B
102
}
330
3B
100
AcDbMaterial
  1
ByLayer
 72
     1
 94
      127
  0
MATERIAL
  5
3E
102
{ACAD_REACTORS
330
3B
102
}
330
3B
100
AcDbMaterial
  1
Global
 72
     1
 94
      127
  0
MLINESTYLE
  5
18
102
{ACAD_REACTORS
330
17
102
}
330
17
100
AcDbMlineStyle
  2
Standard
 70
     0
  3

 62
   256
 51
90.0
 52
90.0
 71
     2
 49
0.5
 62
   256
  6
BYLAYER
 49
-0.5
 62
   256
  6
BYLAYER
  0
ACDBPLACEHOLDER
  5
F
102
{ACAD_REACTORS
330
E
102
}
330
E
  0
VISUALSTYLE
  5
2F
102
{ACAD_REACTORS
330
2A
102
}
330
2A
100
AcDbVisualStyle
  2
2dWireframe
 70
     4
177
     2
291
     0
 71
     0
176
     1
 72
     2
176
     1
 73
     0
176
     1
 90
        0
176
     1
 40
-0.6
176
     1
 41
-30.0
176
     1
 62
     5
 63
     7
421
 16777215
176
     1
 74
     1
176
     1
 91
        4
176
     1
 64
     7
176
     1
 65
   257
176
     1
 75
     1
176
     1
175
     1
176
     1
 42
1.0
176
     1
 92
        0
176
     1
 66
   257
176
     1
 43
1.0
176
     1
 76
     1
176
     1
 77
     6
176
     1
 78
     2
176
     1
 67
     7
176
     1
 79
     5
176
     1
170
     0
176
     1
171
     0
176
     1
290
     0
176
     1
 93
        1
176
     1
 44
0.0
176
     1
173
     0
176
     1
  0
VISUALSTYLE
  5
31
102
{ACAD_REACTORS
330
2A
102
}
330
2A
100
AcDbVisualStyle
  2
3D Hidden
 70
     6
177
     2
291
     0
 71
     1
176
     1
 72
     2
176
     1
 73
     2
176
     1
 90
        0
176
     1
 40
-0.6
176
     1
 41
-30.0
176
     1
 62
     5
 63
     7
421
 16777215
176
     1
 74
     2
176
     1
 91
        2
176
     1
 64
     7
176
     1
 65
   257
176
     1
 75
     2
176
     1
175
     1
176
     1
 42
40.0
176
     1
 92
        0
176
     1
 66
   257
176
     1
 43
1.0
176
     1
 76
     1
176
     1
 77
     6
176
     1
 78
     2
176
     1
 67
     7
176
     1
 79
     3
176
     1
170
     0
176
     1
171
     0
176
     1
290
     0
176
     1
 93
        1
176
     1
 44
0.0
176
     1
173
     0
176
     1
  0
VISUALSTYLE
  5
30
102
{ACAD_REACTORS
330
2A
102
}
330
2A
100
AcDbVisualStyle
  2
3dWireframe
 70
     5
177
     2
291
     0
 71
     0
176
     1
 72
     2
176
     1
 73
     0
176
     1
 90
        0
176
     1
 40
-0.6
176
     1
 41
-30.0
176
     1
 62
     5
 63
     7
421
 16777215
176
     1
 74
     1
176
     1
 91
        4
176
     1
 64
     7
176
     1
 65
   257
176
     1
 75
     1
176
     1
175
     1
176
     1
 42
1.0
176
     1
 92
        0
176
     1
 66
   257
176
     1
 43
1.0
176
     1
 76
     1
176
     1
 77
     6
176
     1
 78
     2
176
     1
 67
     7
176
     1
 79
     5
176
     1
170
     0
176
     1
171
     0
176
     1
290
     0
176
     1
 93
        1
176
     1
 44
0.0
176
     1
173
     0
176
     1
  0
VISUALSTYLE
  5
32
102
{ACAD_REACTORS
330
2A
102
}
330
2A
100
AcDbVisualStyle
  2
Basic
 70
     7
177
     2
291
     1
 71
     1
176
     1
 72
     0
176
     1
 73
     1
176
     1
 90
        0
176
     1
 40
-0.6
176
     1
 41
-30.0
176
     1
 62
     5
 63
     7
421
 16777215
176
     1
 74
     0
176
     1
 91
        4
176
     1
 64
     7
176
     1
 65
   257
176
     1
 75
     1
176
     1
175
     1
176
     1
 42
1.0
176
     1
 92
        8
176
     1
 66
     7
176
     1
 43
1.0
176
     1
 76
     1
176
     1
 77
     6
176
     1
 78
     2
176
     1
 67
     7
176
     1
 79
     5
176
     1
170
     0
176
     1
171
     0
176
     1
290
     0
176
     1
 93
        1
176
     1
 44
0.0
176
     1
173
     0
176
     1
  0
VISUALSTYLE
  5
36
102
{ACAD_REACTORS
330
2A
102
}
330
2A
100
AcDbVisualStyle
  2
Brighten
 70
    12
177
     2
291
     1
 71
     2
176
     1
 72
     2
176
     1
 73
     0
176
     1
 90
        0
176
     1
 40
-0.6
176
     1
 41
-30.0
176
     1
 62
     5
 63
     7
421
 16777215
176
     1
 74
     1
176
     1
 91
        4
176
     1
 64
     7
176
     1
 65
   257
176
     1
 75
     1
176
     1
175
     1
176
     1
 42
1.0
176
     1
 92
        8
176
     1
 66
     7
176
     1
 43
1.0
176
     1
 76
     1
176
     1
 77
     6
176
     1
 78
     2
176
     1
 67
     7
176
     1
 79
     5
176
     1
170
     0
176
     1
171
     0
176
     1
290
     0
176
     1
 93
        1
176
     1
 44
50.0
176
     1
173
     0
176
     1
  0
VISUALSTYLE
  5
3A
102
{ACAD_REACTORS
330
2A
102
}
330
2A
100
AcDbVisualStyle
  2
ColorChange
 70
    16
177
     2
291
     1
 71
     2
176
     1
 72
     2
176
     1
 73
     3
176
     1
 90
        0
176
     1
 40
-0.6
176
     1
 41
-30.0
176
     1
 62
     5
 63
     8
421
  8421504
176
     1
 74
     1
176
     1
 91
        4
176
     1
 64
     7
176
     1
 65
   257
176
     1
 75
     1
176
     1
175
     1
176
     1
 42
1.0
176
     1
 92
        8
176
     1
 66
     8
424
  8421504
176
     1
 43
1.0
176
     1
 76
     1
176
     1
 77
     6
176
     1
 78
     2
176
     1
 67
     7
176
     1
 79
     5
176
     1
170
     0
176
     1
171
     0
176
     1
290
     0
176
     1
 93
        1
176
     1
 44
0.0
176
     1
173
     0
176
     1
  0
VISUALSTYLE
  5
34
102
{ACAD_REACTORS
330
2A
102
}
330
2A
100
AcDbVisualStyle
  2
Conceptual
 70
     9
177
     2
291
     0
 71
     3
176
     1
 72
     2
176
     1
 73
     0
176
     1
 90
        0
176
     1
 40
-0.6
176
     1
 41
-30.0
176
     1
 62
     5
 63
     7
421
 16777215
176
     1
 74
     2
176
     1
 91
        2
176
     1
 64
     7
176
     1
 65
   257
176
     1
 75
     1
176
     1
175
     1
176
     1
 42
40.0
176
     1
 92
        8
176
     1
 66
     7
176
     1
 43
1.0
176
     1
 76
     1
176
     1
 77
     6
176
     1
 78
     2
176
     1
 67
     7
176
     1
 79
     3
176
     1
170
     0
176
     1
171
     0
176
     1
290
     0
176
     1
 93
        1
176
     1
 44
0.0
176
     1
173
     0
176
     1
  0
VISUALSTYLE
  5
35
102
{ACAD_REACTORS
330
2A
102
}
330
2A
100
AcDbVisualStyle
  2
Dim
 70
    11
177
     2
291
     1
 71
     2
176
     1
 72
     2
176
     1
 73
     0
176
     1
 90
        0
176
     1
 40
-0.6
176
     1
 41
-30.0
176
     1
 62
     5
 63
     7
421
 16777215
176
     1
 74
     1
176
     1
 91
        4
176
     1
 64
     7
176
     1
 65
   257
176
     1
 75
     1
176
     1
175
     1
176
     1
 42
1.0
176
     1
 92
        8
176
     1
 66
     7
176
     1
 43
1.0
176
     1
 76
     1
176
     1
 77
     6
176
     1
 78
     2
176
     1
 67
     7
176
     1
 79
     5
176
     1
170
     0
176
     1
171
     0
176
     1
290
     0
176
     1
 93
        1
176
     1
 44
-50.0
176
     1
173
     0
176
     1
  0
VISUALSTYLE
  5
39
102
{ACAD_REACTORS
330
2A
102
}
330
2A
100
AcDbVisualStyle
  2
Facepattern
 70
    15
177
     2
291
     1
 71
     2
176
     1
 72
     2
176
     1
 73
     0
176
     1
 90
        0
176
     1
 40
-0.6
176
     1
 41
-30.0
176
     1
 62
     5
 63
     7
421
 16777215
176
     1
 74
     1
176
     1
 91
        4
176
     1
 64
     7
176
     1
 65
   257
176
     1
 75
     1
176
     1
175
     1
176
     1
 42
1.0
176
     1
 92
        8
176
     1
 66
     7
176
     1
 43
1.0
176
     1
 76
     1
176
     1
 77
     6
176
     1
 78
     2
176
     1
 67
     7
176
     1
 79
     5
176
     1
170
     0
176
     1
171
     0
176
     1
290
     0
176
     1
 93
        1
176
     1
 44
0.0
176
     1
173
     0
176
     1
  0
VISUALSTYLE
  5
2B
102
{ACAD_REACTORS
330
2A
102
}
330
2A
100
AcDbVisualStyle
  2
Flat
 70
     0
177
     2
291
     1
 71
     2
176
     1
 72
     1
176
     1
 73
     1
176
     1
 90
        2
176
     1
 40
-0.6
176
     1
 41
30.0
176
     1
 62
     5
 63
     7
421
 16777215
176
     1
 74
     0
176
     1
 91
        4
176
     1
 64
     7
176
     1
 65
   257
176
     1
 75
     1
176
     1
175
     1
176
     1
 42
1.0
176
     1
 92
        8
176
     1
 66
     7
176
     1
 43
1.0
176
     1
 76
     1
176
     1
 77
     6
176
     1
 78
     2
176
     1
 67
     7
176
     1
 79
     5
176
     1
170
     0
176
     1
171
     0
176
     1
290
     0
176
     1
 93
       13
176
     1
 44
0.0
176
     1
173
     0
176
     1
  0
VISUALSTYLE
  5
2C
102
{ACAD_REACTORS
330
2A
102
}
330
2A
100
AcDbVisualStyle
  2
FlatWithEdges
 70
     1
177
     2
291
     1
 71
     2
176
     1
 72
     1
176
     1
 73
     1
176
     1
 90
        2
176
     1
 40
-0.6
176
     1
 41
30.0
176
     1
 62
     5
 63
     7
421
 16777215
176
     1
 74
     1
176
     1
 91
        4
176
     1
 64
     7
176
     1
 65
   257
176
     1
 75
     1
176
     1
175
     1
176
     1
 42
1.0
176
     1
 92
        0
176
     1
 66
   257
176
     1
 43
1.0
176
     1
 76
     1
176
     1
 77
     6
176
     1
 78
     2
176
     1
 67
     7
176
     1
 79
     5
176
     1
170
     0
176
     1
171
     0
176
     1
290
     0
176
     1
 93
       13
176
     1
 44
0.0
176
     1
173
     0
176
     1
  0
VISUALSTYLE
  5
2D
102
{ACAD_REACTORS
330
2A
102
}
330
2A
100
AcDbVisualStyle
  2
Gouraud
 70
     2
177
     2
291
     1
 71
     2
176
     1
 72
     2
176
     1
 73
     1
176
     1
 90
        2
176
     1
 40
-0.6
176
     1
 41
30.0
176
     1
 62
     5
 63
     7
421
 16777215
176
     1
 74
     0
176
     1
 91
        4
176
     1
 64
     7
176
     1
 65
   257
176
     1
 75
     1
176
     1
175
     1
176
     1
 42
1.0
176
     1
 92
        0
176
     1
 66
     7
176
     1
 43
1.0
176
     1
 76
     1
176
     1
 77
     6
176
     1
 78
     2
176
     1
 67
     7
176
     1
 79
     5
176
     1
170
     0
176
     1
171
     0
176
     1
290
     0
176
     1
 93
       13
176
     1
 44
0.0
176
     1
173
     0
176
     1
  0
VISUALSTYLE
  5
2E
102
{ACAD_REACTORS
330
2A
102
}
330
2A
100
AcDbVisualStyle
  2
GouraudWithEdges
 70
     3
177
     2
291
     1
 71
     2
176
     1
 72
     2
176
     1
 73
     1
176
     1
 90
        2
176
     1
 40
-0.6
176
     1
 41
30.0
176
     1
 62
     5
 63
     7
421
 16777215
176
     1
 74
     1
176
     1
 91
        4
176
     1
 64
     7
176
     1
 65
   257
176
     1
 75
     1
176
     1
175
     1
176
     1
 42
1.0
176
     1
 92
        0
176
     1
 66
   257
176
     1
 43
1.0
176
     1
 76
     1
176
     1
 77
     6
176
     1
 78
     2
176
     1
 67
     7
176
     1
 79
     5
176
     1
170
     0
176
     1
171
     0
176
     1
290
     0
176
     1
 93
       13
176
     1
 44
0.0
176
     1
173
     0
176
     1
  0
VISUALSTYLE
  5
38
102
{ACAD_REACTORS
330
2A
102
}
330
2A
100
AcDbVisualStyle
  2
Linepattern
 70
    14
177
     2
291
     1
 71
     2
176
     1
 72
     2
176
     1
 73
     0
176
     1
 90
        0
176
     1
 40
-0.6
176
     1
 41
-30.0
176
     1
 62
     5
 63
     7
421
 16777215
176
     1
 74
     1
176
     1
 91
        4
176
     1
 64
     7
176
     1
 65
   257
176
     1
 75
     7
176
     1
175
     7
176
     1
 42
1.0
176
     1
 92
        8
176
     1
 66
     7
176
     1
 43
1.0
176
     1
 76
     1
176
     1
 77
     6
176
     1
 78
     2
176
     1
 67
     7
176
     1
 79
     5
176
     1
170
     0
176
     1
171
     0
176
     1
290
     0
176
     1
 93
        1
176
     1
 44
0.0
176
     1
173
     0
176
     1
  0
VISUALSTYLE
  5
33
102
{ACAD_REACTORS
330
2A
102
}
330
2A
100
AcDbVisualStyle
  2
Realistic
 70
     8
177
     2
291
     0
 71
     2
176
     1
 72
     2
176
     1
 73
     0
176
     1
 90
        0
176
     1
 40
-0.6
176
     1
 41
-30.0
176
     1
 62
     5
 63
     7
421
 16777215
176
     1
 74
     1
176
     1
 91
        0
176
     1
 64
     7
176
     1
 65
   257
176
     1
 75
     1
176
     1
175
     1
176
     1
 42
1.0
176
     1
 92
        8
176
     1
 66
     8
424
  7895160
176
     1
 43
1.0
176
     1
 76
     1
176
     1
 77
     6
176
     1
 78
     2
176
     1
 67
     7
176
     1
 79
     5
176
     1
170
     0
176
     1
171
     0
176
     1
290
     0
176
     1
 93
       13
176
     1
 44
0.0
176
     1
173
     0
176
     1
  0
VISUALSTYLE
  5
37
102
{ACAD_REACTORS
330
2A
102
}
330
2A
100
AcDbVisualStyle
  2
Thicken
 70
    13
177
     2
291
     1
 71
     2
176
     1
 72
     2
176
     1
 73
     0
176
     1
 90
        0
176
     1
 40
-0.6
176
     1
 41
-30.0
176
     1
 62
     5
 63
     7
421
 16777215
176
     1
 74
     1
176
     1
 91
        4
176
     1
 64
     7
176
     1
 65
   257
176
     1
 75
     1
176
     1
175
     1
176
     1
 42
1.0
176
     1
 92
       12
176
     1
 66
     7
176
     1
 43
1.0
176
     1
 76
     1
176
     1
 77
     6
176
     1
 78
     2
176
     1
 67
     7
176
     1
 79
     5
176
     1
170
     0
176
     1
171
     0
176
     1
290
     0
176
     1
 93
        1
176
     1
 44
0.0
176
     1
173
     0
176
     1
  0
ENDSEC
  0
EOF
