  0
SECTION
  2
HEADER
  9
$ACADVER
  1
AC1024
  9
$ACADMAINTVER
 70
     6
  9
$DWGCODEPAGE
  3
UNDEFINED
  9
$INSBASE
 10
0.0
 20
0.0
 30
0.0
  9
$EXTMIN
 10
1.000000000000000E+20
 20
1.000000000000000E+20
 30
1.000000000000000E+20
  9
$EXTMAX
 10
-1.000000000000000E+20
 20
-1.000000000000000E+20
 30
-1.000000000000000E+20
  9
$LIMMIN
 10
0.0
 20
0.0
  9
$LIMMAX
 10
12.0
 20
9.0
  9
$ORTHOMODE
 70
     0
  9
$REGENMODE
 70
     1
  9
$FILLMODE
 70
     1
  9
$QTEXTMODE
 70
     0
  9
$MIRRTEXT
 70
     1
  9
$LTSCALE
 40
1.0
  9
$ATTMODE
 70
     1
  9
$TEXTSIZE
 40
0.2
  9
$TRACEWID
 40
0.05
  9
$TEXTSTYLE
  7
Standard
  9
$CLAYER
  8
0
  9
$CELTYPE
  6
ByLayer
  9
$CECOLOR
 62
   256
  9
$CELTSCALE
 40
1.0
  9
$DISPSILH
 70
     0
  9
$DIMSCALE
 40
1.0
  9
$DIMASZ
 40
0.18
  9
$DIMEXO
 40
0.0625
  9
$DIMDLI
 40
0.38
  9
$DIMRND
 40
0.0
  9
$DIMDLE
 40
0.0
  9
$DIMEXE
 40
0.18
  9
$DIMTP
 40
0.0
  9
$DIMTM
 40
0.0
  9
$DIMTXT
 40
0.18
  9
$DIMCEN
 40
0.09
  9
$DIMTSZ
 40
0.0
  9
$DIMTOL
 70
     0
  9
$DIMLIM
 70
     0
  9
$DIMTIH
 70
     1
  9
$DIMTOH
 70
     1
  9
$DIMSE1
 70
     0
  9
$DIMSE2
 70
     0
  9
$DIMTAD
 70
     0
  9
$DIMZIN
 70
     0
  9
$DIMBLK
  1

  9
$DIMASO
 70
     1
  9
$DIMSHO
 70
     1
  9
$DIMPOST
  1

  9
$DIMAPOST
  1

  9
$DIMALT
 70
     0
  9
$DIMALTD
 70
     2
  9
$DIMALTF
 40
25.4
  9
$DIMLFAC
 40
1.0
  9
$DIMTOFL
 70
     0
  9
$DIMTVP
 40
0.0
  9
$DIMTIX
 70
     0
  9
$DIMSOXD
 70
     0
  9
$DIMSAH
 70
     0
  9
$DIMBLK1
  1

  9
$DIMBLK2
  1

  9
$DIMSTYLE
  2
Standard
  9
$DIMCLRD
 70
     0
  9
$DIMCLRE
 70
     0
  9
$DIMCLRT
 70
     0
  9
$DIMTFAC
 40
1.0
  9
$DIMGAP
 40
0.09
  9
$DIMJUST
 70
     0
  9
$DIMSD1
 70
     0
  9
$DIMSD2
 70
     0
  9
$DIMTOLJ
 70
     1
  9
$DIMTZIN
 70
     0
  9
$DIMALTZ
 70
     0
  9
$DIMALTTZ
 70
     0
  9
$DIMUPT
 70
     0
  9
$DIMDEC
 70
     4
  9
$DIMTDEC
 70
     4
  9
$DIMALTU
 70
     2
  9
$DIMALTTD
 70
     2
  9
$DIMTXSTY
  7
Standard
  9
$DIMAUNIT
 70
     0
  9
$DIMADEC
 70
     0
  9
$DIMALTRND
 40
0.0
  9
$DIMAZIN
 70
     0
  9
$DIMDSEP
 70
    46
  9
$DIMATFIT
 70
     3
  9
$DIMFRAC
 70
     0
  9
$DIMLDRBLK
  1

  9
$DIMLUNIT
 70
     2
  9
$DIMLWD
 70
    -2
  9
$DIMLWE
 70
    -2
  9
$DIMTMOVE
 70
     0
  9
$DIMFXL
 40
1.0
  9
$DIMFXLON
 70
     0
  9
$DIMJOGANG
 40
0.7853981633974483
  9
$DIMTFILL
 70
     0
  9
$DIMTFILLCLR
 70
     0
  9
$DIMARCSYM
 70
     0
  9
$DIMLTYPE
  6

  9
$DIMLTEX1
  6

  9
$DIMLTEX2
  6

  9
$DIMTXTDIRECTION
 70
     0
  9
$LUNITS
 70
     2
  9
$LUPREC
 70
     4
  9
$SKETCHINC
 40
0.1
  9
$FILLETRAD
 40
0.5
  9
$AUNITS
 70
     0
  9
$AUPREC
 70
     0
  9
$MENU
  1
.
  9
$ELEVATION
 40
0.0
  9
$PELEVATION
 40
0.0
  9
$THICKNESS
 40
0.0
  9
$LIMCHECK
 70
     0
  9
$CHAMFERA
 40
0.5
  9
$CHAMFERB
 40
0.5
  9
$CHAMFERC
 40
1.0
  9
$CHAMFERD
 40
0.0
  9
$SKPOLY
 70
     0
  9
$TDCREATE
 40
2457917.621898148
  9
$TDUCREATE
 40
2457917.246898148
  9
$TDUPDATE
 40
2457917.621898148
  9
$TDUUPDATE
 40
2457917.246898148
  9
$TDINDWG
 40
0.0000000116
  9
$TDUSRTIMER
 40
0.0000000116
  9
$USRTIMER
 70
     1
  9
$ANGBASE
 50
0.0
  9
$ANGDIR
 70
     0
  9
$PDMODE
 70
     0
  9
$PDSIZE
 40
0.0
  9
$PLINEWID
 40
0.0
  9
$SPLFRAME
 70
     0
  9
$SPLINETYPE
 70
     6
  9
$SPLINESEGS
 70
     8
  9
$HANDSEED
  5
AF
  9
$SURFTAB1
 70
     6
  9
$SURFTAB2
 70
     6
  9
$SURFTYPE
 70
     6
  9
$SURFU
 70
     6
  9
$SURFV
 70
     6
  9
$UCSBASE
  2

  9
$UCSNAME
  2

  9
$UCSORG
 10
0.0
 20
0.0
 30
0.0
  9
$UCSXDIR
 10
1.0
 20
0.0
 30
0.0
  9
$UCSYDIR
 10
0.0
 20
1.0
 30
0.0
  9
$UCSORTHOREF
  2

  9
$UCSORTHOVIEW
 70
     0
  9
$UCSORGTOP
 10
0.0
 20
0.0
 30
0.0
  9
$UCSORGBOTTOM
 10
0.0
 20
0.0
 30
0.0
  9
$UCSORGLEFT
 10
0.0
 20
0.0
 30
0.0
  9
$UCSORGRIGHT
 10
0.0
 20
0.0
 30
0.0
  9
$UCSORGFRONT
 10
0.0
 20
0.0
 30
0.0
  9
$UCSORGBACK
 10
0.0
 20
0.0
 30
0.0
  9
$PUCSBASE
  2

  9
$PUCSNAME
  2

  9
$PUCSORG
 10
0.0
 20
0.0
 30
0.0
  9
$PUCSXDIR
 10
1.0
 20
0.0
 30
0.0
  9
$PUCSYDIR
 10
0.0
 20
1.0
 30
0.0
  9
$PUCSORTHOREF
  2

  9
$PUCSORTHOVIEW
 70
     0
  9
$PUCSORGTOP
 10
0.0
 20
0.0
 30
0.0
  9
$PUCSORGBOTTOM
 10
0.0
 20
0.0
 30
0.0
  9
$PUCSORGLEFT
 10
0.0
 20
0.0
 30
0.0
  9
$PUCSORGRIGHT
 10
0.0
 20
0.0
 30
0.0
  9
$PUCSORGFRONT
 10
0.0
 20
0.0
 30
0.0
  9
$PUCSORGBACK
 10
0.0
 20
0.0
 30
0.0
  9
$USERI1
 70
     0
  9
$USERI2
 70
     0
  9
$USERI3
 70
     0
  9
$USERI4
 70
     0
  9
$USERI5
 70
     0
  9
$USERR1
 40
0.0
  9
$USERR2
 40
0.0
  9
$USERR3
 40
0.0
  9
$USERR4
 40
0.0
  9
$USERR5
 40
0.0
  9
$WORLDVIEW
 70
     1
  9
$SHADEDGE
 70
     3
  9
$SHADEDIF
 70
    70
  9
$TILEMODE
 70
     1
  9
$MAXACTVP
 70
    64
  9
$PINSBASE
 10
0.0
 20
0.0
 30
0.0
  9
$PLIMCHECK
 70
     0
  9
$PEXTMIN
 10
1.000000000000000E+20
 20
1.000000000000000E+20
 30
1.000000000000000E+20
  9
$PEXTMAX
 10
-1.000000000000000E+20
 20
-1.000000000000000E+20
 30
-1.000000000000000E+20
  9
$PLIMMIN
 10
0.0
 20
0.0
  9
$PLIMMAX
 10
12.0
 20
9.0
  9
$UNITMODE
 70
     0
  9
$VISRETAIN
 70
     1
  9
$PLINEGEN
 70
     0
  9
$PSLTSCALE
 70
     1
  9
$TREEDEPTH
 70
  3020
  9
$CMLSTYLE
  2
Standard
  9
$CMLJUST
 70
     0
  9
$CMLSCALE
 40
1.0
  9
$PROXYGRAPHICS
 70
     1
  9
$MEASUREMENT
 70
     0
  9
$CELWEIGHT
370
    -1
  9
$ENDCAPS
280
     0
  9
$JOINSTYLE
280
     0
  9
$LWDISPLAY
290
     1
  9
$INSUNITS
 70
     1
  9
$HYPERLINKBASE
  1

  9
$STYLESHEET
  1

  9
$XEDIT
290
     1
  9
$CEPSNTYPE
380
     0
  9
$PSTYLEMODE
290
     1
  9
$FINGERPRINTGUID
  2
{F0A9CCCD-B32E-C15F-680A-1FF65DFA4279}
  9
$VERSIONGUID
  2
{FAEB1C32-E019-11D5-929B-00C0DF256EC4}
  9
$EXTNAMES
290
     1
  9
$PSVPSCALE
 40
0.0
  9
$OLESTARTUP
290
     0
  9
$SORTENTS
280
   127
  9
$INDEXCTL
280
     0
  9
$HIDETEXT
280
     1
  9
$XCLIPFRAME
280
     2
  9
$HALOGAP
280
     0
  9
$OBSCOLOR
 70
   257
  9
$OBSLTYPE
280
     0
  9
$INTERSECTIONDISPLAY
280
     0
  9
$INTERSECTIONCOLOR
 70
   257
  9
$DIMASSOC
280
     2
  9
$PROJECTNAME
  1

  9
$CAMERADISPLAY
290
     0
  9
$LENSLENGTH
 40
50.0
  9
$CAMERAHEIGHT
 40
0.0
  9
$STEPSPERSEC
 40
2.0
  9
$STEPSIZE
 40
6.0
  9
$3DDWFPREC
 40
2.0
  9
$PSOLWIDTH
 40
0.25
  9
$PSOLHEIGHT
 40
4.0
  9
$LOFTANG1
 40
1.570796326794897
  9
$LOFTANG2
 40
1.570796326794897
  9
$LOFTMAG1
 40
0.0
  9
$LOFTMAG2
 40
0.0
  9
$LOFTPARAM
 70
     7
  9
$LOFTNORMALS
280
     1
  9
$LATITUDE
 40
37.795
  9
$LONGITUDE
 40
-122.394
  9
$NORTHDIRECTION
 40
0.0
  9
$TIMEZONE
 70
 -8000
  9
$LIGHTGLYPHDISPLAY
280
     1
  9
$TILEMODELIGHTSYNCH
280
     1
  9
$CMATERIAL
347
3C
  9
$SOLIDHIST
280
     1
  9
$SHOWHIST
280
     1
  9
$DWFFRAME
280
     2
  9
$DGNFRAME
280
     2
  9
$REALWORLDSCALE
290
     1
  9
$INTERFERECOLOR
 62
   256
  9
$CSHADOW
280
     0
  9
$SHADOWPLANELOCATION
 40
0.0
  0
ENDSEC
  0
SECTION
  2
CLASSES
  0
CLASS
  1
ACDBDICTIONARYWDFLT
  2
AcDbDictionaryWithDefault
  3
ObjectDBX Classes
 90
        0
 91
        4
280
     0
281
     0
  0
CLASS
  1
VISUALSTYLE
  2
AcDbVisualStyle
  3
ObjectDBX Classes
 90
     4095
 91
        4
280
     0
281
     0
  0
CLASS
  1
MATERIAL
  2
AcDbMaterial
  3
ObjectDBX Classes
 90
     1153
 91
        4
280
     0
281
     0
  0
CLASS
  1
SUN
  2
AcDbSun
  3
SCENEOE
 90
     1024
 91
        4
280
     0
281
     0
  0
ENDSEC
  0
SECTION
  2
TABLES
  0
TABLE
  2
VPORT
  5
8
330
0
100
AcDbSymbolTable
 70
     1
  0
VPORT
  5
29
330
8
100
AcDbSymbolTableRecord
100
AcDbViewportTableRecord
  2
*Active
 70
     0
 10
0.0
 20
0.0
 11
1.0
 21
1.0
 12
0.0
 22
0.0
 13
0.0
 23
0.0
 14
0.5
 24
0.5
 15
0.5
 25
0.5
 16
0.0
 26
0.0
 36
1.0
 17
91.00082462281999
 27
-128.4993055234307
 37
0.0
 40
256.9986110468615
 41
0.7081814508812795
 42
50.0
 43
0.0
 44
0.0
 50
0.0
 51
0.0
 71
     0
 72
   100
 73
     1
 74
     3
 75
     0
 76
     0
 77
     0
 78
     0
281
     0
 65
     1
110
0.0
120
0.0
130
0.0
111
1.0
121
0.0
131
0.0
112
0.0
122
1.0
132
0.0
 79
     0
146
0.0
 60
     3
 61
     5
292
     1
282
     1
141
0.0
142
0.0
 63
   250
361
3F
  0
ENDTAB
  0
TABLE
  2
LTYPE
  5
5
330
0
100
AcDbSymbolTable
 70
     1
  0
LTYPE
  5
14
330
5
100
AcDbSymbolTableRecord
100
AcDbLinetypeTableRecord
  2
ByBlock
 70
     0
  3

 72
    65
 73
     0
 40
0.0
  0
LTYPE
  5
15
330
5
100
AcDbSymbolTableRecord
100
AcDbLinetypeTableRecord
  2
ByLayer
 70
     0
  3

 72
    65
 73
     0
 40
0.0
  0
LTYPE
  5
16
330
5
100
AcDbSymbolTableRecord
100
AcDbLinetypeTableRecord
  2
Continuous
 70
     0
  3
Solid line
 72
    65
 73
     0
 40
0.0
  0
ENDTAB
  0
TABLE
  2
LAYER
  5
2
330
0
100
AcDbSymbolTable
 70
     2
  0
LAYER
  5
10
330
2
100
AcDbSymbolTableRecord
100
AcDbLayerTableRecord
  2
0
 70
     0
 62
     7
  6
Continuous
370
    -3
390
F
347
3E
  0
LAYER
  5
40
330
2
100
AcDbSymbolTableRecord
100
AcDbLayerTableRecord
  2
_U+30EC_U+30A4_U+30E4_U+30FC 1
 70
     0
 62
     7
  6
Continuous
370
    -3
390
F
347
3E
  0
ENDTAB
  0
TABLE
  2
STYLE
  5
3
330
0
100
AcDbSymbolTable
 70
     1
  0
STYLE
  5
11
330
3
100
AcDbSymbolTableRecord
100
AcDbTextStyleTableRecord
  2
Standard
 70
     0
 40
0.0
 41
1.0
 50
0.0
 71
     0
 42
0.2
  3
txt
  4

  0
ENDTAB
  0
TABLE
  2
VIEW
  5
6
330
0
100
AcDbSymbolTable
 70
     0
  0
ENDTAB
  0
TABLE
  2
UCS
  5
7
330
0
100
AcDbSymbolTable
 70
     0
  0
ENDTAB
  0
TABLE
  2
APPID
  5
9
330
0
100
AcDbSymbolTable
 70
     1
  0
APPID
  5
12
330
9
100
AcDbSymbolTableRecord
100
AcDbRegAppTableRecord
  2
ACAD
 70
     0
  0
ENDTAB
  0
TABLE
  2
DIMSTYLE
  5
A
330
0
100
AcDbSymbolTable
 70
     1
100
AcDbDimStyleTable
  0
DIMSTYLE
105
27
330
A
100
AcDbSymbolTableRecord
100
AcDbDimStyleTableRecord
  2
Standard
 70
     0
178
     0
340
11
  0
ENDTAB
  0
TABLE
  2
BLOCK_RECORD
  5
1
330
0
100
AcDbSymbolTable
 70
     6
  0
BLOCK_RECORD
  5
1F
330
1
100
AcDbSymbolTableRecord
100
AcDbBlockTableRecord
  2
*Model_Space
340
22
 70
     0
280
     1
281
     0
  0
BLOCK_RECORD
  5
1B
330
1
100
AcDbSymbolTableRecord
100
AcDbBlockTableRecord
  2
*Paper_Space
340
1E
 70
     0
280
     1
281
     0
  0
BLOCK_RECORD
  5
23
330
1
100
AcDbSymbolTableRecord
100
AcDbBlockTableRecord
  2
*Paper_Space0
340
26
 70
     0
280
     1
281
     0
  0
BLOCK_RECORD
  5
5D
330
1
100
AcDbSymbolTableRecord
100
AcDbBlockTableRecord
  2
block 2
340
0
102
{BLKREFS
331
5E
102
}
 70
     0
280
     1
281
     0
  0
BLOCK_RECORD
  5
63
330
1
100
AcDbSymbolTableRecord
100
AcDbBlockTableRecord
  2
block 3
340
0
102
{BLKREFS
331
64
102
}
 70
     0
280
     1
281
     0
  0
BLOCK_RECORD
  5
6B
330
1
100
AcDbSymbolTableRecord
100
AcDbBlockTableRecord
  2
block 4
340
0
102
{BLKREFS
331
6C
102
}
 70
     0
280
     1
281
     0
  0
BLOCK_RECORD
  5
7D
330
1
100
AcDbSymbolTableRecord
100
AcDbBlockTableRecord
  2
block 5
340
0
102
{BLKREFS
331
7E
102
}
 70
     0
280
     1
281
     0
  0
BLOCK_RECORD
  5
91
330
1
100
AcDbSymbolTableRecord
100
AcDbBlockTableRecord
  2
block 6
340
0
102
{BLKREFS
331
92
102
}
 70
     0
280
     1
281
     0
  0
ENDTAB
  0
ENDSEC
  0
SECTION
  2
BLOCKS
  0
BLOCK
  5
20
330
1F
100
AcDbEntity
  8
0
100
AcDbBlockBegin
  2
*Model_Space
 70
     0
 10
0.0
 20
0.0
 30
0.0
  3
*Model_Space
  1

  0
ENDBLK
  5
21
330
1F
100
AcDbEntity
  8
0
100
AcDbBlockEnd
  0
BLOCK
  5
1C
330
1B
100
AcDbEntity
 67
     1
  8
0
100
AcDbBlockBegin
  2
*Paper_Space
 70
     0
 10
0.0
 20
0.0
 30
0.0
  3
*Paper_Space
  1

  0
ENDBLK
  5
1D
330
1B
100
AcDbEntity
 67
     1
  8
0
100
AcDbBlockEnd
  0
BLOCK
  5
24
330
23
100
AcDbEntity
  8
0
100
AcDbBlockBegin
  2
*Paper_Space0
 70
     0
 10
0.0
 20
0.0
 30
0.0
  3
*Paper_Space0
  1

  0
ENDBLK
  5
25
330
23
100
AcDbEntity
  8
0
100
AcDbBlockEnd
  0
BLOCK
  5
5F
330
5D
100
AcDbEntity
  8
0
100
AcDbBlockBegin
  2
block 2
 70
     0
 10
0.0
 20
0.0
 30
0.0
  3
block 2
  1

  0
SPLINE
  5
61
330
5D
100
AcDbEntity
  8
_U+30EC_U+30A4_U+30E4_U+30FC 1
370
     0
100
AcDbSpline
210
0.0
220
0.0
230
1.0
 70
    11
 71
     3
 72
    26
 73
    22
 74
     0
 42
0.0000000001
 43
0.0000000001
 12
1.0
 22
0.0
 32
0.0
 13
1.0
 23
0.0
 33
0.0
 40
0.0
 40
0.0
 40
0.0
 40
0.0
 40
1.0
 40
1.0
 40
1.0
 40
2.0
 40
2.0
 40
2.0
 40
3.0
 40
3.0
 40
3.0
 40
4.0
 40
4.0
 40
4.0
 40
5.0
 40
5.0
 40
5.0
 40
6.0
 40
6.0
 40
6.0
 40
7.0
 40
7.0
 40
7.0
 40
7.0
 10
106.0210910108211
 20
-136.1284694755165
 30
0.0
 10
106.0210910108211
 20
-136.1284694755165
 30
0.0
 10
104.9169379077985
 20
-136.1284694755165
 30
0.0
 10
104.9169379077985
 20
-136.1284694755165
 30
0.0
 10
104.9169379077985
 20
-136.1284694755165
 30
0.0
 10
104.9169379077985
 20
-136.4585096230034
 30
0.0
 10
104.9169379077985
 20
-136.4585096230034
 30
0.0
 10
104.9169379077985
 20
-136.4585096230034
 30
0.0
 10
104.7687988019328
 20
-136.4585096230034
 30
0.0
 10
104.7687988019328
 20
-136.4585096230034
 30
0.0
 10
104.7539848913462
 20
-136.1264024182254
 30
0.0
 10
104.5910318748939
 20
-136.0798936291745
 30
0.0
 10
104.4766547047836
 20
-136.0502658080013
 30
0.0
 10
104.4766547047836
 20
-136.0502658080013
 30
0.0
 10
104.4766547047836
 20
-135.9041937594267
 30
0.0
 10
104.4766547047836
 20
-135.9041937594267
 30
0.0
 10
104.4766547047836
 20
-135.9041937594267
 30
0.0
 10
106.0210910108211
 20
-135.9041937594267
 30
0.0
 10
106.0210910108211
 20
-135.9041937594267
 30
0.0
 10
106.0210910108211
 20
-135.9041937594267
 30
0.0
 10
106.0210910108211
 20
-136.1284694755165
 30
0.0
 10
106.0210910108211
 20
-136.1284694755165
 30
0.0
  0
HATCH
  5
62
330
5D
100
AcDbEntity
  8
_U+30EC_U+30A4_U+30E4_U+30FC 1
 62
   179
420
  2234388
100
AcDbHatch
 10
0.0
 20
0.0
 30
0.0
210
0.0
220
0.0
230
1.0
  2
SOLID
 70
     1
 71
     0
 91
        1
 92
        1
 93
        1
 72
     4
 94
        3
 73
     0
 74
     1
 95
       26
 96
       22
 40
0.0
 40
0.0
 40
0.0
 40
0.0
 40
1.0
 40
1.0
 40
1.0
 40
2.0
 40
2.0
 40
2.0
 40
3.0
 40
3.0
 40
3.0
 40
4.0
 40
4.0
 40
4.0
 40
5.0
 40
5.0
 40
5.0
 40
6.0
 40
6.0
 40
6.0
 40
7.0
 40
7.0
 40
7.0
 40
7.0
 10
106.0210910108211
 20
-136.1284694755165
 10
106.0210910108211
 20
-136.1284694755165
 10
104.9169379077985
 20
-136.1284694755165
 10
104.9169379077985
 20
-136.1284694755165
 10
104.9169379077985
 20
-136.1284694755165
 10
104.9169379077985
 20
-136.4585096230034
 10
104.9169379077985
 20
-136.4585096230034
 10
104.9169379077985
 20
-136.4585096230034
 10
104.7687988019328
 20
-136.4585096230034
 10
104.7687988019328
 20
-136.4585096230034
 10
104.7539848913462
 20
-136.1264024182254
 10
104.5910318748939
 20
-136.0798936291745
 10
104.4766547047836
 20
-136.0502658080013
 10
104.4766547047836
 20
-136.0502658080013
 10
104.4766547047836
 20
-135.9041937594267
 10
104.4766547047836
 20
-135.9041937594267
 10
104.4766547047836
 20
-135.9041937594267
 10
106.0210910108211
 20
-135.9041937594267
 10
106.0210910108211
 20
-135.9041937594267
 10
106.0210910108211
 20
-135.9041937594267
 10
106.0210910108211
 20
-136.1284694755165
 10
106.0210910108211
 20
-136.1284694755165
 97
        0
 97
        0
 75
     2
 76
     1
 98
        0
  0
ENDBLK
  5
60
330
5D
100
AcDbEntity
  8
0
100
AcDbBlockEnd
  0
BLOCK
  5
65
330
63
100
AcDbEntity
  8
0
100
AcDbBlockBegin
  2
block 3
 70
     0
 10
0.0
 20
0.0
 30
0.0
  3
block 3
  1

  0
SPLINE
  5
67
330
63
100
AcDbEntity
  8
_U+30EC_U+30A4_U+30E4_U+30FC 1
370
     0
100
AcDbSpline
210
0.0
220
0.0
230
1.0
 70
    11
 71
     3
 72
    26
 73
    22
 74
     0
 42
0.0000000001
 43
0.0000000001
 12
1.0
 22
0.0
 32
0.0
 13
1.0
 23
0.0
 33
0.0
 40
0.0
 40
0.0
 40
0.0
 40
0.0
 40
1.0
 40
1.0
 40
1.0
 40
2.0
 40
2.0
 40
2.0
 40
3.0
 40
3.0
 40
3.0
 40
4.0
 40
4.0
 40
4.0
 40
5.0
 40
5.0
 40
5.0
 40
6.0
 40
6.0
 40
6.0
 40
7.0
 40
7.0
 40
7.0
 40
7.0
 10
106.0210910108211
 20
-129.5541937610142
 30
0.0
 10
106.0210910108211
 20
-129.5541937610142
 30
0.0
 10
104.9169379077985
 20
-129.5541937610142
 30
0.0
 10
104.9169379077985
 20
-129.5541937610142
 30
0.0
 10
104.9169379077985
 20
-129.5541937610142
 30
0.0
 10
104.9169379077985
 20
-129.8842339085012
 30
0.0
 10
104.9169379077985
 20
-129.8842339085012
 30
0.0
 10
104.9169379077985
 20
-129.8842339085012
 30
0.0
 10
104.7687988019328
 20
-129.8842339085012
 30
0.0
 10
104.7687988019328
 20
-129.8842339085012
 30
0.0
 10
104.7539848913462
 20
-129.5521267037231
 30
0.0
 10
104.5910318748939
 20
-129.5056179146722
 30
0.0
 10
104.4766547047836
 20
-129.4759900934991
 30
0.0
 10
104.4766547047836
 20
-129.4759900934991
 30
0.0
 10
104.4766547047836
 20
-129.3299180449245
 30
0.0
 10
104.4766547047836
 20
-129.3299180449245
 30
0.0
 10
104.4766547047836
 20
-129.3299180449245
 30
0.0
 10
106.0210910108211
 20
-129.3299180449245
 30
0.0
 10
106.0210910108211
 20
-129.3299180449245
 30
0.0
 10
106.0210910108211
 20
-129.3299180449245
 30
0.0
 10
106.0210910108211
 20
-129.5541937610142
 30
0.0
 10
106.0210910108211
 20
-129.5541937610142
 30
0.0
  0
HATCH
  5
68
330
63
100
AcDbEntity
  8
_U+30EC_U+30A4_U+30E4_U+30FC 1
 62
   179
420
  2234388
100
AcDbHatch
 10
0.0
 20
0.0
 30
0.0
210
0.0
220
0.0
230
1.0
  2
SOLID
 70
     1
 71
     0
 91
        1
 92
        1
 93
        1
 72
     4
 94
        3
 73
     0
 74
     1
 95
       26
 96
       22
 40
0.0
 40
0.0
 40
0.0
 40
0.0
 40
1.0
 40
1.0
 40
1.0
 40
2.0
 40
2.0
 40
2.0
 40
3.0
 40
3.0
 40
3.0
 40
4.0
 40
4.0
 40
4.0
 40
5.0
 40
5.0
 40
5.0
 40
6.0
 40
6.0
 40
6.0
 40
7.0
 40
7.0
 40
7.0
 40
7.0
 10
106.0210910108211
 20
-129.5541937610142
 10
106.0210910108211
 20
-129.5541937610142
 10
104.9169379077985
 20
-129.5541937610142
 10
104.9169379077985
 20
-129.5541937610142
 10
104.9169379077985
 20
-129.5541937610142
 10
104.9169379077985
 20
-129.8842339085012
 10
104.9169379077985
 20
-129.8842339085012
 10
104.9169379077985
 20
-129.8842339085012
 10
104.7687988019328
 20
-129.8842339085012
 10
104.7687988019328
 20
-129.8842339085012
 10
104.7539848913462
 20
-129.5521267037231
 10
104.5910318748939
 20
-129.5056179146722
 10
104.4766547047836
 20
-129.4759900934991
 10
104.4766547047836
 20
-129.4759900934991
 10
104.4766547047836
 20
-129.3299180449245
 10
104.4766547047836
 20
-129.3299180449245
 10
104.4766547047836
 20
-129.3299180449245
 10
106.0210910108211
 20
-129.3299180449245
 10
106.0210910108211
 20
-129.3299180449245
 10
106.0210910108211
 20
-129.3299180449245
 10
106.0210910108211
 20
-129.5541937610142
 10
106.0210910108211
 20
-129.5541937610142
 97
        0
 97
        0
 75
     2
 76
     1
 98
        0
  0
SPLINE
  5
69
330
63
100
AcDbEntity
  8
_U+30EC_U+30A4_U+30E4_U+30FC 1
370
     0
100
AcDbSpline
210
0.0
220
0.0
230
1.0
 70
    11
 71
     3
 72
    62
 73
    58
 74
     0
 42
0.0000000001
 43
0.0000000001
 12
1.0
 22
0.0
 32
0.0
 13
1.0
 23
0.0
 33
0.0
 40
0.0
 40
0.0
 40
0.0
 40
0.0
 40
1.0
 40
1.0
 40
1.0
 40
2.0
 40
2.0
 40
2.0
 40
3.0
 40
3.0
 40
3.0
 40
4.0
 40
4.0
 40
4.0
 40
5.0
 40
5.0
 40
5.0
 40
6.0
 40
6.0
 40
6.0
 40
7.0
 40
7.0
 40
7.0
 40
8.0
 40
8.0
 40
8.0
 40
9.0
 40
9.0
 40
9.0
 40
10.0
 40
10.0
 40
10.0
 40
11.0
 40
11.0
 40
11.0
 40
12.0
 40
12.0
 40
12.0
 40
13.0
 40
13.0
 40
13.0
 40
14.0
 40
14.0
 40
14.0
 40
15.0
 40
15.0
 40
15.0
 40
16.0
 40
16.0
 40
16.0
 40
17.0
 40
17.0
 40
17.0
 40
18.0
 40
18.0
 40
18.0
 40
19.0
 40
19.0
 40
19.0
 40
19.0
 10
106.0717339144543
 20
-128.3370415260755
 30
0.0
 10
106.0717339144543
 20
-128.4324706710169
 30
0.0
 10
106.0507188319943
 20
-128.6502007056847
 30
0.0
 10
105.8646836757908
 20
-128.7752576717992
 30
0.0
 10
105.7523735629716
 20
-128.8493272247321
 30
0.0
 10
105.6531548129964
 20
-128.8534613393144
 30
0.0
 10
105.5684054640593
 20
-128.8575954538967
 30
0.0
 10
105.5684054640593
 20
-128.8575954538967
 30
0.0
 10
105.5684054640593
 20
-128.6374538523893
 30
0.0
 10
105.5684054640593
 20
-128.6374538523893
 30
0.0
 10
105.6424750169922
 20
-128.6353867950981
 30
0.0
 10
105.8770860195377
 20
-128.6250515086423
 30
0.0
 10
105.8770860195377
 20
-128.3415201502063
 30
0.0
 10
105.8770860195377
 20
-128.2040608403448
 30
0.0
 10
105.8074950907356
 20
-128.0514431103483
 30
0.0
 10
105.5790852600636
 20
-128.0514431103483
 30
0.0
 10
105.4626410326621
 20
-128.0514431103483
 30
0.0
 10
105.4140651863201
 20
-128.0896836702345
 30
0.0
 10
105.3823703078558
 20
-128.1213785486988
 30
0.0
 10
105.3083007549229
 20
-128.1954481016317
 30
0.0
 10
105.2955539016275
 20
-128.3118923290332
 30
0.0
 10
105.2955539016275
 20
-128.3666693472486
 30
0.0
 10
105.2955539016275
 20
-128.385961881966
 30
0.0
 10
105.2976209589187
 20
-128.4217908750126
 30
0.0
 10
105.301755073501
 20
-128.4493516388946
 30
0.0
 10
105.301755073501
 20
-128.4493516388946
 30
0.0
 10
105.1071071785843
 20
-128.4493516388946
 30
0.0
 10
105.1071071785843
 20
-128.4493516388946
 30
0.0
 10
105.1136528600063
 20
-128.4111110790084
 30
0.0
 10
105.1157199172975
 20
-128.3690809140883
 30
0.0
 10
105.1157199172975
 20
-128.3625352326663
 30
0.0
 10
105.1157199172975
 20
-128.2970784184466
 30
0.0
 10
105.0943603252889
 20
-128.0982964089476
 30
0.0
 10
104.8576822654523
 20
-128.0982964089476
 30
0.0
 10
104.6799153384134
 20
-128.0982964089476
 30
0.0
 10
104.6247938106494
 20
-128.2292100373872
 30
0.0
 10
104.6247938106494
 20
-128.3394530929151
 30
0.0
 10
104.6247938106494
 20
-128.6036919166338
 30
0.0
 10
104.8576822654523
 20
-128.6123046553469
 30
0.0
 10
104.9293402515455
 20
-128.6164387699292
 30
0.0
 10
104.9293402515455
 20
-128.6164387699292
 30
0.0
 10
104.9293402515455
 20
-128.819699403559
 30
0.0
 10
104.9293402515455
 20
-128.819699403559
 30
0.0
 10
104.8046277949794
 20
-128.8110866648458
 30
0.0
 10
104.4280788584416
 20
-128.7835259009638
 30
0.0
 10
104.4280788584416
 20
-128.3267062396197
 30
0.0
 10
104.4280788584416
 20
-128.10243052353
 30
0.0
 10
104.5552028818473
 20
-127.8612738395625
 30
0.0
 10
104.8511365840303
 20
-127.8612738395625
 30
0.0
 10
105.0375162497823
 20
-127.8612738395625
 30
0.0
 10
105.1198540318798
 20
-127.9563584749554
 30
0.0
 10
105.1811767315172
 20
-128.0559217344791
 30
0.0
 10
105.2087374953992
 20
-127.9945990348416
 30
0.0
 10
105.2890082202055
 20
-127.8126979932204
 30
0.0
 10
105.5663384067681
 20
-127.8126979932204
 30
0.0
 10
105.9046467834197
 20
-127.8126979932204
 30
0.0
 10
106.0717339144543
 20
-128.0600558490614
 30
0.0
 10
106.0717339144543
 20
-128.3370415260755
 30
0.0
  0
HATCH
  5
6A
330
63
100
AcDbEntity
  8
_U+30EC_U+30A4_U+30E4_U+30FC 1
 62
   179
420
  2234388
100
AcDbHatch
 10
0.0
 20
0.0
 30
0.0
210
0.0
220
0.0
230
1.0
  2
SOLID
 70
     1
 71
     0
 91
        1
 92
        1
 93
        1
 72
     4
 94
        3
 73
     0
 74
     1
 95
       62
 96
       58
 40
0.0
 40
0.0
 40
0.0
 40
0.0
 40
1.0
 40
1.0
 40
1.0
 40
2.0
 40
2.0
 40
2.0
 40
3.0
 40
3.0
 40
3.0
 40
4.0
 40
4.0
 40
4.0
 40
5.0
 40
5.0
 40
5.0
 40
6.0
 40
6.0
 40
6.0
 40
7.0
 40
7.0
 40
7.0
 40
8.0
 40
8.0
 40
8.0
 40
9.0
 40
9.0
 40
9.0
 40
10.0
 40
10.0
 40
10.0
 40
11.0
 40
11.0
 40
11.0
 40
12.0
 40
12.0
 40
12.0
 40
13.0
 40
13.0
 40
13.0
 40
14.0
 40
14.0
 40
14.0
 40
15.0
 40
15.0
 40
15.0
 40
16.0
 40
16.0
 40
16.0
 40
17.0
 40
17.0
 40
17.0
 40
18.0
 40
18.0
 40
18.0
 40
19.0
 40
19.0
 40
19.0
 40
19.0
 10
106.0717339144543
 20
-128.3370415260755
 10
106.0717339144543
 20
-128.4324706710169
 10
106.0507188319943
 20
-128.6502007056847
 10
105.8646836757908
 20
-128.7752576717992
 10
105.7523735629716
 20
-128.8493272247321
 10
105.6531548129964
 20
-128.8534613393144
 10
105.5684054640593
 20
-128.8575954538967
 10
105.5684054640593
 20
-128.8575954538967
 10
105.5684054640593
 20
-128.6374538523893
 10
105.5684054640593
 20
-128.6374538523893
 10
105.6424750169922
 20
-128.6353867950981
 10
105.8770860195377
 20
-128.6250515086423
 10
105.8770860195377
 20
-128.3415201502063
 10
105.8770860195377
 20
-128.2040608403448
 10
105.8074950907356
 20
-128.0514431103483
 10
105.5790852600636
 20
-128.0514431103483
 10
105.4626410326621
 20
-128.0514431103483
 10
105.4140651863201
 20
-128.0896836702345
 10
105.3823703078558
 20
-128.1213785486988
 10
105.3083007549229
 20
-128.1954481016317
 10
105.2955539016275
 20
-128.3118923290332
 10
105.2955539016275
 20
-128.3666693472486
 10
105.2955539016275
 20
-128.385961881966
 10
105.2976209589187
 20
-128.4217908750126
 10
105.301755073501
 20
-128.4493516388946
 10
105.301755073501
 20
-128.4493516388946
 10
105.1071071785843
 20
-128.4493516388946
 10
105.1071071785843
 20
-128.4493516388946
 10
105.1136528600063
 20
-128.4111110790084
 10
105.1157199172975
 20
-128.3690809140883
 10
105.1157199172975
 20
-128.3625352326663
 10
105.1157199172975
 20
-128.2970784184466
 10
105.0943603252889
 20
-128.0982964089476
 10
104.8576822654523
 20
-128.0982964089476
 10
104.6799153384134
 20
-128.0982964089476
 10
104.6247938106494
 20
-128.2292100373872
 10
104.6247938106494
 20
-128.3394530929151
 10
104.6247938106494
 20
-128.6036919166338
 10
104.8576822654523
 20
-128.6123046553469
 10
104.9293402515455
 20
-128.6164387699292
 10
104.9293402515455
 20
-128.6164387699292
 10
104.9293402515455
 20
-128.819699403559
 10
104.9293402515455
 20
-128.819699403559
 10
104.8046277949794
 20
-128.8110866648458
 10
104.4280788584416
 20
-128.7835259009638
 10
104.4280788584416
 20
-128.3267062396197
 10
104.4280788584416
 20
-128.10243052353
 10
104.5552028818473
 20
-127.8612738395625
 10
104.8511365840303
 20
-127.8612738395625
 10
105.0375162497823
 20
-127.8612738395625
 10
105.1198540318798
 20
-127.9563584749554
 10
105.1811767315172
 20
-128.0559217344791
 10
105.2087374953992
 20
-127.9945990348416
 10
105.2890082202055
 20
-127.8126979932204
 10
105.5663384067681
 20
-127.8126979932204
 10
105.9046467834197
 20
-127.8126979932204
 10
106.0717339144543
 20
-128.0600558490614
 10
106.0717339144543
 20
-128.3370415260755
 97
        0
 97
        0
 75
     2
 76
     1
 98
        0
  0
ENDBLK
  5
66
330
63
100
AcDbEntity
  8
0
100
AcDbBlockEnd
  0
BLOCK
  5
6D
330
6B
100
AcDbEntity
  8
0
100
AcDbBlockBegin
  2
block 4
 70
     0
 10
0.0
 20
0.0
 30
0.0
  3
block 4
  1

  0
SPLINE
  5
6F
330
6B
100
AcDbEntity
  8
_U+30EC_U+30A4_U+30E4_U+30FC 1
370
     0
100
AcDbSpline
210
0.0
220
0.0
230
1.0
 70
    11
 71
     3
 72
    44
 73
    40
 74
     0
 42
0.0000000001
 43
0.0000000001
 12
1.0
 22
0.0
 32
0.0
 13
1.0
 23
0.0
 33
0.0
 40
0.0
 40
0.0
 40
0.0
 40
0.0
 40
1.0
 40
1.0
 40
1.0
 40
2.0
 40
2.0
 40
2.0
 40
3.0
 40
3.0
 40
3.0
 40
4.0
 40
4.0
 40
4.0
 40
5.0
 40
5.0
 40
5.0
 40
6.0
 40
6.0
 40
6.0
 40
7.0
 40
7.0
 40
7.0
 40
8.0
 40
8.0
 40
8.0
 40
9.0
 40
9.0
 40
9.0
 40
10.0
 40
10.0
 40
10.0
 40
11.0
 40
11.0
 40
11.0
 40
12.0
 40
12.0
 40
12.0
 40
13.0
 40
13.0
 40
13.0
 40
13.0
 10
105.4392143833624
 20
-121.387250403681
 30
0.0
 10
105.5980332852324
 20
-121.6049804383488
 30
0.0
 10
105.6721028381653
 20
-121.6979980164505
 30
0.0
 10
105.8157633199002
 20
-121.7469183723411
 30
0.0
 10
105.8157633199002
 20
-121.7469183723411
 30
0.0
 10
105.8157633199002
 20
-120.9683267926746
 30
0.0
 10
105.8157633199002
 20
-120.9683267926746
 30
0.0
 10
105.8157633199002
 20
-120.9683267926746
 30
0.0
 10
106.0210910108211
 20
-120.9683267926746
 30
0.0
 10
106.0210910108211
 20
-120.9683267926746
 30
0.0
 10
106.0210910108211
 20
-120.9683267926746
 30
0.0
 10
106.0210910108211
 20
-121.9963432854731
 30
0.0
 10
106.0210910108211
 20
-121.9963432854731
 30
0.0
 10
105.6634900994522
 20
-121.9646484070088
 30
0.0
 10
105.585286431937
 20
-121.8991915927891
 30
0.0
 10
105.2869411629144
 20
-121.5140299175382
 30
0.0
 10
105.0881591534155
 20
-121.2580593229841
 30
0.0
 10
105.020290772356
 20
-121.1926025087644
 30
0.0
 10
104.8828314624946
 20
-121.1926025087644
 30
0.0
 10
104.764320177802
 20
-121.1926025087644
 30
0.0
 10
104.6334065493625
 20
-121.2646050044061
 30
0.0
 10
104.6334065493625
 20
-121.4613199566138
 30
0.0
 10
104.6334065493625
 20
-121.7214246657502
 30
0.0
 10
104.8638834373257
 20
-121.7300374044633
 30
0.0
 10
104.9803276647271
 20
-121.7341715190456
 30
0.0
 10
104.9803276647271
 20
-121.7341715190456
 30
0.0
 10
104.9803276647271
 20
-121.9584472351354
 30
0.0
 10
104.9803276647271
 20
-121.9584472351354
 30
0.0
 10
104.8532036413214
 20
-121.9498344964223
 30
0.0
 10
104.7412380380508
 20
-121.939154700418
 30
0.0
 10
104.6227267533582
 20
-121.8588839756117
 30
0.0
 10
104.461840794197
 20
-121.7489854296322
 30
0.0
 10
104.4280788584416
 20
-121.5626057638802
 30
0.0
 10
104.4280788584416
 20
-121.4465060460273
 30
0.0
 10
104.4280788584416
 20
-121.1691758594647
 30
0.0
 10
104.6120469573539
 20
-120.9617811112526
 30
0.0
 10
104.8848985197857
 20
-120.9617811112526
 30
0.0
 10
105.1136528600063
 20
-120.9617811112526
 30
0.0
 10
105.2128716099815
 20
-121.0782253386541
 30
0.0
 10
105.4392143833624
 20
-121.387250403681
 30
0.0
  0
HATCH
  5
70
330
6B
100
AcDbEntity
  8
_U+30EC_U+30A4_U+30E4_U+30FC 1
 62
   179
420
  2234388
100
AcDbHatch
 10
0.0
 20
0.0
 30
0.0
210
0.0
220
0.0
230
1.0
  2
SOLID
 70
     1
 71
     0
 91
        1
 92
        1
 93
        1
 72
     4
 94
        3
 73
     0
 74
     1
 95
       44
 96
       40
 40
0.0
 40
0.0
 40
0.0
 40
0.0
 40
1.0
 40
1.0
 40
1.0
 40
2.0
 40
2.0
 40
2.0
 40
3.0
 40
3.0
 40
3.0
 40
4.0
 40
4.0
 40
4.0
 40
5.0
 40
5.0
 40
5.0
 40
6.0
 40
6.0
 40
6.0
 40
7.0
 40
7.0
 40
7.0
 40
8.0
 40
8.0
 40
8.0
 40
9.0
 40
9.0
 40
9.0
 40
10.0
 40
10.0
 40
10.0
 40
11.0
 40
11.0
 40
11.0
 40
12.0
 40
12.0
 40
12.0
 40
13.0
 40
13.0
 40
13.0
 40
13.0
 10
105.4392143833624
 20
-121.387250403681
 10
105.5980332852324
 20
-121.6049804383488
 10
105.6721028381653
 20
-121.6979980164505
 10
105.8157633199002
 20
-121.7469183723411
 10
105.8157633199002
 20
-121.7469183723411
 10
105.8157633199002
 20
-120.9683267926746
 10
105.8157633199002
 20
-120.9683267926746
 10
105.8157633199002
 20
-120.9683267926746
 10
106.0210910108211
 20
-120.9683267926746
 10
106.0210910108211
 20
-120.9683267926746
 10
106.0210910108211
 20
-120.9683267926746
 10
106.0210910108211
 20
-121.9963432854731
 10
106.0210910108211
 20
-121.9963432854731
 10
105.6634900994522
 20
-121.9646484070088
 10
105.585286431937
 20
-121.8991915927891
 10
105.2869411629144
 20
-121.5140299175382
 10
105.0881591534155
 20
-121.2580593229841
 10
105.020290772356
 20
-121.1926025087644
 10
104.8828314624946
 20
-121.1926025087644
 10
104.764320177802
 20
-121.1926025087644
 10
104.6334065493625
 20
-121.2646050044061
 10
104.6334065493625
 20
-121.4613199566138
 10
104.6334065493625
 20
-121.7214246657502
 10
104.8638834373257
 20
-121.7300374044633
 10
104.9803276647271
 20
-121.7341715190456
 10
104.9803276647271
 20
-121.7341715190456
 10
104.9803276647271
 20
-121.9584472351354
 10
104.9803276647271
 20
-121.9584472351354
 10
104.8532036413214
 20
-121.9498344964223
 10
104.7412380380508
 20
-121.939154700418
 10
104.6227267533582
 20
-121.8588839756117
 10
104.461840794197
 20
-121.7489854296322
 10
104.4280788584416
 20
-121.5626057638802
 10
104.4280788584416
 20
-121.4465060460273
 10
104.4280788584416
 20
-121.1691758594647
 10
104.6120469573539
 20
-120.9617811112526
 10
104.8848985197857
 20
-120.9617811112526
 10
105.1136528600063
 20
-120.9617811112526
 10
105.2128716099815
 20
-121.0782253386541
 10
105.4392143833624
 20
-121.387250403681
 97
        0
 97
        0
 75
     2
 76
     1
 98
        0
  0
ENDBLK
  5
6E
330
6B
100
AcDbEntity
  8
0
100
AcDbBlockEnd
  0
BLOCK
  5
7F
330
7D
100
AcDbEntity
  8
0
100
AcDbBlockBegin
  2
block 5
 70
     0
 10
0.0
 20
0.0
 30
0.0
  3
block 5
  1

  0
SPLINE
  5
81
330
7D
100
AcDbEntity
  8
_U+30EC_U+30A4_U+30E4_U+30FC 1
370
     0
100
AcDbSpline
210
0.0
220
0.0
230
1.0
 70
    11
 71
     3
 72
    44
 73
    40
 74
     0
 42
0.0000000001
 43
0.0000000001
 12
1.0
 22
0.0
 32
0.0
 13
1.0
 23
0.0
 33
0.0
 40
0.0
 40
0.0
 40
0.0
 40
0.0
 40
1.0
 40
1.0
 40
1.0
 40
2.0
 40
2.0
 40
2.0
 40
3.0
 40
3.0
 40
3.0
 40
4.0
 40
4.0
 40
4.0
 40
5.0
 40
5.0
 40
5.0
 40
6.0
 40
6.0
 40
6.0
 40
7.0
 40
7.0
 40
7.0
 40
8.0
 40
8.0
 40
8.0
 40
9.0
 40
9.0
 40
9.0
 40
10.0
 40
10.0
 40
10.0
 40
11.0
 40
11.0
 40
11.0
 40
12.0
 40
12.0
 40
12.0
 40
13.0
 40
13.0
 40
13.0
 40
13.0
 10
87.16987302508254
 20
-139.2083848393299
 30
0.0
 10
86.95214299041474
 20
-139.3672037411999
 30
0.0
 10
86.859125412313
 20
-139.4412732941327
 30
0.0
 10
86.81020505642245
 20
-139.5849337758677
 30
0.0
 10
86.81020505642245
 20
-139.5849337758677
 30
0.0
 10
87.58879663608892
 20
-139.5849337758677
 30
0.0
 10
87.58879663608892
 20
-139.5849337758677
 30
0.0
 10
87.58879663608892
 20
-139.5849337758677
 30
0.0
 10
87.58879663608892
 20
-139.7902614667886
 30
0.0
 10
87.58879663608892
 20
-139.7902614667886
 30
0.0
 10
87.58879663608892
 20
-139.7902614667886
 30
0.0
 10
86.56078014329036
 20
-139.7902614667886
 30
0.0
 10
86.56078014329036
 20
-139.7902614667886
 30
0.0
 10
86.59247502175467
 20
-139.4326605554196
 30
0.0
 10
86.65793183597441
 20
-139.3544568879045
 30
0.0
 10
87.04309351122534
 20
-139.0561116188818
 30
0.0
 10
87.29906410577941
 20
-138.8573296093829
 30
0.0
 10
87.36452091999915
 20
-138.7894612283235
 30
0.0
 10
87.36452091999915
 20
-138.652001918462
 30
0.0
 10
87.36452091999915
 20
-138.5334906337694
 30
0.0
 10
87.29251842435743
 20
-138.4025770053299
 30
0.0
 10
87.09580347214967
 20
-138.4025770053299
 30
0.0
 10
86.8356987630133
 20
-138.4025770053299
 30
0.0
 10
86.8274305338487
 20
-138.6330538932931
 30
0.0
 10
86.82295190971787
 20
-138.7494981206946
 30
0.0
 10
86.82295190971787
 20
-138.7494981206946
 30
0.0
 10
86.59867619362811
 20
-138.7494981206946
 30
0.0
 10
86.59867619362811
 20
-138.7494981206946
 30
0.0
 10
86.60728893234123
 20
-138.6223740972889
 30
0.0
 10
86.61796872834552
 20
-138.5104084940182
 30
0.0
 10
86.69823945315183
 20
-138.3918972093256
 30
0.0
 10
86.8081379991313
 20
-138.2310112501645
 30
0.0
 10
86.99451766488332
 20
-138.197249314409
 30
0.0
 10
87.11061738273624
 20
-138.197249314409
 30
0.0
 10
87.38794756929884
 20
-138.197249314409
 30
0.0
 10
87.59534231751088
 20
-138.3812174133214
 30
0.0
 10
87.59534231751088
 20
-138.6540689757531
 30
0.0
 10
87.59534231751088
 20
-138.8828233159738
 30
0.0
 10
87.47889809010944
 20
-138.9820420659489
 30
0.0
 10
87.16987302508254
 20
-139.2083848393299
 30
0.0
  0
HATCH
  5
82
330
7D
100
AcDbEntity
  8
_U+30EC_U+30A4_U+30E4_U+30FC 1
 62
   179
420
  2234388
100
AcDbHatch
 10
0.0
 20
0.0
 30
0.0
210
0.0
220
0.0
230
1.0
  2
SOLID
 70
     1
 71
     0
 91
        1
 92
        1
 93
        1
 72
     4
 94
        3
 73
     0
 74
     1
 95
       44
 96
       40
 40
0.0
 40
0.0
 40
0.0
 40
0.0
 40
1.0
 40
1.0
 40
1.0
 40
2.0
 40
2.0
 40
2.0
 40
3.0
 40
3.0
 40
3.0
 40
4.0
 40
4.0
 40
4.0
 40
5.0
 40
5.0
 40
5.0
 40
6.0
 40
6.0
 40
6.0
 40
7.0
 40
7.0
 40
7.0
 40
8.0
 40
8.0
 40
8.0
 40
9.0
 40
9.0
 40
9.0
 40
10.0
 40
10.0
 40
10.0
 40
11.0
 40
11.0
 40
11.0
 40
12.0
 40
12.0
 40
12.0
 40
13.0
 40
13.0
 40
13.0
 40
13.0
 10
87.16987302508254
 20
-139.2083848393299
 10
86.95214299041474
 20
-139.3672037411999
 10
86.859125412313
 20
-139.4412732941327
 10
86.81020505642245
 20
-139.5849337758677
 10
86.81020505642245
 20
-139.5849337758677
 10
87.58879663608892
 20
-139.5849337758677
 10
87.58879663608892
 20
-139.5849337758677
 10
87.58879663608892
 20
-139.5849337758677
 10
87.58879663608892
 20
-139.7902614667886
 10
87.58879663608892
 20
-139.7902614667886
 10
87.58879663608892
 20
-139.7902614667886
 10
86.56078014329036
 20
-139.7902614667886
 10
86.56078014329036
 20
-139.7902614667886
 10
86.59247502175467
 20
-139.4326605554196
 10
86.65793183597441
 20
-139.3544568879045
 10
87.04309351122534
 20
-139.0561116188818
 10
87.29906410577941
 20
-138.8573296093829
 10
87.36452091999915
 20
-138.7894612283235
 10
87.36452091999915
 20
-138.652001918462
 10
87.36452091999915
 20
-138.5334906337694
 10
87.29251842435743
 20
-138.4025770053299
 10
87.09580347214967
 20
-138.4025770053299
 10
86.8356987630133
 20
-138.4025770053299
 10
86.8274305338487
 20
-138.6330538932931
 10
86.82295190971787
 20
-138.7494981206946
 10
86.82295190971787
 20
-138.7494981206946
 10
86.59867619362811
 20
-138.7494981206946
 10
86.59867619362811
 20
-138.7494981206946
 10
86.60728893234123
 20
-138.6223740972889
 10
86.61796872834552
 20
-138.5104084940182
 10
86.69823945315183
 20
-138.3918972093256
 10
86.8081379991313
 20
-138.2310112501645
 10
86.99451766488332
 20
-138.197249314409
 10
87.11061738273624
 20
-138.197249314409
 10
87.38794756929884
 20
-138.197249314409
 10
87.59534231751088
 20
-138.3812174133214
 10
87.59534231751088
 20
-138.6540689757531
 10
87.59534231751088
 20
-138.8828233159738
 10
87.47889809010944
 20
-138.9820420659489
 10
87.16987302508254
 20
-139.2083848393299
 97
        0
 97
        0
 75
     2
 76
     1
 98
        0
  0
SPLINE
  5
83
330
7D
100
AcDbEntity
  8
_U+30EC_U+30A4_U+30E4_U+30FC 1
370
     0
100
AcDbSpline
210
0.0
220
0.0
230
1.0
 70
    11
 71
     3
 72
    53
 73
    49
 74
     0
 42
0.0000000001
 43
0.0000000001
 12
1.0
 22
0.0
 32
0.0
 13
1.0
 23
0.0
 33
0.0
 40
0.0
 40
0.0
 40
0.0
 40
0.0
 40
1.0
 40
1.0
 40
1.0
 40
2.0
 40
2.0
 40
2.0
 40
3.0
 40
3.0
 40
3.0
 40
4.0
 40
4.0
 40
4.0
 40
5.0
 40
5.0
 40
5.0
 40
6.0
 40
6.0
 40
6.0
 40
7.0
 40
7.0
 40
7.0
 40
8.0
 40
8.0
 40
8.0
 40
9.0
 40
9.0
 40
9.0
 40
10.0
 40
10.0
 40
10.0
 40
11.0
 40
11.0
 40
11.0
 40
12.0
 40
12.0
 40
12.0
 40
13.0
 40
13.0
 40
13.0
 40
14.0
 40
14.0
 40
14.0
 40
15.0
 40
15.0
 40
15.0
 40
16.0
 40
16.0
 40
16.0
 40
16.0
 10
88.23475203957327
 20
-139.8409043704217
 30
0.0
 10
88.15654837205808
 20
-139.8409043704217
 30
0.0
 10
88.05491805524322
 20
-139.824023402544
 30
0.0
 10
87.95328773842834
 20
-139.7606336456154
 30
0.0
 10
87.77999943552028
 20
-139.6507350996359
 30
0.0
 10
87.75863984351173
 20
-139.5194769616479
 30
0.0
 10
87.73969181834286
 20
-139.4116454729596
 30
0.0
 10
87.73969181834286
 20
-139.4116454729596
 30
0.0
 10
87.96190047714147
 20
-139.4116454729596
 30
0.0
 10
87.96190047714147
 20
-139.4116454729596
 30
0.0
 10
88.01667749535694
 20
-139.6104274824585
 30
0.0
 10
88.14380151876267
 20
-139.6400553036317
 30
0.0
 10
88.23681909686441
 20
-139.6400553036317
 30
0.0
 10
88.37634546401704
 20
-139.6400553036317
 30
0.0
 10
88.52861868446507
 20
-139.5404920441079
 30
0.0
 10
88.52861868446507
 20
-139.3079480988536
 30
0.0
 10
88.52861868446507
 20
-139.0519775042995
 30
0.0
 10
88.34878470013503
 20
-138.9820420659489
 30
0.0
 10
88.22820635815128
 20
-138.9820420659489
 30
0.0
 10
88.19651147968699
 20
-138.9820420659489
 30
0.0
 10
88.05491805524322
 20
-138.9820420659489
 30
0.0
 10
87.96603459172377
 20
-139.1112331466458
 30
0.0
 10
87.96603459172377
 20
-139.1112331466458
 30
0.0
 10
87.79033472197604
 20
-139.0922851214769
 30
0.0
 10
87.79033472197604
 20
-139.0922851214769
 30
0.0
 10
87.79033472197604
 20
-139.0922851214769
 30
0.0
 10
87.91091306395978
 20
-138.2458251607511
 30
0.0
 10
87.91091306395978
 20
-138.2458251607511
 30
0.0
 10
87.91091306395978
 20
-138.2458251607511
 30
0.0
 10
88.68950464362624
 20
-138.2458251607511
 30
0.0
 10
88.68950464362624
 20
-138.2458251607511
 30
0.0
 10
88.68950464362624
 20
-138.2458251607511
 30
0.0
 10
88.68950464362624
 20
-138.4404730556677
 30
0.0
 10
88.68950464362624
 20
-138.4404730556677
 30
0.0
 10
88.68950464362624
 20
-138.4404730556677
 30
0.0
 10
88.07386608041209
 20
-138.4404730556677
 30
0.0
 10
88.07386608041209
 20
-138.4404730556677
 30
0.0
 10
88.07386608041209
 20
-138.4404730556677
 30
0.0
 10
88.00840926619234
 20
-138.8635307812563
 30
0.0
 10
88.00840926619234
 20
-138.8635307812563
 30
0.0
 10
88.06973196582979
 20
-138.8297688455009
 30
0.0
 10
88.15206974792727
 20
-138.7894612283235
 30
0.0
 10
88.27058103261986
 20
-138.7894612283235
 30
0.0
 10
88.52448456988277
 20
-138.7894612283235
 30
0.0
 10
88.76150713926796
 20
-138.9758408940755
 30
0.0
 10
88.76150713926796
 20
-139.2890000736847
 30
0.0
 10
88.76150713926796
 20
-139.6062933678762
 30
0.0
 10
88.5372314231782
 20
-139.8409043704217
 30
0.0
 10
88.23475203957327
 20
-139.8409043704217
 30
0.0
  0
HATCH
  5
84
330
7D
100
AcDbEntity
  8
_U+30EC_U+30A4_U+30E4_U+30FC 1
 62
   179
420
  2234388
100
AcDbHatch
 10
0.0
 20
0.0
 30
0.0
210
0.0
220
0.0
230
1.0
  2
SOLID
 70
     1
 71
     0
 91
        1
 92
        1
 93
        1
 72
     4
 94
        3
 73
     0
 74
     1
 95
       53
 96
       49
 40
0.0
 40
0.0
 40
0.0
 40
0.0
 40
1.0
 40
1.0
 40
1.0
 40
2.0
 40
2.0
 40
2.0
 40
3.0
 40
3.0
 40
3.0
 40
4.0
 40
4.0
 40
4.0
 40
5.0
 40
5.0
 40
5.0
 40
6.0
 40
6.0
 40
6.0
 40
7.0
 40
7.0
 40
7.0
 40
8.0
 40
8.0
 40
8.0
 40
9.0
 40
9.0
 40
9.0
 40
10.0
 40
10.0
 40
10.0
 40
11.0
 40
11.0
 40
11.0
 40
12.0
 40
12.0
 40
12.0
 40
13.0
 40
13.0
 40
13.0
 40
14.0
 40
14.0
 40
14.0
 40
15.0
 40
15.0
 40
15.0
 40
16.0
 40
16.0
 40
16.0
 40
16.0
 10
88.23475203957327
 20
-139.8409043704217
 10
88.15654837205808
 20
-139.8409043704217
 10
88.05491805524322
 20
-139.824023402544
 10
87.95328773842834
 20
-139.7606336456154
 10
87.77999943552028
 20
-139.6507350996359
 10
87.75863984351173
 20
-139.5194769616479
 10
87.73969181834286
 20
-139.4116454729596
 10
87.73969181834286
 20
-139.4116454729596
 10
87.96190047714147
 20
-139.4116454729596
 10
87.96190047714147
 20
-139.4116454729596
 10
88.01667749535694
 20
-139.6104274824585
 10
88.14380151876267
 20
-139.6400553036317
 10
88.23681909686441
 20
-139.6400553036317
 10
88.37634546401704
 20
-139.6400553036317
 10
88.52861868446507
 20
-139.5404920441079
 10
88.52861868446507
 20
-139.3079480988536
 10
88.52861868446507
 20
-139.0519775042995
 10
88.34878470013503
 20
-138.9820420659489
 10
88.22820635815128
 20
-138.9820420659489
 10
88.19651147968699
 20
-138.9820420659489
 10
88.05491805524322
 20
-138.9820420659489
 10
87.96603459172377
 20
-139.1112331466458
 10
87.96603459172377
 20
-139.1112331466458
 10
87.79033472197604
 20
-139.0922851214769
 10
87.79033472197604
 20
-139.0922851214769
 10
87.79033472197604
 20
-139.0922851214769
 10
87.91091306395978
 20
-138.2458251607511
 10
87.91091306395978
 20
-138.2458251607511
 10
87.91091306395978
 20
-138.2458251607511
 10
88.68950464362624
 20
-138.2458251607511
 10
88.68950464362624
 20
-138.2458251607511
 10
88.68950464362624
 20
-138.2458251607511
 10
88.68950464362624
 20
-138.4404730556677
 10
88.68950464362624
 20
-138.4404730556677
 10
88.68950464362624
 20
-138.4404730556677
 10
88.07386608041209
 20
-138.4404730556677
 10
88.07386608041209
 20
-138.4404730556677
 10
88.07386608041209
 20
-138.4404730556677
 10
88.00840926619234
 20
-138.8635307812563
 10
88.00840926619234
 20
-138.8635307812563
 10
88.06973196582979
 20
-138.8297688455009
 10
88.15206974792727
 20
-138.7894612283235
 10
88.27058103261986
 20
-138.7894612283235
 10
88.52448456988277
 20
-138.7894612283235
 10
88.76150713926796
 20
-138.9758408940755
 10
88.76150713926796
 20
-139.2890000736847
 10
88.76150713926796
 20
-139.6062933678762
 10
88.5372314231782
 20
-139.8409043704217
 10
88.23475203957327
 20
-139.8409043704217
 97
        0
 97
        0
 75
     2
 76
     1
 98
        0
  0
ENDBLK
  5
80
330
7D
100
AcDbEntity
  8
0
100
AcDbBlockEnd
  0
BLOCK
  5
93
330
91
100
AcDbEntity
  8
0
100
AcDbBlockBegin
  2
block 6
 70
     0
 10
0.0
 20
0.0
 30
0.0
  3
block 6
  1

  0
SPLINE
  5
95
330
91
100
AcDbEntity
  8
_U+30EC_U+30A4_U+30E4_U+30FC 1
370
     0
100
AcDbSpline
210
0.0
220
0.0
230
1.0
 70
    11
 71
     3
 72
    26
 73
    22
 74
     0
 42
0.0000000001
 43
0.0000000001
 12
1.0
 22
0.0
 32
0.0
 13
1.0
 23
0.0
 33
0.0
 40
0.0
 40
0.0
 40
0.0
 40
0.0
 40
1.0
 40
1.0
 40
1.0
 40
2.0
 40
2.0
 40
2.0
 40
3.0
 40
3.0
 40
3.0
 40
4.0
 40
4.0
 40
4.0
 40
5.0
 40
5.0
 40
5.0
 40
6.0
 40
6.0
 40
6.0
 40
7.0
 40
7.0
 40
7.0
 40
7.0
 10
86.77868243273241
 20
-117.3299614507022
 30
0.0
 10
86.77868243273241
 20
-117.3299614507022
 30
0.0
 10
86.77868243273241
 20
-116.2258083476797
 30
0.0
 10
86.77868243273241
 20
-116.2258083476797
 30
0.0
 10
86.77868243273241
 20
-116.2258083476797
 30
0.0
 10
86.44864228524548
 20
-116.2258083476797
 30
0.0
 10
86.44864228524548
 20
-116.2258083476797
 30
0.0
 10
86.44864228524548
 20
-116.2258083476797
 30
0.0
 10
86.44864228524548
 20
-116.0776692418139
 30
0.0
 10
86.44864228524548
 20
-116.0776692418139
 30
0.0
 10
86.78074949002357
 20
-116.0628553312274
 30
0.0
 10
86.82725827907444
 20
-115.899902314775
 30
0.0
 10
86.85688610024759
 20
-115.7855251446647
 30
0.0
 10
86.85688610024759
 20
-115.7855251446647
 30
0.0
 10
87.00295814882219
 20
-115.7855251446647
 30
0.0
 10
87.00295814882219
 20
-115.7855251446647
 30
0.0
 10
87.00295814882219
 20
-115.7855251446647
 30
0.0
 10
87.00295814882219
 20
-117.3299614507022
 30
0.0
 10
87.00295814882219
 20
-117.3299614507022
 30
0.0
 10
87.00295814882219
 20
-117.3299614507022
 30
0.0
 10
86.77868243273241
 20
-117.3299614507022
 30
0.0
 10
86.77868243273241
 20
-117.3299614507022
 30
0.0
  0
HATCH
  5
96
330
91
100
AcDbEntity
  8
_U+30EC_U+30A4_U+30E4_U+30FC 1
 62
   179
420
  2234388
100
AcDbHatch
 10
0.0
 20
0.0
 30
0.0
210
0.0
220
0.0
230
1.0
  2
SOLID
 70
     1
 71
     0
 91
        1
 92
        1
 93
        1
 72
     4
 94
        3
 73
     0
 74
     1
 95
       26
 96
       22
 40
0.0
 40
0.0
 40
0.0
 40
0.0
 40
1.0
 40
1.0
 40
1.0
 40
2.0
 40
2.0
 40
2.0
 40
3.0
 40
3.0
 40
3.0
 40
4.0
 40
4.0
 40
4.0
 40
5.0
 40
5.0
 40
5.0
 40
6.0
 40
6.0
 40
6.0
 40
7.0
 40
7.0
 40
7.0
 40
7.0
 10
86.77868243273241
 20
-117.3299614507022
 10
86.77868243273241
 20
-117.3299614507022
 10
86.77868243273241
 20
-116.2258083476797
 10
86.77868243273241
 20
-116.2258083476797
 10
86.77868243273241
 20
-116.2258083476797
 10
86.44864228524548
 20
-116.2258083476797
 10
86.44864228524548
 20
-116.2258083476797
 10
86.44864228524548
 20
-116.2258083476797
 10
86.44864228524548
 20
-116.0776692418139
 10
86.44864228524548
 20
-116.0776692418139
 10
86.78074949002357
 20
-116.0628553312274
 10
86.82725827907444
 20
-115.899902314775
 10
86.85688610024759
 20
-115.7855251446647
 10
86.85688610024759
 20
-115.7855251446647
 10
87.00295814882219
 20
-115.7855251446647
 10
87.00295814882219
 20
-115.7855251446647
 10
87.00295814882219
 20
-115.7855251446647
 10
87.00295814882219
 20
-117.3299614507022
 10
87.00295814882219
 20
-117.3299614507022
 10
87.00295814882219
 20
-117.3299614507022
 10
86.77868243273241
 20
-117.3299614507022
 10
86.77868243273241
 20
-117.3299614507022
 97
        0
 97
        0
 75
     2
 76
     1
 98
        0
  0
SPLINE
  5
97
330
91
100
AcDbEntity
  8
_U+30EC_U+30A4_U+30E4_U+30FC 1
370
     0
100
AcDbSpline
210
0.0
220
0.0
230
1.0
 70
    11
 71
     3
 72
    53
 73
    49
 74
     0
 42
0.0000000001
 43
0.0000000001
 12
1.0
 22
0.0
 32
0.0
 13
1.0
 23
0.0
 33
0.0
 40
0.0
 40
0.0
 40
0.0
 40
0.0
 40
1.0
 40
1.0
 40
1.0
 40
2.0
 40
2.0
 40
2.0
 40
3.0
 40
3.0
 40
3.0
 40
4.0
 40
4.0
 40
4.0
 40
5.0
 40
5.0
 40
5.0
 40
6.0
 40
6.0
 40
6.0
 40
7.0
 40
7.0
 40
7.0
 40
8.0
 40
8.0
 40
8.0
 40
9.0
 40
9.0
 40
9.0
 40
10.0
 40
10.0
 40
10.0
 40
11.0
 40
11.0
 40
11.0
 40
12.0
 40
12.0
 40
12.0
 40
13.0
 40
13.0
 40
13.0
 40
14.0
 40
14.0
 40
14.0
 40
15.0
 40
15.0
 40
15.0
 40
16.0
 40
16.0
 40
16.0
 40
16.0
 10
87.98515487166691
 20
-117.3806043543354
 30
0.0
 10
87.90695120415174
 20
-117.3806043543354
 30
0.0
 10
87.80532088733686
 20
-117.3637233864577
 30
0.0
 10
87.703690570522
 20
-117.3003336295291
 30
0.0
 10
87.53040226761394
 20
-117.1904350835496
 30
0.0
 10
87.50904267560539
 20
-117.0591769455616
 30
0.0
 10
87.4900946504365
 20
-116.9513454568733
 30
0.0
 10
87.4900946504365
 20
-116.9513454568733
 30
0.0
 10
87.71230330923512
 20
-116.9513454568733
 30
0.0
 10
87.71230330923512
 20
-116.9513454568733
 30
0.0
 10
87.7670803274506
 20
-117.1501274663722
 30
0.0
 10
87.89420435085631
 20
-117.1797552875453
 30
0.0
 10
87.98722192895806
 20
-117.1797552875453
 30
0.0
 10
88.12674829611068
 20
-117.1797552875453
 30
0.0
 10
88.27902151655871
 20
-117.0801920280216
 30
0.0
 10
88.27902151655871
 20
-116.8476480827673
 30
0.0
 10
88.27902151655871
 20
-116.5916774882132
 30
0.0
 10
88.09918753222868
 20
-116.5217420498626
 30
0.0
 10
87.97860919024494
 20
-116.5217420498626
 30
0.0
 10
87.94691431178063
 20
-116.5217420498626
 30
0.0
 10
87.80532088733686
 20
-116.5217420498626
 30
0.0
 10
87.71643742381742
 20
-116.6509331305595
 30
0.0
 10
87.71643742381742
 20
-116.6509331305595
 30
0.0
 10
87.54073755406968
 20
-116.6319851053906
 30
0.0
 10
87.54073755406968
 20
-116.6319851053906
 30
0.0
 10
87.54073755406968
 20
-116.6319851053906
 30
0.0
 10
87.66131589605342
 20
-115.7855251446647
 30
0.0
 10
87.66131589605342
 20
-115.7855251446647
 30
0.0
 10
87.66131589605342
 20
-115.7855251446647
 30
0.0
 10
88.43990747571989
 20
-115.7855251446647
 30
0.0
 10
88.43990747571989
 20
-115.7855251446647
 30
0.0
 10
88.43990747571989
 20
-115.7855251446647
 30
0.0
 10
88.43990747571989
 20
-115.9801730395813
 30
0.0
 10
88.43990747571989
 20
-115.9801730395813
 30
0.0
 10
88.43990747571989
 20
-115.9801730395813
 30
0.0
 10
87.82426891250574
 20
-115.9801730395813
 30
0.0
 10
87.82426891250574
 20
-115.9801730395813
 30
0.0
 10
87.82426891250574
 20
-115.9801730395813
 30
0.0
 10
87.758812098286
 20
-116.40323076517
 30
0.0
 10
87.758812098286
 20
-116.40323076517
 30
0.0
 10
87.82013479792344
 20
-116.3694688294146
 30
0.0
 10
87.90247258002091
 20
-116.3291612122372
 30
0.0
 10
88.02098386471351
 20
-116.3291612122372
 30
0.0
 10
88.27488740197641
 20
-116.3291612122372
 30
0.0
 10
88.5119099713616
 20
-116.5155408779892
 30
0.0
 10
88.5119099713616
 20
-116.8287000575984
 30
0.0
 10
88.5119099713616
 20
-117.1459933517899
 30
0.0
 10
88.28763425527184
 20
-117.3806043543354
 30
0.0
 10
87.98515487166691
 20
-117.3806043543354
 30
0.0
  0
HATCH
  5
98
330
91
100
AcDbEntity
  8
_U+30EC_U+30A4_U+30E4_U+30FC 1
 62
   179
420
  2234388
100
AcDbHatch
 10
0.0
 20
0.0
 30
0.0
210
0.0
220
0.0
230
1.0
  2
SOLID
 70
     1
 71
     0
 91
        1
 92
        1
 93
        1
 72
     4
 94
        3
 73
     0
 74
     1
 95
       53
 96
       49
 40
0.0
 40
0.0
 40
0.0
 40
0.0
 40
1.0
 40
1.0
 40
1.0
 40
2.0
 40
2.0
 40
2.0
 40
3.0
 40
3.0
 40
3.0
 40
4.0
 40
4.0
 40
4.0
 40
5.0
 40
5.0
 40
5.0
 40
6.0
 40
6.0
 40
6.0
 40
7.0
 40
7.0
 40
7.0
 40
8.0
 40
8.0
 40
8.0
 40
9.0
 40
9.0
 40
9.0
 40
10.0
 40
10.0
 40
10.0
 40
11.0
 40
11.0
 40
11.0
 40
12.0
 40
12.0
 40
12.0
 40
13.0
 40
13.0
 40
13.0
 40
14.0
 40
14.0
 40
14.0
 40
15.0
 40
15.0
 40
15.0
 40
16.0
 40
16.0
 40
16.0
 40
16.0
 10
87.98515487166691
 20
-117.3806043543354
 10
87.90695120415174
 20
-117.3806043543354
 10
87.80532088733686
 20
-117.3637233864577
 10
87.703690570522
 20
-117.3003336295291
 10
87.53040226761394
 20
-117.1904350835496
 10
87.50904267560539
 20
-117.0591769455616
 10
87.4900946504365
 20
-116.9513454568733
 10
87.4900946504365
 20
-116.9513454568733
 10
87.71230330923512
 20
-116.9513454568733
 10
87.71230330923512
 20
-116.9513454568733
 10
87.7670803274506
 20
-117.1501274663722
 10
87.89420435085631
 20
-117.1797552875453
 10
87.98722192895806
 20
-117.1797552875453
 10
88.12674829611068
 20
-117.1797552875453
 10
88.27902151655871
 20
-117.0801920280216
 10
88.27902151655871
 20
-116.8476480827673
 10
88.27902151655871
 20
-116.5916774882132
 10
88.09918753222868
 20
-116.5217420498626
 10
87.97860919024494
 20
-116.5217420498626
 10
87.94691431178063
 20
-116.5217420498626
 10
87.80532088733686
 20
-116.5217420498626
 10
87.71643742381742
 20
-116.6509331305595
 10
87.71643742381742
 20
-116.6509331305595
 10
87.54073755406968
 20
-116.6319851053906
 10
87.54073755406968
 20
-116.6319851053906
 10
87.54073755406968
 20
-116.6319851053906
 10
87.66131589605342
 20
-115.7855251446647
 10
87.66131589605342
 20
-115.7855251446647
 10
87.66131589605342
 20
-115.7855251446647
 10
88.43990747571989
 20
-115.7855251446647
 10
88.43990747571989
 20
-115.7855251446647
 10
88.43990747571989
 20
-115.7855251446647
 10
88.43990747571989
 20
-115.9801730395813
 10
88.43990747571989
 20
-115.9801730395813
 10
88.43990747571989
 20
-115.9801730395813
 10
87.82426891250574
 20
-115.9801730395813
 10
87.82426891250574
 20
-115.9801730395813
 10
87.82426891250574
 20
-115.9801730395813
 10
87.758812098286
 20
-116.40323076517
 10
87.758812098286
 20
-116.40323076517
 10
87.82013479792344
 20
-116.3694688294146
 10
87.90247258002091
 20
-116.3291612122372
 10
88.02098386471351
 20
-116.3291612122372
 10
88.27488740197641
 20
-116.3291612122372
 10
88.5119099713616
 20
-116.5155408779892
 10
88.5119099713616
 20
-116.8287000575984
 10
88.5119099713616
 20
-117.1459933517899
 10
88.28763425527184
 20
-117.3806043543354
 10
87.98515487166691
 20
-117.3806043543354
 97
        0
 97
        0
 75
     2
 76
     1
 98
        0
  0
ENDBLK
  5
94
330
91
100
AcDbEntity
  8
0
100
AcDbBlockEnd
  0
ENDSEC
  0
SECTION
  2
ENTITIES
  0
SPLINE
  5
41
330
1F
100
AcDbEntity
  8
_U+30EC_U+30A4_U+30E4_U+30FC 1
 62
   179
420
  2234388
370
     9
100
AcDbSpline
210
0.0
220
0.0
230
1.0
 70
    11
 71
     3
 72
    17
 73
    13
 74
     0
 42
0.0000000001
 43
0.0000000001
 12
1.0
 22
0.0
 32
0.0
 13
1.0
 23
0.0
 33
0.0
 40
0.0
 40
0.0
 40
0.0
 40
0.0
 40
1.0
 40
1.0
 40
1.0
 40
2.0
 40
2.0
 40
2.0
 40
3.0
 40
3.0
 40
3.0
 40
4.0
 40
4.0
 40
4.0
 40
4.0
 10
102.8143995992084
 20
-136.387204965903
 30
0.0
 10
102.8143995992084
 20
-136.3320657992506
 30
0.0
 10
102.7695968225736
 20
-136.2872982992614
 30
0.0
 10
102.7144929350905
 20
-136.2872982992614
 30
0.0
 10
102.6593537698306
 20
-136.2872982992614
 30
0.0
 10
102.6145888632353
 20
-136.3320657992506
 30
0.0
 10
102.6145888632353
 20
-136.387204965903
 30
0.0
 10
102.6145888632353
 20
-136.4423088547785
 30
0.0
 10
102.6593537698306
 20
-136.4871116325446
 30
0.0
 10
102.7144929350905
 20
-136.4871116325446
 30
0.0
 10
102.7695968225736
 20
-136.4871116325446
 30
0.0
 10
102.8143995992084
 20
-136.4423088547785
 30
0.0
 10
102.8143995992084
 20
-136.387204965903
 30
0.0
  0
SPLINE
  5
42
330
1F
100
AcDbEntity
  8
_U+30EC_U+30A4_U+30E4_U+30FC 1
 62
   179
420
  2234388
370
     9
100
AcDbSpline
210
0.0
220
0.0
230
1.0
 70
    11
 71
     3
 72
    17
 73
    13
 74
     0
 42
0.0000000001
 43
0.0000000001
 12
1.0
 22
0.0
 32
0.0
 13
1.0
 23
0.0
 33
0.0
 40
0.0
 40
0.0
 40
0.0
 40
0.0
 40
1.0
 40
1.0
 40
1.0
 40
2.0
 40
2.0
 40
2.0
 40
3.0
 40
3.0
 40
3.0
 40
4.0
 40
4.0
 40
4.0
 40
4.0
 10
102.8143995992084
 20
-135.3870799661533
 30
0.0
 10
102.8143995992084
 20
-135.3319760772784
 30
0.0
 10
102.7695968225736
 20
-135.2875260772894
 30
0.0
 10
102.7144929350905
 20
-135.2875260772894
 30
0.0
 10
102.6593537698306
 20
-135.2875260772894
 30
0.0
 10
102.6145888632353
 20
-135.3319760772784
 30
0.0
 10
102.6145888632353
 20
-135.3870799661533
 30
0.0
 10
102.6145888632353
 20
-135.4422191328064
 30
0.0
 10
102.6593537698306
 20
-135.486986632795
 30
0.0
 10
102.7144929350905
 20
-135.486986632795
 30
0.0
 10
102.7695968225736
 20
-135.486986632795
 30
0.0
 10
102.8143995992084
 20
-135.4422191328064
 30
0.0
 10
102.8143995992084
 20
-135.3870799661533
 30
0.0
  0
SPLINE
  5
43
330
1F
100
AcDbEntity
  8
_U+30EC_U+30A4_U+30E4_U+30FC 1
 62
   179
420
  2234388
370
     9
100
AcDbSpline
210
0.0
220
0.0
230
1.0
 70
    11
 71
     3
 72
    17
 73
    13
 74
     0
 42
0.0000000001
 43
0.0000000001
 12
1.0
 22
0.0
 32
0.0
 13
1.0
 23
0.0
 33
0.0
 40
0.0
 40
0.0
 40
0.0
 40
0.0
 40
1.0
 40
1.0
 40
1.0
 40
2.0
 40
2.0
 40
2.0
 40
3.0
 40
3.0
 40
3.0
 40
4.0
 40
4.0
 40
4.0
 40
4.0
 10
102.8143995992084
 20
-122.3870071916256
 30
0.0
 10
102.8143995992084
 20
-122.3319033027504
 30
0.0
 10
102.7695968225736
 20
-122.2872769138726
 30
0.0
 10
102.7144929350905
 20
-122.2872769138726
 30
0.0
 10
102.6593537698306
 20
-122.2872769138726
 30
0.0
 10
102.6145888632353
 20
-122.3319033027504
 30
0.0
 10
102.6145888632353
 20
-122.3870071916256
 30
0.0
 10
102.6145888632353
 20
-122.4421463582784
 30
0.0
 10
102.6593537698306
 20
-122.4869138582673
 30
0.0
 10
102.7144929350905
 20
-122.4869138582673
 30
0.0
 10
102.7695968225736
 20
-122.4869138582673
 30
0.0
 10
102.8143995992084
 20
-122.4421463582784
 30
0.0
 10
102.8143995992084
 20
-122.3870071916256
 30
0.0
  0
SPLINE
  5
44
330
1F
100
AcDbEntity
  8
_U+30EC_U+30A4_U+30E4_U+30FC 1
 62
   179
420
  2234388
370
     9
100
AcDbSpline
210
0.0
220
0.0
230
1.0
 70
    11
 71
     3
 72
    17
 73
    13
 74
     0
 42
0.0000000001
 43
0.0000000001
 12
1.0
 22
0.0
 32
0.0
 13
1.0
 23
0.0
 33
0.0
 40
0.0
 40
0.0
 40
0.0
 40
0.0
 40
1.0
 40
1.0
 40
1.0
 40
2.0
 40
2.0
 40
2.0
 40
3.0
 40
3.0
 40
3.0
 40
4.0
 40
4.0
 40
4.0
 40
4.0
 10
102.8143995992084
 20
-120.3869688587921
 30
0.0
 10
102.8143995992084
 20
-120.3318296921393
 30
0.0
 10
102.7695968225736
 20
-120.2872385810393
 30
0.0
 10
102.7144929350905
 20
-120.2872385810393
 30
0.0
 10
102.6593537698306
 20
-120.2872385810393
 30
0.0
 10
102.6145888632353
 20
-120.3318296921393
 30
0.0
 10
102.6145888632353
 20
-120.3869688587921
 30
0.0
 10
102.6145888632353
 20
-120.4420727476673
 30
0.0
 10
102.6593537698306
 20
-120.4868755254337
 30
0.0
 10
102.7144929350905
 20
-120.4868755254337
 30
0.0
 10
102.7695968225736
 20
-120.4868755254337
 30
0.0
 10
102.8143995992084
 20
-120.4420727476673
 30
0.0
 10
102.8143995992084
 20
-120.3869688587921
 30
0.0
  0
SPLINE
  5
45
330
1F
100
AcDbEntity
  8
_U+30EC_U+30A4_U+30E4_U+30FC 1
 62
   179
420
  2234388
370
     9
100
AcDbSpline
210
0.0
220
0.0
230
1.0
 70
    11
 71
     3
 72
    17
 73
    13
 74
     0
 42
0.0000000001
 43
0.0000000001
 12
1.0
 22
0.0
 32
0.0
 13
1.0
 23
0.0
 33
0.0
 40
0.0
 40
0.0
 40
0.0
 40
0.0
 40
1.0
 40
1.0
 40
1.0
 40
2.0
 40
2.0
 40
2.0
 40
3.0
 40
3.0
 40
3.0
 40
4.0
 40
4.0
 40
4.0
 40
4.0
 10
100.3418507733994
 20
-140.3876344093472
 30
0.0
 10
100.3418507733994
 20
-140.3325305204723
 30
0.0
 10
100.2970479967647
 20
-140.2877277427056
 30
0.0
 10
100.2419441092816
 20
-140.2877277427056
 30
0.0
 10
100.1868049440217
 20
-140.2877277427056
 30
0.0
 10
100.1420374451638
 20
-140.3325305204723
 30
0.0
 10
100.1420374451638
 20
-140.3876344093472
 30
0.0
 10
100.1420374451638
 20
-140.4427735760003
 30
0.0
 10
100.1868049440217
 20
-140.4875410759895
 30
0.0
 10
100.2419441092816
 20
-140.4875410759895
 30
0.0
 10
100.2970479967647
 20
-140.4875410759895
 30
0.0
 10
100.3418507733994
 20
-140.4427735760003
 30
0.0
 10
100.3418507733994
 20
-140.3876344093472
 30
0.0
  0
SPLINE
  5
46
330
1F
100
AcDbEntity
  8
_U+30EC_U+30A4_U+30E4_U+30FC 1
 62
   179
420
  2234388
370
     9
100
AcDbSpline
210
0.0
220
0.0
230
1.0
 70
    11
 71
     3
 72
    17
 73
    13
 74
     0
 42
0.0000000001
 43
0.0000000001
 12
1.0
 22
0.0
 32
0.0
 13
1.0
 23
0.0
 33
0.0
 40
0.0
 40
0.0
 40
0.0
 40
0.0
 40
1.0
 40
1.0
 40
1.0
 40
2.0
 40
2.0
 40
2.0
 40
3.0
 40
3.0
 40
3.0
 40
4.0
 40
4.0
 40
4.0
 40
4.0
 10
75.34147807787876
 20
-140.3876344093472
 30
0.0
 10
75.34147807787876
 20
-140.3325305204723
 30
0.0
 10
75.29671057902088
 20
-140.2877277427056
 30
0.0
 10
75.24157141376092
 20
-140.2877277427056
 30
0.0
 10
75.18646942564797
 20
-140.2877277427056
 30
0.0
 10
75.14166664788125
 20
-140.3325305204723
 30
0.0
 10
75.14166664788125
 20
-140.3876344093472
 30
0.0
 10
75.14166664788125
 20
-140.4427735760003
 30
0.0
 10
75.18646942564797
 20
-140.4875410759895
 30
0.0
 10
75.24157141376092
 20
-140.4875410759895
 30
0.0
 10
75.29671057902088
 20
-140.4875410759895
 30
0.0
 10
75.34147807787876
 20
-140.4427735760003
 30
0.0
 10
75.34147807787876
 20
-140.3876344093472
 30
0.0
  0
SPLINE
  5
47
330
1F
100
AcDbEntity
  8
_U+30EC_U+30A4_U+30E4_U+30FC 1
 62
   179
420
  2234388
370
     9
100
AcDbSpline
210
0.0
220
0.0
230
1.0
 70
    11
 71
     3
 72
    17
 73
    13
 74
     0
 42
0.0000000001
 43
0.0000000001
 12
1.0
 22
0.0
 32
0.0
 13
1.0
 23
0.0
 33
0.0
 40
0.0
 40
0.0
 40
0.0
 40
0.0
 40
1.0
 40
1.0
 40
1.0
 40
2.0
 40
2.0
 40
2.0
 40
3.0
 40
3.0
 40
3.0
 40
4.0
 40
4.0
 40
4.0
 40
4.0
 10
95.34164923429856
 20
-117.9264849705185
 30
0.0
 10
95.34164923429856
 20
-117.8713458038654
 30
0.0
 10
95.29684645766379
 20
-117.8265783038768
 30
0.0
 10
95.24174257018072
 20
-117.8265783038768
 30
0.0
 10
95.18660340492077
 20
-117.8265783038768
 30
0.0
 10
95.14183590606288
 20
-117.8713458038654
 30
0.0
 10
95.14183590606288
 20
-117.9264849705185
 30
0.0
 10
95.14183590606288
 20
-117.9822944149489
 30
0.0
 10
95.18660340492077
 20
-118.0270619149378
 30
0.0
 10
95.24174257018072
 20
-118.0270619149378
 30
0.0
 10
95.29684645766379
 20
-118.0270619149378
 30
0.0
 10
95.34164923429856
 20
-117.9822944149489
 30
0.0
 10
95.34164923429856
 20
-117.9264849705185
 30
0.0
  0
SPLINE
  5
48
330
1F
100
AcDbEntity
  8
_U+30EC_U+30A4_U+30E4_U+30FC 1
 62
   179
420
  2234388
370
     9
100
AcDbSpline
210
0.0
220
0.0
230
1.0
 70
    11
 71
     3
 72
    17
 73
    13
 74
     0
 42
0.0000000001
 43
0.0000000001
 12
1.0
 22
0.0
 32
0.0
 13
1.0
 23
0.0
 33
0.0
 40
0.0
 40
0.0
 40
0.0
 40
0.0
 40
1.0
 40
1.0
 40
1.0
 40
2.0
 40
2.0
 40
2.0
 40
3.0
 40
3.0
 40
3.0
 40
4.0
 40
4.0
 40
4.0
 40
4.0
 10
80.34167961697966
 20
-117.9264849705185
 30
0.0
 10
80.34167961697966
 20
-117.8713458038654
 30
0.0
 10
80.29691211812177
 20
-117.8265783038768
 30
0.0
 10
80.24177497993968
 20
-117.8265783038768
 30
0.0
 10
80.18666906537875
 20
-117.8265783038768
 30
0.0
 10
80.14186628874398
 20
-117.8713458038654
 30
0.0
 10
80.14186628874398
 20
-117.9264849705185
 30
0.0
 10
80.14186628874398
 20
-117.9822944149489
 30
0.0
 10
80.18666906537875
 20
-118.0270619149378
 30
0.0
 10
80.24177497993968
 20
-118.0270619149378
 30
0.0
 10
80.29691211812177
 20
-118.0270619149378
 30
0.0
 10
80.34167961697966
 20
-117.9822944149489
 30
0.0
 10
80.34167961697966
 20
-117.9264849705185
 30
0.0
  0
POLYLINE
  5
49
330
1F
100
AcDbEntity
  8
_U+30EC_U+30A4_U+30E4_U+30FC 1
 62
   179
420
  2234388
370
     9
100
AcDb2dPolyline
 66
     1
 10
0.0
 20
0.0
 30
0.0
  0
VERTEX
  5
4A
330
49
100
AcDbEntity
  8
_U+30EC_U+30A4_U+30E4_U+30FC 1
 62
   179
420
  2234388
370
     9
100
AcDbVertex
100
AcDb2dVertex
 10
102.7144929350905
 20
-136.3885807992365
 30
0.0
  0
VERTEX
  5
4B
330
49
100
AcDbEntity
  8
_U+30EC_U+30A4_U+30E4_U+30FC 1
 62
   179
420
  2234388
370
     9
100
AcDbVertex
100
AcDb2dVertex
 10
102.7144929350905
 20
-120.3885210810138
 30
0.0
  0
SEQEND
  5
4C
330
49
100
AcDbEntity
  8
_U+30EC_U+30A4_U+30E4_U+30FC 1
 62
   179
420
  2234388
370
     9
  0
POLYLINE
  5
4D
330
1F
100
AcDbEntity
  8
_U+30EC_U+30A4_U+30E4_U+30FC 1
 62
   179
420
  2234388
370
     9
100
AcDb2dPolyline
 66
     1
 10
0.0
 20
0.0
 30
0.0
  0
VERTEX
  5
4E
330
4D
100
AcDbEntity
  8
_U+30EC_U+30A4_U+30E4_U+30FC 1
 62
   179
420
  2234388
370
     9
100
AcDbVertex
100
AcDb2dVertex
 10
101.2544515834504
 20
-136.387204965903
 30
0.0
  0
VERTEX
  5
4F
330
4D
100
AcDbEntity
  8
_U+30EC_U+30A4_U+30E4_U+30FC 1
 62
   179
420
  2234388
370
     9
100
AcDbVertex
100
AcDb2dVertex
 10
103.7149354095671
 20
-136.387204965903
 30
0.0
  0
SEQEND
  5
50
330
4D
100
AcDbEntity
  8
_U+30EC_U+30A4_U+30E4_U+30FC 1
 62
   179
420
  2234388
370
     9
  0
POLYLINE
  5
51
330
1F
100
AcDbEntity
  8
_U+30EC_U+30A4_U+30E4_U+30FC 1
 62
   179
420
  2234388
370
     9
100
AcDb2dPolyline
 66
     1
 10
0.0
 20
0.0
 30
0.0
  0
VERTEX
  5
52
330
51
100
AcDbEntity
  8
_U+30EC_U+30A4_U+30E4_U+30FC 1
 62
   179
420
  2234388
370
     9
100
AcDbVertex
100
AcDb2dVertex
 10
101.2544515834504
 20
-135.3870799661533
 30
0.0
  0
VERTEX
  5
53
330
51
100
AcDbEntity
  8
_U+30EC_U+30A4_U+30E4_U+30FC 1
 62
   179
420
  2234388
370
     9
100
AcDbVertex
100
AcDb2dVertex
 10
103.7149354095671
 20
-135.3870799661533
 30
0.0
  0
SEQEND
  5
54
330
51
100
AcDbEntity
  8
_U+30EC_U+30A4_U+30E4_U+30FC 1
 62
   179
420
  2234388
370
     9
  0
POLYLINE
  5
55
330
1F
100
AcDbEntity
  8
_U+30EC_U+30A4_U+30E4_U+30FC 1
 62
   179
420
  2234388
370
     9
100
AcDb2dPolyline
 66
     1
 10
0.0
 20
0.0
 30
0.0
  0
VERTEX
  5
56
330
55
100
AcDbEntity
  8
_U+30EC_U+30A4_U+30E4_U+30FC 1
 62
   179
420
  2234388
370
     9
100
AcDbVertex
100
AcDb2dVertex
 10
97.25433974105731
 20
-122.3870071916256
 30
0.0
  0
VERTEX
  5
57
330
55
100
AcDbEntity
  8
_U+30EC_U+30A4_U+30E4_U+30FC 1
 62
   179
420
  2234388
370
     9
100
AcDbVertex
100
AcDb2dVertex
 10
103.7149354095671
 20
-122.3870071916256
 30
0.0
  0
SEQEND
  5
58
330
55
100
AcDbEntity
  8
_U+30EC_U+30A4_U+30E4_U+30FC 1
 62
   179
420
  2234388
370
     9
  0
POLYLINE
  5
59
330
1F
100
AcDbEntity
  8
_U+30EC_U+30A4_U+30E4_U+30FC 1
 62
   179
420
  2234388
370
     9
100
AcDb2dPolyline
 66
     1
 10
0.0
 20
0.0
 30
0.0
  0
VERTEX
  5
5A
330
59
100
AcDbEntity
  8
_U+30EC_U+30A4_U+30E4_U+30FC 1
 62
   179
420
  2234388
370
     9
100
AcDbVertex
100
AcDb2dVertex
 10
97.25433974105731
 20
-120.3869688587921
 30
0.0
  0
VERTEX
  5
5B
330
59
100
AcDbEntity
  8
_U+30EC_U+30A4_U+30E4_U+30FC 1
 62
   179
420
  2234388
370
     9
100
AcDbVertex
100
AcDb2dVertex
 10
103.7149354095671
 20
-120.3869688587921
 30
0.0
  0
SEQEND
  5
5C
330
59
100
AcDbEntity
  8
_U+30EC_U+30A4_U+30E4_U+30FC 1
 62
   179
420
  2234388
370
     9
  0
INSERT
  5
5E
330
1F
100
AcDbEntity
  8
_U+30EC_U+30A4_U+30E4_U+30FC 1
100
AcDbBlockReference
  2
block 2
 10
0.0
 20
0.0
 30
0.0
  0
INSERT
  5
64
330
1F
100
AcDbEntity
  8
_U+30EC_U+30A4_U+30E4_U+30FC 1
100
AcDbBlockReference
  2
block 3
 10
0.0
 20
0.0
 30
0.0
  0
INSERT
  5
6C
330
1F
100
AcDbEntity
  8
_U+30EC_U+30A4_U+30E4_U+30FC 1
100
AcDbBlockReference
  2
block 4
 10
0.0
 20
0.0
 30
0.0
  0
POLYLINE
  5
71
330
1F
100
AcDbEntity
  8
_U+30EC_U+30A4_U+30E4_U+30FC 1
 62
   179
420
  2234388
370
     9
100
AcDb2dPolyline
 66
     1
 10
0.0
 20
0.0
 30
0.0
  0
VERTEX
  5
72
330
71
100
AcDbEntity
  8
_U+30EC_U+30A4_U+30E4_U+30FC 1
 62
   179
420
  2234388
370
     9
100
AcDbVertex
100
AcDb2dVertex
 10
75.24157141376092
 20
-140.3876344093472
 30
0.0
  0
VERTEX
  5
73
330
71
100
AcDbEntity
  8
_U+30EC_U+30A4_U+30E4_U+30FC 1
 62
   179
420
  2234388
370
     9
100
AcDbVertex
100
AcDb2dVertex
 10
100.2419441092816
 20
-140.3876344093472
 30
0.0
  0
SEQEND
  5
74
330
71
100
AcDbEntity
  8
_U+30EC_U+30A4_U+30E4_U+30FC 1
 62
   179
420
  2234388
370
     9
  0
POLYLINE
  5
75
330
1F
100
AcDbEntity
  8
_U+30EC_U+30A4_U+30E4_U+30FC 1
 62
   179
420
  2234388
370
     9
100
AcDb2dPolyline
 66
     1
 10
0.0
 20
0.0
 30
0.0
  0
VERTEX
  5
76
330
75
100
AcDbEntity
  8
_U+30EC_U+30A4_U+30E4_U+30FC 1
 62
   179
420
  2234388
370
     9
100
AcDbVertex
100
AcDb2dVertex
 10
75.24157141376092
 20
-138.9275930208235
 30
0.0
  0
VERTEX
  5
77
330
75
100
AcDbEntity
  8
_U+30EC_U+30A4_U+30E4_U+30FC 1
 62
   179
420
  2234388
370
     9
100
AcDbVertex
100
AcDb2dVertex
 10
75.24157141376092
 20
-141.3874066313198
 30
0.0
  0
SEQEND
  5
78
330
75
100
AcDbEntity
  8
_U+30EC_U+30A4_U+30E4_U+30FC 1
 62
   179
420
  2234388
370
     9
  0
POLYLINE
  5
79
330
1F
100
AcDbEntity
  8
_U+30EC_U+30A4_U+30E4_U+30FC 1
 62
   179
420
  2234388
370
     9
100
AcDb2dPolyline
 66
     1
 10
0.0
 20
0.0
 30
0.0
  0
VERTEX
  5
7A
330
79
100
AcDbEntity
  8
_U+30EC_U+30A4_U+30E4_U+30FC 1
 62
   179
420
  2234388
370
     9
100
AcDbVertex
100
AcDb2dVertex
 10
100.2419441092816
 20
-138.9275930208235
 30
0.0
  0
VERTEX
  5
7B
330
79
100
AcDbEntity
  8
_U+30EC_U+30A4_U+30E4_U+30FC 1
 62
   179
420
  2234388
370
     9
100
AcDbVertex
100
AcDb2dVertex
 10
100.2419441092816
 20
-141.3874066313198
 30
0.0
  0
SEQEND
  5
7C
330
79
100
AcDbEntity
  8
_U+30EC_U+30A4_U+30E4_U+30FC 1
 62
   179
420
  2234388
370
     9
  0
INSERT
  5
7E
330
1F
100
AcDbEntity
  8
_U+30EC_U+30A4_U+30E4_U+30FC 1
100
AcDbBlockReference
  2
block 5
 10
0.0
 20
0.0
 30
0.0
  0
POLYLINE
  5
85
330
1F
100
AcDbEntity
  8
_U+30EC_U+30A4_U+30E4_U+30FC 1
 62
   179
420
  2234388
370
     9
100
AcDb2dPolyline
 66
     1
 10
0.0
 20
0.0
 30
0.0
  0
VERTEX
  5
86
330
85
100
AcDbEntity
  8
_U+30EC_U+30A4_U+30E4_U+30FC 1
 62
   179
420
  2234388
370
     9
100
AcDbVertex
100
AcDb2dVertex
 10
95.24174257018072
 20
-117.9264849705185
 30
0.0
  0
VERTEX
  5
87
330
85
100
AcDbEntity
  8
_U+30EC_U+30A4_U+30E4_U+30FC 1
 62
   179
420
  2234388
370
     9
100
AcDbVertex
100
AcDb2dVertex
 10
80.24177497993968
 20
-117.9264849705185
 30
0.0
  0
SEQEND
  5
88
330
85
100
AcDbEntity
  8
_U+30EC_U+30A4_U+30E4_U+30FC 1
 62
   179
420
  2234388
370
     9
  0
POLYLINE
  5
89
330
1F
100
AcDbEntity
  8
_U+30EC_U+30A4_U+30E4_U+30FC 1
 62
   179
420
  2234388
370
     9
100
AcDb2dPolyline
 66
     1
 10
0.0
 20
0.0
 30
0.0
  0
VERTEX
  5
8A
330
89
100
AcDbEntity
  8
_U+30EC_U+30A4_U+30E4_U+30FC 1
 62
   179
420
  2234388
370
     9
100
AcDbVertex
100
AcDb2dVertex
 10
95.24174257018072
 20
-119.3866674701532
 30
0.0
  0
VERTEX
  5
8B
330
89
100
AcDbEntity
  8
_U+30EC_U+30A4_U+30E4_U+30FC 1
 62
   179
420
  2234388
370
     9
100
AcDbVertex
100
AcDb2dVertex
 10
95.24174257018072
 20
-116.9267127485463
 30
0.0
  0
SEQEND
  5
8C
330
89
100
AcDbEntity
  8
_U+30EC_U+30A4_U+30E4_U+30FC 1
 62
   179
420
  2234388
370
     9
  0
POLYLINE
  5
8D
330
1F
100
AcDbEntity
  8
_U+30EC_U+30A4_U+30E4_U+30FC 1
 62
   179
420
  2234388
370
     9
100
AcDb2dPolyline
 66
     1
 10
0.0
 20
0.0
 30
0.0
  0
VERTEX
  5
8E
330
8D
100
AcDbEntity
  8
_U+30EC_U+30A4_U+30E4_U+30FC 1
 62
   179
420
  2234388
370
     9
100
AcDbVertex
100
AcDb2dVertex
 10
80.24177497993968
 20
-119.3866674701532
 30
0.0
  0
VERTEX
  5
8F
330
8D
100
AcDbEntity
  8
_U+30EC_U+30A4_U+30E4_U+30FC 1
 62
   179
420
  2234388
370
     9
100
AcDbVertex
100
AcDb2dVertex
 10
80.24177497993968
 20
-116.9267127485463
 30
0.0
  0
SEQEND
  5
90
330
8D
100
AcDbEntity
  8
_U+30EC_U+30A4_U+30E4_U+30FC 1
 62
   179
420
  2234388
370
     9
  0
INSERT
  5
92
330
1F
100
AcDbEntity
  8
_U+30EC_U+30A4_U+30E4_U+30FC 1
100
AcDbBlockReference
  2
block 6
 10
0.0
 20
0.0
 30
0.0
  0
POLYLINE
  5
99
330
1F
100
AcDbEntity
  8
_U+30EC_U+30A4_U+30E4_U+30FC 1
 62
   179
420
  2234388
370
    25
100
AcDb2dPolyline
 66
     1
 10
0.0
 20
0.0
 30
0.0
  0
VERTEX
  5
9A
330
99
100
AcDbEntity
  8
_U+30EC_U+30A4_U+30E4_U+30FC 1
 62
   179
420
  2234388
370
    25
100
AcDbVertex
100
AcDb2dVertex
 10
100.2464243869451
 20
-136.387204965903
 30
0.0
  0
VERTEX
  5
9B
330
99
100
AcDbEntity
  8
_U+30EC_U+30A4_U+30E4_U+30FC 1
 62
   179
420
  2234388
370
    25
100
AcDbVertex
100
AcDb2dVertex
 10
75.23642085833677
 20
-136.387204965903
 30
0.0
  0
VERTEX
  5
9C
330
99
100
AcDbEntity
  8
_U+30EC_U+30A4_U+30E4_U+30FC 1
 62
   179
420
  2234388
370
    25
100
AcDbVertex
100
AcDb2dVertex
 10
75.23642085833677
 20
-135.3870799661533
 30
0.0
  0
VERTEX
  5
9D
330
99
100
AcDbEntity
  8
_U+30EC_U+30A4_U+30E4_U+30FC 1
 62
   179
420
  2234388
370
    25
100
AcDbVertex
100
AcDb2dVertex
 10
87.24151888539454
 20
-135.3870799661533
 30
0.0
  0
VERTEX
  5
9E
330
99
100
AcDbEntity
  8
_U+30EC_U+30A4_U+30E4_U+30FC 1
 62
   179
420
  2234388
370
    25
100
AcDbVertex
100
AcDb2dVertex
 10
87.24151888539454
 20
-121.3870938585421
 30
0.0
  0
VERTEX
  5
9F
330
99
100
AcDbEntity
  8
_U+30EC_U+30A4_U+30E4_U+30FC 1
 62
   179
420
  2234388
370
    25
100
AcDbVertex
100
AcDb2dVertex
 10
81.2415472019119
 20
-121.3870938585421
 30
0.0
  0
VERTEX
  5
A0
330
99
100
AcDbEntity
  8
_U+30EC_U+30A4_U+30E4_U+30FC 1
 62
   179
420
  2234388
370
    25
100
AcDbVertex
100
AcDb2dVertex
 10
81.2415472019119
 20
-122.3870071916256
 30
0.0
  0
VERTEX
  5
A1
330
99
100
AcDbEntity
  8
_U+30EC_U+30A4_U+30E4_U+30FC 1
 62
   179
420
  2234388
370
    25
100
AcDbVertex
100
AcDb2dVertex
 10
80.24177497993968
 20
-122.3870071916256
 30
0.0
  0
VERTEX
  5
A2
330
99
100
AcDbEntity
  8
_U+30EC_U+30A4_U+30E4_U+30FC 1
 62
   179
420
  2234388
370
    25
100
AcDbVertex
100
AcDb2dVertex
 10
80.24177497993968
 20
-120.3869688587921
 30
0.0
  0
VERTEX
  5
A3
330
99
100
AcDbEntity
  8
_U+30EC_U+30A4_U+30E4_U+30FC 1
 62
   179
420
  2234388
370
    25
100
AcDbVertex
100
AcDb2dVertex
 10
95.24174257018072
 20
-120.3869688587921
 30
0.0
  0
VERTEX
  5
A4
330
99
100
AcDbEntity
  8
_U+30EC_U+30A4_U+30E4_U+30FC 1
 62
   179
420
  2234388
370
    25
100
AcDbVertex
100
AcDb2dVertex
 10
95.24174257018072
 20
-122.3870071916256
 30
0.0
  0
VERTEX
  5
A5
330
99
100
AcDbEntity
  8
_U+30EC_U+30A4_U+30E4_U+30FC 1
 62
   179
420
  2234388
370
    25
100
AcDbVertex
100
AcDb2dVertex
 10
94.24126481792726
 20
-122.3870071916256
 30
0.0
  0
VERTEX
  5
A6
330
99
100
AcDbEntity
  8
_U+30EC_U+30A4_U+30E4_U+30FC 1
 62
   179
420
  2234388
370
    25
100
AcDbVertex
100
AcDb2dVertex
 10
94.24126481792726
 20
-121.3870938585421
 30
0.0
  0
VERTEX
  5
A7
330
99
100
AcDbEntity
  8
_U+30EC_U+30A4_U+30E4_U+30FC 1
 62
   179
420
  2234388
370
    25
100
AcDbVertex
100
AcDb2dVertex
 10
88.24129108211045
 20
-121.3870938585421
 30
0.0
  0
VERTEX
  5
A8
330
99
100
AcDbEntity
  8
_U+30EC_U+30A4_U+30E4_U+30FC 1
 62
   179
420
  2234388
370
    25
100
AcDbVertex
100
AcDb2dVertex
 10
88.24129108211045
 20
-135.3870799661533
 30
0.0
  0
VERTEX
  5
A9
330
99
100
AcDbEntity
  8
_U+30EC_U+30A4_U+30E4_U+30FC 1
 62
   179
420
  2234388
370
    25
100
AcDbVertex
100
AcDb2dVertex
 10
100.2464243869451
 20
-135.3870799661533
 30
0.0
  0
VERTEX
  5
AA
330
99
100
AcDbEntity
  8
_U+30EC_U+30A4_U+30E4_U+30FC 1
 62
   179
420
  2234388
370
    25
100
AcDbVertex
100
AcDb2dVertex
 10
100.2464243869451
 20
-136.387204965903
 30
0.0
  0
SEQEND
  5
AC
330
99
100
AcDbEntity
  8
_U+30EC_U+30A4_U+30E4_U+30FC 1
 62
   179
420
  2234388
370
    25
  0
HATCH
  5
AB
330
1F
100
AcDbEntity
  8
_U+30EC_U+30A4_U+30E4_U+30FC 1
 62
     9
420
 13224394
100
AcDbHatch
 10
0.0
 20
0.0
 30
0.0
210
0.0
220
0.0
230
1.0
  2
SOLID
 70
     1
 71
     0
 91
        1
 92
        1
 93
       16
 72
     1
 10
100.2464243869451
 20
-136.387204965903
 11
75.23642085833677
 21
-136.387204965903
 72
     1
 10
75.23642085833677
 20
-136.387204965903
 11
75.23642085833677
 21
-135.3870799661533
 72
     1
 10
75.23642085833677
 20
-135.3870799661533
 11
87.24151888539454
 21
-135.3870799661533
 72
     1
 10
87.24151888539454
 20
-135.3870799661533
 11
87.24151888539454
 21
-121.3870938585421
 72
     1
 10
87.24151888539454
 20
-121.3870938585421
 11
81.2415472019119
 21
-121.3870938585421
 72
     1
 10
81.2415472019119
 20
-121.3870938585421
 11
81.2415472019119
 21
-122.3870071916256
 72
     1
 10
81.2415472019119
 20
-122.3870071916256
 11
80.24177497993968
 21
-122.3870071916256
 72
     1
 10
80.24177497993968
 20
-122.3870071916256
 11
80.24177497993968
 21
-120.3869688587921
 72
     1
 10
80.24177497993968
 20
-120.3869688587921
 11
95.24174257018072
 21
-120.3869688587921
 72
     1
 10
95.24174257018072
 20
-120.3869688587921
 11
95.24174257018072
 21
-122.3870071916256
 72
     1
 10
95.24174257018072
 20
-122.3870071916256
 11
94.24126481792726
 21
-122.3870071916256
 72
     1
 10
94.24126481792726
 20
-122.3870071916256
 11
94.24126481792726
 21
-121.3870938585421
 72
     1
 10
94.24126481792726
 20
-121.3870938585421
 11
88.24129108211045
 21
-121.3870938585421
 72
     1
 10
88.24129108211045
 20
-121.3870938585421
 11
88.24129108211045
 21
-135.3870799661533
 72
     1
 10
88.24129108211045
 20
-135.3870799661533
 11
100.2464243869451
 21
-135.3870799661533
 72
     1
 10
100.2464243869451
 20
-135.3870799661533
 11
100.2464243869451
 21
-136.387204965903
 97
        0
 75
     2
 76
     1
 98
        0
  0
ENDSEC
  0
SECTION
  2
OBJECTS
  0
DICTIONARY
  5
C
330
0
100
AcDbDictionary
281
     1
  3
ACAD_GROUP
350
D
  3
ACAD_LAYOUT
350
1A
  3
ACAD_MATERIAL
350
3B
  3
ACAD_MLEADERSTYLE
350
AE
  3
ACAD_MLINESTYLE
350
17
  3
ACAD_PLOTSETTINGS
350
19
  3
ACAD_PLOTSTYLENAME
350
E
  3
ACAD_TABLESTYLE
350
AD
  3
ACAD_VISUALSTYLE
350
2A
  0
SUN
  5
3F
330
29
100
AcDbSun
 90
        1
290
     0
 63
     7
421
 16777215
 40
1.0
291
     1
 91
  2455826
 92
 54000000
292
     0
 70
     2
 71
   256
280
     1
  0
DICTIONARY
  5
D
102
{ACAD_REACTORS
330
C
102
}
330
C
100
AcDbDictionary
281
     1
  0
DICTIONARY
  5
1A
102
{ACAD_REACTORS
330
C
102
}
330
C
100
AcDbDictionary
281
     1
  3
Layout1
350
1E
  3
Layout2
350
26
  3
Model
350
22
  0
DICTIONARY
  5
3B
102
{ACAD_REACTORS
330
C
102
}
330
C
100
AcDbDictionary
281
     1
  3
ByBlock
350
3D
  3
ByLayer
350
3C
  3
Global
350
3E
  0
DICTIONARY
  5
AE
102
{ACAD_REACTORS
330
C
102
}
330
C
100
AcDbDictionary
281
     1
  0
DICTIONARY
  5
17
102
{ACAD_REACTORS
330
C
102
}
330
C
100
AcDbDictionary
281
     1
  3
Standard
350
18
  0
DICTIONARY
  5
19
102
{ACAD_REACTORS
330
C
102
}
330
C
100
AcDbDictionary
281
     1
  0
ACDBDICTIONARYWDFLT
  5
E
102
{ACAD_REACTORS
330
C
102
}
330
C
100
AcDbDictionary
281
     1
  3
Normal
350
F
100
AcDbDictionaryWithDefault
340
F
  0
DICTIONARY
  5
AD
102
{ACAD_REACTORS
330
C
102
}
330
C
100
AcDbDictionary
281
     1
  0
DICTIONARY
  5
2A
102
{ACAD_REACTORS
330
C
102
}
330
C
100
AcDbDictionary
281
     1
  3
2dWireframe
350
2F
  3
3D Hidden
350
31
  3
3dWireframe
350
30
  3
Basic
350
32
  3
Brighten
350
36
  3
ColorChange
350
3A
  3
Conceptual
350
34
  3
Dim
350
35
  3
Facepattern
350
39
  3
Flat
350
2B
  3
FlatWithEdges
350
2C
  3
Gouraud
350
2D
  3
GouraudWithEdges
350
2E
  3
Linepattern
350
38
  3
Realistic
350
33
  3
Thicken
350
37
  0
LAYOUT
  5
1E
102
{ACAD_REACTORS
330
1A
102
}
330
1A
100
AcDbPlotSettings
  1

  2
none_device
  4

  6

 40
0.0
 41
0.0
 42
0.0
 43
0.0
 44
0.0
 45
0.0
 46
0.0
 47
0.0
 48
0.0
 49
0.0
140
0.0
141
0.0
142
1.0
143
1.0
 70
   688
 72
     0
 73
     0
 74
     5
  7

 75
    16
 76
     0
 77
     2
 78
   300
147
1.0
148
0.0
149
0.0
100
AcDbLayout
  1
Layout1
 70
     1
 71
     1
 10
0.0
 20
0.0
 11
12.0
 21
9.0
 12
0.0
 22
0.0
 32
0.0
 14
1.000000000000000E+20
 24
1.000000000000000E+20
 34
1.000000000000000E+20
 15
-1.000000000000000E+20
 25
-1.000000000000000E+20
 35
-1.000000000000000E+20
146
0.0
 13
0.0
 23
0.0
 33
0.0
 16
1.0
 26
0.0
 36
0.0
 17
0.0
 27
1.0
 37
0.0
 76
     0
330
1B
  0
LAYOUT
  5
26
102
{ACAD_REACTORS
330
1A
102
}
330
1A
100
AcDbPlotSettings
  1

  2
none_device
  4

  6

 40
0.0
 41
0.0
 42
0.0
 43
0.0
 44
0.0
 45
0.0
 46
0.0
 47
0.0
 48
0.0
 49
0.0
140
0.0
141
0.0
142
1.0
143
1.0
 70
   688
 72
     0
 73
     0
 74
     5
  7

 75
    16
 76
     0
 77
     2
 78
   300
147
1.0
148
0.0
149
0.0
100
AcDbLayout
  1
Layout2
 70
     1
 71
     2
 10
0.0
 20
0.0
 11
0.0
 21
0.0
 12
0.0
 22
0.0
 32
0.0
 14
0.0
 24
0.0
 34
0.0
 15
0.0
 25
0.0
 35
0.0
146
0.0
 13
0.0
 23
0.0
 33
0.0
 16
1.0
 26
0.0
 36
0.0
 17
0.0
 27
1.0
 37
0.0
 76
     0
330
23
  0
LAYOUT
  5
22
102
{ACAD_REACTORS
330
1A
102
}
330
1A
100
AcDbPlotSettings
  1

  2
none_device
  4

  6

 40
0.0
 41
0.0
 42
0.0
 43
0.0
 44
0.0
 45
0.0
 46
0.0
 47
0.0
 48
0.0
 49
0.0
140
0.0
141
0.0
142
1.0
143
1.0
 70
  1712
 72
     0
 73
     0
 74
     0
  7

 75
     0
 76
     0
 77
     2
 78
   300
147
1.0
148
0.0
149
0.0
100
AcDbLayout
  1
Model
 70
     1
 71
     0
 10
0.0
 20
0.0
 11
12.0
 21
9.0
 12
0.0
 22
0.0
 32
0.0
 14
1.000000000000000E+20
 24
1.000000000000000E+20
 34
1.000000000000000E+20
 15
-1.000000000000000E+20
 25
-1.000000000000000E+20
 35
-1.000000000000000E+20
146
0.0
 13
0.0
 23
0.0
 33
0.0
 16
1.0
 26
0.0
 36
0.0
 17
0.0
 27
1.0
 37
0.0
 76
     0
330
1F
331
29
  0
MATERIAL
  5
3D
102
{ACAD_REACTORS
330
3B
102
}
330
3B
100
AcDbMaterial
  1
ByBlock
 72
     1
 94
      127
  0
MATERIAL
  5
3C
102
{ACAD_REACTORS
330
3B
102
}
330
3B
100
AcDbMaterial
  1
ByLayer
 72
     1
 94
      127
  0
MATERIAL
  5
3E
102
{ACAD_REACTORS
330
3B
102
}
330
3B
100
AcDbMaterial
  1
Global
 72
     1
 94
      127
  0
MLINESTYLE
  5
18
102
{ACAD_REACTORS
330
17
102
}
330
17
100
AcDbMlineStyle
  2
Standard
 70
     0
  3

 62
   256
 51
90.0
 52
90.0
 71
     2
 49
0.5
 62
   256
  6
BYLAYER
 49
-0.5
 62
   256
  6
BYLAYER
  0
ACDBPLACEHOLDER
  5
F
102
{ACAD_REACTORS
330
E
102
}
330
E
  0
VISUALSTYLE
  5
2F
102
{ACAD_REACTORS
330
2A
102
}
330
2A
100
AcDbVisualStyle
  2
2dWireframe
 70
     4
177
     2
291
     0
 71
     0
176
     1
 72
     2
176
     1
 73
     0
176
     1
 90
        0
176
     1
 40
-0.6
176
     1
 41
-30.0
176
     1
 62
     5
 63
     7
421
 16777215
176
     1
 74
     1
176
     1
 91
        4
176
     1
 64
     7
176
     1
 65
   257
176
     1
 75
     1
176
     1
175
     1
176
     1
 42
1.0
176
     1
 92
        0
176
     1
 66
   257
176
     1
 43
1.0
176
     1
 76
     1
176
     1
 77
     6
176
     1
 78
     2
176
     1
 67
     7
176
     1
 79
     5
176
     1
170
     0
176
     1
171
     0
176
     1
290
     0
176
     1
 93
        1
176
     1
 44
0.0
176
     1
173
     0
176
     1
  0
VISUALSTYLE
  5
31
102
{ACAD_REACTORS
330
2A
102
}
330
2A
100
AcDbVisualStyle
  2
3D Hidden
 70
     6
177
     2
291
     0
 71
     1
176
     1
 72
     2
176
     1
 73
     2
176
     1
 90
        0
176
     1
 40
-0.6
176
     1
 41
-30.0
176
     1
 62
     5
 63
     7
421
 16777215
176
     1
 74
     2
176
     1
 91
        2
176
     1
 64
     7
176
     1
 65
   257
176
     1
 75
     2
176
     1
175
     1
176
     1
 42
40.0
176
     1
 92
        0
176
     1
 66
   257
176
     1
 43
1.0
176
     1
 76
     1
176
     1
 77
     6
176
     1
 78
     2
176
     1
 67
     7
176
     1
 79
     3
176
     1
170
     0
176
     1
171
     0
176
     1
290
     0
176
     1
 93
        1
176
     1
 44
0.0
176
     1
173
     0
176
     1
  0
VISUALSTYLE
  5
30
102
{ACAD_REACTORS
330
2A
102
}
330
2A
100
AcDbVisualStyle
  2
3dWireframe
 70
     5
177
     2
291
     0
 71
     0
176
     1
 72
     2
176
     1
 73
     0
176
     1
 90
        0
176
     1
 40
-0.6
176
     1
 41
-30.0
176
     1
 62
     5
 63
     7
421
 16777215
176
     1
 74
     1
176
     1
 91
        4
176
     1
 64
     7
176
     1
 65
   257
176
     1
 75
     1
176
     1
175
     1
176
     1
 42
1.0
176
     1
 92
        0
176
     1
 66
   257
176
     1
 43
1.0
176
     1
 76
     1
176
     1
 77
     6
176
     1
 78
     2
176
     1
 67
     7
176
     1
 79
     5
176
     1
170
     0
176
     1
171
     0
176
     1
290
     0
176
     1
 93
        1
176
     1
 44
0.0
176
     1
173
     0
176
     1
  0
VISUALSTYLE
  5
32
102
{ACAD_REACTORS
330
2A
102
}
330
2A
100
AcDbVisualStyle
  2
Basic
 70
     7
177
     2
291
     1
 71
     1
176
     1
 72
     0
176
     1
 73
     1
176
     1
 90
        0
176
     1
 40
-0.6
176
     1
 41
-30.0
176
     1
 62
     5
 63
     7
421
 16777215
176
     1
 74
     0
176
     1
 91
        4
176
     1
 64
     7
176
     1
 65
   257
176
     1
 75
     1
176
     1
175
     1
176
     1
 42
1.0
176
     1
 92
        8
176
     1
 66
     7
176
     1
 43
1.0
176
     1
 76
     1
176
     1
 77
     6
176
     1
 78
     2
176
     1
 67
     7
176
     1
 79
     5
176
     1
170
     0
176
     1
171
     0
176
     1
290
     0
176
     1
 93
        1
176
     1
 44
0.0
176
     1
173
     0
176
     1
  0
VISUALSTYLE
  5
36
102
{ACAD_REACTORS
330
2A
102
}
330
2A
100
AcDbVisualStyle
  2
Brighten
 70
    12
177
     2
291
     1
 71
     2
176
     1
 72
     2
176
     1
 73
     0
176
     1
 90
        0
176
     1
 40
-0.6
176
     1
 41
-30.0
176
     1
 62
     5
 63
     7
421
 16777215
176
     1
 74
     1
176
     1
 91
        4
176
     1
 64
     7
176
     1
 65
   257
176
     1
 75
     1
176
     1
175
     1
176
     1
 42
1.0
176
     1
 92
        8
176
     1
 66
     7
176
     1
 43
1.0
176
     1
 76
     1
176
     1
 77
     6
176
     1
 78
     2
176
     1
 67
     7
176
     1
 79
     5
176
     1
170
     0
176
     1
171
     0
176
     1
290
     0
176
     1
 93
        1
176
     1
 44
50.0
176
     1
173
     0
176
     1
  0
VISUALSTYLE
  5
3A
102
{ACAD_REACTORS
330
2A
102
}
330
2A
100
AcDbVisualStyle
  2
ColorChange
 70
    16
177
     2
291
     1
 71
     2
176
     1
 72
     2
176
     1
 73
     3
176
     1
 90
        0
176
     1
 40
-0.6
176
     1
 41
-30.0
176
     1
 62
     5
 63
     8
421
  8421504
176
     1
 74
     1
176
     1
 91
        4
176
     1
 64
     7
176
     1
 65
   257
176
     1
 75
     1
176
     1
175
     1
176
     1
 42
1.0
176
     1
 92
        8
176
     1
 66
     8
424
  8421504
176
     1
 43
1.0
176
     1
 76
     1
176
     1
 77
     6
176
     1
 78
     2
176
     1
 67
     7
176
     1
 79
     5
176
     1
170
     0
176
     1
171
     0
176
     1
290
     0
176
     1
 93
        1
176
     1
 44
0.0
176
     1
173
     0
176
     1
  0
VISUALSTYLE
  5
34
102
{ACAD_REACTORS
330
2A
102
}
330
2A
100
AcDbVisualStyle
  2
Conceptual
 70
     9
177
     2
291
     0
 71
     3
176
     1
 72
     2
176
     1
 73
     0
176
     1
 90
        0
176
     1
 40
-0.6
176
     1
 41
-30.0
176
     1
 62
     5
 63
     7
421
 16777215
176
     1
 74
     2
176
     1
 91
        2
176
     1
 64
     7
176
     1
 65
   257
176
     1
 75
     1
176
     1
175
     1
176
     1
 42
40.0
176
     1
 92
        8
176
     1
 66
     7
176
     1
 43
1.0
176
     1
 76
     1
176
     1
 77
     6
176
     1
 78
     2
176
     1
 67
     7
176
     1
 79
     3
176
     1
170
     0
176
     1
171
     0
176
     1
290
     0
176
     1
 93
        1
176
     1
 44
0.0
176
     1
173
     0
176
     1
  0
VISUALSTYLE
  5
35
102
{ACAD_REACTORS
330
2A
102
}
330
2A
100
AcDbVisualStyle
  2
Dim
 70
    11
177
     2
291
     1
 71
     2
176
     1
 72
     2
176
     1
 73
     0
176
     1
 90
        0
176
     1
 40
-0.6
176
     1
 41
-30.0
176
     1
 62
     5
 63
     7
421
 16777215
176
     1
 74
     1
176
     1
 91
        4
176
     1
 64
     7
176
     1
 65
   257
176
     1
 75
     1
176
     1
175
     1
176
     1
 42
1.0
176
     1
 92
        8
176
     1
 66
     7
176
     1
 43
1.0
176
     1
 76
     1
176
     1
 77
     6
176
     1
 78
     2
176
     1
 67
     7
176
     1
 79
     5
176
     1
170
     0
176
     1
171
     0
176
     1
290
     0
176
     1
 93
        1
176
     1
 44
-50.0
176
     1
173
     0
176
     1
  0
VISUALSTYLE
  5
39
102
{ACAD_REACTORS
330
2A
102
}
330
2A
100
AcDbVisualStyle
  2
Facepattern
 70
    15
177
     2
291
     1
 71
     2
176
     1
 72
     2
176
     1
 73
     0
176
     1
 90
        0
176
     1
 40
-0.6
176
     1
 41
-30.0
176
     1
 62
     5
 63
     7
421
 16777215
176
     1
 74
     1
176
     1
 91
        4
176
     1
 64
     7
176
     1
 65
   257
176
     1
 75
     1
176
     1
175
     1
176
     1
 42
1.0
176
     1
 92
        8
176
     1
 66
     7
176
     1
 43
1.0
176
     1
 76
     1
176
     1
 77
     6
176
     1
 78
     2
176
     1
 67
     7
176
     1
 79
     5
176
     1
170
     0
176
     1
171
     0
176
     1
290
     0
176
     1
 93
        1
176
     1
 44
0.0
176
     1
173
     0
176
     1
  0
VISUALSTYLE
  5
2B
102
{ACAD_REACTORS
330
2A
102
}
330
2A
100
AcDbVisualStyle
  2
Flat
 70
     0
177
     2
291
     1
 71
     2
176
     1
 72
     1
176
     1
 73
     1
176
     1
 90
        2
176
     1
 40
-0.6
176
     1
 41
30.0
176
     1
 62
     5
 63
     7
421
 16777215
176
     1
 74
     0
176
     1
 91
        4
176
     1
 64
     7
176
     1
 65
   257
176
     1
 75
     1
176
     1
175
     1
176
     1
 42
1.0
176
     1
 92
        8
176
     1
 66
     7
176
     1
 43
1.0
176
     1
 76
     1
176
     1
 77
     6
176
     1
 78
     2
176
     1
 67
     7
176
     1
 79
     5
176
     1
170
     0
176
     1
171
     0
176
     1
290
     0
176
     1
 93
       13
176
     1
 44
0.0
176
     1
173
     0
176
     1
  0
VISUALSTYLE
  5
2C
102
{ACAD_REACTORS
330
2A
102
}
330
2A
100
AcDbVisualStyle
  2
FlatWithEdges
 70
     1
177
     2
291
     1
 71
     2
176
     1
 72
     1
176
     1
 73
     1
176
     1
 90
        2
176
     1
 40
-0.6
176
     1
 41
30.0
176
     1
 62
     5
 63
     7
421
 16777215
176
     1
 74
     1
176
     1
 91
        4
176
     1
 64
     7
176
     1
 65
   257
176
     1
 75
     1
176
     1
175
     1
176
     1
 42
1.0
176
     1
 92
        0
176
     1
 66
   257
176
     1
 43
1.0
176
     1
 76
     1
176
     1
 77
     6
176
     1
 78
     2
176
     1
 67
     7
176
     1
 79
     5
176
     1
170
     0
176
     1
171
     0
176
     1
290
     0
176
     1
 93
       13
176
     1
 44
0.0
176
     1
173
     0
176
     1
  0
VISUALSTYLE
  5
2D
102
{ACAD_REACTORS
330
2A
102
}
330
2A
100
AcDbVisualStyle
  2
Gouraud
 70
     2
177
     2
291
     1
 71
     2
176
     1
 72
     2
176
     1
 73
     1
176
     1
 90
        2
176
     1
 40
-0.6
176
     1
 41
30.0
176
     1
 62
     5
 63
     7
421
 16777215
176
     1
 74
     0
176
     1
 91
        4
176
     1
 64
     7
176
     1
 65
   257
176
     1
 75
     1
176
     1
175
     1
176
     1
 42
1.0
176
     1
 92
        0
176
     1
 66
     7
176
     1
 43
1.0
176
     1
 76
     1
176
     1
 77
     6
176
     1
 78
     2
176
     1
 67
     7
176
     1
 79
     5
176
     1
170
     0
176
     1
171
     0
176
     1
290
     0
176
     1
 93
       13
176
     1
 44
0.0
176
     1
173
     0
176
     1
  0
VISUALSTYLE
  5
2E
102
{ACAD_REACTORS
330
2A
102
}
330
2A
100
AcDbVisualStyle
  2
GouraudWithEdges
 70
     3
177
     2
291
     1
 71
     2
176
     1
 72
     2
176
     1
 73
     1
176
     1
 90
        2
176
     1
 40
-0.6
176
     1
 41
30.0
176
     1
 62
     5
 63
     7
421
 16777215
176
     1
 74
     1
176
     1
 91
        4
176
     1
 64
     7
176
     1
 65
   257
176
     1
 75
     1
176
     1
175
     1
176
     1
 42
1.0
176
     1
 92
        0
176
     1
 66
   257
176
     1
 43
1.0
176
     1
 76
     1
176
     1
 77
     6
176
     1
 78
     2
176
     1
 67
     7
176
     1
 79
     5
176
     1
170
     0
176
     1
171
     0
176
     1
290
     0
176
     1
 93
       13
176
     1
 44
0.0
176
     1
173
     0
176
     1
  0
VISUALSTYLE
  5
38
102
{ACAD_REACTORS
330
2A
102
}
330
2A
100
AcDbVisualStyle
  2
Linepattern
 70
    14
177
     2
291
     1
 71
     2
176
     1
 72
     2
176
     1
 73
     0
176
     1
 90
        0
176
     1
 40
-0.6
176
     1
 41
-30.0
176
     1
 62
     5
 63
     7
421
 16777215
176
     1
 74
     1
176
     1
 91
        4
176
     1
 64
     7
176
     1
 65
   257
176
     1
 75
     7
176
     1
175
     7
176
     1
 42
1.0
176
     1
 92
        8
176
     1
 66
     7
176
     1
 43
1.0
176
     1
 76
     1
176
     1
 77
     6
176
     1
 78
     2
176
     1
 67
     7
176
     1
 79
     5
176
     1
170
     0
176
     1
171
     0
176
     1
290
     0
176
     1
 93
        1
176
     1
 44
0.0
176
     1
173
     0
176
     1
  0
VISUALSTYLE
  5
33
102
{ACAD_REACTORS
330
2A
102
}
330
2A
100
AcDbVisualStyle
  2
Realistic
 70
     8
177
     2
291
     0
 71
     2
176
     1
 72
     2
176
     1
 73
     0
176
     1
 90
        0
176
     1
 40
-0.6
176
     1
 41
-30.0
176
     1
 62
     5
 63
     7
421
 16777215
176
     1
 74
     1
176
     1
 91
        0
176
     1
 64
     7
176
     1
 65
   257
176
     1
 75
     1
176
     1
175
     1
176
     1
 42
1.0
176
     1
 92
        8
176
     1
 66
     8
424
  7895160
176
     1
 43
1.0
176
     1
 76
     1
176
     1
 77
     6
176
     1
 78
     2
176
     1
 67
     7
176
     1
 79
     5
176
     1
170
     0
176
     1
171
     0
176
     1
290
     0
176
     1
 93
       13
176
     1
 44
0.0
176
     1
173
     0
176
     1
  0
VISUALSTYLE
  5
37
102
{ACAD_REACTORS
330
2A
102
}
330
2A
100
AcDbVisualStyle
  2
Thicken
 70
    13
177
     2
291
     1
 71
     2
176
     1
 72
     2
176
     1
 73
     0
176
     1
 90
        0
176
     1
 40
-0.6
176
     1
 41
-30.0
176
     1
 62
     5
 63
     7
421
 16777215
176
     1
 74
     1
176
     1
 91
        4
176
     1
 64
     7
176
     1
 65
   257
176
     1
 75
     1
176
     1
175
     1
176
     1
 42
1.0
176
     1
 92
       12
176
     1
 66
     7
176
     1
 43
1.0
176
     1
 76
     1
176
     1
 77
     6
176
     1
 78
     2
176
     1
 67
     7
176
     1
 79
     5
176
     1
170
     0
176
     1
171
     0
176
     1
290
     0
176
     1
 93
        1
176
     1
 44
0.0
176
     1
173
     0
176
     1
  0
ENDSEC
  0
EOF
