  0
SECTION
  2
HEADER
  9
$ACADVER
  1
AC1024
  9
$ACADMAINTVER
 70
     6
  9
$DWGCODEPAGE
  3
UNDEFINED
  9
$INSBASE
 10
0.0
 20
0.0
 30
0.0
  9
$EXTMIN
 10
1.000000000000000E+20
 20
1.000000000000000E+20
 30
1.000000000000000E+20
  9
$EXTMAX
 10
-1.000000000000000E+20
 20
-1.000000000000000E+20
 30
-1.000000000000000E+20
  9
$LIMMIN
 10
0.0
 20
0.0
  9
$LIMMAX
 10
12.0
 20
9.0
  9
$ORTHOMODE
 70
     0
  9
$REGENMODE
 70
     1
  9
$FILLMODE
 70
     1
  9
$QTEXTMODE
 70
     0
  9
$MIRRTEXT
 70
     1
  9
$LTSCALE
 40
1.0
  9
$ATTMODE
 70
     1
  9
$TEXTSIZE
 40
0.2
  9
$TRACEWID
 40
0.05
  9
$TEXTSTYLE
  7
Standard
  9
$CLAYER
  8
0
  9
$CELTYPE
  6
ByLayer
  9
$CECOLOR
 62
   256
  9
$CELTSCALE
 40
1.0
  9
$DISPSILH
 70
     0
  9
$DIMSCALE
 40
1.0
  9
$DIMASZ
 40
0.18
  9
$DIMEXO
 40
0.0625
  9
$DIMDLI
 40
0.38
  9
$DIMRND
 40
0.0
  9
$DIMDLE
 40
0.0
  9
$DIMEXE
 40
0.18
  9
$DIMTP
 40
0.0
  9
$DIMTM
 40
0.0
  9
$DIMTXT
 40
0.18
  9
$DIMCEN
 40
0.09
  9
$DIMTSZ
 40
0.0
  9
$DIMTOL
 70
     0
  9
$DIMLIM
 70
     0
  9
$DIMTIH
 70
     1
  9
$DIMTOH
 70
     1
  9
$DIMSE1
 70
     0
  9
$DIMSE2
 70
     0
  9
$DIMTAD
 70
     0
  9
$DIMZIN
 70
     0
  9
$DIMBLK
  1

  9
$DIMASO
 70
     1
  9
$DIMSHO
 70
     1
  9
$DIMPOST
  1

  9
$DIMAPOST
  1

  9
$DIMALT
 70
     0
  9
$DIMALTD
 70
     2
  9
$DIMALTF
 40
25.4
  9
$DIMLFAC
 40
1.0
  9
$DIMTOFL
 70
     0
  9
$DIMTVP
 40
0.0
  9
$DIMTIX
 70
     0
  9
$DIMSOXD
 70
     0
  9
$DIMSAH
 70
     0
  9
$DIMBLK1
  1

  9
$DIMBLK2
  1

  9
$DIMSTYLE
  2
Standard
  9
$DIMCLRD
 70
     0
  9
$DIMCLRE
 70
     0
  9
$DIMCLRT
 70
     0
  9
$DIMTFAC
 40
1.0
  9
$DIMGAP
 40
0.09
  9
$DIMJUST
 70
     0
  9
$DIMSD1
 70
     0
  9
$DIMSD2
 70
     0
  9
$DIMTOLJ
 70
     1
  9
$DIMTZIN
 70
     0
  9
$DIMALTZ
 70
     0
  9
$DIMALTTZ
 70
     0
  9
$DIMUPT
 70
     0
  9
$DIMDEC
 70
     4
  9
$DIMTDEC
 70
     4
  9
$DIMALTU
 70
     2
  9
$DIMALTTD
 70
     2
  9
$DIMTXSTY
  7
Standard
  9
$DIMAUNIT
 70
     0
  9
$DIMADEC
 70
     0
  9
$DIMALTRND
 40
0.0
  9
$DIMAZIN
 70
     0
  9
$DIMDSEP
 70
    46
  9
$DIMATFIT
 70
     3
  9
$DIMFRAC
 70
     0
  9
$DIMLDRBLK
  1

  9
$DIMLUNIT
 70
     2
  9
$DIMLWD
 70
    -2
  9
$DIMLWE
 70
    -2
  9
$DIMTMOVE
 70
     0
  9
$DIMFXL
 40
1.0
  9
$DIMFXLON
 70
     0
  9
$DIMJOGANG
 40
0.7853981633974483
  9
$DIMTFILL
 70
     0
  9
$DIMTFILLCLR
 70
     0
  9
$DIMARCSYM
 70
     0
  9
$DIMLTYPE
  6

  9
$DIMLTEX1
  6

  9
$DIMLTEX2
  6

  9
$DIMTXTDIRECTION
 70
     0
  9
$LUNITS
 70
     2
  9
$LUPREC
 70
     4
  9
$SKETCHINC
 40
0.1
  9
$FILLETRAD
 40
0.5
  9
$AUNITS
 70
     0
  9
$AUPREC
 70
     0
  9
$MENU
  1
.
  9
$ELEVATION
 40
0.0
  9
$PELEVATION
 40
0.0
  9
$THICKNESS
 40
0.0
  9
$LIMCHECK
 70
     0
  9
$CHAMFERA
 40
0.5
  9
$CHAMFERB
 40
0.5
  9
$CHAMFERC
 40
1.0
  9
$CHAMFERD
 40
0.0
  9
$SKPOLY
 70
     0
  9
$TDCREATE
 40
2457917.621875
  9
$TDUCREATE
 40
2457917.246875
  9
$TDUPDATE
 40
2457917.621875
  9
$TDUUPDATE
 40
2457917.246875
  9
$TDINDWG
 40
0.0000000116
  9
$TDUSRTIMER
 40
0.0000000116
  9
$USRTIMER
 70
     1
  9
$ANGBASE
 50
0.0
  9
$ANGDIR
 70
     0
  9
$PDMODE
 70
     0
  9
$PDSIZE
 40
0.0
  9
$PLINEWID
 40
0.0
  9
$SPLFRAME
 70
     0
  9
$SPLINETYPE
 70
     6
  9
$SPLINESEGS
 70
     8
  9
$HANDSEED
  5
B0
  9
$SURFTAB1
 70
     6
  9
$SURFTAB2
 70
     6
  9
$SURFTYPE
 70
     6
  9
$SURFU
 70
     6
  9
$SURFV
 70
     6
  9
$UCSBASE
  2

  9
$UCSNAME
  2

  9
$UCSORG
 10
0.0
 20
0.0
 30
0.0
  9
$UCSXDIR
 10
1.0
 20
0.0
 30
0.0
  9
$UCSYDIR
 10
0.0
 20
1.0
 30
0.0
  9
$UCSORTHOREF
  2

  9
$UCSORTHOVIEW
 70
     0
  9
$UCSORGTOP
 10
0.0
 20
0.0
 30
0.0
  9
$UCSORGBOTTOM
 10
0.0
 20
0.0
 30
0.0
  9
$UCSORGLEFT
 10
0.0
 20
0.0
 30
0.0
  9
$UCSORGRIGHT
 10
0.0
 20
0.0
 30
0.0
  9
$UCSORGFRONT
 10
0.0
 20
0.0
 30
0.0
  9
$UCSORGBACK
 10
0.0
 20
0.0
 30
0.0
  9
$PUCSBASE
  2

  9
$PUCSNAME
  2

  9
$PUCSORG
 10
0.0
 20
0.0
 30
0.0
  9
$PUCSXDIR
 10
1.0
 20
0.0
 30
0.0
  9
$PUCSYDIR
 10
0.0
 20
1.0
 30
0.0
  9
$PUCSORTHOREF
  2

  9
$PUCSORTHOVIEW
 70
     0
  9
$PUCSORGTOP
 10
0.0
 20
0.0
 30
0.0
  9
$PUCSORGBOTTOM
 10
0.0
 20
0.0
 30
0.0
  9
$PUCSORGLEFT
 10
0.0
 20
0.0
 30
0.0
  9
$PUCSORGRIGHT
 10
0.0
 20
0.0
 30
0.0
  9
$PUCSORGFRONT
 10
0.0
 20
0.0
 30
0.0
  9
$PUCSORGBACK
 10
0.0
 20
0.0
 30
0.0
  9
$USERI1
 70
     0
  9
$USERI2
 70
     0
  9
$USERI3
 70
     0
  9
$USERI4
 70
     0
  9
$USERI5
 70
     0
  9
$USERR1
 40
0.0
  9
$USERR2
 40
0.0
  9
$USERR3
 40
0.0
  9
$USERR4
 40
0.0
  9
$USERR5
 40
0.0
  9
$WORLDVIEW
 70
     1
  9
$SHADEDGE
 70
     3
  9
$SHADEDIF
 70
    70
  9
$TILEMODE
 70
     1
  9
$MAXACTVP
 70
    64
  9
$PINSBASE
 10
0.0
 20
0.0
 30
0.0
  9
$PLIMCHECK
 70
     0
  9
$PEXTMIN
 10
1.000000000000000E+20
 20
1.000000000000000E+20
 30
1.000000000000000E+20
  9
$PEXTMAX
 10
-1.000000000000000E+20
 20
-1.000000000000000E+20
 30
-1.000000000000000E+20
  9
$PLIMMIN
 10
0.0
 20
0.0
  9
$PLIMMAX
 10
12.0
 20
9.0
  9
$UNITMODE
 70
     0
  9
$VISRETAIN
 70
     1
  9
$PLINEGEN
 70
     0
  9
$PSLTSCALE
 70
     1
  9
$TREEDEPTH
 70
  3020
  9
$CMLSTYLE
  2
Standard
  9
$CMLJUST
 70
     0
  9
$CMLSCALE
 40
1.0
  9
$PROXYGRAPHICS
 70
     1
  9
$MEASUREMENT
 70
     0
  9
$CELWEIGHT
370
    -1
  9
$ENDCAPS
280
     0
  9
$JOINSTYLE
280
     0
  9
$LWDISPLAY
290
     1
  9
$INSUNITS
 70
     1
  9
$HYPERLINKBASE
  1

  9
$STYLESHEET
  1

  9
$XEDIT
290
     1
  9
$CEPSNTYPE
380
     0
  9
$PSTYLEMODE
290
     1
  9
$FINGERPRINTGUID
  2
{81253BE1-F1AA-27A1-699E-D0F7A6A159C4}
  9
$VERSIONGUID
  2
{FAEB1C32-E019-11D5-929B-00C0DF256EC4}
  9
$EXTNAMES
290
     1
  9
$PSVPSCALE
 40
0.0
  9
$OLESTARTUP
290
     0
  9
$SORTENTS
280
   127
  9
$INDEXCTL
280
     0
  9
$HIDETEXT
280
     1
  9
$XCLIPFRAME
280
     2
  9
$HALOGAP
280
     0
  9
$OBSCOLOR
 70
   257
  9
$OBSLTYPE
280
     0
  9
$INTERSECTIONDISPLAY
280
     0
  9
$INTERSECTIONCOLOR
 70
   257
  9
$DIMASSOC
280
     2
  9
$PROJECTNAME
  1

  9
$CAMERADISPLAY
290
     0
  9
$LENSLENGTH
 40
50.0
  9
$CAMERAHEIGHT
 40
0.0
  9
$STEPSPERSEC
 40
2.0
  9
$STEPSIZE
 40
6.0
  9
$3DDWFPREC
 40
2.0
  9
$PSOLWIDTH
 40
0.25
  9
$PSOLHEIGHT
 40
4.0
  9
$LOFTANG1
 40
1.570796326794897
  9
$LOFTANG2
 40
1.570796326794897
  9
$LOFTMAG1
 40
0.0
  9
$LOFTMAG2
 40
0.0
  9
$LOFTPARAM
 70
     7
  9
$LOFTNORMALS
280
     1
  9
$LATITUDE
 40
37.795
  9
$LONGITUDE
 40
-122.394
  9
$NORTHDIRECTION
 40
0.0
  9
$TIMEZONE
 70
 -8000
  9
$LIGHTGLYPHDISPLAY
280
     1
  9
$TILEMODELIGHTSYNCH
280
     1
  9
$CMATERIAL
347
3C
  9
$SOLIDHIST
280
     1
  9
$SHOWHIST
280
     1
  9
$DWFFRAME
280
     2
  9
$DGNFRAME
280
     2
  9
$REALWORLDSCALE
290
     1
  9
$INTERFERECOLOR
 62
   256
  9
$CSHADOW
280
     0
  9
$SHADOWPLANELOCATION
 40
0.0
  0
ENDSEC
  0
SECTION
  2
CLASSES
  0
CLASS
  1
ACDBDICTIONARYWDFLT
  2
AcDbDictionaryWithDefault
  3
ObjectDBX Classes
 90
        0
 91
        4
280
     0
281
     0
  0
CLASS
  1
VISUALSTYLE
  2
AcDbVisualStyle
  3
ObjectDBX Classes
 90
     4095
 91
        4
280
     0
281
     0
  0
CLASS
  1
MATERIAL
  2
AcDbMaterial
  3
ObjectDBX Classes
 90
     1153
 91
        4
280
     0
281
     0
  0
CLASS
  1
SUN
  2
AcDbSun
  3
SCENEOE
 90
     1024
 91
        4
280
     0
281
     0
  0
ENDSEC
  0
SECTION
  2
TABLES
  0
TABLE
  2
VPORT
  5
8
330
0
100
AcDbSymbolTable
 70
     1
  0
VPORT
  5
29
330
8
100
AcDbSymbolTableRecord
100
AcDbViewportTableRecord
  2
*Active
 70
     0
 10
0.0
 20
0.0
 11
1.0
 21
1.0
 12
0.0
 22
0.0
 13
0.0
 23
0.0
 14
0.5
 24
0.5
 15
0.5
 25
0.5
 16
0.0
 26
0.0
 36
1.0
 17
91.00082462281999
 27
-128.4993055234307
 37
0.0
 40
256.9986110468615
 41
0.7081814508812795
 42
50.0
 43
0.0
 44
0.0
 50
0.0
 51
0.0
 71
     0
 72
   100
 73
     1
 74
     3
 75
     0
 76
     0
 77
     0
 78
     0
281
     0
 65
     1
110
0.0
120
0.0
130
0.0
111
1.0
121
0.0
131
0.0
112
0.0
122
1.0
132
0.0
 79
     0
146
0.0
 60
     3
 61
     5
292
     1
282
     1
141
0.0
142
0.0
 63
   250
361
3F
  0
ENDTAB
  0
TABLE
  2
LTYPE
  5
5
330
0
100
AcDbSymbolTable
 70
     1
  0
LTYPE
  5
14
330
5
100
AcDbSymbolTableRecord
100
AcDbLinetypeTableRecord
  2
ByBlock
 70
     0
  3

 72
    65
 73
     0
 40
0.0
  0
LTYPE
  5
15
330
5
100
AcDbSymbolTableRecord
100
AcDbLinetypeTableRecord
  2
ByLayer
 70
     0
  3

 72
    65
 73
     0
 40
0.0
  0
LTYPE
  5
16
330
5
100
AcDbSymbolTableRecord
100
AcDbLinetypeTableRecord
  2
Continuous
 70
     0
  3
Solid line
 72
    65
 73
     0
 40
0.0
  0
ENDTAB
  0
TABLE
  2
LAYER
  5
2
330
0
100
AcDbSymbolTable
 70
     2
  0
LAYER
  5
10
330
2
100
AcDbSymbolTableRecord
100
AcDbLayerTableRecord
  2
0
 70
     0
 62
     7
  6
Continuous
370
    -3
390
F
347
3E
  0
LAYER
  5
40
330
2
100
AcDbSymbolTableRecord
100
AcDbLayerTableRecord
  2
_U+30EC_U+30A4_U+30E4_U+30FC 1
 70
     0
 62
     7
  6
Continuous
370
    -3
390
F
347
3E
  0
ENDTAB
  0
TABLE
  2
STYLE
  5
3
330
0
100
AcDbSymbolTable
 70
     1
  0
STYLE
  5
11
330
3
100
AcDbSymbolTableRecord
100
AcDbTextStyleTableRecord
  2
Standard
 70
     0
 40
0.0
 41
1.0
 50
0.0
 71
     0
 42
0.2
  3
txt
  4

  0
ENDTAB
  0
TABLE
  2
VIEW
  5
6
330
0
100
AcDbSymbolTable
 70
     0
  0
ENDTAB
  0
TABLE
  2
UCS
  5
7
330
0
100
AcDbSymbolTable
 70
     0
  0
ENDTAB
  0
TABLE
  2
APPID
  5
9
330
0
100
AcDbSymbolTable
 70
     1
  0
APPID
  5
12
330
9
100
AcDbSymbolTableRecord
100
AcDbRegAppTableRecord
  2
ACAD
 70
     0
  0
ENDTAB
  0
TABLE
  2
DIMSTYLE
  5
A
330
0
100
AcDbSymbolTable
 70
     1
100
AcDbDimStyleTable
  0
DIMSTYLE
105
27
330
A
100
AcDbSymbolTableRecord
100
AcDbDimStyleTableRecord
  2
Standard
 70
     0
178
     0
340
11
  0
ENDTAB
  0
TABLE
  2
BLOCK_RECORD
  5
1
330
0
100
AcDbSymbolTable
 70
     6
  0
BLOCK_RECORD
  5
1F
330
1
100
AcDbSymbolTableRecord
100
AcDbBlockTableRecord
  2
*Model_Space
340
22
 70
     0
280
     1
281
     0
  0
BLOCK_RECORD
  5
1B
330
1
100
AcDbSymbolTableRecord
100
AcDbBlockTableRecord
  2
*Paper_Space
340
1E
 70
     0
280
     1
281
     0
  0
BLOCK_RECORD
  5
23
330
1
100
AcDbSymbolTableRecord
100
AcDbBlockTableRecord
  2
*Paper_Space0
340
26
 70
     0
280
     1
281
     0
  0
BLOCK_RECORD
  5
5D
330
1
100
AcDbSymbolTableRecord
100
AcDbBlockTableRecord
  2
block 2
340
0
102
{BLKREFS
331
5E
102
}
 70
     0
280
     1
281
     0
  0
BLOCK_RECORD
  5
63
330
1
100
AcDbSymbolTableRecord
100
AcDbBlockTableRecord
  2
block 3
340
0
102
{BLKREFS
331
64
102
}
 70
     0
280
     1
281
     0
  0
BLOCK_RECORD
  5
6C
330
1
100
AcDbSymbolTableRecord
100
AcDbBlockTableRecord
  2
block 4
340
0
102
{BLKREFS
331
6D
102
}
 70
     0
280
     1
281
     0
  0
BLOCK_RECORD
  5
7E
330
1
100
AcDbSymbolTableRecord
100
AcDbBlockTableRecord
  2
block 5
340
0
102
{BLKREFS
331
7F
102
}
 70
     0
280
     1
281
     0
  0
BLOCK_RECORD
  5
92
330
1
100
AcDbSymbolTableRecord
100
AcDbBlockTableRecord
  2
block 6
340
0
102
{BLKREFS
331
93
102
}
 70
     0
280
     1
281
     0
  0
ENDTAB
  0
ENDSEC
  0
SECTION
  2
BLOCKS
  0
BLOCK
  5
20
330
1F
100
AcDbEntity
  8
0
100
AcDbBlockBegin
  2
*Model_Space
 70
     0
 10
0.0
 20
0.0
 30
0.0
  3
*Model_Space
  1

  0
ENDBLK
  5
21
330
1F
100
AcDbEntity
  8
0
100
AcDbBlockEnd
  0
BLOCK
  5
1C
330
1B
100
AcDbEntity
 67
     1
  8
0
100
AcDbBlockBegin
  2
*Paper_Space
 70
     0
 10
0.0
 20
0.0
 30
0.0
  3
*Paper_Space
  1

  0
ENDBLK
  5
1D
330
1B
100
AcDbEntity
 67
     1
  8
0
100
AcDbBlockEnd
  0
BLOCK
  5
24
330
23
100
AcDbEntity
  8
0
100
AcDbBlockBegin
  2
*Paper_Space0
 70
     0
 10
0.0
 20
0.0
 30
0.0
  3
*Paper_Space0
  1

  0
ENDBLK
  5
25
330
23
100
AcDbEntity
  8
0
100
AcDbBlockEnd
  0
BLOCK
  5
5F
330
5D
100
AcDbEntity
  8
0
100
AcDbBlockBegin
  2
block 2
 70
     0
 10
0.0
 20
0.0
 30
0.0
  3
block 2
  1

  0
SPLINE
  5
61
330
5D
100
AcDbEntity
  8
_U+30EC_U+30A4_U+30E4_U+30FC 1
370
     0
100
AcDbSpline
210
0.0
220
0.0
230
1.0
 70
    11
 71
     3
 72
    26
 73
    22
 74
     0
 42
0.0000000001
 43
0.0000000001
 12
1.0
 22
0.0
 32
0.0
 13
1.0
 23
0.0
 33
0.0
 40
0.0
 40
0.0
 40
0.0
 40
0.0
 40
1.0
 40
1.0
 40
1.0
 40
2.0
 40
2.0
 40
2.0
 40
3.0
 40
3.0
 40
3.0
 40
4.0
 40
4.0
 40
4.0
 40
5.0
 40
5.0
 40
5.0
 40
6.0
 40
6.0
 40
6.0
 40
7.0
 40
7.0
 40
7.0
 40
7.0
 10
106.1051513406612
 20
-134.7177028743067
 30
0.0
 10
106.1051513406612
 20
-134.7177028743067
 30
0.0
 10
105.0009982376386
 20
-134.7177028743067
 30
0.0
 10
105.0009982376386
 20
-134.7177028743067
 30
0.0
 10
105.0009982376386
 20
-134.7177028743067
 30
0.0
 10
105.0009982376386
 20
-135.0477430217936
 30
0.0
 10
105.0009982376386
 20
-135.0477430217936
 30
0.0
 10
105.0009982376386
 20
-135.0477430217936
 30
0.0
 10
104.8528591317729
 20
-135.0477430217936
 30
0.0
 10
104.8528591317729
 20
-135.0477430217936
 30
0.0
 10
104.8380452211863
 20
-134.7156358170155
 30
0.0
 10
104.675092204734
 20
-134.6691270279647
 30
0.0
 10
104.5607150346237
 20
-134.6394992067915
 30
0.0
 10
104.5607150346237
 20
-134.6394992067915
 30
0.0
 10
104.5607150346237
 20
-134.4934271582169
 30
0.0
 10
104.5607150346237
 20
-134.4934271582169
 30
0.0
 10
104.5607150346237
 20
-134.4934271582169
 30
0.0
 10
106.1051513406612
 20
-134.4934271582169
 30
0.0
 10
106.1051513406612
 20
-134.4934271582169
 30
0.0
 10
106.1051513406612
 20
-134.4934271582169
 30
0.0
 10
106.1051513406612
 20
-134.7177028743067
 30
0.0
 10
106.1051513406612
 20
-134.7177028743067
 30
0.0
  0
HATCH
  5
62
330
5D
100
AcDbEntity
  8
_U+30EC_U+30A4_U+30E4_U+30FC 1
 62
   179
420
  2234388
100
AcDbHatch
 10
0.0
 20
0.0
 30
0.0
210
0.0
220
0.0
230
1.0
  2
SOLID
 70
     1
 71
     0
 91
        1
 92
        1
 93
        1
 72
     4
 94
        3
 73
     0
 74
     1
 95
       26
 96
       22
 40
0.0
 40
0.0
 40
0.0
 40
0.0
 40
1.0
 40
1.0
 40
1.0
 40
2.0
 40
2.0
 40
2.0
 40
3.0
 40
3.0
 40
3.0
 40
4.0
 40
4.0
 40
4.0
 40
5.0
 40
5.0
 40
5.0
 40
6.0
 40
6.0
 40
6.0
 40
7.0
 40
7.0
 40
7.0
 40
7.0
 10
106.1051513406612
 20
-134.7177028743067
 10
106.1051513406612
 20
-134.7177028743067
 10
105.0009982376386
 20
-134.7177028743067
 10
105.0009982376386
 20
-134.7177028743067
 10
105.0009982376386
 20
-134.7177028743067
 10
105.0009982376386
 20
-135.0477430217936
 10
105.0009982376386
 20
-135.0477430217936
 10
105.0009982376386
 20
-135.0477430217936
 10
104.8528591317729
 20
-135.0477430217936
 10
104.8528591317729
 20
-135.0477430217936
 10
104.8380452211863
 20
-134.7156358170155
 10
104.675092204734
 20
-134.6691270279647
 10
104.5607150346237
 20
-134.6394992067915
 10
104.5607150346237
 20
-134.6394992067915
 10
104.5607150346237
 20
-134.4934271582169
 10
104.5607150346237
 20
-134.4934271582169
 10
104.5607150346237
 20
-134.4934271582169
 10
106.1051513406612
 20
-134.4934271582169
 10
106.1051513406612
 20
-134.4934271582169
 10
106.1051513406612
 20
-134.4934271582169
 10
106.1051513406612
 20
-134.7177028743067
 10
106.1051513406612
 20
-134.7177028743067
 97
        0
 97
        0
 75
     2
 76
     1
 98
        0
  0
ENDBLK
  5
60
330
5D
100
AcDbEntity
  8
0
100
AcDbBlockEnd
  0
BLOCK
  5
65
330
63
100
AcDbEntity
  8
0
100
AcDbBlockBegin
  2
block 3
 70
     0
 10
0.0
 20
0.0
 30
0.0
  3
block 3
  1

  0
SPLINE
  5
67
330
63
100
AcDbEntity
  8
_U+30EC_U+30A4_U+30E4_U+30FC 1
370
     0
100
AcDbSpline
210
0.0
220
0.0
230
1.0
 70
    11
 71
     3
 72
    26
 73
    22
 74
     0
 42
0.0000000001
 43
0.0000000001
 12
1.0
 22
0.0
 32
0.0
 13
1.0
 23
0.0
 33
0.0
 40
0.0
 40
0.0
 40
0.0
 40
0.0
 40
1.0
 40
1.0
 40
1.0
 40
2.0
 40
2.0
 40
2.0
 40
3.0
 40
3.0
 40
3.0
 40
4.0
 40
4.0
 40
4.0
 40
5.0
 40
5.0
 40
5.0
 40
6.0
 40
6.0
 40
6.0
 40
7.0
 40
7.0
 40
7.0
 40
7.0
 10
106.1051513406612
 20
-129.6430772245337
 30
0.0
 10
106.1051513406612
 20
-129.6430772245337
 30
0.0
 10
105.0009982376386
 20
-129.6430772245337
 30
0.0
 10
105.0009982376386
 20
-129.6430772245337
 30
0.0
 10
105.0009982376386
 20
-129.6430772245337
 30
0.0
 10
105.0009982376386
 20
-129.9731173720206
 30
0.0
 10
105.0009982376386
 20
-129.9731173720206
 30
0.0
 10
105.0009982376386
 20
-129.9731173720206
 30
0.0
 10
104.8528591317729
 20
-129.9731173720206
 30
0.0
 10
104.8528591317729
 20
-129.9731173720206
 30
0.0
 10
104.8380452211863
 20
-129.6410101672425
 30
0.0
 10
104.675092204734
 20
-129.5945013781917
 30
0.0
 10
104.5607150346237
 20
-129.5648735570185
 30
0.0
 10
104.5607150346237
 20
-129.5648735570185
 30
0.0
 10
104.5607150346237
 20
-129.4188015084439
 30
0.0
 10
104.5607150346237
 20
-129.4188015084439
 30
0.0
 10
104.5607150346237
 20
-129.4188015084439
 30
0.0
 10
106.1051513406612
 20
-129.4188015084439
 30
0.0
 10
106.1051513406612
 20
-129.4188015084439
 30
0.0
 10
106.1051513406612
 20
-129.4188015084439
 30
0.0
 10
106.1051513406612
 20
-129.6430772245337
 30
0.0
 10
106.1051513406612
 20
-129.6430772245337
 30
0.0
  0
HATCH
  5
68
330
63
100
AcDbEntity
  8
_U+30EC_U+30A4_U+30E4_U+30FC 1
 62
   179
420
  2234388
100
AcDbHatch
 10
0.0
 20
0.0
 30
0.0
210
0.0
220
0.0
230
1.0
  2
SOLID
 70
     1
 71
     0
 91
        1
 92
        1
 93
        1
 72
     4
 94
        3
 73
     0
 74
     1
 95
       26
 96
       22
 40
0.0
 40
0.0
 40
0.0
 40
0.0
 40
1.0
 40
1.0
 40
1.0
 40
2.0
 40
2.0
 40
2.0
 40
3.0
 40
3.0
 40
3.0
 40
4.0
 40
4.0
 40
4.0
 40
5.0
 40
5.0
 40
5.0
 40
6.0
 40
6.0
 40
6.0
 40
7.0
 40
7.0
 40
7.0
 40
7.0
 10
106.1051513406612
 20
-129.6430772245337
 10
106.1051513406612
 20
-129.6430772245337
 10
105.0009982376386
 20
-129.6430772245337
 10
105.0009982376386
 20
-129.6430772245337
 10
105.0009982376386
 20
-129.6430772245337
 10
105.0009982376386
 20
-129.9731173720206
 10
105.0009982376386
 20
-129.9731173720206
 10
105.0009982376386
 20
-129.9731173720206
 10
104.8528591317729
 20
-129.9731173720206
 10
104.8528591317729
 20
-129.9731173720206
 10
104.8380452211863
 20
-129.6410101672425
 10
104.675092204734
 20
-129.5945013781917
 10
104.5607150346237
 20
-129.5648735570185
 10
104.5607150346237
 20
-129.5648735570185
 10
104.5607150346237
 20
-129.4188015084439
 10
104.5607150346237
 20
-129.4188015084439
 10
104.5607150346237
 20
-129.4188015084439
 10
106.1051513406612
 20
-129.4188015084439
 10
106.1051513406612
 20
-129.4188015084439
 10
106.1051513406612
 20
-129.4188015084439
 10
106.1051513406612
 20
-129.6430772245337
 10
106.1051513406612
 20
-129.6430772245337
 97
        0
 97
        0
 75
     2
 76
     1
 98
        0
  0
SPLINE
  5
69
330
63
100
AcDbEntity
  8
_U+30EC_U+30A4_U+30E4_U+30FC 1
370
     0
100
AcDbSpline
210
0.0
220
0.0
230
1.0
 70
    11
 71
     3
 72
    29
 73
    25
 74
     0
 42
0.0000000001
 43
0.0000000001
 12
1.0
 22
0.0
 32
0.0
 13
1.0
 23
0.0
 33
0.0
 40
0.0
 40
0.0
 40
0.0
 40
0.0
 40
1.0
 40
1.0
 40
1.0
 40
2.0
 40
2.0
 40
2.0
 40
3.0
 40
3.0
 40
3.0
 40
4.0
 40
4.0
 40
4.0
 40
5.0
 40
5.0
 40
5.0
 40
6.0
 40
6.0
 40
6.0
 40
7.0
 40
7.0
 40
7.0
 40
8.0
 40
8.0
 40
8.0
 40
8.0
 10
105.9273844136223
 20
-128.019748231884
 30
0.0
 10
106.1368462191255
 20
-128.1279242301208
 30
0.0
 10
106.1557942442944
 20
-128.3012125330289
 30
0.0
 10
106.1557942442944
 20
-128.4176567604303
 30
0.0
 10
106.1557942442944
 20
-128.5785427195915
 30
0.0
 10
106.1092854552435
 20
-128.7201361440353
 30
0.0
 10
105.9273844136223
 20
-128.8152207794281
 30
0.0
 10
105.7327365187057
 20
-128.9189181535342
 30
0.0
 10
105.496058458869
 20
-128.9382106882516
 30
0.0
 10
105.3331054424167
 20
-128.9382106882516
 30
0.0
 10
105.1891004511333
 20
-128.9382106882516
 30
0.0
 10
104.9372639711615
 20
-128.9209852108253
 30
0.0
 10
104.7384819616626
 20
-128.8152207794281
 30
0.0
 10
104.5355658375814
 20
-128.7073892907398
 30
0.0
 10
104.5121391882817
 20
-128.5465033315787
 30
0.0
 10
104.5121391882817
 20
-128.4176567604303
 30
0.0
 10
104.5121391882817
 20
-128.2588378585603
 30
0.0
 10
104.5565809200414
 20
-128.1151773768254
 30
0.0
 10
104.7384819616626
 20
-128.019748231884
 30
0.0
 10
104.9310627992881
 20
-127.9205294819088
 30
0.0
 10
105.1594726299601
 20
-127.8971028326091
 30
0.0
 10
105.3331054424167
 20
-127.8971028326091
 30
0.0
 10
105.5043266880336
 20
-127.8971028326091
 30
0.0
 10
105.7348035759969
 20
-127.9184624246176
 30
0.0
 10
105.9273844136223
 20
-128.019748231884
 30
0.0
  0
SPLINE
  5
6A
330
63
100
AcDbEntity
  8
_U+30EC_U+30A4_U+30E4_U+30FC 1
370
     0
100
AcDbSpline
210
0.0
220
0.0
230
1.0
 70
    11
 71
     3
 72
    17
 73
    13
 74
     0
 42
0.0000000001
 43
0.0000000001
 12
1.0
 22
0.0
 32
0.0
 13
1.0
 23
0.0
 33
0.0
 40
0.0
 40
0.0
 40
0.0
 40
0.0
 40
1.0
 40
1.0
 40
1.0
 40
2.0
 40
2.0
 40
2.0
 40
3.0
 40
3.0
 40
3.0
 40
4.0
 40
4.0
 40
4.0
 40
4.0
 10
104.7047200259072
 20
-128.4176567604303
 30
0.0
 10
104.7047200259072
 20
-128.6674261831109
 30
0.0
 10
104.9882513843432
 20
-128.7139349721618
 30
0.0
 10
105.3331054424167
 20
-128.7139349721618
 30
0.0
 10
105.6524657938994
 20
-128.7139349721618
 30
0.0
 10
105.9611463493778
 20
-128.6777614695667
 30
0.0
 10
105.9611463493778
 20
-128.4176567604303
 30
0.0
 10
105.9611463493778
 20
-128.1699543950409
 30
0.0
 10
105.6800265577814
 20
-128.1213785486988
 30
0.0
 10
105.3331054424167
 20
-128.1213785486988
 30
0.0
 10
105.0134005813855
 20
-128.1213785486988
 30
0.0
 10
104.7047200259072
 20
-128.1596191085851
 30
0.0
 10
104.7047200259072
 20
-128.4176567604303
 30
0.0
  0
HATCH
  5
6B
330
63
100
AcDbEntity
  8
_U+30EC_U+30A4_U+30E4_U+30FC 1
 62
   179
420
  2234388
100
AcDbHatch
 10
0.0
 20
0.0
 30
0.0
210
0.0
220
0.0
230
1.0
  2
SOLID
 70
     1
 71
     0
 91
        2
 92
        1
 93
        1
 72
     4
 94
        3
 73
     0
 74
     1
 95
       29
 96
       25
 40
0.0
 40
0.0
 40
0.0
 40
0.0
 40
1.0
 40
1.0
 40
1.0
 40
2.0
 40
2.0
 40
2.0
 40
3.0
 40
3.0
 40
3.0
 40
4.0
 40
4.0
 40
4.0
 40
5.0
 40
5.0
 40
5.0
 40
6.0
 40
6.0
 40
6.0
 40
7.0
 40
7.0
 40
7.0
 40
8.0
 40
8.0
 40
8.0
 40
8.0
 10
105.9273844136223
 20
-128.019748231884
 10
106.1368462191255
 20
-128.1279242301208
 10
106.1557942442944
 20
-128.3012125330289
 10
106.1557942442944
 20
-128.4176567604303
 10
106.1557942442944
 20
-128.5785427195915
 10
106.1092854552435
 20
-128.7201361440353
 10
105.9273844136223
 20
-128.8152207794281
 10
105.7327365187057
 20
-128.9189181535342
 10
105.496058458869
 20
-128.9382106882516
 10
105.3331054424167
 20
-128.9382106882516
 10
105.1891004511333
 20
-128.9382106882516
 10
104.9372639711615
 20
-128.9209852108253
 10
104.7384819616626
 20
-128.8152207794281
 10
104.5355658375814
 20
-128.7073892907398
 10
104.5121391882817
 20
-128.5465033315787
 10
104.5121391882817
 20
-128.4176567604303
 10
104.5121391882817
 20
-128.2588378585603
 10
104.5565809200414
 20
-128.1151773768254
 10
104.7384819616626
 20
-128.019748231884
 10
104.9310627992881
 20
-127.9205294819088
 10
105.1594726299601
 20
-127.8971028326091
 10
105.3331054424167
 20
-127.8971028326091
 10
105.5043266880336
 20
-127.8971028326091
 10
105.7348035759969
 20
-127.9184624246176
 10
105.9273844136223
 20
-128.019748231884
 97
        0
 97
        0
 92
        1
 93
        1
 72
     4
 94
        3
 73
     0
 74
     1
 95
       17
 96
       13
 40
0.0
 40
0.0
 40
0.0
 40
0.0
 40
1.0
 40
1.0
 40
1.0
 40
2.0
 40
2.0
 40
2.0
 40
3.0
 40
3.0
 40
3.0
 40
4.0
 40
4.0
 40
4.0
 40
4.0
 10
104.7047200259072
 20
-128.4176567604303
 10
104.7047200259072
 20
-128.6674261831109
 10
104.9882513843432
 20
-128.7139349721618
 10
105.3331054424167
 20
-128.7139349721618
 10
105.6524657938994
 20
-128.7139349721618
 10
105.9611463493778
 20
-128.6777614695667
 10
105.9611463493778
 20
-128.4176567604303
 10
105.9611463493778
 20
-128.1699543950409
 10
105.6800265577814
 20
-128.1213785486988
 10
105.3331054424167
 20
-128.1213785486988
 10
105.0134005813855
 20
-128.1213785486988
 10
104.7047200259072
 20
-128.1596191085851
 10
104.7047200259072
 20
-128.4176567604303
 97
        0
 97
        0
 75
     2
 76
     1
 98
        0
  0
ENDBLK
  5
66
330
63
100
AcDbEntity
  8
0
100
AcDbBlockEnd
  0
BLOCK
  5
6E
330
6C
100
AcDbEntity
  8
0
100
AcDbBlockBegin
  2
block 4
 70
     0
 10
0.0
 20
0.0
 30
0.0
  3
block 4
  1

  0
SPLINE
  5
70
330
6C
100
AcDbEntity
  8
_U+30EC_U+30A4_U+30E4_U+30FC 1
370
     0
100
AcDbSpline
210
0.0
220
0.0
230
1.0
 70
    11
 71
     3
 72
    44
 73
    40
 74
     0
 42
0.0000000001
 43
0.0000000001
 12
1.0
 22
0.0
 32
0.0
 13
1.0
 23
0.0
 33
0.0
 40
0.0
 40
0.0
 40
0.0
 40
0.0
 40
1.0
 40
1.0
 40
1.0
 40
2.0
 40
2.0
 40
2.0
 40
3.0
 40
3.0
 40
3.0
 40
4.0
 40
4.0
 40
4.0
 40
5.0
 40
5.0
 40
5.0
 40
6.0
 40
6.0
 40
6.0
 40
7.0
 40
7.0
 40
7.0
 40
8.0
 40
8.0
 40
8.0
 40
9.0
 40
9.0
 40
9.0
 40
10.0
 40
10.0
 40
10.0
 40
11.0
 40
11.0
 40
11.0
 40
12.0
 40
12.0
 40
12.0
 40
13.0
 40
13.0
 40
13.0
 40
13.0
 10
105.5232747132025
 20
-122.9764729510267
 30
0.0
 10
105.6820936150725
 20
-123.1942029856945
 30
0.0
 10
105.7561631680054
 20
-123.2872205637963
 30
0.0
 10
105.8998236497403
 20
-123.3361409196868
 30
0.0
 10
105.8998236497403
 20
-123.3361409196868
 30
0.0
 10
105.8998236497403
 20
-122.5575493400203
 30
0.0
 10
105.8998236497403
 20
-122.5575493400203
 30
0.0
 10
105.8998236497403
 20
-122.5575493400203
 30
0.0
 10
106.1051513406612
 20
-122.5575493400203
 30
0.0
 10
106.1051513406612
 20
-122.5575493400203
 30
0.0
 10
106.1051513406612
 20
-122.5575493400203
 30
0.0
 10
106.1051513406612
 20
-123.5855658328189
 30
0.0
 10
106.1051513406612
 20
-123.5855658328189
 30
0.0
 10
105.7475504292923
 20
-123.5538709543546
 30
0.0
 10
105.6693467617771
 20
-123.4884141401349
 30
0.0
 10
105.3710014927545
 20
-123.1032524648839
 30
0.0
 10
105.1722194832556
 20
-122.8472818703299
 30
0.0
 10
105.1043511021961
 20
-122.7818250561101
 30
0.0
 10
104.9668917923347
 20
-122.7818250561101
 30
0.0
 10
104.8483805076421
 20
-122.7818250561101
 30
0.0
 10
104.7174668792026
 20
-122.8538275517518
 30
0.0
 10
104.7174668792026
 20
-123.0505425039596
 30
0.0
 10
104.7174668792026
 20
-123.310647213096
 30
0.0
 10
104.9479437671658
 20
-123.3192599518091
 30
0.0
 10
105.0643879945672
 20
-123.3233940663914
 30
0.0
 10
105.0643879945672
 20
-123.3233940663914
 30
0.0
 10
105.0643879945672
 20
-123.5476697824811
 30
0.0
 10
105.0643879945672
 20
-123.5476697824811
 30
0.0
 10
104.9372639711615
 20
-123.539057043768
 30
0.0
 10
104.8252983678909
 20
-123.5283772477637
 30
0.0
 10
104.7067870831983
 20
-123.4481065229574
 30
0.0
 10
104.5459011240371
 20
-123.338207976978
 30
0.0
 10
104.5121391882817
 20
-123.1518283112259
 30
0.0
 10
104.5121391882817
 20
-123.035728593373
 30
0.0
 10
104.5121391882817
 20
-122.7583984068104
 30
0.0
 10
104.696107287194
 20
-122.5510036585984
 30
0.0
 10
104.9689588496258
 20
-122.5510036585984
 30
0.0
 10
105.1977131898464
 20
-122.5510036585984
 30
0.0
 10
105.2969319398216
 20
-122.6674478859998
 30
0.0
 10
105.5232747132025
 20
-122.9764729510267
 30
0.0
  0
HATCH
  5
71
330
6C
100
AcDbEntity
  8
_U+30EC_U+30A4_U+30E4_U+30FC 1
 62
   179
420
  2234388
100
AcDbHatch
 10
0.0
 20
0.0
 30
0.0
210
0.0
220
0.0
230
1.0
  2
SOLID
 70
     1
 71
     0
 91
        1
 92
        1
 93
        1
 72
     4
 94
        3
 73
     0
 74
     1
 95
       44
 96
       40
 40
0.0
 40
0.0
 40
0.0
 40
0.0
 40
1.0
 40
1.0
 40
1.0
 40
2.0
 40
2.0
 40
2.0
 40
3.0
 40
3.0
 40
3.0
 40
4.0
 40
4.0
 40
4.0
 40
5.0
 40
5.0
 40
5.0
 40
6.0
 40
6.0
 40
6.0
 40
7.0
 40
7.0
 40
7.0
 40
8.0
 40
8.0
 40
8.0
 40
9.0
 40
9.0
 40
9.0
 40
10.0
 40
10.0
 40
10.0
 40
11.0
 40
11.0
 40
11.0
 40
12.0
 40
12.0
 40
12.0
 40
13.0
 40
13.0
 40
13.0
 40
13.0
 10
105.5232747132025
 20
-122.9764729510267
 10
105.6820936150725
 20
-123.1942029856945
 10
105.7561631680054
 20
-123.2872205637963
 10
105.8998236497403
 20
-123.3361409196868
 10
105.8998236497403
 20
-123.3361409196868
 10
105.8998236497403
 20
-122.5575493400203
 10
105.8998236497403
 20
-122.5575493400203
 10
105.8998236497403
 20
-122.5575493400203
 10
106.1051513406612
 20
-122.5575493400203
 10
106.1051513406612
 20
-122.5575493400203
 10
106.1051513406612
 20
-122.5575493400203
 10
106.1051513406612
 20
-123.5855658328189
 10
106.1051513406612
 20
-123.5855658328189
 10
105.7475504292923
 20
-123.5538709543546
 10
105.6693467617771
 20
-123.4884141401349
 10
105.3710014927545
 20
-123.1032524648839
 10
105.1722194832556
 20
-122.8472818703299
 10
105.1043511021961
 20
-122.7818250561101
 10
104.9668917923347
 20
-122.7818250561101
 10
104.8483805076421
 20
-122.7818250561101
 10
104.7174668792026
 20
-122.8538275517518
 10
104.7174668792026
 20
-123.0505425039596
 10
104.7174668792026
 20
-123.310647213096
 10
104.9479437671658
 20
-123.3192599518091
 10
105.0643879945672
 20
-123.3233940663914
 10
105.0643879945672
 20
-123.3233940663914
 10
105.0643879945672
 20
-123.5476697824811
 10
105.0643879945672
 20
-123.5476697824811
 10
104.9372639711615
 20
-123.539057043768
 10
104.8252983678909
 20
-123.5283772477637
 10
104.7067870831983
 20
-123.4481065229574
 10
104.5459011240371
 20
-123.338207976978
 10
104.5121391882817
 20
-123.1518283112259
 10
104.5121391882817
 20
-123.035728593373
 10
104.5121391882817
 20
-122.7583984068104
 10
104.696107287194
 20
-122.5510036585984
 10
104.9689588496258
 20
-122.5510036585984
 10
105.1977131898464
 20
-122.5510036585984
 10
105.2969319398216
 20
-122.6674478859998
 10
105.5232747132025
 20
-122.9764729510267
 97
        0
 97
        0
 75
     2
 76
     1
 98
        0
  0
ENDBLK
  5
6F
330
6C
100
AcDbEntity
  8
0
100
AcDbBlockEnd
  0
BLOCK
  5
80
330
7E
100
AcDbEntity
  8
0
100
AcDbBlockBegin
  2
block 5
 70
     0
 10
0.0
 20
0.0
 30
0.0
  3
block 5
  1

  0
SPLINE
  5
82
330
7E
100
AcDbEntity
  8
_U+30EC_U+30A4_U+30E4_U+30FC 1
370
     0
100
AcDbSpline
210
0.0
220
0.0
230
1.0
 70
    11
 71
     3
 72
    44
 73
    40
 74
     0
 42
0.0000000001
 43
0.0000000001
 12
1.0
 22
0.0
 32
0.0
 13
1.0
 23
0.0
 33
0.0
 40
0.0
 40
0.0
 40
0.0
 40
0.0
 40
1.0
 40
1.0
 40
1.0
 40
2.0
 40
2.0
 40
2.0
 40
3.0
 40
3.0
 40
3.0
 40
4.0
 40
4.0
 40
4.0
 40
5.0
 40
5.0
 40
5.0
 40
6.0
 40
6.0
 40
6.0
 40
7.0
 40
7.0
 40
7.0
 40
8.0
 40
8.0
 40
8.0
 40
9.0
 40
9.0
 40
9.0
 40
10.0
 40
10.0
 40
10.0
 40
11.0
 40
11.0
 40
11.0
 40
12.0
 40
12.0
 40
12.0
 40
13.0
 40
13.0
 40
13.0
 40
13.0
 10
87.25393335492264
 20
-137.79761823812
 30
0.0
 10
87.03620332025484
 20
-137.9564371399901
 30
0.0
 10
86.94318574215309
 20
-138.0305066929229
 30
0.0
 10
86.89426538626255
 20
-138.1741671746579
 30
0.0
 10
86.89426538626255
 20
-138.1741671746579
 30
0.0
 10
87.67285696592901
 20
-138.1741671746579
 30
0.0
 10
87.67285696592901
 20
-138.1741671746579
 30
0.0
 10
87.67285696592901
 20
-138.1741671746579
 30
0.0
 10
87.67285696592901
 20
-138.3794948655787
 30
0.0
 10
87.67285696592901
 20
-138.3794948655787
 30
0.0
 10
87.67285696592901
 20
-138.3794948655787
 30
0.0
 10
86.64484047313046
 20
-138.3794948655787
 30
0.0
 10
86.64484047313046
 20
-138.3794948655787
 30
0.0
 10
86.67653535159477
 20
-138.0218939542098
 30
0.0
 10
86.74199216581451
 20
-137.9436902866946
 30
0.0
 10
87.12715384106544
 20
-137.645345017672
 30
0.0
 10
87.38312443561951
 20
-137.4465630081731
 30
0.0
 10
87.44858124983925
 20
-137.3786946271137
 30
0.0
 10
87.44858124983925
 20
-137.2412353172522
 30
0.0
 10
87.44858124983925
 20
-137.1227240325596
 30
0.0
 10
87.37657875419752
 20
-136.9918104041201
 30
0.0
 10
87.17986380198975
 20
-136.9918104041201
 30
0.0
 10
86.9197590928534
 20
-136.9918104041201
 30
0.0
 10
86.9114908636888
 20
-137.2222872920833
 30
0.0
 10
86.90701223955797
 20
-137.3387315194848
 30
0.0
 10
86.90701223955797
 20
-137.3387315194848
 30
0.0
 10
86.68273652346821
 20
-137.3387315194848
 30
0.0
 10
86.68273652346821
 20
-137.3387315194848
 30
0.0
 10
86.69134926218133
 20
-137.211607496079
 30
0.0
 10
86.7020290581856
 20
-137.0996418928084
 30
0.0
 10
86.78229978299193
 20
-136.9811306081158
 30
0.0
 10
86.8921983289714
 20
-136.8202446489547
 30
0.0
 10
87.07857799472342
 20
-136.7864827131992
 30
0.0
 10
87.19467771257634
 20
-136.7864827131992
 30
0.0
 10
87.47200789913894
 20
-136.7864827131992
 30
0.0
 10
87.67940264735098
 20
-136.9704508121116
 30
0.0
 10
87.67940264735098
 20
-137.2433023745433
 30
0.0
 10
87.67940264735098
 20
-137.4720567147639
 30
0.0
 10
87.56295841994954
 20
-137.5712754647391
 30
0.0
 10
87.25393335492264
 20
-137.79761823812
 30
0.0
  0
HATCH
  5
83
330
7E
100
AcDbEntity
  8
_U+30EC_U+30A4_U+30E4_U+30FC 1
 62
   179
420
  2234388
100
AcDbHatch
 10
0.0
 20
0.0
 30
0.0
210
0.0
220
0.0
230
1.0
  2
SOLID
 70
     1
 71
     0
 91
        1
 92
        1
 93
        1
 72
     4
 94
        3
 73
     0
 74
     1
 95
       44
 96
       40
 40
0.0
 40
0.0
 40
0.0
 40
0.0
 40
1.0
 40
1.0
 40
1.0
 40
2.0
 40
2.0
 40
2.0
 40
3.0
 40
3.0
 40
3.0
 40
4.0
 40
4.0
 40
4.0
 40
5.0
 40
5.0
 40
5.0
 40
6.0
 40
6.0
 40
6.0
 40
7.0
 40
7.0
 40
7.0
 40
8.0
 40
8.0
 40
8.0
 40
9.0
 40
9.0
 40
9.0
 40
10.0
 40
10.0
 40
10.0
 40
11.0
 40
11.0
 40
11.0
 40
12.0
 40
12.0
 40
12.0
 40
13.0
 40
13.0
 40
13.0
 40
13.0
 10
87.25393335492264
 20
-137.79761823812
 10
87.03620332025484
 20
-137.9564371399901
 10
86.94318574215309
 20
-138.0305066929229
 10
86.89426538626255
 20
-138.1741671746579
 10
86.89426538626255
 20
-138.1741671746579
 10
87.67285696592901
 20
-138.1741671746579
 10
87.67285696592901
 20
-138.1741671746579
 10
87.67285696592901
 20
-138.1741671746579
 10
87.67285696592901
 20
-138.3794948655787
 10
87.67285696592901
 20
-138.3794948655787
 10
87.67285696592901
 20
-138.3794948655787
 10
86.64484047313046
 20
-138.3794948655787
 10
86.64484047313046
 20
-138.3794948655787
 10
86.67653535159477
 20
-138.0218939542098
 10
86.74199216581451
 20
-137.9436902866946
 10
87.12715384106544
 20
-137.645345017672
 10
87.38312443561951
 20
-137.4465630081731
 10
87.44858124983925
 20
-137.3786946271137
 10
87.44858124983925
 20
-137.2412353172522
 10
87.44858124983925
 20
-137.1227240325596
 10
87.37657875419752
 20
-136.9918104041201
 10
87.17986380198975
 20
-136.9918104041201
 10
86.9197590928534
 20
-136.9918104041201
 10
86.9114908636888
 20
-137.2222872920833
 10
86.90701223955797
 20
-137.3387315194848
 10
86.90701223955797
 20
-137.3387315194848
 10
86.68273652346821
 20
-137.3387315194848
 10
86.68273652346821
 20
-137.3387315194848
 10
86.69134926218133
 20
-137.211607496079
 10
86.7020290581856
 20
-137.0996418928084
 10
86.78229978299193
 20
-136.9811306081158
 10
86.8921983289714
 20
-136.8202446489547
 10
87.07857799472342
 20
-136.7864827131992
 10
87.19467771257634
 20
-136.7864827131992
 10
87.47200789913894
 20
-136.7864827131992
 10
87.67940264735098
 20
-136.9704508121116
 10
87.67940264735098
 20
-137.2433023745433
 10
87.67940264735098
 20
-137.4720567147639
 10
87.56295841994954
 20
-137.5712754647391
 10
87.25393335492264
 20
-137.79761823812
 97
        0
 97
        0
 75
     2
 76
     1
 98
        0
  0
SPLINE
  5
84
330
7E
100
AcDbEntity
  8
_U+30EC_U+30A4_U+30E4_U+30FC 1
370
     0
100
AcDbSpline
210
0.0
220
0.0
230
1.0
 70
    11
 71
     3
 72
    53
 73
    49
 74
     0
 42
0.0000000001
 43
0.0000000001
 12
1.0
 22
0.0
 32
0.0
 13
1.0
 23
0.0
 33
0.0
 40
0.0
 40
0.0
 40
0.0
 40
0.0
 40
1.0
 40
1.0
 40
1.0
 40
2.0
 40
2.0
 40
2.0
 40
3.0
 40
3.0
 40
3.0
 40
4.0
 40
4.0
 40
4.0
 40
5.0
 40
5.0
 40
5.0
 40
6.0
 40
6.0
 40
6.0
 40
7.0
 40
7.0
 40
7.0
 40
8.0
 40
8.0
 40
8.0
 40
9.0
 40
9.0
 40
9.0
 40
10.0
 40
10.0
 40
10.0
 40
11.0
 40
11.0
 40
11.0
 40
12.0
 40
12.0
 40
12.0
 40
13.0
 40
13.0
 40
13.0
 40
14.0
 40
14.0
 40
14.0
 40
15.0
 40
15.0
 40
15.0
 40
16.0
 40
16.0
 40
16.0
 40
16.0
 10
88.31881236941335
 20
-138.4301377692119
 30
0.0
 10
88.24060870189818
 20
-138.4301377692119
 30
0.0
 10
88.13897838508332
 20
-138.4132568013342
 30
0.0
 10
88.03734806826844
 20
-138.3498670444056
 30
0.0
 10
87.86405976536038
 20
-138.2399684984261
 30
0.0
 10
87.84270017335183
 20
-138.1087103604381
 30
0.0
 10
87.82375214818296
 20
-138.0008788717498
 30
0.0
 10
87.82375214818296
 20
-138.0008788717498
 30
0.0
 10
88.04596080698157
 20
-138.0008788717498
 30
0.0
 10
88.04596080698157
 20
-138.0008788717498
 30
0.0
 10
88.10073782519704
 20
-138.1996608812487
 30
0.0
 10
88.22786184860276
 20
-138.2292887024219
 30
0.0
 10
88.32087942670451
 20
-138.2292887024219
 30
0.0
 10
88.46040579385712
 20
-138.2292887024219
 30
0.0
 10
88.61267901430517
 20
-138.1297254428981
 30
0.0
 10
88.61267901430517
 20
-137.8971814976438
 30
0.0
 10
88.61267901430517
 20
-137.6412109030897
 30
0.0
 10
88.43284502997513
 20
-137.5712754647391
 30
0.0
 10
88.31226668799138
 20
-137.5712754647391
 30
0.0
 10
88.28057180952709
 20
-137.5712754647391
 30
0.0
 10
88.13897838508332
 20
-137.5712754647391
 30
0.0
 10
88.05009492156387
 20
-137.700466545436
 30
0.0
 10
88.05009492156387
 20
-137.700466545436
 30
0.0
 10
87.87439505181612
 20
-137.6815185202671
 30
0.0
 10
87.87439505181612
 20
-137.6815185202671
 30
0.0
 10
87.87439505181612
 20
-137.6815185202671
 30
0.0
 10
87.99497339379987
 20
-136.8350585595412
 30
0.0
 10
87.99497339379987
 20
-136.8350585595412
 30
0.0
 10
87.99497339379987
 20
-136.8350585595412
 30
0.0
 10
88.77356497346634
 20
-136.8350585595412
 30
0.0
 10
88.77356497346634
 20
-136.8350585595412
 30
0.0
 10
88.77356497346634
 20
-136.8350585595412
 30
0.0
 10
88.77356497346634
 20
-137.0297064544579
 30
0.0
 10
88.77356497346634
 20
-137.0297064544579
 30
0.0
 10
88.77356497346634
 20
-137.0297064544579
 30
0.0
 10
88.15792641025219
 20
-137.0297064544579
 30
0.0
 10
88.15792641025219
 20
-137.0297064544579
 30
0.0
 10
88.15792641025219
 20
-137.0297064544579
 30
0.0
 10
88.09246959603244
 20
-137.4527641800465
 30
0.0
 10
88.09246959603244
 20
-137.4527641800465
 30
0.0
 10
88.15379229566989
 20
-137.4190022442911
 30
0.0
 10
88.23613007776736
 20
-137.3786946271137
 30
0.0
 10
88.35464136245996
 20
-137.3786946271137
 30
0.0
 10
88.60854489972287
 20
-137.3786946271137
 30
0.0
 10
88.84556746910806
 20
-137.5650742928657
 30
0.0
 10
88.84556746910806
 20
-137.8782334724749
 30
0.0
 10
88.84556746910806
 20
-138.1955267666664
 30
0.0
 10
88.6212917530183
 20
-138.4301377692119
 30
0.0
 10
88.31881236941335
 20
-138.4301377692119
 30
0.0
  0
HATCH
  5
85
330
7E
100
AcDbEntity
  8
_U+30EC_U+30A4_U+30E4_U+30FC 1
 62
   179
420
  2234388
100
AcDbHatch
 10
0.0
 20
0.0
 30
0.0
210
0.0
220
0.0
230
1.0
  2
SOLID
 70
     1
 71
     0
 91
        1
 92
        1
 93
        1
 72
     4
 94
        3
 73
     0
 74
     1
 95
       53
 96
       49
 40
0.0
 40
0.0
 40
0.0
 40
0.0
 40
1.0
 40
1.0
 40
1.0
 40
2.0
 40
2.0
 40
2.0
 40
3.0
 40
3.0
 40
3.0
 40
4.0
 40
4.0
 40
4.0
 40
5.0
 40
5.0
 40
5.0
 40
6.0
 40
6.0
 40
6.0
 40
7.0
 40
7.0
 40
7.0
 40
8.0
 40
8.0
 40
8.0
 40
9.0
 40
9.0
 40
9.0
 40
10.0
 40
10.0
 40
10.0
 40
11.0
 40
11.0
 40
11.0
 40
12.0
 40
12.0
 40
12.0
 40
13.0
 40
13.0
 40
13.0
 40
14.0
 40
14.0
 40
14.0
 40
15.0
 40
15.0
 40
15.0
 40
16.0
 40
16.0
 40
16.0
 40
16.0
 10
88.31881236941335
 20
-138.4301377692119
 10
88.24060870189818
 20
-138.4301377692119
 10
88.13897838508332
 20
-138.4132568013342
 10
88.03734806826844
 20
-138.3498670444056
 10
87.86405976536038
 20
-138.2399684984261
 10
87.84270017335183
 20
-138.1087103604381
 10
87.82375214818296
 20
-138.0008788717498
 10
87.82375214818296
 20
-138.0008788717498
 10
88.04596080698157
 20
-138.0008788717498
 10
88.04596080698157
 20
-138.0008788717498
 10
88.10073782519704
 20
-138.1996608812487
 10
88.22786184860276
 20
-138.2292887024219
 10
88.32087942670451
 20
-138.2292887024219
 10
88.46040579385712
 20
-138.2292887024219
 10
88.61267901430517
 20
-138.1297254428981
 10
88.61267901430517
 20
-137.8971814976438
 10
88.61267901430517
 20
-137.6412109030897
 10
88.43284502997513
 20
-137.5712754647391
 10
88.31226668799138
 20
-137.5712754647391
 10
88.28057180952709
 20
-137.5712754647391
 10
88.13897838508332
 20
-137.5712754647391
 10
88.05009492156387
 20
-137.700466545436
 10
88.05009492156387
 20
-137.700466545436
 10
87.87439505181612
 20
-137.6815185202671
 10
87.87439505181612
 20
-137.6815185202671
 10
87.87439505181612
 20
-137.6815185202671
 10
87.99497339379987
 20
-136.8350585595412
 10
87.99497339379987
 20
-136.8350585595412
 10
87.99497339379987
 20
-136.8350585595412
 10
88.77356497346634
 20
-136.8350585595412
 10
88.77356497346634
 20
-136.8350585595412
 10
88.77356497346634
 20
-136.8350585595412
 10
88.77356497346634
 20
-137.0297064544579
 10
88.77356497346634
 20
-137.0297064544579
 10
88.77356497346634
 20
-137.0297064544579
 10
88.15792641025219
 20
-137.0297064544579
 10
88.15792641025219
 20
-137.0297064544579
 10
88.15792641025219
 20
-137.0297064544579
 10
88.09246959603244
 20
-137.4527641800465
 10
88.09246959603244
 20
-137.4527641800465
 10
88.15379229566989
 20
-137.4190022442911
 10
88.23613007776736
 20
-137.3786946271137
 10
88.35464136245996
 20
-137.3786946271137
 10
88.60854489972287
 20
-137.3786946271137
 10
88.84556746910806
 20
-137.5650742928657
 10
88.84556746910806
 20
-137.8782334724749
 10
88.84556746910806
 20
-138.1955267666664
 10
88.6212917530183
 20
-138.4301377692119
 10
88.31881236941335
 20
-138.4301377692119
 97
        0
 97
        0
 75
     2
 76
     1
 98
        0
  0
ENDBLK
  5
81
330
7E
100
AcDbEntity
  8
0
100
AcDbBlockEnd
  0
BLOCK
  5
94
330
92
100
AcDbEntity
  8
0
100
AcDbBlockBegin
  2
block 6
 70
     0
 10
0.0
 20
0.0
 30
0.0
  3
block 6
  1

  0
SPLINE
  5
96
330
92
100
AcDbEntity
  8
_U+30EC_U+30A4_U+30E4_U+30FC 1
370
     0
100
AcDbSpline
210
0.0
220
0.0
230
1.0
 70
    11
 71
     3
 72
    26
 73
    22
 74
     0
 42
0.0000000001
 43
0.0000000001
 12
1.0
 22
0.0
 32
0.0
 13
1.0
 23
0.0
 33
0.0
 40
0.0
 40
0.0
 40
0.0
 40
0.0
 40
1.0
 40
1.0
 40
1.0
 40
2.0
 40
2.0
 40
2.0
 40
3.0
 40
3.0
 40
3.0
 40
4.0
 40
4.0
 40
4.0
 40
5.0
 40
5.0
 40
5.0
 40
6.0
 40
6.0
 40
6.0
 40
7.0
 40
7.0
 40
7.0
 40
7.0
 10
86.86274276257251
 20
-118.919183998048
 30
0.0
 10
86.86274276257251
 20
-118.919183998048
 30
0.0
 10
86.86274276257251
 20
-117.8150308950254
 30
0.0
 10
86.86274276257251
 20
-117.8150308950254
 30
0.0
 10
86.86274276257251
 20
-117.8150308950254
 30
0.0
 10
86.53270261508558
 20
-117.8150308950254
 30
0.0
 10
86.53270261508558
 20
-117.8150308950254
 30
0.0
 10
86.53270261508558
 20
-117.8150308950254
 30
0.0
 10
86.53270261508558
 20
-117.6668917891597
 30
0.0
 10
86.53270261508558
 20
-117.6668917891597
 30
0.0
 10
86.86480981986367
 20
-117.6520778785731
 30
0.0
 10
86.91131860891454
 20
-117.4891248621208
 30
0.0
 10
86.94094643008768
 20
-117.3747476920105
 30
0.0
 10
86.94094643008768
 20
-117.3747476920105
 30
0.0
 10
87.08701847866227
 20
-117.3747476920105
 30
0.0
 10
87.08701847866227
 20
-117.3747476920105
 30
0.0
 10
87.08701847866227
 20
-117.3747476920105
 30
0.0
 10
87.08701847866227
 20
-118.919183998048
 30
0.0
 10
87.08701847866227
 20
-118.919183998048
 30
0.0
 10
87.08701847866227
 20
-118.919183998048
 30
0.0
 10
86.86274276257251
 20
-118.919183998048
 30
0.0
 10
86.86274276257251
 20
-118.919183998048
 30
0.0
  0
HATCH
  5
97
330
92
100
AcDbEntity
  8
_U+30EC_U+30A4_U+30E4_U+30FC 1
 62
   179
420
  2234388
100
AcDbHatch
 10
0.0
 20
0.0
 30
0.0
210
0.0
220
0.0
230
1.0
  2
SOLID
 70
     1
 71
     0
 91
        1
 92
        1
 93
        1
 72
     4
 94
        3
 73
     0
 74
     1
 95
       26
 96
       22
 40
0.0
 40
0.0
 40
0.0
 40
0.0
 40
1.0
 40
1.0
 40
1.0
 40
2.0
 40
2.0
 40
2.0
 40
3.0
 40
3.0
 40
3.0
 40
4.0
 40
4.0
 40
4.0
 40
5.0
 40
5.0
 40
5.0
 40
6.0
 40
6.0
 40
6.0
 40
7.0
 40
7.0
 40
7.0
 40
7.0
 10
86.86274276257251
 20
-118.919183998048
 10
86.86274276257251
 20
-118.919183998048
 10
86.86274276257251
 20
-117.8150308950254
 10
86.86274276257251
 20
-117.8150308950254
 10
86.86274276257251
 20
-117.8150308950254
 10
86.53270261508558
 20
-117.8150308950254
 10
86.53270261508558
 20
-117.8150308950254
 10
86.53270261508558
 20
-117.8150308950254
 10
86.53270261508558
 20
-117.6668917891597
 10
86.53270261508558
 20
-117.6668917891597
 10
86.86480981986367
 20
-117.6520778785731
 10
86.91131860891454
 20
-117.4891248621208
 10
86.94094643008768
 20
-117.3747476920105
 10
86.94094643008768
 20
-117.3747476920105
 10
87.08701847866227
 20
-117.3747476920105
 10
87.08701847866227
 20
-117.3747476920105
 10
87.08701847866227
 20
-117.3747476920105
 10
87.08701847866227
 20
-118.919183998048
 10
87.08701847866227
 20
-118.919183998048
 10
87.08701847866227
 20
-118.919183998048
 10
86.86274276257251
 20
-118.919183998048
 10
86.86274276257251
 20
-118.919183998048
 97
        0
 97
        0
 75
     2
 76
     1
 98
        0
  0
SPLINE
  5
98
330
92
100
AcDbEntity
  8
_U+30EC_U+30A4_U+30E4_U+30FC 1
370
     0
100
AcDbSpline
210
0.0
220
0.0
230
1.0
 70
    11
 71
     3
 72
    53
 73
    49
 74
     0
 42
0.0000000001
 43
0.0000000001
 12
1.0
 22
0.0
 32
0.0
 13
1.0
 23
0.0
 33
0.0
 40
0.0
 40
0.0
 40
0.0
 40
0.0
 40
1.0
 40
1.0
 40
1.0
 40
2.0
 40
2.0
 40
2.0
 40
3.0
 40
3.0
 40
3.0
 40
4.0
 40
4.0
 40
4.0
 40
5.0
 40
5.0
 40
5.0
 40
6.0
 40
6.0
 40
6.0
 40
7.0
 40
7.0
 40
7.0
 40
8.0
 40
8.0
 40
8.0
 40
9.0
 40
9.0
 40
9.0
 40
10.0
 40
10.0
 40
10.0
 40
11.0
 40
11.0
 40
11.0
 40
12.0
 40
12.0
 40
12.0
 40
13.0
 40
13.0
 40
13.0
 40
14.0
 40
14.0
 40
14.0
 40
15.0
 40
15.0
 40
15.0
 40
16.0
 40
16.0
 40
16.0
 40
16.0
 10
88.069215201507
 20
-118.9698269016812
 30
0.0
 10
87.99101153399184
 20
-118.9698269016812
 30
0.0
 10
87.88938121717696
 20
-118.9529459338034
 30
0.0
 10
87.7877509003621
 20
-118.8895561768748
 30
0.0
 10
87.61446259745402
 20
-118.7796576308954
 30
0.0
 10
87.59310300544549
 20
-118.6483994929073
 30
0.0
 10
87.5741549802766
 20
-118.540568004219
 30
0.0
 10
87.5741549802766
 20
-118.540568004219
 30
0.0
 10
87.79636363907522
 20
-118.540568004219
 30
0.0
 10
87.79636363907522
 20
-118.540568004219
 30
0.0
 10
87.85114065729068
 20
-118.7393500137179
 30
0.0
 10
87.97826468069641
 20
-118.7689778348911
 30
0.0
 10
88.07128225879815
 20
-118.7689778348911
 30
0.0
 10
88.21080862595078
 20
-118.7689778348911
 30
0.0
 10
88.36308184639881
 20
-118.6694145753674
 30
0.0
 10
88.36308184639881
 20
-118.436870630113
 30
0.0
 10
88.36308184639881
 20
-118.1809000355589
 30
0.0
 10
88.18324786206878
 20
-118.1109645972084
 30
0.0
 10
88.06266952008504
 20
-118.1109645972084
 30
0.0
 10
88.03097464162073
 20
-118.1109645972084
 30
0.0
 10
87.88938121717696
 20
-118.1109645972084
 30
0.0
 10
87.80049775365752
 20
-118.2401556779052
 30
0.0
 10
87.80049775365752
 20
-118.2401556779052
 30
0.0
 10
87.62479788390978
 20
-118.2212076527364
 30
0.0
 10
87.62479788390978
 20
-118.2212076527364
 30
0.0
 10
87.62479788390978
 20
-118.2212076527364
 30
0.0
 10
87.74537622589352
 20
-117.3747476920105
 30
0.0
 10
87.74537622589352
 20
-117.3747476920105
 30
0.0
 10
87.74537622589352
 20
-117.3747476920105
 30
0.0
 10
88.52396780555999
 20
-117.3747476920105
 30
0.0
 10
88.52396780555999
 20
-117.3747476920105
 30
0.0
 10
88.52396780555999
 20
-117.3747476920105
 30
0.0
 10
88.52396780555999
 20
-117.5693955869271
 30
0.0
 10
88.52396780555999
 20
-117.5693955869271
 30
0.0
 10
88.52396780555999
 20
-117.5693955869271
 30
0.0
 10
87.90832924234584
 20
-117.5693955869271
 30
0.0
 10
87.90832924234584
 20
-117.5693955869271
 30
0.0
 10
87.90832924234584
 20
-117.5693955869271
 30
0.0
 10
87.84287242812609
 20
-117.9924533125158
 30
0.0
 10
87.84287242812609
 20
-117.9924533125158
 30
0.0
 10
87.90419512776354
 20
-117.9586913767603
 30
0.0
 10
87.98653290986101
 20
-117.9183837595829
 30
0.0
 10
88.1050441945536
 20
-117.9183837595829
 30
0.0
 10
88.35894773181651
 20
-117.9183837595829
 30
0.0
 10
88.5959703012017
 20
-118.1047634253349
 30
0.0
 10
88.5959703012017
 20
-118.4179226049441
 30
0.0
 10
88.5959703012017
 20
-118.7352158991356
 30
0.0
 10
88.37169458511194
 20
-118.9698269016812
 30
0.0
 10
88.069215201507
 20
-118.9698269016812
 30
0.0
  0
HATCH
  5
99
330
92
100
AcDbEntity
  8
_U+30EC_U+30A4_U+30E4_U+30FC 1
 62
   179
420
  2234388
100
AcDbHatch
 10
0.0
 20
0.0
 30
0.0
210
0.0
220
0.0
230
1.0
  2
SOLID
 70
     1
 71
     0
 91
        1
 92
        1
 93
        1
 72
     4
 94
        3
 73
     0
 74
     1
 95
       53
 96
       49
 40
0.0
 40
0.0
 40
0.0
 40
0.0
 40
1.0
 40
1.0
 40
1.0
 40
2.0
 40
2.0
 40
2.0
 40
3.0
 40
3.0
 40
3.0
 40
4.0
 40
4.0
 40
4.0
 40
5.0
 40
5.0
 40
5.0
 40
6.0
 40
6.0
 40
6.0
 40
7.0
 40
7.0
 40
7.0
 40
8.0
 40
8.0
 40
8.0
 40
9.0
 40
9.0
 40
9.0
 40
10.0
 40
10.0
 40
10.0
 40
11.0
 40
11.0
 40
11.0
 40
12.0
 40
12.0
 40
12.0
 40
13.0
 40
13.0
 40
13.0
 40
14.0
 40
14.0
 40
14.0
 40
15.0
 40
15.0
 40
15.0
 40
16.0
 40
16.0
 40
16.0
 40
16.0
 10
88.069215201507
 20
-118.9698269016812
 10
87.99101153399184
 20
-118.9698269016812
 10
87.88938121717696
 20
-118.9529459338034
 10
87.7877509003621
 20
-118.8895561768748
 10
87.61446259745402
 20
-118.7796576308954
 10
87.59310300544549
 20
-118.6483994929073
 10
87.5741549802766
 20
-118.540568004219
 10
87.5741549802766
 20
-118.540568004219
 10
87.79636363907522
 20
-118.540568004219
 10
87.79636363907522
 20
-118.540568004219
 10
87.85114065729068
 20
-118.7393500137179
 10
87.97826468069641
 20
-118.7689778348911
 10
88.07128225879815
 20
-118.7689778348911
 10
88.21080862595078
 20
-118.7689778348911
 10
88.36308184639881
 20
-118.6694145753674
 10
88.36308184639881
 20
-118.436870630113
 10
88.36308184639881
 20
-118.1809000355589
 10
88.18324786206878
 20
-118.1109645972084
 10
88.06266952008504
 20
-118.1109645972084
 10
88.03097464162073
 20
-118.1109645972084
 10
87.88938121717696
 20
-118.1109645972084
 10
87.80049775365752
 20
-118.2401556779052
 10
87.80049775365752
 20
-118.2401556779052
 10
87.62479788390978
 20
-118.2212076527364
 10
87.62479788390978
 20
-118.2212076527364
 10
87.62479788390978
 20
-118.2212076527364
 10
87.74537622589352
 20
-117.3747476920105
 10
87.74537622589352
 20
-117.3747476920105
 10
87.74537622589352
 20
-117.3747476920105
 10
88.52396780555999
 20
-117.3747476920105
 10
88.52396780555999
 20
-117.3747476920105
 10
88.52396780555999
 20
-117.3747476920105
 10
88.52396780555999
 20
-117.5693955869271
 10
88.52396780555999
 20
-117.5693955869271
 10
88.52396780555999
 20
-117.5693955869271
 10
87.90832924234584
 20
-117.5693955869271
 10
87.90832924234584
 20
-117.5693955869271
 10
87.90832924234584
 20
-117.5693955869271
 10
87.84287242812609
 20
-117.9924533125158
 10
87.84287242812609
 20
-117.9924533125158
 10
87.90419512776354
 20
-117.9586913767603
 10
87.98653290986101
 20
-117.9183837595829
 10
88.1050441945536
 20
-117.9183837595829
 10
88.35894773181651
 20
-117.9183837595829
 10
88.5959703012017
 20
-118.1047634253349
 10
88.5959703012017
 20
-118.4179226049441
 10
88.5959703012017
 20
-118.7352158991356
 10
88.37169458511194
 20
-118.9698269016812
 10
88.069215201507
 20
-118.9698269016812
 97
        0
 97
        0
 75
     2
 76
     1
 98
        0
  0
ENDBLK
  5
95
330
92
100
AcDbEntity
  8
0
100
AcDbBlockEnd
  0
ENDSEC
  0
SECTION
  2
ENTITIES
  0
SPLINE
  5
41
330
1F
100
AcDbEntity
  8
_U+30EC_U+30A4_U+30E4_U+30FC 1
 62
   179
420
  2234388
370
     9
100
AcDbSpline
210
0.0
220
0.0
230
1.0
 70
    11
 71
     3
 72
    17
 73
    13
 74
     0
 42
0.0000000001
 43
0.0000000001
 12
1.0
 22
0.0
 32
0.0
 13
1.0
 23
0.0
 33
0.0
 40
0.0
 40
0.0
 40
0.0
 40
0.0
 40
1.0
 40
1.0
 40
1.0
 40
2.0
 40
2.0
 40
2.0
 40
3.0
 40
3.0
 40
3.0
 40
4.0
 40
4.0
 40
4.0
 40
4.0
 10
102.8984665415081
 20
-134.9760938551447
 30
0.0
 10
102.8984665415081
 20
-134.9209546884922
 30
0.0
 10
102.8536637648733
 20
-134.876187188503
 30
0.0
 10
102.7985598773902
 20
-134.876187188503
 30
0.0
 10
102.7434207121303
 20
-134.876187188503
 30
0.0
 10
102.6986532132724
 20
-134.9209546884922
 30
0.0
 10
102.6986532132724
 20
-134.9760938551447
 30
0.0
 10
102.6986532132724
 20
-135.0311977440202
 30
0.0
 10
102.7434207121303
 20
-135.0760005217863
 30
0.0
 10
102.7985598773902
 20
-135.0760005217863
 30
0.0
 10
102.8536637648733
 20
-135.0760005217863
 30
0.0
 10
102.8984665415081
 20
-135.0311977440202
 30
0.0
 10
102.8984665415081
 20
-134.9760938551447
 30
0.0
  0
SPLINE
  5
42
330
1F
100
AcDbEntity
  8
_U+30EC_U+30A4_U+30E4_U+30FC 1
 62
   179
420
  2234388
370
     9
100
AcDbSpline
210
0.0
220
0.0
230
1.0
 70
    11
 71
     3
 72
    17
 73
    13
 74
     0
 42
0.0000000001
 43
0.0000000001
 12
1.0
 22
0.0
 32
0.0
 13
1.0
 23
0.0
 33
0.0
 40
0.0
 40
0.0
 40
0.0
 40
0.0
 40
1.0
 40
1.0
 40
1.0
 40
2.0
 40
2.0
 40
2.0
 40
3.0
 40
3.0
 40
3.0
 40
4.0
 40
4.0
 40
4.0
 40
4.0
 10
102.8984665415081
 20
-133.975968855395
 30
0.0
 10
102.8984665415081
 20
-133.9208649665201
 30
0.0
 10
102.8536637648733
 20
-133.8764149665311
 30
0.0
 10
102.7985598773902
 20
-133.8764149665311
 30
0.0
 10
102.7434207121303
 20
-133.8764149665311
 30
0.0
 10
102.6986532132724
 20
-133.9208649665201
 30
0.0
 10
102.6986532132724
 20
-133.975968855395
 30
0.0
 10
102.6986532132724
 20
-134.0311080220481
 30
0.0
 10
102.7434207121303
 20
-134.0758755220366
 30
0.0
 10
102.7985598773902
 20
-134.0758755220366
 30
0.0
 10
102.8536637648733
 20
-134.0758755220366
 30
0.0
 10
102.8984665415081
 20
-134.0311080220481
 30
0.0
 10
102.8984665415081
 20
-133.975968855395
 30
0.0
  0
SPLINE
  5
43
330
1F
100
AcDbEntity
  8
_U+30EC_U+30A4_U+30E4_U+30FC 1
 62
   179
420
  2234388
370
     9
100
AcDbSpline
210
0.0
220
0.0
230
1.0
 70
    11
 71
     3
 72
    17
 73
    13
 74
     0
 42
0.0000000001
 43
0.0000000001
 12
1.0
 22
0.0
 32
0.0
 13
1.0
 23
0.0
 33
0.0
 40
0.0
 40
0.0
 40
0.0
 40
0.0
 40
1.0
 40
1.0
 40
1.0
 40
2.0
 40
2.0
 40
2.0
 40
3.0
 40
3.0
 40
3.0
 40
4.0
 40
4.0
 40
4.0
 40
4.0
 10
102.8984665415081
 20
-123.9758830245617
 30
0.0
 10
102.8984665415081
 20
-123.9207791356864
 30
0.0
 10
102.8536637648733
 20
-123.8761527468089
 30
0.0
 10
102.7985598773902
 20
-123.8761527468089
 30
0.0
 10
102.7434207121303
 20
-123.8761527468089
 30
0.0
 10
102.6986532132724
 20
-123.9207791356864
 30
0.0
 10
102.6986532132724
 20
-123.9758830245617
 30
0.0
 10
102.6986532132724
 20
-124.0310221912144
 30
0.0
 10
102.7434207121303
 20
-124.0757896912033
 30
0.0
 10
102.7985598773902
 20
-124.0757896912033
 30
0.0
 10
102.8536637648733
 20
-124.0757896912033
 30
0.0
 10
102.8984665415081
 20
-124.0310221912144
 30
0.0
 10
102.8984665415081
 20
-123.9758830245617
 30
0.0
  0
SPLINE
  5
44
330
1F
100
AcDbEntity
  8
_U+30EC_U+30A4_U+30E4_U+30FC 1
 62
   179
420
  2234388
370
     9
100
AcDbSpline
210
0.0
220
0.0
230
1.0
 70
    11
 71
     3
 72
    17
 73
    13
 74
     0
 42
0.0000000001
 43
0.0000000001
 12
1.0
 22
0.0
 32
0.0
 13
1.0
 23
0.0
 33
0.0
 40
0.0
 40
0.0
 40
0.0
 40
0.0
 40
1.0
 40
1.0
 40
1.0
 40
2.0
 40
2.0
 40
2.0
 40
3.0
 40
3.0
 40
3.0
 40
4.0
 40
4.0
 40
4.0
 40
4.0
 10
102.8984665415081
 20
-121.9758446917284
 30
0.0
 10
102.8984665415081
 20
-121.9207408028532
 30
0.0
 10
102.8536637648733
 20
-121.8761144139753
 30
0.0
 10
102.7985598773902
 20
-121.8761144139753
 30
0.0
 10
102.7434207121303
 20
-121.8761144139753
 30
0.0
 10
102.6986532132724
 20
-121.9207408028532
 30
0.0
 10
102.6986532132724
 20
-121.9758446917284
 30
0.0
 10
102.6986532132724
 20
-122.0309838583812
 30
0.0
 10
102.7434207121303
 20
-122.0757513583701
 30
0.0
 10
102.7985598773902
 20
-122.0757513583701
 30
0.0
 10
102.8536637648733
 20
-122.0757513583701
 30
0.0
 10
102.8984665415081
 20
-122.0309838583812
 30
0.0
 10
102.8984665415081
 20
-121.9758446917284
 30
0.0
  0
SPLINE
  5
45
330
1F
100
AcDbEntity
  8
_U+30EC_U+30A4_U+30E4_U+30FC 1
 62
   179
420
  2234388
370
     9
100
AcDbSpline
210
0.0
220
0.0
230
1.0
 70
    11
 71
     3
 72
    17
 73
    13
 74
     0
 42
0.0000000001
 43
0.0000000001
 12
1.0
 22
0.0
 32
0.0
 13
1.0
 23
0.0
 33
0.0
 40
0.0
 40
0.0
 40
0.0
 40
0.0
 40
1.0
 40
1.0
 40
1.0
 40
2.0
 40
2.0
 40
2.0
 40
3.0
 40
3.0
 40
3.0
 40
4.0
 40
4.0
 40
4.0
 40
4.0
 10
100.4259177156992
 20
-138.9765232985889
 30
0.0
 10
100.4259177156992
 20
-138.921419409714
 30
0.0
 10
100.3811149390644
 20
-138.8766166319473
 30
0.0
 10
100.3260110515813
 20
-138.8766166319473
 30
0.0
 10
100.2708718863214
 20
-138.8766166319473
 30
0.0
 10
100.2261043874635
 20
-138.921419409714
 30
0.0
 10
100.2261043874635
 20
-138.9765232985889
 30
0.0
 10
100.2261043874635
 20
-139.031662465242
 30
0.0
 10
100.2708718863214
 20
-139.0764299652312
 30
0.0
 10
100.3260110515813
 20
-139.0764299652312
 30
0.0
 10
100.3811149390644
 20
-139.0764299652312
 30
0.0
 10
100.4259177156992
 20
-139.031662465242
 30
0.0
 10
100.4259177156992
 20
-138.9765232985889
 30
0.0
  0
SPLINE
  5
46
330
1F
100
AcDbEntity
  8
_U+30EC_U+30A4_U+30E4_U+30FC 1
 62
   179
420
  2234388
370
     9
100
AcDbSpline
210
0.0
220
0.0
230
1.0
 70
    11
 71
     3
 72
    17
 73
    13
 74
     0
 42
0.0000000001
 43
0.0000000001
 12
1.0
 22
0.0
 32
0.0
 13
1.0
 23
0.0
 33
0.0
 40
0.0
 40
0.0
 40
0.0
 40
0.0
 40
1.0
 40
1.0
 40
1.0
 40
2.0
 40
2.0
 40
2.0
 40
3.0
 40
3.0
 40
3.0
 40
4.0
 40
4.0
 40
4.0
 40
4.0
 10
75.42554502017848
 20
-138.9765232985889
 30
0.0
 10
75.42554502017848
 20
-138.921419409714
 30
0.0
 10
75.38074224354372
 20
-138.8766166319473
 30
0.0
 10
75.32563835606064
 20
-138.8766166319473
 30
0.0
 10
75.27049919080069
 20
-138.8766166319473
 30
0.0
 10
75.22573169194281
 20
-138.921419409714
 30
0.0
 10
75.22573169194281
 20
-138.9765232985889
 30
0.0
 10
75.22573169194281
 20
-139.031662465242
 30
0.0
 10
75.27049919080069
 20
-139.0764299652312
 30
0.0
 10
75.32563835606064
 20
-139.0764299652312
 30
0.0
 10
75.38074224354372
 20
-139.0764299652312
 30
0.0
 10
75.42554502017848
 20
-139.031662465242
 30
0.0
 10
75.42554502017848
 20
-138.9765232985889
 30
0.0
  0
SPLINE
  5
47
330
1F
100
AcDbEntity
  8
_U+30EC_U+30A4_U+30E4_U+30FC 1
 62
   179
420
  2234388
370
     9
100
AcDbSpline
210
0.0
220
0.0
230
1.0
 70
    11
 71
     3
 72
    17
 73
    13
 74
     0
 42
0.0000000001
 43
0.0000000001
 12
1.0
 22
0.0
 32
0.0
 13
1.0
 23
0.0
 33
0.0
 40
0.0
 40
0.0
 40
0.0
 40
0.0
 40
1.0
 40
1.0
 40
1.0
 40
2.0
 40
2.0
 40
2.0
 40
3.0
 40
3.0
 40
3.0
 40
4.0
 40
4.0
 40
4.0
 40
4.0
 10
95.42568330947677
 20
-119.5153608034545
 30
0.0
 10
95.42568330947677
 20
-119.4602216368017
 30
0.0
 10
95.3809133999635
 20
-119.4154541368128
 30
0.0
 10
95.32577423470356
 20
-119.4154541368128
 30
0.0
 10
95.27067034722049
 20
-119.4154541368128
 30
0.0
 10
95.22586757058572
 20
-119.4602216368017
 30
0.0
 10
95.22586757058572
 20
-119.5153608034545
 30
0.0
 10
95.22586757058572
 20
-119.5711702478849
 30
0.0
 10
95.27067034722049
 20
-119.6159377478738
 30
0.0
 10
95.32577423470356
 20
-119.6159377478738
 30
0.0
 10
95.3809133999635
 20
-119.6159377478738
 30
0.0
 10
95.42568330947677
 20
-119.5711702478849
 30
0.0
 10
95.42568330947677
 20
-119.5153608034545
 30
0.0
  0
SPLINE
  5
48
330
1F
100
AcDbEntity
  8
_U+30EC_U+30A4_U+30E4_U+30FC 1
 62
   179
420
  2234388
370
     9
100
AcDbSpline
210
0.0
220
0.0
230
1.0
 70
    11
 71
     3
 72
    17
 73
    13
 74
     0
 42
0.0000000001
 43
0.0000000001
 12
1.0
 22
0.0
 32
0.0
 13
1.0
 23
0.0
 33
0.0
 40
0.0
 40
0.0
 40
0.0
 40
0.0
 40
1.0
 40
1.0
 40
1.0
 40
2.0
 40
2.0
 40
2.0
 40
3.0
 40
3.0
 40
3.0
 40
4.0
 40
4.0
 40
4.0
 40
4.0
 10
80.42574655927937
 20
-119.5153608034545
 30
0.0
 10
80.42574655927937
 20
-119.4602216368017
 30
0.0
 10
80.3809790604215
 20
-119.4154541368128
 30
0.0
 10
80.32583989516154
 20
-119.4154541368128
 30
0.0
 10
80.27073600767847
 20
-119.4154541368128
 30
0.0
 10
80.22593323104371
 20
-119.4602216368017
 30
0.0
 10
80.22593323104371
 20
-119.5153608034545
 30
0.0
 10
80.22593323104371
 20
-119.5711702478849
 30
0.0
 10
80.27073600767847
 20
-119.6159377478738
 30
0.0
 10
80.32583989516154
 20
-119.6159377478738
 30
0.0
 10
80.3809790604215
 20
-119.6159377478738
 30
0.0
 10
80.42574655927937
 20
-119.5711702478849
 30
0.0
 10
80.42574655927937
 20
-119.5153608034545
 30
0.0
  0
POLYLINE
  5
49
330
1F
100
AcDbEntity
  8
_U+30EC_U+30A4_U+30E4_U+30FC 1
 62
   179
420
  2234388
370
     9
100
AcDb2dPolyline
 66
     1
 10
0.0
 20
0.0
 30
0.0
  0
VERTEX
  5
4A
330
49
100
AcDbEntity
  8
_U+30EC_U+30A4_U+30E4_U+30FC 1
 62
   179
420
  2234388
370
     9
100
AcDbVertex
100
AcDb2dVertex
 10
102.7985598773902
 20
-134.9774696884782
 30
0.0
  0
VERTEX
  5
4B
330
49
100
AcDbEntity
  8
_U+30EC_U+30A4_U+30E4_U+30FC 1
 62
   179
420
  2234388
370
     9
100
AcDbVertex
100
AcDb2dVertex
 10
102.7985598773902
 20
-121.9773969139502
 30
0.0
  0
SEQEND
  5
4C
330
49
100
AcDbEntity
  8
_U+30EC_U+30A4_U+30E4_U+30FC 1
 62
   179
420
  2234388
370
     9
  0
POLYLINE
  5
4D
330
1F
100
AcDbEntity
  8
_U+30EC_U+30A4_U+30E4_U+30FC 1
 62
   179
420
  2234388
370
     9
100
AcDb2dPolyline
 66
     1
 10
0.0
 20
0.0
 30
0.0
  0
VERTEX
  5
4E
330
4D
100
AcDbEntity
  8
_U+30EC_U+30A4_U+30E4_U+30FC 1
 62
   179
420
  2234388
370
     9
100
AcDbVertex
100
AcDb2dVertex
 10
101.3385185257501
 20
-134.9760938551447
 30
0.0
  0
VERTEX
  5
4F
330
4D
100
AcDbEntity
  8
_U+30EC_U+30A4_U+30E4_U+30FC 1
 62
   179
420
  2234388
370
     9
100
AcDbVertex
100
AcDb2dVertex
 10
103.7990023518668
 20
-134.9760938551447
 30
0.0
  0
SEQEND
  5
50
330
4D
100
AcDbEntity
  8
_U+30EC_U+30A4_U+30E4_U+30FC 1
 62
   179
420
  2234388
370
     9
  0
POLYLINE
  5
51
330
1F
100
AcDbEntity
  8
_U+30EC_U+30A4_U+30E4_U+30FC 1
 62
   179
420
  2234388
370
     9
100
AcDb2dPolyline
 66
     1
 10
0.0
 20
0.0
 30
0.0
  0
VERTEX
  5
52
330
51
100
AcDbEntity
  8
_U+30EC_U+30A4_U+30E4_U+30FC 1
 62
   179
420
  2234388
370
     9
100
AcDbVertex
100
AcDb2dVertex
 10
101.3385185257501
 20
-133.975968855395
 30
0.0
  0
VERTEX
  5
53
330
51
100
AcDbEntity
  8
_U+30EC_U+30A4_U+30E4_U+30FC 1
 62
   179
420
  2234388
370
     9
100
AcDbVertex
100
AcDb2dVertex
 10
103.7990023518668
 20
-133.975968855395
 30
0.0
  0
SEQEND
  5
54
330
51
100
AcDbEntity
  8
_U+30EC_U+30A4_U+30E4_U+30FC 1
 62
   179
420
  2234388
370
     9
  0
POLYLINE
  5
55
330
1F
100
AcDbEntity
  8
_U+30EC_U+30A4_U+30E4_U+30FC 1
 62
   179
420
  2234388
370
     9
100
AcDb2dPolyline
 66
     1
 10
0.0
 20
0.0
 30
0.0
  0
VERTEX
  5
56
330
55
100
AcDbEntity
  8
_U+30EC_U+30A4_U+30E4_U+30FC 1
 62
   179
420
  2234388
370
     9
100
AcDbVertex
100
AcDb2dVertex
 10
97.33840668335702
 20
-123.9758830245617
 30
0.0
  0
VERTEX
  5
57
330
55
100
AcDbEntity
  8
_U+30EC_U+30A4_U+30E4_U+30FC 1
 62
   179
420
  2234388
370
     9
100
AcDbVertex
100
AcDb2dVertex
 10
103.7990023518668
 20
-123.9758830245617
 30
0.0
  0
SEQEND
  5
58
330
55
100
AcDbEntity
  8
_U+30EC_U+30A4_U+30E4_U+30FC 1
 62
   179
420
  2234388
370
     9
  0
POLYLINE
  5
59
330
1F
100
AcDbEntity
  8
_U+30EC_U+30A4_U+30E4_U+30FC 1
 62
   179
420
  2234388
370
     9
100
AcDb2dPolyline
 66
     1
 10
0.0
 20
0.0
 30
0.0
  0
VERTEX
  5
5A
330
59
100
AcDbEntity
  8
_U+30EC_U+30A4_U+30E4_U+30FC 1
 62
   179
420
  2234388
370
     9
100
AcDbVertex
100
AcDb2dVertex
 10
97.33840668335702
 20
-121.9758446917284
 30
0.0
  0
VERTEX
  5
5B
330
59
100
AcDbEntity
  8
_U+30EC_U+30A4_U+30E4_U+30FC 1
 62
   179
420
  2234388
370
     9
100
AcDbVertex
100
AcDb2dVertex
 10
103.7990023518668
 20
-121.9758446917284
 30
0.0
  0
SEQEND
  5
5C
330
59
100
AcDbEntity
  8
_U+30EC_U+30A4_U+30E4_U+30FC 1
 62
   179
420
  2234388
370
     9
  0
INSERT
  5
5E
330
1F
100
AcDbEntity
  8
_U+30EC_U+30A4_U+30E4_U+30FC 1
100
AcDbBlockReference
  2
block 2
 10
0.0
 20
0.0
 30
0.0
  0
INSERT
  5
64
330
1F
100
AcDbEntity
  8
_U+30EC_U+30A4_U+30E4_U+30FC 1
100
AcDbBlockReference
  2
block 3
 10
0.0
 20
0.0
 30
0.0
  0
INSERT
  5
6D
330
1F
100
AcDbEntity
  8
_U+30EC_U+30A4_U+30E4_U+30FC 1
100
AcDbBlockReference
  2
block 4
 10
0.0
 20
0.0
 30
0.0
  0
POLYLINE
  5
72
330
1F
100
AcDbEntity
  8
_U+30EC_U+30A4_U+30E4_U+30FC 1
 62
   179
420
  2234388
370
     9
100
AcDb2dPolyline
 66
     1
 10
0.0
 20
0.0
 30
0.0
  0
VERTEX
  5
73
330
72
100
AcDbEntity
  8
_U+30EC_U+30A4_U+30E4_U+30FC 1
 62
   179
420
  2234388
370
     9
100
AcDbVertex
100
AcDb2dVertex
 10
75.32563835606064
 20
-138.9765232985889
 30
0.0
  0
VERTEX
  5
74
330
72
100
AcDbEntity
  8
_U+30EC_U+30A4_U+30E4_U+30FC 1
 62
   179
420
  2234388
370
     9
100
AcDbVertex
100
AcDb2dVertex
 10
100.3260110515813
 20
-138.9765232985889
 30
0.0
  0
SEQEND
  5
75
330
72
100
AcDbEntity
  8
_U+30EC_U+30A4_U+30E4_U+30FC 1
 62
   179
420
  2234388
370
     9
  0
POLYLINE
  5
76
330
1F
100
AcDbEntity
  8
_U+30EC_U+30A4_U+30E4_U+30FC 1
 62
   179
420
  2234388
370
     9
100
AcDb2dPolyline
 66
     1
 10
0.0
 20
0.0
 30
0.0
  0
VERTEX
  5
77
330
76
100
AcDbEntity
  8
_U+30EC_U+30A4_U+30E4_U+30FC 1
 62
   179
420
  2234388
370
     9
100
AcDbVertex
100
AcDb2dVertex
 10
75.32563835606064
 20
-137.5164819100652
 30
0.0
  0
VERTEX
  5
78
330
76
100
AcDbEntity
  8
_U+30EC_U+30A4_U+30E4_U+30FC 1
 62
   179
420
  2234388
370
     9
100
AcDbVertex
100
AcDb2dVertex
 10
75.32563835606064
 20
-139.9762955205614
 30
0.0
  0
SEQEND
  5
79
330
76
100
AcDbEntity
  8
_U+30EC_U+30A4_U+30E4_U+30FC 1
 62
   179
420
  2234388
370
     9
  0
POLYLINE
  5
7A
330
1F
100
AcDbEntity
  8
_U+30EC_U+30A4_U+30E4_U+30FC 1
 62
   179
420
  2234388
370
     9
100
AcDb2dPolyline
 66
     1
 10
0.0
 20
0.0
 30
0.0
  0
VERTEX
  5
7B
330
7A
100
AcDbEntity
  8
_U+30EC_U+30A4_U+30E4_U+30FC 1
 62
   179
420
  2234388
370
     9
100
AcDbVertex
100
AcDb2dVertex
 10
100.3260110515813
 20
-137.5164819100652
 30
0.0
  0
VERTEX
  5
7C
330
7A
100
AcDbEntity
  8
_U+30EC_U+30A4_U+30E4_U+30FC 1
 62
   179
420
  2234388
370
     9
100
AcDbVertex
100
AcDb2dVertex
 10
100.3260110515813
 20
-139.9762955205614
 30
0.0
  0
SEQEND
  5
7D
330
7A
100
AcDbEntity
  8
_U+30EC_U+30A4_U+30E4_U+30FC 1
 62
   179
420
  2234388
370
     9
  0
INSERT
  5
7F
330
1F
100
AcDbEntity
  8
_U+30EC_U+30A4_U+30E4_U+30FC 1
100
AcDbBlockReference
  2
block 5
 10
0.0
 20
0.0
 30
0.0
  0
POLYLINE
  5
86
330
1F
100
AcDbEntity
  8
_U+30EC_U+30A4_U+30E4_U+30FC 1
 62
   179
420
  2234388
370
     9
100
AcDb2dPolyline
 66
     1
 10
0.0
 20
0.0
 30
0.0
  0
VERTEX
  5
87
330
86
100
AcDbEntity
  8
_U+30EC_U+30A4_U+30E4_U+30FC 1
 62
   179
420
  2234388
370
     9
100
AcDbVertex
100
AcDb2dVertex
 10
95.32577423470356
 20
-119.5153608034545
 30
0.0
  0
VERTEX
  5
88
330
86
100
AcDbEntity
  8
_U+30EC_U+30A4_U+30E4_U+30FC 1
 62
   179
420
  2234388
370
     9
100
AcDbVertex
100
AcDb2dVertex
 10
80.32583989516154
 20
-119.5153608034545
 30
0.0
  0
SEQEND
  5
89
330
86
100
AcDbEntity
  8
_U+30EC_U+30A4_U+30E4_U+30FC 1
 62
   179
420
  2234388
370
     9
  0
POLYLINE
  5
8A
330
1F
100
AcDbEntity
  8
_U+30EC_U+30A4_U+30E4_U+30FC 1
 62
   179
420
  2234388
370
     9
100
AcDb2dPolyline
 66
     1
 10
0.0
 20
0.0
 30
0.0
  0
VERTEX
  5
8B
330
8A
100
AcDbEntity
  8
_U+30EC_U+30A4_U+30E4_U+30FC 1
 62
   179
420
  2234388
370
     9
100
AcDbVertex
100
AcDb2dVertex
 10
95.32577423470356
 20
-120.9755785808671
 30
0.0
  0
VERTEX
  5
8C
330
8A
100
AcDbEntity
  8
_U+30EC_U+30A4_U+30E4_U+30FC 1
 62
   179
420
  2234388
370
     9
100
AcDbVertex
100
AcDb2dVertex
 10
95.32577423470356
 20
-118.5155885814823
 30
0.0
  0
SEQEND
  5
8D
330
8A
100
AcDbEntity
  8
_U+30EC_U+30A4_U+30E4_U+30FC 1
 62
   179
420
  2234388
370
     9
  0
POLYLINE
  5
8E
330
1F
100
AcDbEntity
  8
_U+30EC_U+30A4_U+30E4_U+30FC 1
 62
   179
420
  2234388
370
     9
100
AcDb2dPolyline
 66
     1
 10
0.0
 20
0.0
 30
0.0
  0
VERTEX
  5
8F
330
8E
100
AcDbEntity
  8
_U+30EC_U+30A4_U+30E4_U+30FC 1
 62
   179
420
  2234388
370
     9
100
AcDbVertex
100
AcDb2dVertex
 10
80.32583989516154
 20
-120.9755785808671
 30
0.0
  0
VERTEX
  5
90
330
8E
100
AcDbEntity
  8
_U+30EC_U+30A4_U+30E4_U+30FC 1
 62
   179
420
  2234388
370
     9
100
AcDbVertex
100
AcDb2dVertex
 10
80.32583989516154
 20
-118.5155885814823
 30
0.0
  0
SEQEND
  5
91
330
8E
100
AcDbEntity
  8
_U+30EC_U+30A4_U+30E4_U+30FC 1
 62
   179
420
  2234388
370
     9
  0
INSERT
  5
93
330
1F
100
AcDbEntity
  8
_U+30EC_U+30A4_U+30E4_U+30FC 1
100
AcDbBlockReference
  2
block 6
 10
0.0
 20
0.0
 30
0.0
  0
POLYLINE
  5
9A
330
1F
100
AcDbEntity
  8
_U+30EC_U+30A4_U+30E4_U+30FC 1
 62
   179
420
  2234388
370
    25
100
AcDb2dPolyline
 66
     1
 10
0.0
 20
0.0
 30
0.0
  0
VERTEX
  5
9B
330
9A
100
AcDbEntity
  8
_U+30EC_U+30A4_U+30E4_U+30FC 1
 62
   179
420
  2234388
370
    25
100
AcDbVertex
100
AcDb2dVertex
 10
100.3304913292448
 20
-134.9760938551447
 30
0.0
  0
VERTEX
  5
9C
330
9A
100
AcDbEntity
  8
_U+30EC_U+30A4_U+30E4_U+30FC 1
 62
   179
420
  2234388
370
    25
100
AcDbVertex
100
AcDb2dVertex
 10
75.32045252285961
 20
-134.9760938551447
 30
0.0
  0
VERTEX
  5
9D
330
9A
100
AcDbEntity
  8
_U+30EC_U+30A4_U+30E4_U+30FC 1
 62
   179
420
  2234388
370
    25
100
AcDbVertex
100
AcDb2dVertex
 10
75.32045252285961
 20
-133.975968855395
 30
0.0
  0
VERTEX
  5
9E
330
9A
100
AcDbEntity
  8
_U+30EC_U+30A4_U+30E4_U+30FC 1
 62
   179
420
  2234388
370
    25
100
AcDbVertex
100
AcDb2dVertex
 10
87.32558582769425
 20
-133.975968855395
 30
0.0
  0
VERTEX
  5
9F
330
9A
100
AcDbEntity
  8
_U+30EC_U+30A4_U+30E4_U+30FC 1
 62
   179
420
  2234388
370
    25
100
AcDbVertex
100
AcDb2dVertex
 10
87.32558582769425
 20
-122.9759696914784
 30
0.0
  0
VERTEX
  5
A0
330
9A
100
AcDbEntity
  8
_U+30EC_U+30A4_U+30E4_U+30FC 1
 62
   179
420
  2234388
370
    25
100
AcDbVertex
100
AcDb2dVertex
 10
81.32561209187745
 20
-122.9759696914784
 30
0.0
  0
VERTEX
  5
A1
330
9A
100
AcDbEntity
  8
_U+30EC_U+30A4_U+30E4_U+30FC 1
 62
   179
420
  2234388
370
    25
100
AcDbVertex
100
AcDb2dVertex
 10
81.32561209187745
 20
-123.9758830245617
 30
0.0
  0
VERTEX
  5
A2
330
9A
100
AcDbEntity
  8
_U+30EC_U+30A4_U+30E4_U+30FC 1
 62
   179
420
  2234388
370
    25
100
AcDbVertex
100
AcDb2dVertex
 10
80.32583989516154
 20
-123.9758830245617
 30
0.0
  0
VERTEX
  5
A3
330
9A
100
AcDbEntity
  8
_U+30EC_U+30A4_U+30E4_U+30FC 1
 62
   179
420
  2234388
370
    25
100
AcDbVertex
100
AcDb2dVertex
 10
80.32583989516154
 20
-121.9758446917284
 30
0.0
  0
VERTEX
  5
A4
330
9A
100
AcDbEntity
  8
_U+30EC_U+30A4_U+30E4_U+30FC 1
 62
   179
420
  2234388
370
    25
100
AcDbVertex
100
AcDb2dVertex
 10
95.32577423470356
 20
-121.9758446917284
 30
0.0
  0
VERTEX
  5
A5
330
9A
100
AcDbEntity
  8
_U+30EC_U+30A4_U+30E4_U+30FC 1
 62
   179
420
  2234388
370
    25
100
AcDbVertex
100
AcDb2dVertex
 10
95.32577423470356
 20
-123.9758830245617
 30
0.0
  0
VERTEX
  5
A6
330
9A
100
AcDbEntity
  8
_U+30EC_U+30A4_U+30E4_U+30FC 1
 62
   179
420
  2234388
370
    25
100
AcDbVertex
100
AcDb2dVertex
 10
94.32533176022697
 20
-123.9758830245617
 30
0.0
  0
VERTEX
  5
A7
330
9A
100
AcDbEntity
  8
_U+30EC_U+30A4_U+30E4_U+30FC 1
 62
   179
420
  2234388
370
    25
100
AcDbVertex
100
AcDb2dVertex
 10
94.32533176022697
 20
-122.9759696914784
 30
0.0
  0
VERTEX
  5
A8
330
9A
100
AcDbEntity
  8
_U+30EC_U+30A4_U+30E4_U+30FC 1
 62
   179
420
  2234388
370
    25
100
AcDbVertex
100
AcDb2dVertex
 10
88.32535802441016
 20
-122.9759696914784
 30
0.0
  0
VERTEX
  5
A9
330
9A
100
AcDbEntity
  8
_U+30EC_U+30A4_U+30E4_U+30FC 1
 62
   179
420
  2234388
370
    25
100
AcDbVertex
100
AcDb2dVertex
 10
88.32535802441016
 20
-133.975968855395
 30
0.0
  0
VERTEX
  5
AA
330
9A
100
AcDbEntity
  8
_U+30EC_U+30A4_U+30E4_U+30FC 1
 62
   179
420
  2234388
370
    25
100
AcDbVertex
100
AcDb2dVertex
 10
100.3304913292448
 20
-133.975968855395
 30
0.0
  0
VERTEX
  5
AB
330
9A
100
AcDbEntity
  8
_U+30EC_U+30A4_U+30E4_U+30FC 1
 62
   179
420
  2234388
370
    25
100
AcDbVertex
100
AcDb2dVertex
 10
100.3304913292448
 20
-134.9760938551447
 30
0.0
  0
SEQEND
  5
AD
330
9A
100
AcDbEntity
  8
_U+30EC_U+30A4_U+30E4_U+30FC 1
 62
   179
420
  2234388
370
    25
  0
HATCH
  5
AC
330
1F
100
AcDbEntity
  8
_U+30EC_U+30A4_U+30E4_U+30FC 1
 62
     9
420
 13224394
100
AcDbHatch
 10
0.0
 20
0.0
 30
0.0
210
0.0
220
0.0
230
1.0
  2
SOLID
 70
     1
 71
     0
 91
        1
 92
        1
 93
       16
 72
     1
 10
100.3304913292448
 20
-134.9760938551447
 11
75.32045252285961
 21
-134.9760938551447
 72
     1
 10
75.32045252285961
 20
-134.9760938551447
 11
75.32045252285961
 21
-133.975968855395
 72
     1
 10
75.32045252285961
 20
-133.975968855395
 11
87.32558582769425
 21
-133.975968855395
 72
     1
 10
87.32558582769425
 20
-133.975968855395
 11
87.32558582769425
 21
-122.9759696914784
 72
     1
 10
87.32558582769425
 20
-122.9759696914784
 11
81.32561209187745
 21
-122.9759696914784
 72
     1
 10
81.32561209187745
 20
-122.9759696914784
 11
81.32561209187745
 21
-123.9758830245617
 72
     1
 10
81.32561209187745
 20
-123.9758830245617
 11
80.32583989516154
 21
-123.9758830245617
 72
     1
 10
80.32583989516154
 20
-123.9758830245617
 11
80.32583989516154
 21
-121.9758446917284
 72
     1
 10
80.32583989516154
 20
-121.9758446917284
 11
95.32577423470356
 21
-121.9758446917284
 72
     1
 10
95.32577423470356
 20
-121.9758446917284
 11
95.32577423470356
 21
-123.9758830245617
 72
     1
 10
95.32577423470356
 20
-123.9758830245617
 11
94.32533176022697
 21
-123.9758830245617
 72
     1
 10
94.32533176022697
 20
-123.9758830245617
 11
94.32533176022697
 21
-122.9759696914784
 72
     1
 10
94.32533176022697
 20
-122.9759696914784
 11
88.32535802441016
 21
-122.9759696914784
 72
     1
 10
88.32535802441016
 20
-122.9759696914784
 11
88.32535802441016
 21
-133.975968855395
 72
     1
 10
88.32535802441016
 20
-133.975968855395
 11
100.3304913292448
 21
-133.975968855395
 72
     1
 10
100.3304913292448
 20
-133.975968855395
 11
100.3304913292448
 21
-134.9760938551447
 97
        0
 75
     2
 76
     1
 98
        0
  0
ENDSEC
  0
SECTION
  2
OBJECTS
  0
DICTIONARY
  5
C
330
0
100
AcDbDictionary
281
     1
  3
ACAD_GROUP
350
D
  3
ACAD_LAYOUT
350
1A
  3
ACAD_MATERIAL
350
3B
  3
ACAD_MLEADERSTYLE
350
AF
  3
ACAD_MLINESTYLE
350
17
  3
ACAD_PLOTSETTINGS
350
19
  3
ACAD_PLOTSTYLENAME
350
E
  3
ACAD_TABLESTYLE
350
AE
  3
ACAD_VISUALSTYLE
350
2A
  0
SUN
  5
3F
330
29
100
AcDbSun
 90
        1
290
     0
 63
     7
421
 16777215
 40
1.0
291
     1
 91
  2455826
 92
 54000000
292
     0
 70
     2
 71
   256
280
     1
  0
DICTIONARY
  5
D
102
{ACAD_REACTORS
330
C
102
}
330
C
100
AcDbDictionary
281
     1
  0
DICTIONARY
  5
1A
102
{ACAD_REACTORS
330
C
102
}
330
C
100
AcDbDictionary
281
     1
  3
Layout1
350
1E
  3
Layout2
350
26
  3
Model
350
22
  0
DICTIONARY
  5
3B
102
{ACAD_REACTORS
330
C
102
}
330
C
100
AcDbDictionary
281
     1
  3
ByBlock
350
3D
  3
ByLayer
350
3C
  3
Global
350
3E
  0
DICTIONARY
  5
AF
102
{ACAD_REACTORS
330
C
102
}
330
C
100
AcDbDictionary
281
     1
  0
DICTIONARY
  5
17
102
{ACAD_REACTORS
330
C
102
}
330
C
100
AcDbDictionary
281
     1
  3
Standard
350
18
  0
DICTIONARY
  5
19
102
{ACAD_REACTORS
330
C
102
}
330
C
100
AcDbDictionary
281
     1
  0
ACDBDICTIONARYWDFLT
  5
E
102
{ACAD_REACTORS
330
C
102
}
330
C
100
AcDbDictionary
281
     1
  3
Normal
350
F
100
AcDbDictionaryWithDefault
340
F
  0
DICTIONARY
  5
AE
102
{ACAD_REACTORS
330
C
102
}
330
C
100
AcDbDictionary
281
     1
  0
DICTIONARY
  5
2A
102
{ACAD_REACTORS
330
C
102
}
330
C
100
AcDbDictionary
281
     1
  3
2dWireframe
350
2F
  3
3D Hidden
350
31
  3
3dWireframe
350
30
  3
Basic
350
32
  3
Brighten
350
36
  3
ColorChange
350
3A
  3
Conceptual
350
34
  3
Dim
350
35
  3
Facepattern
350
39
  3
Flat
350
2B
  3
FlatWithEdges
350
2C
  3
Gouraud
350
2D
  3
GouraudWithEdges
350
2E
  3
Linepattern
350
38
  3
Realistic
350
33
  3
Thicken
350
37
  0
LAYOUT
  5
1E
102
{ACAD_REACTORS
330
1A
102
}
330
1A
100
AcDbPlotSettings
  1

  2
none_device
  4

  6

 40
0.0
 41
0.0
 42
0.0
 43
0.0
 44
0.0
 45
0.0
 46
0.0
 47
0.0
 48
0.0
 49
0.0
140
0.0
141
0.0
142
1.0
143
1.0
 70
   688
 72
     0
 73
     0
 74
     5
  7

 75
    16
 76
     0
 77
     2
 78
   300
147
1.0
148
0.0
149
0.0
100
AcDbLayout
  1
Layout1
 70
     1
 71
     1
 10
0.0
 20
0.0
 11
12.0
 21
9.0
 12
0.0
 22
0.0
 32
0.0
 14
1.000000000000000E+20
 24
1.000000000000000E+20
 34
1.000000000000000E+20
 15
-1.000000000000000E+20
 25
-1.000000000000000E+20
 35
-1.000000000000000E+20
146
0.0
 13
0.0
 23
0.0
 33
0.0
 16
1.0
 26
0.0
 36
0.0
 17
0.0
 27
1.0
 37
0.0
 76
     0
330
1B
  0
LAYOUT
  5
26
102
{ACAD_REACTORS
330
1A
102
}
330
1A
100
AcDbPlotSettings
  1

  2
none_device
  4

  6

 40
0.0
 41
0.0
 42
0.0
 43
0.0
 44
0.0
 45
0.0
 46
0.0
 47
0.0
 48
0.0
 49
0.0
140
0.0
141
0.0
142
1.0
143
1.0
 70
   688
 72
     0
 73
     0
 74
     5
  7

 75
    16
 76
     0
 77
     2
 78
   300
147
1.0
148
0.0
149
0.0
100
AcDbLayout
  1
Layout2
 70
     1
 71
     2
 10
0.0
 20
0.0
 11
0.0
 21
0.0
 12
0.0
 22
0.0
 32
0.0
 14
0.0
 24
0.0
 34
0.0
 15
0.0
 25
0.0
 35
0.0
146
0.0
 13
0.0
 23
0.0
 33
0.0
 16
1.0
 26
0.0
 36
0.0
 17
0.0
 27
1.0
 37
0.0
 76
     0
330
23
  0
LAYOUT
  5
22
102
{ACAD_REACTORS
330
1A
102
}
330
1A
100
AcDbPlotSettings
  1

  2
none_device
  4

  6

 40
0.0
 41
0.0
 42
0.0
 43
0.0
 44
0.0
 45
0.0
 46
0.0
 47
0.0
 48
0.0
 49
0.0
140
0.0
141
0.0
142
1.0
143
1.0
 70
  1712
 72
     0
 73
     0
 74
     0
  7

 75
     0
 76
     0
 77
     2
 78
   300
147
1.0
148
0.0
149
0.0
100
AcDbLayout
  1
Model
 70
     1
 71
     0
 10
0.0
 20
0.0
 11
12.0
 21
9.0
 12
0.0
 22
0.0
 32
0.0
 14
1.000000000000000E+20
 24
1.000000000000000E+20
 34
1.000000000000000E+20
 15
-1.000000000000000E+20
 25
-1.000000000000000E+20
 35
-1.000000000000000E+20
146
0.0
 13
0.0
 23
0.0
 33
0.0
 16
1.0
 26
0.0
 36
0.0
 17
0.0
 27
1.0
 37
0.0
 76
     0
330
1F
331
29
  0
MATERIAL
  5
3D
102
{ACAD_REACTORS
330
3B
102
}
330
3B
100
AcDbMaterial
  1
ByBlock
 72
     1
 94
      127
  0
MATERIAL
  5
3C
102
{ACAD_REACTORS
330
3B
102
}
330
3B
100
AcDbMaterial
  1
ByLayer
 72
     1
 94
      127
  0
MATERIAL
  5
3E
102
{ACAD_REACTORS
330
3B
102
}
330
3B
100
AcDbMaterial
  1
Global
 72
     1
 94
      127
  0
MLINESTYLE
  5
18
102
{ACAD_REACTORS
330
17
102
}
330
17
100
AcDbMlineStyle
  2
Standard
 70
     0
  3

 62
   256
 51
90.0
 52
90.0
 71
     2
 49
0.5
 62
   256
  6
BYLAYER
 49
-0.5
 62
   256
  6
BYLAYER
  0
ACDBPLACEHOLDER
  5
F
102
{ACAD_REACTORS
330
E
102
}
330
E
  0
VISUALSTYLE
  5
2F
102
{ACAD_REACTORS
330
2A
102
}
330
2A
100
AcDbVisualStyle
  2
2dWireframe
 70
     4
177
     2
291
     0
 71
     0
176
     1
 72
     2
176
     1
 73
     0
176
     1
 90
        0
176
     1
 40
-0.6
176
     1
 41
-30.0
176
     1
 62
     5
 63
     7
421
 16777215
176
     1
 74
     1
176
     1
 91
        4
176
     1
 64
     7
176
     1
 65
   257
176
     1
 75
     1
176
     1
175
     1
176
     1
 42
1.0
176
     1
 92
        0
176
     1
 66
   257
176
     1
 43
1.0
176
     1
 76
     1
176
     1
 77
     6
176
     1
 78
     2
176
     1
 67
     7
176
     1
 79
     5
176
     1
170
     0
176
     1
171
     0
176
     1
290
     0
176
     1
 93
        1
176
     1
 44
0.0
176
     1
173
     0
176
     1
  0
VISUALSTYLE
  5
31
102
{ACAD_REACTORS
330
2A
102
}
330
2A
100
AcDbVisualStyle
  2
3D Hidden
 70
     6
177
     2
291
     0
 71
     1
176
     1
 72
     2
176
     1
 73
     2
176
     1
 90
        0
176
     1
 40
-0.6
176
     1
 41
-30.0
176
     1
 62
     5
 63
     7
421
 16777215
176
     1
 74
     2
176
     1
 91
        2
176
     1
 64
     7
176
     1
 65
   257
176
     1
 75
     2
176
     1
175
     1
176
     1
 42
40.0
176
     1
 92
        0
176
     1
 66
   257
176
     1
 43
1.0
176
     1
 76
     1
176
     1
 77
     6
176
     1
 78
     2
176
     1
 67
     7
176
     1
 79
     3
176
     1
170
     0
176
     1
171
     0
176
     1
290
     0
176
     1
 93
        1
176
     1
 44
0.0
176
     1
173
     0
176
     1
  0
VISUALSTYLE
  5
30
102
{ACAD_REACTORS
330
2A
102
}
330
2A
100
AcDbVisualStyle
  2
3dWireframe
 70
     5
177
     2
291
     0
 71
     0
176
     1
 72
     2
176
     1
 73
     0
176
     1
 90
        0
176
     1
 40
-0.6
176
     1
 41
-30.0
176
     1
 62
     5
 63
     7
421
 16777215
176
     1
 74
     1
176
     1
 91
        4
176
     1
 64
     7
176
     1
 65
   257
176
     1
 75
     1
176
     1
175
     1
176
     1
 42
1.0
176
     1
 92
        0
176
     1
 66
   257
176
     1
 43
1.0
176
     1
 76
     1
176
     1
 77
     6
176
     1
 78
     2
176
     1
 67
     7
176
     1
 79
     5
176
     1
170
     0
176
     1
171
     0
176
     1
290
     0
176
     1
 93
        1
176
     1
 44
0.0
176
     1
173
     0
176
     1
  0
VISUALSTYLE
  5
32
102
{ACAD_REACTORS
330
2A
102
}
330
2A
100
AcDbVisualStyle
  2
Basic
 70
     7
177
     2
291
     1
 71
     1
176
     1
 72
     0
176
     1
 73
     1
176
     1
 90
        0
176
     1
 40
-0.6
176
     1
 41
-30.0
176
     1
 62
     5
 63
     7
421
 16777215
176
     1
 74
     0
176
     1
 91
        4
176
     1
 64
     7
176
     1
 65
   257
176
     1
 75
     1
176
     1
175
     1
176
     1
 42
1.0
176
     1
 92
        8
176
     1
 66
     7
176
     1
 43
1.0
176
     1
 76
     1
176
     1
 77
     6
176
     1
 78
     2
176
     1
 67
     7
176
     1
 79
     5
176
     1
170
     0
176
     1
171
     0
176
     1
290
     0
176
     1
 93
        1
176
     1
 44
0.0
176
     1
173
     0
176
     1
  0
VISUALSTYLE
  5
36
102
{ACAD_REACTORS
330
2A
102
}
330
2A
100
AcDbVisualStyle
  2
Brighten
 70
    12
177
     2
291
     1
 71
     2
176
     1
 72
     2
176
     1
 73
     0
176
     1
 90
        0
176
     1
 40
-0.6
176
     1
 41
-30.0
176
     1
 62
     5
 63
     7
421
 16777215
176
     1
 74
     1
176
     1
 91
        4
176
     1
 64
     7
176
     1
 65
   257
176
     1
 75
     1
176
     1
175
     1
176
     1
 42
1.0
176
     1
 92
        8
176
     1
 66
     7
176
     1
 43
1.0
176
     1
 76
     1
176
     1
 77
     6
176
     1
 78
     2
176
     1
 67
     7
176
     1
 79
     5
176
     1
170
     0
176
     1
171
     0
176
     1
290
     0
176
     1
 93
        1
176
     1
 44
50.0
176
     1
173
     0
176
     1
  0
VISUALSTYLE
  5
3A
102
{ACAD_REACTORS
330
2A
102
}
330
2A
100
AcDbVisualStyle
  2
ColorChange
 70
    16
177
     2
291
     1
 71
     2
176
     1
 72
     2
176
     1
 73
     3
176
     1
 90
        0
176
     1
 40
-0.6
176
     1
 41
-30.0
176
     1
 62
     5
 63
     8
421
  8421504
176
     1
 74
     1
176
     1
 91
        4
176
     1
 64
     7
176
     1
 65
   257
176
     1
 75
     1
176
     1
175
     1
176
     1
 42
1.0
176
     1
 92
        8
176
     1
 66
     8
424
  8421504
176
     1
 43
1.0
176
     1
 76
     1
176
     1
 77
     6
176
     1
 78
     2
176
     1
 67
     7
176
     1
 79
     5
176
     1
170
     0
176
     1
171
     0
176
     1
290
     0
176
     1
 93
        1
176
     1
 44
0.0
176
     1
173
     0
176
     1
  0
VISUALSTYLE
  5
34
102
{ACAD_REACTORS
330
2A
102
}
330
2A
100
AcDbVisualStyle
  2
Conceptual
 70
     9
177
     2
291
     0
 71
     3
176
     1
 72
     2
176
     1
 73
     0
176
     1
 90
        0
176
     1
 40
-0.6
176
     1
 41
-30.0
176
     1
 62
     5
 63
     7
421
 16777215
176
     1
 74
     2
176
     1
 91
        2
176
     1
 64
     7
176
     1
 65
   257
176
     1
 75
     1
176
     1
175
     1
176
     1
 42
40.0
176
     1
 92
        8
176
     1
 66
     7
176
     1
 43
1.0
176
     1
 76
     1
176
     1
 77
     6
176
     1
 78
     2
176
     1
 67
     7
176
     1
 79
     3
176
     1
170
     0
176
     1
171
     0
176
     1
290
     0
176
     1
 93
        1
176
     1
 44
0.0
176
     1
173
     0
176
     1
  0
VISUALSTYLE
  5
35
102
{ACAD_REACTORS
330
2A
102
}
330
2A
100
AcDbVisualStyle
  2
Dim
 70
    11
177
     2
291
     1
 71
     2
176
     1
 72
     2
176
     1
 73
     0
176
     1
 90
        0
176
     1
 40
-0.6
176
     1
 41
-30.0
176
     1
 62
     5
 63
     7
421
 16777215
176
     1
 74
     1
176
     1
 91
        4
176
     1
 64
     7
176
     1
 65
   257
176
     1
 75
     1
176
     1
175
     1
176
     1
 42
1.0
176
     1
 92
        8
176
     1
 66
     7
176
     1
 43
1.0
176
     1
 76
     1
176
     1
 77
     6
176
     1
 78
     2
176
     1
 67
     7
176
     1
 79
     5
176
     1
170
     0
176
     1
171
     0
176
     1
290
     0
176
     1
 93
        1
176
     1
 44
-50.0
176
     1
173
     0
176
     1
  0
VISUALSTYLE
  5
39
102
{ACAD_REACTORS
330
2A
102
}
330
2A
100
AcDbVisualStyle
  2
Facepattern
 70
    15
177
     2
291
     1
 71
     2
176
     1
 72
     2
176
     1
 73
     0
176
     1
 90
        0
176
     1
 40
-0.6
176
     1
 41
-30.0
176
     1
 62
     5
 63
     7
421
 16777215
176
     1
 74
     1
176
     1
 91
        4
176
     1
 64
     7
176
     1
 65
   257
176
     1
 75
     1
176
     1
175
     1
176
     1
 42
1.0
176
     1
 92
        8
176
     1
 66
     7
176
     1
 43
1.0
176
     1
 76
     1
176
     1
 77
     6
176
     1
 78
     2
176
     1
 67
     7
176
     1
 79
     5
176
     1
170
     0
176
     1
171
     0
176
     1
290
     0
176
     1
 93
        1
176
     1
 44
0.0
176
     1
173
     0
176
     1
  0
VISUALSTYLE
  5
2B
102
{ACAD_REACTORS
330
2A
102
}
330
2A
100
AcDbVisualStyle
  2
Flat
 70
     0
177
     2
291
     1
 71
     2
176
     1
 72
     1
176
     1
 73
     1
176
     1
 90
        2
176
     1
 40
-0.6
176
     1
 41
30.0
176
     1
 62
     5
 63
     7
421
 16777215
176
     1
 74
     0
176
     1
 91
        4
176
     1
 64
     7
176
     1
 65
   257
176
     1
 75
     1
176
     1
175
     1
176
     1
 42
1.0
176
     1
 92
        8
176
     1
 66
     7
176
     1
 43
1.0
176
     1
 76
     1
176
     1
 77
     6
176
     1
 78
     2
176
     1
 67
     7
176
     1
 79
     5
176
     1
170
     0
176
     1
171
     0
176
     1
290
     0
176
     1
 93
       13
176
     1
 44
0.0
176
     1
173
     0
176
     1
  0
VISUALSTYLE
  5
2C
102
{ACAD_REACTORS
330
2A
102
}
330
2A
100
AcDbVisualStyle
  2
FlatWithEdges
 70
     1
177
     2
291
     1
 71
     2
176
     1
 72
     1
176
     1
 73
     1
176
     1
 90
        2
176
     1
 40
-0.6
176
     1
 41
30.0
176
     1
 62
     5
 63
     7
421
 16777215
176
     1
 74
     1
176
     1
 91
        4
176
     1
 64
     7
176
     1
 65
   257
176
     1
 75
     1
176
     1
175
     1
176
     1
 42
1.0
176
     1
 92
        0
176
     1
 66
   257
176
     1
 43
1.0
176
     1
 76
     1
176
     1
 77
     6
176
     1
 78
     2
176
     1
 67
     7
176
     1
 79
     5
176
     1
170
     0
176
     1
171
     0
176
     1
290
     0
176
     1
 93
       13
176
     1
 44
0.0
176
     1
173
     0
176
     1
  0
VISUALSTYLE
  5
2D
102
{ACAD_REACTORS
330
2A
102
}
330
2A
100
AcDbVisualStyle
  2
Gouraud
 70
     2
177
     2
291
     1
 71
     2
176
     1
 72
     2
176
     1
 73
     1
176
     1
 90
        2
176
     1
 40
-0.6
176
     1
 41
30.0
176
     1
 62
     5
 63
     7
421
 16777215
176
     1
 74
     0
176
     1
 91
        4
176
     1
 64
     7
176
     1
 65
   257
176
     1
 75
     1
176
     1
175
     1
176
     1
 42
1.0
176
     1
 92
        0
176
     1
 66
     7
176
     1
 43
1.0
176
     1
 76
     1
176
     1
 77
     6
176
     1
 78
     2
176
     1
 67
     7
176
     1
 79
     5
176
     1
170
     0
176
     1
171
     0
176
     1
290
     0
176
     1
 93
       13
176
     1
 44
0.0
176
     1
173
     0
176
     1
  0
VISUALSTYLE
  5
2E
102
{ACAD_REACTORS
330
2A
102
}
330
2A
100
AcDbVisualStyle
  2
GouraudWithEdges
 70
     3
177
     2
291
     1
 71
     2
176
     1
 72
     2
176
     1
 73
     1
176
     1
 90
        2
176
     1
 40
-0.6
176
     1
 41
30.0
176
     1
 62
     5
 63
     7
421
 16777215
176
     1
 74
     1
176
     1
 91
        4
176
     1
 64
     7
176
     1
 65
   257
176
     1
 75
     1
176
     1
175
     1
176
     1
 42
1.0
176
     1
 92
        0
176
     1
 66
   257
176
     1
 43
1.0
176
     1
 76
     1
176
     1
 77
     6
176
     1
 78
     2
176
     1
 67
     7
176
     1
 79
     5
176
     1
170
     0
176
     1
171
     0
176
     1
290
     0
176
     1
 93
       13
176
     1
 44
0.0
176
     1
173
     0
176
     1
  0
VISUALSTYLE
  5
38
102
{ACAD_REACTORS
330
2A
102
}
330
2A
100
AcDbVisualStyle
  2
Linepattern
 70
    14
177
     2
291
     1
 71
     2
176
     1
 72
     2
176
     1
 73
     0
176
     1
 90
        0
176
     1
 40
-0.6
176
     1
 41
-30.0
176
     1
 62
     5
 63
     7
421
 16777215
176
     1
 74
     1
176
     1
 91
        4
176
     1
 64
     7
176
     1
 65
   257
176
     1
 75
     7
176
     1
175
     7
176
     1
 42
1.0
176
     1
 92
        8
176
     1
 66
     7
176
     1
 43
1.0
176
     1
 76
     1
176
     1
 77
     6
176
     1
 78
     2
176
     1
 67
     7
176
     1
 79
     5
176
     1
170
     0
176
     1
171
     0
176
     1
290
     0
176
     1
 93
        1
176
     1
 44
0.0
176
     1
173
     0
176
     1
  0
VISUALSTYLE
  5
33
102
{ACAD_REACTORS
330
2A
102
}
330
2A
100
AcDbVisualStyle
  2
Realistic
 70
     8
177
     2
291
     0
 71
     2
176
     1
 72
     2
176
     1
 73
     0
176
     1
 90
        0
176
     1
 40
-0.6
176
     1
 41
-30.0
176
     1
 62
     5
 63
     7
421
 16777215
176
     1
 74
     1
176
     1
 91
        0
176
     1
 64
     7
176
     1
 65
   257
176
     1
 75
     1
176
     1
175
     1
176
     1
 42
1.0
176
     1
 92
        8
176
     1
 66
     8
424
  7895160
176
     1
 43
1.0
176
     1
 76
     1
176
     1
 77
     6
176
     1
 78
     2
176
     1
 67
     7
176
     1
 79
     5
176
     1
170
     0
176
     1
171
     0
176
     1
290
     0
176
     1
 93
       13
176
     1
 44
0.0
176
     1
173
     0
176
     1
  0
VISUALSTYLE
  5
37
102
{ACAD_REACTORS
330
2A
102
}
330
2A
100
AcDbVisualStyle
  2
Thicken
 70
    13
177
     2
291
     1
 71
     2
176
     1
 72
     2
176
     1
 73
     0
176
     1
 90
        0
176
     1
 40
-0.6
176
     1
 41
-30.0
176
     1
 62
     5
 63
     7
421
 16777215
176
     1
 74
     1
176
     1
 91
        4
176
     1
 64
     7
176
     1
 65
   257
176
     1
 75
     1
176
     1
175
     1
176
     1
 42
1.0
176
     1
 92
       12
176
     1
 66
     7
176
     1
 43
1.0
176
     1
 76
     1
176
     1
 77
     6
176
     1
 78
     2
176
     1
 67
     7
176
     1
 79
     5
176
     1
170
     0
176
     1
171
     0
176
     1
290
     0
176
     1
 93
        1
176
     1
 44
0.0
176
     1
173
     0
176
     1
  0
ENDSEC
  0
EOF
