  0
SECTION
  2
HEADER
  9
$ACADVER
  1
AC1024
  9
$ACADMAINTVER
 70
     6
  9
$DWGCODEPAGE
  3
UNDEFINED
  9
$INSBASE
 10
0.0
 20
0.0
 30
0.0
  9
$EXTMIN
 10
1.000000000000000E+20
 20
1.000000000000000E+20
 30
1.000000000000000E+20
  9
$EXTMAX
 10
-1.000000000000000E+20
 20
-1.000000000000000E+20
 30
-1.000000000000000E+20
  9
$LIMMIN
 10
0.0
 20
0.0
  9
$LIMMAX
 10
12.0
 20
9.0
  9
$ORTHOMODE
 70
     0
  9
$REGENMODE
 70
     1
  9
$FILLMODE
 70
     1
  9
$QTEXTMODE
 70
     0
  9
$MIRRTEXT
 70
     1
  9
$LTSCALE
 40
1.0
  9
$ATTMODE
 70
     1
  9
$TEXTSIZE
 40
0.2
  9
$TRACEWID
 40
0.05
  9
$TEXTSTYLE
  7
Standard
  9
$CLAYER
  8
0
  9
$CELTYPE
  6
ByLayer
  9
$CECOLOR
 62
   256
  9
$CELTSCALE
 40
1.0
  9
$DISPSILH
 70
     0
  9
$DIMSCALE
 40
1.0
  9
$DIMASZ
 40
0.18
  9
$DIMEXO
 40
0.0625
  9
$DIMDLI
 40
0.38
  9
$DIMRND
 40
0.0
  9
$DIMDLE
 40
0.0
  9
$DIMEXE
 40
0.18
  9
$DIMTP
 40
0.0
  9
$DIMTM
 40
0.0
  9
$DIMTXT
 40
0.18
  9
$DIMCEN
 40
0.09
  9
$DIMTSZ
 40
0.0
  9
$DIMTOL
 70
     0
  9
$DIMLIM
 70
     0
  9
$DIMTIH
 70
     1
  9
$DIMTOH
 70
     1
  9
$DIMSE1
 70
     0
  9
$DIMSE2
 70
     0
  9
$DIMTAD
 70
     0
  9
$DIMZIN
 70
     0
  9
$DIMBLK
  1

  9
$DIMASO
 70
     1
  9
$DIMSHO
 70
     1
  9
$DIMPOST
  1

  9
$DIMAPOST
  1

  9
$DIMALT
 70
     0
  9
$DIMALTD
 70
     2
  9
$DIMALTF
 40
25.4
  9
$DIMLFAC
 40
1.0
  9
$DIMTOFL
 70
     0
  9
$DIMTVP
 40
0.0
  9
$DIMTIX
 70
     0
  9
$DIMSOXD
 70
     0
  9
$DIMSAH
 70
     0
  9
$DIMBLK1
  1

  9
$DIMBLK2
  1

  9
$DIMSTYLE
  2
Standard
  9
$DIMCLRD
 70
     0
  9
$DIMCLRE
 70
     0
  9
$DIMCLRT
 70
     0
  9
$DIMTFAC
 40
1.0
  9
$DIMGAP
 40
0.09
  9
$DIMJUST
 70
     0
  9
$DIMSD1
 70
     0
  9
$DIMSD2
 70
     0
  9
$DIMTOLJ
 70
     1
  9
$DIMTZIN
 70
     0
  9
$DIMALTZ
 70
     0
  9
$DIMALTTZ
 70
     0
  9
$DIMUPT
 70
     0
  9
$DIMDEC
 70
     4
  9
$DIMTDEC
 70
     4
  9
$DIMALTU
 70
     2
  9
$DIMALTTD
 70
     2
  9
$DIMTXSTY
  7
Standard
  9
$DIMAUNIT
 70
     0
  9
$DIMADEC
 70
     0
  9
$DIMALTRND
 40
0.0
  9
$DIMAZIN
 70
     0
  9
$DIMDSEP
 70
    46
  9
$DIMATFIT
 70
     3
  9
$DIMFRAC
 70
     0
  9
$DIMLDRBLK
  1

  9
$DIMLUNIT
 70
     2
  9
$DIMLWD
 70
    -2
  9
$DIMLWE
 70
    -2
  9
$DIMTMOVE
 70
     0
  9
$DIMFXL
 40
1.0
  9
$DIMFXLON
 70
     0
  9
$DIMJOGANG
 40
0.7853981633974483
  9
$DIMTFILL
 70
     0
  9
$DIMTFILLCLR
 70
     0
  9
$DIMARCSYM
 70
     0
  9
$DIMLTYPE
  6

  9
$DIMLTEX1
  6

  9
$DIMLTEX2
  6

  9
$DIMTXTDIRECTION
 70
     0
  9
$LUNITS
 70
     2
  9
$LUPREC
 70
     4
  9
$SKETCHINC
 40
0.1
  9
$FILLETRAD
 40
0.5
  9
$AUNITS
 70
     0
  9
$AUPREC
 70
     0
  9
$MENU
  1
.
  9
$ELEVATION
 40
0.0
  9
$PELEVATION
 40
0.0
  9
$THICKNESS
 40
0.0
  9
$LIMCHECK
 70
     0
  9
$CHAMFERA
 40
0.5
  9
$CHAMFERB
 40
0.5
  9
$CHAMFERC
 40
1.0
  9
$CHAMFERD
 40
0.0
  9
$SKPOLY
 70
     0
  9
$TDCREATE
 40
2457917.621620371
  9
$TDUCREATE
 40
2457917.246620371
  9
$TDUPDATE
 40
2457917.621620371
  9
$TDUUPDATE
 40
2457917.246620371
  9
$TDINDWG
 40
0.0000000116
  9
$TDUSRTIMER
 40
0.0000000116
  9
$USRTIMER
 70
     1
  9
$ANGBASE
 50
0.0
  9
$ANGDIR
 70
     0
  9
$PDMODE
 70
     0
  9
$PDSIZE
 40
0.0
  9
$PLINEWID
 40
0.0
  9
$SPLFRAME
 70
     0
  9
$SPLINETYPE
 70
     6
  9
$SPLINESEGS
 70
     8
  9
$HANDSEED
  5
91
  9
$SURFTAB1
 70
     6
  9
$SURFTAB2
 70
     6
  9
$SURFTYPE
 70
     6
  9
$SURFU
 70
     6
  9
$SURFV
 70
     6
  9
$UCSBASE
  2

  9
$UCSNAME
  2

  9
$UCSORG
 10
0.0
 20
0.0
 30
0.0
  9
$UCSXDIR
 10
1.0
 20
0.0
 30
0.0
  9
$UCSYDIR
 10
0.0
 20
1.0
 30
0.0
  9
$UCSORTHOREF
  2

  9
$UCSORTHOVIEW
 70
     0
  9
$UCSORGTOP
 10
0.0
 20
0.0
 30
0.0
  9
$UCSORGBOTTOM
 10
0.0
 20
0.0
 30
0.0
  9
$UCSORGLEFT
 10
0.0
 20
0.0
 30
0.0
  9
$UCSORGRIGHT
 10
0.0
 20
0.0
 30
0.0
  9
$UCSORGFRONT
 10
0.0
 20
0.0
 30
0.0
  9
$UCSORGBACK
 10
0.0
 20
0.0
 30
0.0
  9
$PUCSBASE
  2

  9
$PUCSNAME
  2

  9
$PUCSORG
 10
0.0
 20
0.0
 30
0.0
  9
$PUCSXDIR
 10
1.0
 20
0.0
 30
0.0
  9
$PUCSYDIR
 10
0.0
 20
1.0
 30
0.0
  9
$PUCSORTHOREF
  2

  9
$PUCSORTHOVIEW
 70
     0
  9
$PUCSORGTOP
 10
0.0
 20
0.0
 30
0.0
  9
$PUCSORGBOTTOM
 10
0.0
 20
0.0
 30
0.0
  9
$PUCSORGLEFT
 10
0.0
 20
0.0
 30
0.0
  9
$PUCSORGRIGHT
 10
0.0
 20
0.0
 30
0.0
  9
$PUCSORGFRONT
 10
0.0
 20
0.0
 30
0.0
  9
$PUCSORGBACK
 10
0.0
 20
0.0
 30
0.0
  9
$USERI1
 70
     0
  9
$USERI2
 70
     0
  9
$USERI3
 70
     0
  9
$USERI4
 70
     0
  9
$USERI5
 70
     0
  9
$USERR1
 40
0.0
  9
$USERR2
 40
0.0
  9
$USERR3
 40
0.0
  9
$USERR4
 40
0.0
  9
$USERR5
 40
0.0
  9
$WORLDVIEW
 70
     1
  9
$SHADEDGE
 70
     3
  9
$SHADEDIF
 70
    70
  9
$TILEMODE
 70
     1
  9
$MAXACTVP
 70
    64
  9
$PINSBASE
 10
0.0
 20
0.0
 30
0.0
  9
$PLIMCHECK
 70
     0
  9
$PEXTMIN
 10
1.000000000000000E+20
 20
1.000000000000000E+20
 30
1.000000000000000E+20
  9
$PEXTMAX
 10
-1.000000000000000E+20
 20
-1.000000000000000E+20
 30
-1.000000000000000E+20
  9
$PLIMMIN
 10
0.0
 20
0.0
  9
$PLIMMAX
 10
12.0
 20
9.0
  9
$UNITMODE
 70
     0
  9
$VISRETAIN
 70
     1
  9
$PLINEGEN
 70
     0
  9
$PSLTSCALE
 70
     1
  9
$TREEDEPTH
 70
  3020
  9
$CMLSTYLE
  2
Standard
  9
$CMLJUST
 70
     0
  9
$CMLSCALE
 40
1.0
  9
$PROXYGRAPHICS
 70
     1
  9
$MEASUREMENT
 70
     0
  9
$CELWEIGHT
370
    -1
  9
$ENDCAPS
280
     0
  9
$JOINSTYLE
280
     0
  9
$LWDISPLAY
290
     1
  9
$INSUNITS
 70
     1
  9
$HYPERLINKBASE
  1

  9
$STYLESHEET
  1

  9
$XEDIT
290
     1
  9
$CEPSNTYPE
380
     0
  9
$PSTYLEMODE
290
     1
  9
$FINGERPRINTGUID
  2
{CD54601F-3A09-418B-B0F2-F433602F681C}
  9
$VERSIONGUID
  2
{FAEB1C32-E019-11D5-929B-00C0DF256EC4}
  9
$EXTNAMES
290
     1
  9
$PSVPSCALE
 40
0.0
  9
$OLESTARTUP
290
     0
  9
$SORTENTS
280
   127
  9
$INDEXCTL
280
     0
  9
$HIDETEXT
280
     1
  9
$XCLIPFRAME
280
     2
  9
$HALOGAP
280
     0
  9
$OBSCOLOR
 70
   257
  9
$OBSLTYPE
280
     0
  9
$INTERSECTIONDISPLAY
280
     0
  9
$INTERSECTIONCOLOR
 70
   257
  9
$DIMASSOC
280
     2
  9
$PROJECTNAME
  1

  9
$CAMERADISPLAY
290
     0
  9
$LENSLENGTH
 40
50.0
  9
$CAMERAHEIGHT
 40
0.0
  9
$STEPSPERSEC
 40
2.0
  9
$STEPSIZE
 40
6.0
  9
$3DDWFPREC
 40
2.0
  9
$PSOLWIDTH
 40
0.25
  9
$PSOLHEIGHT
 40
4.0
  9
$LOFTANG1
 40
1.570796326794897
  9
$LOFTANG2
 40
1.570796326794897
  9
$LOFTMAG1
 40
0.0
  9
$LOFTMAG2
 40
0.0
  9
$LOFTPARAM
 70
     7
  9
$LOFTNORMALS
280
     1
  9
$LATITUDE
 40
37.795
  9
$LONGITUDE
 40
-122.394
  9
$NORTHDIRECTION
 40
0.0
  9
$TIMEZONE
 70
 -8000
  9
$LIGHTGLYPHDISPLAY
280
     1
  9
$TILEMODELIGHTSYNCH
280
     1
  9
$CMATERIAL
347
3C
  9
$SOLIDHIST
280
     1
  9
$SHOWHIST
280
     1
  9
$DWFFRAME
280
     2
  9
$DGNFRAME
280
     2
  9
$REALWORLDSCALE
290
     1
  9
$INTERFERECOLOR
 62
   256
  9
$CSHADOW
280
     0
  9
$SHADOWPLANELOCATION
 40
0.0
  0
ENDSEC
  0
SECTION
  2
CLASSES
  0
CLASS
  1
ACDBDICTIONARYWDFLT
  2
AcDbDictionaryWithDefault
  3
ObjectDBX Classes
 90
        0
 91
        4
280
     0
281
     0
  0
CLASS
  1
VISUALSTYLE
  2
AcDbVisualStyle
  3
ObjectDBX Classes
 90
     4095
 91
        4
280
     0
281
     0
  0
CLASS
  1
MATERIAL
  2
AcDbMaterial
  3
ObjectDBX Classes
 90
     1153
 91
        4
280
     0
281
     0
  0
CLASS
  1
SUN
  2
AcDbSun
  3
SCENEOE
 90
     1024
 91
        4
280
     0
281
     0
  0
ENDSEC
  0
SECTION
  2
TABLES
  0
TABLE
  2
VPORT
  5
8
330
0
100
AcDbSymbolTable
 70
     1
  0
VPORT
  5
29
330
8
100
AcDbSymbolTableRecord
100
AcDbViewportTableRecord
  2
*Active
 70
     0
 10
0.0
 20
0.0
 11
1.0
 21
1.0
 12
0.0
 22
0.0
 13
0.0
 23
0.0
 14
0.5
 24
0.5
 15
0.5
 25
0.5
 16
0.0
 26
0.0
 36
1.0
 17
91.00082462281999
 27
-128.4993055234307
 37
0.0
 40
256.9986110468615
 41
0.7081814508812795
 42
50.0
 43
0.0
 44
0.0
 50
0.0
 51
0.0
 71
     0
 72
   100
 73
     1
 74
     3
 75
     0
 76
     0
 77
     0
 78
     0
281
     0
 65
     1
110
0.0
120
0.0
130
0.0
111
1.0
121
0.0
131
0.0
112
0.0
122
1.0
132
0.0
 79
     0
146
0.0
 60
     3
 61
     5
292
     1
282
     1
141
0.0
142
0.0
 63
   250
361
3F
  0
ENDTAB
  0
TABLE
  2
LTYPE
  5
5
330
0
100
AcDbSymbolTable
 70
     1
  0
LTYPE
  5
14
330
5
100
AcDbSymbolTableRecord
100
AcDbLinetypeTableRecord
  2
ByBlock
 70
     0
  3

 72
    65
 73
     0
 40
0.0
  0
LTYPE
  5
15
330
5
100
AcDbSymbolTableRecord
100
AcDbLinetypeTableRecord
  2
ByLayer
 70
     0
  3

 72
    65
 73
     0
 40
0.0
  0
LTYPE
  5
16
330
5
100
AcDbSymbolTableRecord
100
AcDbLinetypeTableRecord
  2
Continuous
 70
     0
  3
Solid line
 72
    65
 73
     0
 40
0.0
  0
ENDTAB
  0
TABLE
  2
LAYER
  5
2
330
0
100
AcDbSymbolTable
 70
     2
  0
LAYER
  5
10
330
2
100
AcDbSymbolTableRecord
100
AcDbLayerTableRecord
  2
0
 70
     0
 62
     7
  6
Continuous
370
    -3
390
F
347
3E
  0
LAYER
  5
40
330
2
100
AcDbSymbolTableRecord
100
AcDbLayerTableRecord
  2
_U+30EC_U+30A4_U+30E4_U+30FC 1
 70
     0
 62
     7
  6
Continuous
370
    -3
390
F
347
3E
  0
ENDTAB
  0
TABLE
  2
STYLE
  5
3
330
0
100
AcDbSymbolTable
 70
     1
  0
STYLE
  5
11
330
3
100
AcDbSymbolTableRecord
100
AcDbTextStyleTableRecord
  2
Standard
 70
     0
 40
0.0
 41
1.0
 50
0.0
 71
     0
 42
0.2
  3
txt
  4

  0
ENDTAB
  0
TABLE
  2
VIEW
  5
6
330
0
100
AcDbSymbolTable
 70
     0
  0
ENDTAB
  0
TABLE
  2
UCS
  5
7
330
0
100
AcDbSymbolTable
 70
     0
  0
ENDTAB
  0
TABLE
  2
APPID
  5
9
330
0
100
AcDbSymbolTable
 70
     1
  0
APPID
  5
12
330
9
100
AcDbSymbolTableRecord
100
AcDbRegAppTableRecord
  2
ACAD
 70
     0
  0
ENDTAB
  0
TABLE
  2
DIMSTYLE
  5
A
330
0
100
AcDbSymbolTable
 70
     1
100
AcDbDimStyleTable
  0
DIMSTYLE
105
27
330
A
100
AcDbSymbolTableRecord
100
AcDbDimStyleTableRecord
  2
Standard
 70
     0
178
     0
340
11
  0
ENDTAB
  0
TABLE
  2
BLOCK_RECORD
  5
1
330
0
100
AcDbSymbolTable
 70
     5
  0
BLOCK_RECORD
  5
1F
330
1
100
AcDbSymbolTableRecord
100
AcDbBlockTableRecord
  2
*Model_Space
340
22
 70
     0
280
     1
281
     0
  0
BLOCK_RECORD
  5
1B
330
1
100
AcDbSymbolTableRecord
100
AcDbBlockTableRecord
  2
*Paper_Space
340
1E
 70
     0
280
     1
281
     0
  0
BLOCK_RECORD
  5
23
330
1
100
AcDbSymbolTableRecord
100
AcDbBlockTableRecord
  2
*Paper_Space0
340
26
 70
     0
280
     1
281
     0
  0
BLOCK_RECORD
  5
56
330
1
100
AcDbSymbolTableRecord
100
AcDbBlockTableRecord
  2
block 2
340
0
102
{BLKREFS
331
57
102
}
 70
     0
280
     1
281
     0
  0
BLOCK_RECORD
  5
5C
330
1
100
AcDbSymbolTableRecord
100
AcDbBlockTableRecord
  2
block 3
340
0
102
{BLKREFS
331
5D
102
}
 70
     0
280
     1
281
     0
  0
BLOCK_RECORD
  5
6D
330
1
100
AcDbSymbolTableRecord
100
AcDbBlockTableRecord
  2
block 4
340
0
102
{BLKREFS
331
6E
102
}
 70
     0
280
     1
281
     0
  0
BLOCK_RECORD
  5
74
330
1
100
AcDbSymbolTableRecord
100
AcDbBlockTableRecord
  2
block 5
340
0
102
{BLKREFS
331
75
102
}
 70
     0
280
     1
281
     0
  0
ENDTAB
  0
ENDSEC
  0
SECTION
  2
BLOCKS
  0
BLOCK
  5
20
330
1F
100
AcDbEntity
  8
0
100
AcDbBlockBegin
  2
*Model_Space
 70
     0
 10
0.0
 20
0.0
 30
0.0
  3
*Model_Space
  1

  0
ENDBLK
  5
21
330
1F
100
AcDbEntity
  8
0
100
AcDbBlockEnd
  0
BLOCK
  5
1C
330
1B
100
AcDbEntity
 67
     1
  8
0
100
AcDbBlockBegin
  2
*Paper_Space
 70
     0
 10
0.0
 20
0.0
 30
0.0
  3
*Paper_Space
  1

  0
ENDBLK
  5
1D
330
1B
100
AcDbEntity
 67
     1
  8
0
100
AcDbBlockEnd
  0
BLOCK
  5
24
330
23
100
AcDbEntity
  8
0
100
AcDbBlockBegin
  2
*Paper_Space0
 70
     0
 10
0.0
 20
0.0
 30
0.0
  3
*Paper_Space0
  1

  0
ENDBLK
  5
25
330
23
100
AcDbEntity
  8
0
100
AcDbBlockEnd
  0
BLOCK
  5
58
330
56
100
AcDbEntity
  8
0
100
AcDbBlockBegin
  2
block 2
 70
     0
 10
0.0
 20
0.0
 30
0.0
  3
block 2
  1

  0
SPLINE
  5
5A
330
56
100
AcDbEntity
  8
_U+30EC_U+30A4_U+30E4_U+30FC 1
370
     0
100
AcDbSpline
210
0.0
220
0.0
230
1.0
 70
    11
 71
     3
 72
    26
 73
    22
 74
     0
 42
0.0000000001
 43
0.0000000001
 12
1.0
 22
0.0
 32
0.0
 13
1.0
 23
0.0
 33
0.0
 40
0.0
 40
0.0
 40
0.0
 40
0.0
 40
1.0
 40
1.0
 40
1.0
 40
2.0
 40
2.0
 40
2.0
 40
3.0
 40
3.0
 40
3.0
 40
4.0
 40
4.0
 40
4.0
 40
5.0
 40
5.0
 40
5.0
 40
6.0
 40
6.0
 40
6.0
 40
7.0
 40
7.0
 40
7.0
 40
7.0
 10
98.2379312905447
 20
-123.2117729726693
 30
0.0
 10
98.2379312905447
 20
-123.2117729726693
 30
0.0
 10
97.13377818752211
 20
-123.2117729726693
 30
0.0
 10
97.13377818752211
 20
-123.2117729726693
 30
0.0
 10
97.13377818752211
 20
-123.2117729726693
 30
0.0
 10
97.13377818752211
 20
-123.5418131201562
 30
0.0
 10
97.13377818752211
 20
-123.5418131201562
 30
0.0
 10
97.13377818752211
 20
-123.5418131201562
 30
0.0
 10
96.98563908165637
 20
-123.5418131201562
 30
0.0
 10
96.98563908165637
 20
-123.5418131201562
 30
0.0
 10
96.9708251710698
 20
-123.2097059153781
 30
0.0
 10
96.80787215461748
 20
-123.1631971263273
 30
0.0
 10
96.69349498450718
 20
-123.1335693051541
 30
0.0
 10
96.69349498450718
 20
-123.1335693051541
 30
0.0
 10
96.69349498450718
 20
-122.9874972565795
 30
0.0
 10
96.69349498450718
 20
-122.9874972565795
 30
0.0
 10
96.69349498450718
 20
-122.9874972565795
 30
0.0
 10
98.2379312905447
 20
-122.9874972565795
 30
0.0
 10
98.2379312905447
 20
-122.9874972565795
 30
0.0
 10
98.2379312905447
 20
-122.9874972565795
 30
0.0
 10
98.2379312905447
 20
-123.2117729726693
 30
0.0
 10
98.2379312905447
 20
-123.2117729726693
 30
0.0
  0
HATCH
  5
5B
330
56
100
AcDbEntity
  8
_U+30EC_U+30A4_U+30E4_U+30FC 1
 62
   179
420
  2234388
100
AcDbHatch
 10
0.0
 20
0.0
 30
0.0
210
0.0
220
0.0
230
1.0
  2
SOLID
 70
     1
 71
     0
 91
        1
 92
        1
 93
        1
 72
     4
 94
        3
 73
     0
 74
     1
 95
       26
 96
       22
 40
0.0
 40
0.0
 40
0.0
 40
0.0
 40
1.0
 40
1.0
 40
1.0
 40
2.0
 40
2.0
 40
2.0
 40
3.0
 40
3.0
 40
3.0
 40
4.0
 40
4.0
 40
4.0
 40
5.0
 40
5.0
 40
5.0
 40
6.0
 40
6.0
 40
6.0
 40
7.0
 40
7.0
 40
7.0
 40
7.0
 10
98.2379312905447
 20
-123.2117729726693
 10
98.2379312905447
 20
-123.2117729726693
 10
97.13377818752211
 20
-123.2117729726693
 10
97.13377818752211
 20
-123.2117729726693
 10
97.13377818752211
 20
-123.2117729726693
 10
97.13377818752211
 20
-123.5418131201562
 10
97.13377818752211
 20
-123.5418131201562
 10
97.13377818752211
 20
-123.5418131201562
 10
96.98563908165637
 20
-123.5418131201562
 10
96.98563908165637
 20
-123.5418131201562
 10
96.9708251710698
 20
-123.2097059153781
 10
96.80787215461748
 20
-123.1631971263273
 10
96.69349498450718
 20
-123.1335693051541
 10
96.69349498450718
 20
-123.1335693051541
 10
96.69349498450718
 20
-122.9874972565795
 10
96.69349498450718
 20
-122.9874972565795
 10
96.69349498450718
 20
-122.9874972565795
 10
98.2379312905447
 20
-122.9874972565795
 10
98.2379312905447
 20
-122.9874972565795
 10
98.2379312905447
 20
-122.9874972565795
 10
98.2379312905447
 20
-123.2117729726693
 10
98.2379312905447
 20
-123.2117729726693
 97
        0
 97
        0
 75
     2
 76
     1
 98
        0
  0
ENDBLK
  5
59
330
56
100
AcDbEntity
  8
0
100
AcDbBlockEnd
  0
BLOCK
  5
5E
330
5C
100
AcDbEntity
  8
0
100
AcDbBlockBegin
  2
block 3
 70
     0
 10
0.0
 20
0.0
 30
0.0
  3
block 3
  1

  0
SPLINE
  5
60
330
5C
100
AcDbEntity
  8
_U+30EC_U+30A4_U+30E4_U+30FC 1
370
     0
100
AcDbSpline
210
0.0
220
0.0
230
1.0
 70
    11
 71
     3
 72
    26
 73
    22
 74
     0
 42
0.0000000001
 43
0.0000000001
 12
1.0
 22
0.0
 32
0.0
 13
1.0
 23
0.0
 33
0.0
 40
0.0
 40
0.0
 40
0.0
 40
0.0
 40
1.0
 40
1.0
 40
1.0
 40
2.0
 40
2.0
 40
2.0
 40
3.0
 40
3.0
 40
3.0
 40
4.0
 40
4.0
 40
4.0
 40
5.0
 40
5.0
 40
5.0
 40
6.0
 40
6.0
 40
6.0
 40
7.0
 40
7.0
 40
7.0
 40
7.0
 10
98.29649791379394
 20
-129.2420681100506
 30
0.0
 10
98.29649791379394
 20
-129.2420681100506
 30
0.0
 10
97.19234481077136
 20
-129.2420681100506
 30
0.0
 10
97.19234481077136
 20
-129.2420681100506
 30
0.0
 10
97.19234481077136
 20
-129.2420681100506
 30
0.0
 10
97.19234481077136
 20
-129.5721082575375
 30
0.0
 10
97.19234481077136
 20
-129.5721082575375
 30
0.0
 10
97.19234481077136
 20
-129.5721082575375
 30
0.0
 10
97.04420570490562
 20
-129.5721082575375
 30
0.0
 10
97.04420570490562
 20
-129.5721082575375
 30
0.0
 10
97.02939179431904
 20
-129.2400010527595
 30
0.0
 10
96.86643877786673
 20
-129.1934922637086
 30
0.0
 10
96.75206160775643
 20
-129.1638644425354
 30
0.0
 10
96.75206160775643
 20
-129.1638644425354
 30
0.0
 10
96.75206160775643
 20
-129.0177923939608
 30
0.0
 10
96.75206160775643
 20
-129.0177923939608
 30
0.0
 10
96.75206160775643
 20
-129.0177923939608
 30
0.0
 10
98.29649791379394
 20
-129.0177923939608
 30
0.0
 10
98.29649791379394
 20
-129.0177923939608
 30
0.0
 10
98.29649791379394
 20
-129.0177923939608
 30
0.0
 10
98.29649791379394
 20
-129.2420681100506
 30
0.0
 10
98.29649791379394
 20
-129.2420681100506
 30
0.0
  0
HATCH
  5
61
330
5C
100
AcDbEntity
  8
_U+30EC_U+30A4_U+30E4_U+30FC 1
 62
   179
420
  2234388
100
AcDbHatch
 10
0.0
 20
0.0
 30
0.0
210
0.0
220
0.0
230
1.0
  2
SOLID
 70
     1
 71
     0
 91
        1
 92
        1
 93
        1
 72
     4
 94
        3
 73
     0
 74
     1
 95
       26
 96
       22
 40
0.0
 40
0.0
 40
0.0
 40
0.0
 40
1.0
 40
1.0
 40
1.0
 40
2.0
 40
2.0
 40
2.0
 40
3.0
 40
3.0
 40
3.0
 40
4.0
 40
4.0
 40
4.0
 40
5.0
 40
5.0
 40
5.0
 40
6.0
 40
6.0
 40
6.0
 40
7.0
 40
7.0
 40
7.0
 40
7.0
 10
98.29649791379394
 20
-129.2420681100506
 10
98.29649791379394
 20
-129.2420681100506
 10
97.19234481077136
 20
-129.2420681100506
 10
97.19234481077136
 20
-129.2420681100506
 10
97.19234481077136
 20
-129.2420681100506
 10
97.19234481077136
 20
-129.5721082575375
 10
97.19234481077136
 20
-129.5721082575375
 10
97.19234481077136
 20
-129.5721082575375
 10
97.04420570490562
 20
-129.5721082575375
 10
97.04420570490562
 20
-129.5721082575375
 10
97.02939179431904
 20
-129.2400010527595
 10
96.86643877786673
 20
-129.1934922637086
 10
96.75206160775643
 20
-129.1638644425354
 10
96.75206160775643
 20
-129.1638644425354
 10
96.75206160775643
 20
-129.0177923939608
 10
96.75206160775643
 20
-129.0177923939608
 10
96.75206160775643
 20
-129.0177923939608
 10
98.29649791379394
 20
-129.0177923939608
 10
98.29649791379394
 20
-129.0177923939608
 10
98.29649791379394
 20
-129.0177923939608
 10
98.29649791379394
 20
-129.2420681100506
 10
98.29649791379394
 20
-129.2420681100506
 97
        0
 97
        0
 75
     2
 76
     1
 98
        0
  0
SPLINE
  5
62
330
5C
100
AcDbEntity
  8
_U+30EC_U+30A4_U+30E4_U+30FC 1
370
     0
100
AcDbSpline
210
0.0
220
0.0
230
1.0
 70
    11
 71
     3
 72
    29
 73
    25
 74
     0
 42
0.0000000001
 43
0.0000000001
 12
1.0
 22
0.0
 32
0.0
 13
1.0
 23
0.0
 33
0.0
 40
0.0
 40
0.0
 40
0.0
 40
0.0
 40
1.0
 40
1.0
 40
1.0
 40
2.0
 40
2.0
 40
2.0
 40
3.0
 40
3.0
 40
3.0
 40
4.0
 40
4.0
 40
4.0
 40
5.0
 40
5.0
 40
5.0
 40
6.0
 40
6.0
 40
6.0
 40
7.0
 40
7.0
 40
7.0
 40
8.0
 40
8.0
 40
8.0
 40
8.0
 10
98.11873098675504
 20
-127.6189113721751
 30
0.0
 10
98.32819279225824
 20
-127.7267428608635
 30
0.0
 10
98.3471408174271
 20
-127.9002034185458
 30
0.0
 10
98.3471408174271
 20
-128.0166476459472
 30
0.0
 10
98.3471408174271
 20
-128.1773613503341
 30
0.0
 10
98.30063202837624
 20
-128.3191270295522
 30
0.0
 10
98.11873098675504
 20
-128.4143839197193
 30
0.0
 10
97.92408309183843
 20
-128.5179090390511
 30
0.0
 10
97.68706052245324
 20
-128.5370293189942
 30
0.0
 10
97.52445201554944
 20
-128.5370293189942
 30
0.0
 10
97.380447024266
 20
-128.5370293189942
 30
0.0
 10
97.12861054429425
 20
-128.5201483511165
 30
0.0
 10
96.92982853479532
 20
-128.4143839197193
 30
0.0
 10
96.7269124107141
 20
-128.3063801762567
 30
0.0
 10
96.70348576141441
 20
-128.1456664718698
 30
0.0
 10
96.70348576141441
 20
-128.0166476459472
 30
0.0
 10
96.70348576141441
 20
-127.8580009988515
 30
0.0
 10
96.74792749317413
 20
-127.713996007568
 30
0.0
 10
96.92982853479532
 20
-127.6189113721751
 30
0.0
 10
97.12240937242079
 20
-127.5195203674257
 30
0.0
 10
97.35081920309285
 20
-127.496093718126
 30
0.0
 10
97.52445201554944
 20
-127.496093718126
 30
0.0
 10
97.69567326116636
 20
-127.496093718126
 30
0.0
 10
97.92615014912958
 20
-127.5172810553603
 30
0.0
 10
98.11873098675504
 20
-127.6189113721751
 30
0.0
  0
SPLINE
  5
63
330
5C
100
AcDbEntity
  8
_U+30EC_U+30A4_U+30E4_U+30FC 1
370
     0
100
AcDbSpline
210
0.0
220
0.0
230
1.0
 70
    11
 71
     3
 72
    17
 73
    13
 74
     0
 42
0.0000000001
 43
0.0000000001
 12
1.0
 22
0.0
 32
0.0
 13
1.0
 23
0.0
 33
0.0
 40
0.0
 40
0.0
 40
0.0
 40
0.0
 40
1.0
 40
1.0
 40
1.0
 40
2.0
 40
2.0
 40
2.0
 40
3.0
 40
3.0
 40
3.0
 40
4.0
 40
4.0
 40
4.0
 40
4.0
 10
96.89606659903988
 20
-128.0166476459472
 30
0.0
 10
96.89606659903988
 20
-128.2662448138536
 30
0.0
 10
97.17959795747593
 20
-128.3127536029045
 30
0.0
 10
97.52445201554944
 20
-128.3127536029045
 30
0.0
 10
97.8438123670321
 20
-128.3127536029045
 30
0.0
 10
98.15249292251049
 20
-128.2767523550836
 30
0.0
 10
98.15249292251049
 20
-128.0166476459472
 30
0.0
 10
98.15249292251049
 20
-127.769117535332
 30
0.0
 10
97.87137313091411
 20
-127.7203694342157
 30
0.0
 10
97.52445201554944
 20
-127.7203694342157
 30
0.0
 10
97.20474715451826
 20
-127.7203694342157
 30
0.0
 10
96.89606659903988
 20
-127.7584377393278
 30
0.0
 10
96.89606659903988
 20
-128.0166476459472
 30
0.0
  0
HATCH
  5
64
330
5C
100
AcDbEntity
  8
_U+30EC_U+30A4_U+30E4_U+30FC 1
 62
   179
420
  2234388
100
AcDbHatch
 10
0.0
 20
0.0
 30
0.0
210
0.0
220
0.0
230
1.0
  2
SOLID
 70
     1
 71
     0
 91
        2
 92
        1
 93
        1
 72
     4
 94
        3
 73
     0
 74
     1
 95
       29
 96
       25
 40
0.0
 40
0.0
 40
0.0
 40
0.0
 40
1.0
 40
1.0
 40
1.0
 40
2.0
 40
2.0
 40
2.0
 40
3.0
 40
3.0
 40
3.0
 40
4.0
 40
4.0
 40
4.0
 40
5.0
 40
5.0
 40
5.0
 40
6.0
 40
6.0
 40
6.0
 40
7.0
 40
7.0
 40
7.0
 40
8.0
 40
8.0
 40
8.0
 40
8.0
 10
98.11873098675504
 20
-127.6189113721751
 10
98.32819279225824
 20
-127.7267428608635
 10
98.3471408174271
 20
-127.9002034185458
 10
98.3471408174271
 20
-128.0166476459472
 10
98.3471408174271
 20
-128.1773613503341
 10
98.30063202837624
 20
-128.3191270295522
 10
98.11873098675504
 20
-128.4143839197193
 10
97.92408309183843
 20
-128.5179090390511
 10
97.68706052245324
 20
-128.5370293189942
 10
97.52445201554944
 20
-128.5370293189942
 10
97.380447024266
 20
-128.5370293189942
 10
97.12861054429425
 20
-128.5201483511165
 10
96.92982853479532
 20
-128.4143839197193
 10
96.7269124107141
 20
-128.3063801762567
 10
96.70348576141441
 20
-128.1456664718698
 10
96.70348576141441
 20
-128.0166476459472
 10
96.70348576141441
 20
-127.8580009988515
 10
96.74792749317413
 20
-127.713996007568
 10
96.92982853479532
 20
-127.6189113721751
 10
97.12240937242079
 20
-127.5195203674257
 10
97.35081920309285
 20
-127.496093718126
 10
97.52445201554944
 20
-127.496093718126
 10
97.69567326116636
 20
-127.496093718126
 10
97.92615014912958
 20
-127.5172810553603
 10
98.11873098675504
 20
-127.6189113721751
 97
        0
 97
        0
 92
        1
 93
        1
 72
     4
 94
        3
 73
     0
 74
     1
 95
       17
 96
       13
 40
0.0
 40
0.0
 40
0.0
 40
0.0
 40
1.0
 40
1.0
 40
1.0
 40
2.0
 40
2.0
 40
2.0
 40
3.0
 40
3.0
 40
3.0
 40
4.0
 40
4.0
 40
4.0
 40
4.0
 10
96.89606659903988
 20
-128.0166476459472
 10
96.89606659903988
 20
-128.2662448138536
 10
97.17959795747593
 20
-128.3127536029045
 10
97.52445201554944
 20
-128.3127536029045
 10
97.8438123670321
 20
-128.3127536029045
 10
98.15249292251049
 20
-128.2767523550836
 10
98.15249292251049
 20
-128.0166476459472
 10
98.15249292251049
 20
-127.769117535332
 10
97.87137313091411
 20
-127.7203694342157
 10
97.52445201554944
 20
-127.7203694342157
 10
97.20474715451826
 20
-127.7203694342157
 10
96.89606659903988
 20
-127.7584377393278
 10
96.89606659903988
 20
-128.0166476459472
 97
        0
 97
        0
 75
     2
 76
     1
 98
        0
  0
ENDBLK
  5
5F
330
5C
100
AcDbEntity
  8
0
100
AcDbBlockEnd
  0
BLOCK
  5
6F
330
6D
100
AcDbEntity
  8
0
100
AcDbBlockBegin
  2
block 4
 70
     0
 10
0.0
 20
0.0
 30
0.0
  3
block 4
  1

  0
SPLINE
  5
71
330
6D
100
AcDbEntity
  8
_U+30EC_U+30A4_U+30E4_U+30FC 1
370
     0
100
AcDbSpline
210
0.0
220
0.0
230
1.0
 70
    11
 71
     3
 72
    32
 73
    28
 74
     0
 42
0.0000000001
 43
0.0000000001
 12
1.0
 22
0.0
 32
0.0
 13
1.0
 23
0.0
 33
0.0
 40
0.0
 40
0.0
 40
0.0
 40
0.0
 40
1.0
 40
1.0
 40
1.0
 40
2.0
 40
2.0
 40
2.0
 40
3.0
 40
3.0
 40
3.0
 40
4.0
 40
4.0
 40
4.0
 40
5.0
 40
5.0
 40
5.0
 40
6.0
 40
6.0
 40
6.0
 40
7.0
 40
7.0
 40
7.0
 40
8.0
 40
8.0
 40
8.0
 40
9.0
 40
9.0
 40
9.0
 40
9.0
 10
87.11475149731854
 20
-118.4392821969527
 30
0.0
 10
86.94146319441047
 20
-118.4392821969527
 30
0.0
 10
86.69582788631216
 20
-118.3696912681506
 30
0.0
 10
86.65793183597441
 20
-118.0375840633725
 30
0.0
 10
86.65793183597441
 20
-118.0375840633725
 30
0.0
 10
86.8715277560599
 20
-118.0375840633725
 30
0.0
 10
86.8715277560599
 20
-118.0375840633725
 30
0.0
 10
86.88220755206417
 20
-118.0968397057188
 30
0.0
 10
86.91390243052847
 20
-118.2446343020361
 30
0.0
 10
87.1168185546097
 20
-118.2446343020361
 30
0.0
 10
87.40896265175887
 20
-118.2446343020361
 30
0.0
 10
87.44685870209662
 20
-117.9145941545491
 30
0.0
 10
87.45960555539205
 20
-117.7096109731768
 30
0.0
 10
87.36865503458145
 20
-117.7898816979831
 30
0.0
 10
87.30113116307055
 20
-117.8470702830382
 30
0.0
 10
87.11923012144936
 20
-117.8470702830382
 30
0.0
 10
86.93939613711932
 20
-117.8470702830382
 30
0.0
 10
86.63691675351438
 20
-117.7413058516411
 30
0.0
 10
86.63691675351438
 20
-117.3351290939301
 30
0.0
 10
86.63691675351438
 20
-117.0155964876732
 30
0.0
 10
86.8356987630133
 20
-116.79562714094
 30
0.0
 10
87.15299205720481
 20
-116.79562714094
 30
0.0
 10
87.66700030360408
 20
-116.79562714094
 30
0.0
 10
87.67768009960837
 20
-117.3499430045167
 30
0.0
 10
87.67768009960837
 20
-117.5635389246022
 30
0.0
 10
87.67768009960837
 20
-117.7940158125654
 30
0.0
 10
87.65838756489096
 20
-118.4392821969527
 30
0.0
 10
87.11475149731854
 20
-118.4392821969527
 30
0.0
  0
SPLINE
  5
72
330
6D
100
AcDbEntity
  8
_U+30EC_U+30A4_U+30E4_U+30FC 1
370
     0
100
AcDbSpline
210
0.0
220
0.0
230
1.0
 70
    11
 71
     3
 72
    17
 73
    13
 74
     0
 42
0.0000000001
 43
0.0000000001
 12
1.0
 22
0.0
 32
0.0
 13
1.0
 23
0.0
 33
0.0
 40
0.0
 40
0.0
 40
0.0
 40
0.0
 40
1.0
 40
1.0
 40
1.0
 40
2.0
 40
2.0
 40
2.0
 40
3.0
 40
3.0
 40
3.0
 40
4.0
 40
4.0
 40
4.0
 40
4.0
 10
87.15505911449596
 20
-116.9882079785655
 30
0.0
 10
87.03654782980337
 20
-116.9882079785655
 30
0.0
 10
86.86084796005562
 20
-117.0452243088463
 30
0.0
 10
86.86084796005562
 20
-117.3308227245736
 30
0.0
 10
86.86084796005562
 20
-117.5571654979545
 30
0.0
 10
87.00071883675677
 20
-117.6524223881216
 30
0.0
 10
87.13611108932709
 20
-117.6524223881216
 30
0.0
 10
87.3982828557546
 20
-117.6524223881216
 30
0.0
 10
87.43652341564088
 20
-117.4429605826184
 30
0.0
 10
87.43652341564088
 20
-117.3266886099913
 30
0.0
 10
87.43652341564088
 20
-117.1509887402435
 30
0.0
 10
87.34109427069946
 20
-116.9882079785655
 30
0.0
 10
87.15505911449596
 20
-116.9882079785655
 30
0.0
  0
HATCH
  5
73
330
6D
100
AcDbEntity
  8
_U+30EC_U+30A4_U+30E4_U+30FC 1
 62
   179
420
  2234388
100
AcDbHatch
 10
0.0
 20
0.0
 30
0.0
210
0.0
220
0.0
230
1.0
  2
SOLID
 70
     1
 71
     0
 91
        2
 92
        1
 93
        1
 72
     4
 94
        3
 73
     0
 74
     1
 95
       32
 96
       28
 40
0.0
 40
0.0
 40
0.0
 40
0.0
 40
1.0
 40
1.0
 40
1.0
 40
2.0
 40
2.0
 40
2.0
 40
3.0
 40
3.0
 40
3.0
 40
4.0
 40
4.0
 40
4.0
 40
5.0
 40
5.0
 40
5.0
 40
6.0
 40
6.0
 40
6.0
 40
7.0
 40
7.0
 40
7.0
 40
8.0
 40
8.0
 40
8.0
 40
9.0
 40
9.0
 40
9.0
 40
9.0
 10
87.11475149731854
 20
-118.4392821969527
 10
86.94146319441047
 20
-118.4392821969527
 10
86.69582788631216
 20
-118.3696912681506
 10
86.65793183597441
 20
-118.0375840633725
 10
86.65793183597441
 20
-118.0375840633725
 10
86.8715277560599
 20
-118.0375840633725
 10
86.8715277560599
 20
-118.0375840633725
 10
86.88220755206417
 20
-118.0968397057188
 10
86.91390243052847
 20
-118.2446343020361
 10
87.1168185546097
 20
-118.2446343020361
 10
87.40896265175887
 20
-118.2446343020361
 10
87.44685870209662
 20
-117.9145941545491
 10
87.45960555539205
 20
-117.7096109731768
 10
87.36865503458145
 20
-117.7898816979831
 10
87.30113116307055
 20
-117.8470702830382
 10
87.11923012144936
 20
-117.8470702830382
 10
86.93939613711932
 20
-117.8470702830382
 10
86.63691675351438
 20
-117.7413058516411
 10
86.63691675351438
 20
-117.3351290939301
 10
86.63691675351438
 20
-117.0155964876732
 10
86.8356987630133
 20
-116.79562714094
 10
87.15299205720481
 20
-116.79562714094
 10
87.66700030360408
 20
-116.79562714094
 10
87.67768009960837
 20
-117.3499430045167
 10
87.67768009960837
 20
-117.5635389246022
 10
87.67768009960837
 20
-117.7940158125654
 10
87.65838756489096
 20
-118.4392821969527
 10
87.11475149731854
 20
-118.4392821969527
 97
        0
 97
        0
 92
        1
 93
        1
 72
     4
 94
        3
 73
     0
 74
     1
 95
       17
 96
       13
 40
0.0
 40
0.0
 40
0.0
 40
0.0
 40
1.0
 40
1.0
 40
1.0
 40
2.0
 40
2.0
 40
2.0
 40
3.0
 40
3.0
 40
3.0
 40
4.0
 40
4.0
 40
4.0
 40
4.0
 10
87.15505911449596
 20
-116.9882079785655
 10
87.03654782980337
 20
-116.9882079785655
 10
86.86084796005562
 20
-117.0452243088463
 10
86.86084796005562
 20
-117.3308227245736
 10
86.86084796005562
 20
-117.5571654979545
 10
87.00071883675677
 20
-117.6524223881216
 10
87.13611108932709
 20
-117.6524223881216
 10
87.3982828557546
 20
-117.6524223881216
 10
87.43652341564088
 20
-117.4429605826184
 10
87.43652341564088
 20
-117.3266886099913
 10
87.43652341564088
 20
-117.1509887402435
 10
87.34109427069946
 20
-116.9882079785655
 10
87.15505911449596
 20
-116.9882079785655
 97
        0
 97
        0
 75
     2
 76
     1
 98
        0
  0
ENDBLK
  5
70
330
6D
100
AcDbEntity
  8
0
100
AcDbBlockEnd
  0
BLOCK
  5
76
330
74
100
AcDbEntity
  8
0
100
AcDbBlockBegin
  2
block 5
 70
     0
 10
0.0
 20
0.0
 30
0.0
  3
block 5
  1

  0
SPLINE
  5
78
330
74
100
AcDbEntity
  8
_U+30EC_U+30A4_U+30E4_U+30FC 1
370
     0
100
AcDbSpline
210
0.0
220
0.0
230
1.0
 70
    11
 71
     3
 72
    32
 73
    28
 74
     0
 42
0.0000000001
 43
0.0000000001
 12
1.0
 22
0.0
 32
0.0
 13
1.0
 23
0.0
 33
0.0
 40
0.0
 40
0.0
 40
0.0
 40
0.0
 40
1.0
 40
1.0
 40
1.0
 40
2.0
 40
2.0
 40
2.0
 40
3.0
 40
3.0
 40
3.0
 40
4.0
 40
4.0
 40
4.0
 40
5.0
 40
5.0
 40
5.0
 40
6.0
 40
6.0
 40
6.0
 40
7.0
 40
7.0
 40
7.0
 40
8.0
 40
8.0
 40
8.0
 40
9.0
 40
9.0
 40
9.0
 40
9.0
 10
87.11475149731854
 20
-139.7864718617548
 30
0.0
 10
86.94146319441047
 20
-139.7864718617548
 30
0.0
 10
86.69582788631216
 20
-139.7168809329527
 30
0.0
 10
86.65793183597441
 20
-139.3847737281747
 30
0.0
 10
86.65793183597441
 20
-139.3847737281747
 30
0.0
 10
86.8715277560599
 20
-139.3847737281747
 30
0.0
 10
86.8715277560599
 20
-139.3847737281747
 30
0.0
 10
86.88220755206417
 20
-139.444029370521
 30
0.0
 10
86.91390243052847
 20
-139.5918239668381
 30
0.0
 10
87.1168185546097
 20
-139.5918239668381
 30
0.0
 10
87.40896265175887
 20
-139.5918239668381
 30
0.0
 10
87.44685870209662
 20
-139.2617838193512
 30
0.0
 10
87.45960555539205
 20
-139.0568006379789
 30
0.0
 10
87.36865503458145
 20
-139.1370713627852
 30
0.0
 10
87.30113116307055
 20
-139.1942599478403
 30
0.0
 10
87.11923012144936
 20
-139.1942599478403
 30
0.0
 10
86.93939613711932
 20
-139.1942599478403
 30
0.0
 10
86.63691675351438
 20
-139.0884955164432
 30
0.0
 10
86.63691675351438
 20
-138.6823187587322
 30
0.0
 10
86.63691675351438
 20
-138.3629584072496
 30
0.0
 10
86.8356987630133
 20
-138.1428168057421
 30
0.0
 10
87.15299205720481
 20
-138.1428168057421
 30
0.0
 10
87.66700030360408
 20
-138.1428168057421
 30
0.0
 10
87.67768009960837
 20
-138.6971326693188
 30
0.0
 10
87.67768009960837
 20
-138.9107285894043
 30
0.0
 10
87.67768009960837
 20
-139.1412054773675
 30
0.0
 10
87.65838756489096
 20
-139.7864718617548
 30
0.0
 10
87.11475149731854
 20
-139.7864718617548
 30
0.0
  0
SPLINE
  5
79
330
74
100
AcDbEntity
  8
_U+30EC_U+30A4_U+30E4_U+30FC 1
370
     0
100
AcDbSpline
210
0.0
220
0.0
230
1.0
 70
    11
 71
     3
 72
    17
 73
    13
 74
     0
 42
0.0000000001
 43
0.0000000001
 12
1.0
 22
0.0
 32
0.0
 13
1.0
 23
0.0
 33
0.0
 40
0.0
 40
0.0
 40
0.0
 40
0.0
 40
1.0
 40
1.0
 40
1.0
 40
2.0
 40
2.0
 40
2.0
 40
3.0
 40
3.0
 40
3.0
 40
4.0
 40
4.0
 40
4.0
 40
4.0
 10
87.15505911449596
 20
-138.3353976433675
 30
0.0
 10
87.03654782980337
 20
-138.3353976433675
 30
0.0
 10
86.86084796005562
 20
-138.3925862284227
 30
0.0
 10
86.86084796005562
 20
-138.6781846441499
 30
0.0
 10
86.86084796005562
 20
-138.9045274175308
 30
0.0
 10
87.00071883675677
 20
-138.9996120529237
 30
0.0
 10
87.13611108932709
 20
-138.9996120529237
 30
0.0
 10
87.3982828557546
 20
-138.9996120529237
 30
0.0
 10
87.43652341564088
 20
-138.7901502474205
 30
0.0
 10
87.43652341564088
 20
-138.6740505295676
 30
0.0
 10
87.43652341564088
 20
-138.4983506598199
 30
0.0
 10
87.34109427069946
 20
-138.3353976433675
 30
0.0
 10
87.15505911449596
 20
-138.3353976433675
 30
0.0
  0
HATCH
  5
7A
330
74
100
AcDbEntity
  8
_U+30EC_U+30A4_U+30E4_U+30FC 1
 62
   179
420
  2234388
100
AcDbHatch
 10
0.0
 20
0.0
 30
0.0
210
0.0
220
0.0
230
1.0
  2
SOLID
 70
     1
 71
     0
 91
        2
 92
        1
 93
        1
 72
     4
 94
        3
 73
     0
 74
     1
 95
       32
 96
       28
 40
0.0
 40
0.0
 40
0.0
 40
0.0
 40
1.0
 40
1.0
 40
1.0
 40
2.0
 40
2.0
 40
2.0
 40
3.0
 40
3.0
 40
3.0
 40
4.0
 40
4.0
 40
4.0
 40
5.0
 40
5.0
 40
5.0
 40
6.0
 40
6.0
 40
6.0
 40
7.0
 40
7.0
 40
7.0
 40
8.0
 40
8.0
 40
8.0
 40
9.0
 40
9.0
 40
9.0
 40
9.0
 10
87.11475149731854
 20
-139.7864718617548
 10
86.94146319441047
 20
-139.7864718617548
 10
86.69582788631216
 20
-139.7168809329527
 10
86.65793183597441
 20
-139.3847737281747
 10
86.65793183597441
 20
-139.3847737281747
 10
86.8715277560599
 20
-139.3847737281747
 10
86.8715277560599
 20
-139.3847737281747
 10
86.88220755206417
 20
-139.444029370521
 10
86.91390243052847
 20
-139.5918239668381
 10
87.1168185546097
 20
-139.5918239668381
 10
87.40896265175887
 20
-139.5918239668381
 10
87.44685870209662
 20
-139.2617838193512
 10
87.45960555539205
 20
-139.0568006379789
 10
87.36865503458145
 20
-139.1370713627852
 10
87.30113116307055
 20
-139.1942599478403
 10
87.11923012144936
 20
-139.1942599478403
 10
86.93939613711932
 20
-139.1942599478403
 10
86.63691675351438
 20
-139.0884955164432
 10
86.63691675351438
 20
-138.6823187587322
 10
86.63691675351438
 20
-138.3629584072496
 10
86.8356987630133
 20
-138.1428168057421
 10
87.15299205720481
 20
-138.1428168057421
 10
87.66700030360408
 20
-138.1428168057421
 10
87.67768009960837
 20
-138.6971326693188
 10
87.67768009960837
 20
-138.9107285894043
 10
87.67768009960837
 20
-139.1412054773675
 10
87.65838756489096
 20
-139.7864718617548
 10
87.11475149731854
 20
-139.7864718617548
 97
        0
 97
        0
 92
        1
 93
        1
 72
     4
 94
        3
 73
     0
 74
     1
 95
       17
 96
       13
 40
0.0
 40
0.0
 40
0.0
 40
0.0
 40
1.0
 40
1.0
 40
1.0
 40
2.0
 40
2.0
 40
2.0
 40
3.0
 40
3.0
 40
3.0
 40
4.0
 40
4.0
 40
4.0
 40
4.0
 10
87.15505911449596
 20
-138.3353976433675
 10
87.03654782980337
 20
-138.3353976433675
 10
86.86084796005562
 20
-138.3925862284227
 10
86.86084796005562
 20
-138.6781846441499
 10
86.86084796005562
 20
-138.9045274175308
 10
87.00071883675677
 20
-138.9996120529237
 10
87.13611108932709
 20
-138.9996120529237
 10
87.3982828557546
 20
-138.9996120529237
 10
87.43652341564088
 20
-138.7901502474205
 10
87.43652341564088
 20
-138.6740505295676
 10
87.43652341564088
 20
-138.4983506598199
 10
87.34109427069946
 20
-138.3353976433675
 10
87.15505911449596
 20
-138.3353976433675
 97
        0
 97
        0
 75
     2
 76
     1
 98
        0
  0
ENDBLK
  5
77
330
74
100
AcDbEntity
  8
0
100
AcDbBlockEnd
  0
ENDSEC
  0
SECTION
  2
ENTITIES
  0
SPLINE
  5
41
330
1F
100
AcDbEntity
  8
_U+30EC_U+30A4_U+30E4_U+30FC 1
 62
   179
420
  2234388
370
     9
100
AcDbSpline
210
0.0
220
0.0
230
1.0
 70
    11
 71
     3
 72
    17
 73
    13
 74
     0
 42
0.0000000001
 43
0.0000000001
 12
1.0
 22
0.0
 32
0.0
 13
1.0
 23
0.0
 33
0.0
 40
0.0
 40
0.0
 40
0.0
 40
0.0
 40
1.0
 40
1.0
 40
1.0
 40
2.0
 40
2.0
 40
2.0
 40
3.0
 40
3.0
 40
3.0
 40
4.0
 40
4.0
 40
4.0
 40
4.0
 10
91.82900571280244
 20
-119.689491914522
 30
0.0
 10
91.82900571280244
 20
-119.6343880256471
 30
0.0
 10
91.78423821394456
 20
-119.5895852478804
 30
0.0
 10
91.7290990486846
 20
-119.5895852478804
 30
0.0
 10
91.67399516120153
 20
-119.5895852478804
 30
0.0
 10
91.62919238456678
 20
-119.6343880256471
 30
0.0
 10
91.62919238456678
 20
-119.689491914522
 30
0.0
 10
91.62919238456678
 20
-119.7446310811751
 30
0.0
 10
91.67399516120153
 20
-119.7893985811636
 30
0.0
 10
91.7290990486846
 20
-119.7893985811636
 30
0.0
 10
91.78423821394456
 20
-119.7893985811636
 30
0.0
 10
91.82900571280244
 20
-119.7446310811751
 30
0.0
 10
91.82900571280244
 20
-119.689491914522
 30
0.0
  0
SPLINE
  5
42
330
1F
100
AcDbEntity
  8
_U+30EC_U+30A4_U+30E4_U+30FC 1
 62
   179
420
  2234388
370
     9
100
AcDbSpline
210
0.0
220
0.0
230
1.0
 70
    11
 71
     3
 72
    17
 73
    13
 74
     0
 42
0.0000000001
 43
0.0000000001
 12
1.0
 22
0.0
 32
0.0
 13
1.0
 23
0.0
 33
0.0
 40
0.0
 40
0.0
 40
0.0
 40
0.0
 40
1.0
 40
1.0
 40
1.0
 40
2.0
 40
2.0
 40
2.0
 40
3.0
 40
3.0
 40
3.0
 40
4.0
 40
4.0
 40
4.0
 40
4.0
 10
82.82837483131655
 20
-119.689491914522
 30
0.0
 10
82.82837483131655
 20
-119.6343880256471
 30
0.0
 10
82.7835720546818
 20
-119.5895852478804
 30
0.0
 10
82.72846816719873
 20
-119.5895852478804
 30
0.0
 10
82.67332900193877
 20
-119.5895852478804
 30
0.0
 10
82.62856150308089
 20
-119.6343880256471
 30
0.0
 10
82.62856150308089
 20
-119.689491914522
 30
0.0
 10
82.62856150308089
 20
-119.7446310811751
 30
0.0
 10
82.67332900193877
 20
-119.7893985811636
 30
0.0
 10
82.72846816719873
 20
-119.7893985811636
 30
0.0
 10
82.7835720546818
 20
-119.7893985811636
 30
0.0
 10
82.82837483131655
 20
-119.7446310811751
 30
0.0
 10
82.82837483131655
 20
-119.689491914522
 30
0.0
  0
SPLINE
  5
43
330
1F
100
AcDbEntity
  8
_U+30EC_U+30A4_U+30E4_U+30FC 1
 62
   179
420
  2234388
370
     9
100
AcDbSpline
210
0.0
220
0.0
230
1.0
 70
    11
 71
     3
 72
    17
 73
    13
 74
     0
 42
0.0000000001
 43
0.0000000001
 12
1.0
 22
0.0
 32
0.0
 13
1.0
 23
0.0
 33
0.0
 40
0.0
 40
0.0
 40
0.0
 40
0.0
 40
1.0
 40
1.0
 40
1.0
 40
2.0
 40
2.0
 40
2.0
 40
3.0
 40
3.0
 40
3.0
 40
4.0
 40
4.0
 40
4.0
 40
4.0
 10
94.6708775847447
 20
-123.6520683024203
 30
0.0
 10
94.6708775847447
 20
-123.5962588579898
 30
0.0
 10
94.62607480810993
 20
-123.5521616357786
 30
0.0
 10
94.57097092062686
 20
-123.5521616357786
 30
0.0
 10
94.51583175536692
 20
-123.5521616357786
 30
0.0
 10
94.47106664304872
 20
-123.5962588579898
 30
0.0
 10
94.47106664304872
 20
-123.6520683024203
 30
0.0
 10
94.47106664304872
 20
-123.7071721912955
 30
0.0
 10
94.51583175536692
 20
-123.7519749690619
 30
0.0
 10
94.57097092062686
 20
-123.7519749690619
 30
0.0
 10
94.62607480810993
 20
-123.7519749690619
 30
0.0
 10
94.6708775847447
 20
-123.7071721912955
 30
0.0
 10
94.6708775847447
 20
-123.6520683024203
 30
0.0
  0
SPLINE
  5
44
330
1F
100
AcDbEntity
  8
_U+30EC_U+30A4_U+30E4_U+30FC 1
 62
   179
420
  2234388
370
     9
100
AcDbSpline
210
0.0
220
0.0
230
1.0
 70
    11
 71
     3
 72
    17
 73
    13
 74
     0
 42
0.0000000001
 43
0.0000000001
 12
1.0
 22
0.0
 32
0.0
 13
1.0
 23
0.0
 33
0.0
 40
0.0
 40
0.0
 40
0.0
 40
0.0
 40
1.0
 40
1.0
 40
1.0
 40
2.0
 40
2.0
 40
2.0
 40
3.0
 40
3.0
 40
3.0
 40
4.0
 40
4.0
 40
4.0
 40
4.0
 10
94.6708775847447
 20
-122.6515905248928
 30
0.0
 10
94.6708775847447
 20
-122.5964866360176
 30
0.0
 10
94.62607480810993
 20
-122.5516838582509
 30
0.0
 10
94.57097092062686
 20
-122.5516838582509
 30
0.0
 10
94.51583175536692
 20
-122.5516838582509
 30
0.0
 10
94.47106664304872
 20
-122.5964866360176
 30
0.0
 10
94.47106664304872
 20
-122.6515905248928
 30
0.0
 10
94.47106664304872
 20
-122.7067296915456
 30
0.0
 10
94.51583175536692
 20
-122.7514971915345
 30
0.0
 10
94.57097092062686
 20
-122.7514971915345
 30
0.0
 10
94.62607480810993
 20
-122.7514971915345
 30
0.0
 10
94.6708775847447
 20
-122.7067296915456
 30
0.0
 10
94.6708775847447
 20
-122.6515905248928
 30
0.0
  0
POLYLINE
  5
45
330
1F
100
AcDbEntity
  8
_U+30EC_U+30A4_U+30E4_U+30FC 1
 62
   179
420
  2234388
370
     9
100
AcDb2dPolyline
 66
     1
 10
0.0
 20
0.0
 30
0.0
  0
VERTEX
  5
46
330
45
100
AcDbEntity
  8
_U+30EC_U+30A4_U+30E4_U+30FC 1
 62
   179
420
  2234388
370
     9
100
AcDbVertex
100
AcDb2dVertex
 10
94.57097092062686
 20
-122.6515905248928
 30
0.0
  0
VERTEX
  5
47
330
45
100
AcDbEntity
  8
_U+30EC_U+30A4_U+30E4_U+30FC 1
 62
   179
420
  2234388
370
     9
100
AcDbVertex
100
AcDb2dVertex
 10
94.57097092062686
 20
-133.7517080221175
 30
0.0
  0
SEQEND
  5
48
330
45
100
AcDbEntity
  8
_U+30EC_U+30A4_U+30E4_U+30FC 1
 62
   179
420
  2234388
370
     9
  0
POLYLINE
  5
49
330
1F
100
AcDbEntity
  8
_U+30EC_U+30A4_U+30E4_U+30FC 1
 62
   179
420
  2234388
370
     9
100
AcDb2dPolyline
 66
     1
 10
0.0
 20
0.0
 30
0.0
  0
VERTEX
  5
4A
330
49
100
AcDbEntity
  8
_U+30EC_U+30A4_U+30E4_U+30FC 1
 62
   179
420
  2234388
370
     9
100
AcDbVertex
100
AcDb2dVertex
 10
93.44098844945512
 20
-122.6515905248928
 30
0.0
  0
VERTEX
  5
4B
330
49
100
AcDbEntity
  8
_U+30EC_U+30A4_U+30E4_U+30FC 1
 62
   179
420
  2234388
370
     9
100
AcDbVertex
100
AcDb2dVertex
 10
95.90076672003428
 20
-122.6515905248928
 30
0.0
  0
SEQEND
  5
4C
330
49
100
AcDbEntity
  8
_U+30EC_U+30A4_U+30E4_U+30FC 1
 62
   179
420
  2234388
370
     9
  0
POLYLINE
  5
4D
330
1F
100
AcDbEntity
  8
_U+30EC_U+30A4_U+30E4_U+30FC 1
 62
   179
420
  2234388
370
     9
100
AcDb2dPolyline
 66
     1
 10
0.0
 20
0.0
 30
0.0
  0
VERTEX
  5
4E
330
4D
100
AcDbEntity
  8
_U+30EC_U+30A4_U+30E4_U+30FC 1
 62
   179
420
  2234388
370
     9
100
AcDbVertex
100
AcDb2dVertex
 10
93.44098844945512
 20
-123.6520683024203
 30
0.0
  0
VERTEX
  5
4F
330
4D
100
AcDbEntity
  8
_U+30EC_U+30A4_U+30E4_U+30FC 1
 62
   179
420
  2234388
370
     9
100
AcDbVertex
100
AcDb2dVertex
 10
95.90076672003428
 20
-123.6520683024203
 30
0.0
  0
SEQEND
  5
50
330
4D
100
AcDbEntity
  8
_U+30EC_U+30A4_U+30E4_U+30FC 1
 62
   179
420
  2234388
370
     9
  0
SPLINE
  5
51
330
1F
100
AcDbEntity
  8
_U+30EC_U+30A4_U+30E4_U+30FC 1
 62
   179
420
  2234388
370
     9
100
AcDbSpline
210
0.0
220
0.0
230
1.0
 70
    11
 71
     3
 72
    17
 73
    13
 74
     0
 42
0.0000000001
 43
0.0000000001
 12
1.0
 22
0.0
 32
0.0
 13
1.0
 23
0.0
 33
0.0
 40
0.0
 40
0.0
 40
0.0
 40
0.0
 40
1.0
 40
1.0
 40
1.0
 40
2.0
 40
2.0
 40
2.0
 40
3.0
 40
3.0
 40
3.0
 40
4.0
 40
4.0
 40
4.0
 40
4.0
 10
94.6708775847447
 20
-133.6518013554758
 30
0.0
 10
94.6708775847447
 20
-133.5963094110456
 30
0.0
 10
94.62607480810993
 20
-133.5518946888342
 30
0.0
 10
94.57097092062686
 20
-133.5518946888342
 30
0.0
 10
94.51583175536692
 20
-133.5518946888342
 30
0.0
 10
94.47106664304872
 20
-133.5963094110456
 30
0.0
 10
94.47106664304872
 20
-133.6518013554758
 30
0.0
 10
94.47106664304872
 20
-133.7069052443507
 30
0.0
 10
94.51583175536692
 20
-133.7517080221175
 30
0.0
 10
94.57097092062686
 20
-133.7517080221175
 30
0.0
 10
94.62607480810993
 20
-133.7517080221175
 30
0.0
 10
94.6708775847447
 20
-133.7069052443507
 30
0.0
 10
94.6708775847447
 20
-133.6518013554758
 30
0.0
  0
POLYLINE
  5
52
330
1F
100
AcDbEntity
  8
_U+30EC_U+30A4_U+30E4_U+30FC 1
 62
   179
420
  2234388
370
     9
100
AcDb2dPolyline
 66
     1
 10
0.0
 20
0.0
 30
0.0
  0
VERTEX
  5
53
330
52
100
AcDbEntity
  8
_U+30EC_U+30A4_U+30E4_U+30FC 1
 62
   179
420
  2234388
370
     9
100
AcDbVertex
100
AcDb2dVertex
 10
93.44098844945512
 20
-133.6518013554758
 30
0.0
  0
VERTEX
  5
54
330
52
100
AcDbEntity
  8
_U+30EC_U+30A4_U+30E4_U+30FC 1
 62
   179
420
  2234388
370
     9
100
AcDbVertex
100
AcDb2dVertex
 10
95.90076672003428
 20
-133.6518013554758
 30
0.0
  0
SEQEND
  5
55
330
52
100
AcDbEntity
  8
_U+30EC_U+30A4_U+30E4_U+30FC 1
 62
   179
420
  2234388
370
     9
  0
INSERT
  5
57
330
1F
100
AcDbEntity
  8
_U+30EC_U+30A4_U+30E4_U+30FC 1
100
AcDbBlockReference
  2
block 2
 10
0.0
 20
0.0
 30
0.0
  0
INSERT
  5
5D
330
1F
100
AcDbEntity
  8
_U+30EC_U+30A4_U+30E4_U+30FC 1
100
AcDbBlockReference
  2
block 3
 10
0.0
 20
0.0
 30
0.0
  0
POLYLINE
  5
65
330
1F
100
AcDbEntity
  8
_U+30EC_U+30A4_U+30E4_U+30FC 1
 62
   179
420
  2234388
370
     9
100
AcDb2dPolyline
 66
     1
 10
0.0
 20
0.0
 30
0.0
  0
VERTEX
  5
66
330
65
100
AcDbEntity
  8
_U+30EC_U+30A4_U+30E4_U+30FC 1
 62
   179
420
  2234388
370
     9
100
AcDbVertex
100
AcDb2dVertex
 10
82.72846816719873
 20
-118.2294858037761
 30
0.0
  0
VERTEX
  5
67
330
65
100
AcDbEntity
  8
_U+30EC_U+30A4_U+30E4_U+30FC 1
 62
   179
420
  2234388
370
     9
100
AcDbVertex
100
AcDb2dVertex
 10
82.72846816719873
 20
-120.6899696920497
 30
0.0
  0
SEQEND
  5
68
330
65
100
AcDbEntity
  8
_U+30EC_U+30A4_U+30E4_U+30FC 1
 62
   179
420
  2234388
370
     9
  0
POLYLINE
  5
69
330
1F
100
AcDbEntity
  8
_U+30EC_U+30A4_U+30E4_U+30FC 1
 62
   179
420
  2234388
370
     9
100
AcDb2dPolyline
 66
     1
 10
0.0
 20
0.0
 30
0.0
  0
VERTEX
  5
6A
330
69
100
AcDbEntity
  8
_U+30EC_U+30A4_U+30E4_U+30FC 1
 62
   179
420
  2234388
370
     9
100
AcDbVertex
100
AcDb2dVertex
 10
91.7290990486846
 20
-118.2294858037761
 30
0.0
  0
VERTEX
  5
6B
330
69
100
AcDbEntity
  8
_U+30EC_U+30A4_U+30E4_U+30FC 1
 62
   179
420
  2234388
370
     9
100
AcDbVertex
100
AcDb2dVertex
 10
91.7290990486846
 20
-120.6899696920497
 30
0.0
  0
SEQEND
  5
6C
330
69
100
AcDbEntity
  8
_U+30EC_U+30A4_U+30E4_U+30FC 1
 62
   179
420
  2234388
370
     9
  0
INSERT
  5
6E
330
1F
100
AcDbEntity
  8
_U+30EC_U+30A4_U+30E4_U+30FC 1
100
AcDbBlockReference
  2
block 4
 10
0.0
 20
0.0
 30
0.0
  0
INSERT
  5
75
330
1F
100
AcDbEntity
  8
_U+30EC_U+30A4_U+30E4_U+30FC 1
100
AcDbBlockReference
  2
block 5
 10
0.0
 20
0.0
 30
0.0
  0
POLYLINE
  5
7B
330
1F
100
AcDbEntity
  8
_U+30EC_U+30A4_U+30E4_U+30FC 1
 62
   179
420
  2234388
370
     9
100
AcDb2dPolyline
 66
     1
 10
0.0
 20
0.0
 30
0.0
  0
VERTEX
  5
7C
330
7B
100
AcDbEntity
  8
_U+30EC_U+30A4_U+30E4_U+30FC 1
 62
   179
420
  2234388
370
     9
100
AcDbVertex
100
AcDb2dVertex
 10
91.72878154869271
 20
-119.689491914522
 30
0.0
  0
VERTEX
  5
7D
330
7B
100
AcDbEntity
  8
_U+30EC_U+30A4_U+30E4_U+30FC 1
 62
   179
420
  2234388
370
     9
100
AcDbVertex
100
AcDb2dVertex
 10
82.72846816719873
 20
-119.689491914522
 30
0.0
  0
SEQEND
  5
7E
330
7B
100
AcDbEntity
  8
_U+30EC_U+30A4_U+30E4_U+30FC 1
 62
   179
420
  2234388
370
     9
  0
SPLINE
  5
7F
330
1F
100
AcDbEntity
  8
_U+30EC_U+30A4_U+30E4_U+30FC 1
 62
   179
420
  2234388
370
     9
100
AcDbSpline
210
0.0
220
0.0
230
1.0
 70
    11
 71
     3
 72
    17
 73
    13
 74
     0
 42
0.0000000001
 43
0.0000000001
 12
1.0
 22
0.0
 32
0.0
 13
1.0
 23
0.0
 33
0.0
 40
0.0
 40
0.0
 40
0.0
 40
0.0
 40
1.0
 40
1.0
 40
1.0
 40
2.0
 40
2.0
 40
2.0
 40
3.0
 40
3.0
 40
3.0
 40
4.0
 40
4.0
 40
4.0
 40
4.0
 10
91.82900571280244
 20
-137.2174674656958
 30
0.0
 10
91.82900571280244
 20
-137.2725713545707
 30
0.0
 10
91.78423821394456
 20
-137.3173741323374
 30
0.0
 10
91.7290990486846
 20
-137.3173741323374
 30
0.0
 10
91.67399516120153
 20
-137.3173741323374
 30
0.0
 10
91.62919238456678
 20
-137.2725713545707
 30
0.0
 10
91.62919238456678
 20
-137.2174674656958
 30
0.0
 10
91.62919238456678
 20
-137.1623282990427
 30
0.0
 10
91.67399516120153
 20
-137.1175607990542
 30
0.0
 10
91.7290990486846
 20
-137.1175607990542
 30
0.0
 10
91.78423821394456
 20
-137.1175607990542
 30
0.0
 10
91.82900571280244
 20
-137.1623282990427
 30
0.0
 10
91.82900571280244
 20
-137.2174674656958
 30
0.0
  0
SPLINE
  5
80
330
1F
100
AcDbEntity
  8
_U+30EC_U+30A4_U+30E4_U+30FC 1
 62
   179
420
  2234388
370
     9
100
AcDbSpline
210
0.0
220
0.0
230
1.0
 70
    11
 71
     3
 72
    17
 73
    13
 74
     0
 42
0.0000000001
 43
0.0000000001
 12
1.0
 22
0.0
 32
0.0
 13
1.0
 23
0.0
 33
0.0
 40
0.0
 40
0.0
 40
0.0
 40
0.0
 40
1.0
 40
1.0
 40
1.0
 40
2.0
 40
2.0
 40
2.0
 40
3.0
 40
3.0
 40
3.0
 40
4.0
 40
4.0
 40
4.0
 40
4.0
 10
82.82837483131655
 20
-137.2174674656958
 30
0.0
 10
82.82837483131655
 20
-137.2725713545707
 30
0.0
 10
82.7835720546818
 20
-137.3173741323374
 30
0.0
 10
82.72846816719873
 20
-137.3173741323374
 30
0.0
 10
82.67332900193877
 20
-137.3173741323374
 30
0.0
 10
82.62856150308089
 20
-137.2725713545707
 30
0.0
 10
82.62856150308089
 20
-137.2174674656958
 30
0.0
 10
82.62856150308089
 20
-137.1623282990427
 30
0.0
 10
82.67332900193877
 20
-137.1175607990542
 30
0.0
 10
82.72846816719873
 20
-137.1175607990542
 30
0.0
 10
82.7835720546818
 20
-137.1175607990542
 30
0.0
 10
82.82837483131655
 20
-137.1623282990427
 30
0.0
 10
82.82837483131655
 20
-137.2174674656958
 30
0.0
  0
POLYLINE
  5
81
330
1F
100
AcDbEntity
  8
_U+30EC_U+30A4_U+30E4_U+30FC 1
 62
   179
420
  2234388
370
     9
100
AcDb2dPolyline
 66
     1
 10
0.0
 20
0.0
 30
0.0
  0
VERTEX
  5
82
330
81
100
AcDbEntity
  8
_U+30EC_U+30A4_U+30E4_U+30FC 1
 62
   179
420
  2234388
370
     9
100
AcDbVertex
100
AcDb2dVertex
 10
82.72846816719873
 20
-138.6775088542195
 30
0.0
  0
VERTEX
  5
83
330
81
100
AcDbEntity
  8
_U+30EC_U+30A4_U+30E4_U+30FC 1
 62
   179
420
  2234388
370
     9
100
AcDbVertex
100
AcDb2dVertex
 10
82.72846816719873
 20
-136.2170249659459
 30
0.0
  0
SEQEND
  5
84
330
81
100
AcDbEntity
  8
_U+30EC_U+30A4_U+30E4_U+30FC 1
 62
   179
420
  2234388
370
     9
  0
POLYLINE
  5
85
330
1F
100
AcDbEntity
  8
_U+30EC_U+30A4_U+30E4_U+30FC 1
 62
   179
420
  2234388
370
     9
100
AcDb2dPolyline
 66
     1
 10
0.0
 20
0.0
 30
0.0
  0
VERTEX
  5
86
330
85
100
AcDbEntity
  8
_U+30EC_U+30A4_U+30E4_U+30FC 1
 62
   179
420
  2234388
370
     9
100
AcDbVertex
100
AcDb2dVertex
 10
91.7290990486846
 20
-138.6775088542195
 30
0.0
  0
VERTEX
  5
87
330
85
100
AcDbEntity
  8
_U+30EC_U+30A4_U+30E4_U+30FC 1
 62
   179
420
  2234388
370
     9
100
AcDbVertex
100
AcDb2dVertex
 10
91.7290990486846
 20
-136.2170249659459
 30
0.0
  0
SEQEND
  5
88
330
85
100
AcDbEntity
  8
_U+30EC_U+30A4_U+30E4_U+30FC 1
 62
   179
420
  2234388
370
     9
  0
POLYLINE
  5
89
330
1F
100
AcDbEntity
  8
_U+30EC_U+30A4_U+30E4_U+30FC 1
 62
   179
420
  2234388
370
     9
100
AcDb2dPolyline
 66
     1
 10
0.0
 20
0.0
 30
0.0
  0
VERTEX
  5
8A
330
89
100
AcDbEntity
  8
_U+30EC_U+30A4_U+30E4_U+30FC 1
 62
   179
420
  2234388
370
     9
100
AcDbVertex
100
AcDb2dVertex
 10
91.72878154869271
 20
-137.2174674656958
 30
0.0
  0
VERTEX
  5
8B
330
89
100
AcDbEntity
  8
_U+30EC_U+30A4_U+30E4_U+30FC 1
 62
   179
420
  2234388
370
     9
100
AcDbVertex
100
AcDb2dVertex
 10
82.72846816719873
 20
-137.2174674656958
 30
0.0
  0
SEQEND
  5
8C
330
89
100
AcDbEntity
  8
_U+30EC_U+30A4_U+30E4_U+30FC 1
 62
   179
420
  2234388
370
     9
  0
SPLINE
  5
8D
330
1F
100
AcDbEntity
  8
_U+30EC_U+30A4_U+30E4_U+30FC 1
 62
   179
420
  2234388
370
    25
100
AcDbSpline
210
0.0
220
0.0
230
1.0
 70
    11
 71
     3
 72
    44
 73
    40
 74
     0
 42
0.0000000001
 43
0.0000000001
 12
1.0
 22
0.0
 32
0.0
 13
1.0
 23
0.0
 33
0.0
 40
0.0
 40
0.0
 40
0.0
 40
0.0
 40
1.0
 40
1.0
 40
1.0
 40
2.0
 40
2.0
 40
2.0
 40
3.0
 40
3.0
 40
3.0
 40
4.0
 40
4.0
 40
4.0
 40
5.0
 40
5.0
 40
5.0
 40
6.0
 40
6.0
 40
6.0
 40
7.0
 40
7.0
 40
7.0
 40
8.0
 40
8.0
 40
8.0
 40
9.0
 40
9.0
 40
9.0
 40
10.0
 40
10.0
 40
10.0
 40
11.0
 40
11.0
 40
11.0
 40
12.0
 40
12.0
 40
12.0
 40
13.0
 40
13.0
 40
13.0
 40
13.0
 10
91.62887488457487
 20
-123.6513627468651
 30
0.0
 10
91.62887488457487
 20
-123.6513627468651
 30
0.0
 10
83.62865119978869
 20
-123.6513627468651
 30
0.0
 10
83.62865119978869
 20
-123.6513627468651
 30
0.0
 10
83.62865119978869
 20
-123.6513627468651
 30
0.0
 10
83.62865119978869
 20
-133.6514485776981
 30
0.0
 10
83.62865119978869
 20
-133.6514485776981
 30
0.0
 10
83.62865119978869
 20
-133.6514485776981
 30
0.0
 10
83.62865119978869
 20
-133.6518013554758
 30
0.0
 10
83.62865119978869
 20
-133.6518013554758
 30
0.0
 10
83.62865119978869
 20
-133.6518013554758
 30
0.0
 10
91.62887488457487
 20
-133.6518013554758
 30
0.0
 10
91.62887488457487
 20
-133.6518013554758
 30
0.0
 10
91.62887488457487
 20
-133.6518013554758
 30
0.0
 10
91.62887488457487
 20
-134.1516874664618
 30
0.0
 10
91.62887488457487
 20
-134.1516874664618
 30
0.0
 10
91.62887488457487
 20
-134.4279830219488
 30
0.0
 10
91.4049315569548
 20
-134.6515735774484
 30
0.0
 10
91.12863600844814
 20
-134.6515735774484
 30
0.0
 10
91.12863600844814
 20
-134.6515735774484
 30
0.0
 10
83.12841232366196
 20
-134.6515735774484
 30
0.0
 10
83.12841232366196
 20
-134.6515735774484
 30
0.0
 10
82.8521167751553
 20
-134.6515735774484
 30
0.0
 10
82.62856150308089
 20
-134.4279830219488
 30
0.0
 10
82.62856150308089
 20
-134.1516874664618
 30
0.0
 10
82.62856150308089
 20
-134.1516874664618
 30
0.0
 10
82.62856150308089
 20
-123.1518294136565
 30
0.0
 10
82.62856150308089
 20
-123.1518294136565
 30
0.0
 10
82.62856150308089
 20
-122.8755338581701
 30
0.0
 10
82.8521167751553
 20
-122.6515905248928
 30
0.0
 10
83.12841232366196
 20
-122.6515905248928
 30
0.0
 10
83.12841232366196
 20
-122.6515905248928
 30
0.0
 10
91.12863600844814
 20
-122.6515905248928
 30
0.0
 10
91.12863600844814
 20
-122.6515905248928
 30
0.0
 10
91.4049315569548
 20
-122.6515905248928
 30
0.0
 10
91.62887488457487
 20
-122.8755338581701
 30
0.0
 10
91.62887488457487
 20
-123.1518294136565
 30
0.0
 10
91.62887488457487
 20
-123.1518294136565
 30
0.0
 10
91.62887488457487
 20
-123.6513627468651
 30
0.0
 10
91.62887488457487
 20
-123.6513627468651
 30
0.0
  0
HATCH
  5
8E
330
1F
100
AcDbEntity
  8
_U+30EC_U+30A4_U+30E4_U+30FC 1
 62
   253
420
 11711154
100
AcDbHatch
 10
0.0
 20
0.0
 30
0.0
210
0.0
220
0.0
230
1.0
  2
SOLID
 70
     1
 71
     0
 91
        1
 92
        1
 93
        1
 72
     4
 94
        3
 73
     0
 74
     1
 95
       44
 96
       40
 40
0.0
 40
0.0
 40
0.0
 40
0.0
 40
1.0
 40
1.0
 40
1.0
 40
2.0
 40
2.0
 40
2.0
 40
3.0
 40
3.0
 40
3.0
 40
4.0
 40
4.0
 40
4.0
 40
5.0
 40
5.0
 40
5.0
 40
6.0
 40
6.0
 40
6.0
 40
7.0
 40
7.0
 40
7.0
 40
8.0
 40
8.0
 40
8.0
 40
9.0
 40
9.0
 40
9.0
 40
10.0
 40
10.0
 40
10.0
 40
11.0
 40
11.0
 40
11.0
 40
12.0
 40
12.0
 40
12.0
 40
13.0
 40
13.0
 40
13.0
 40
13.0
 10
91.62887488457487
 20
-123.6513627468651
 10
91.62887488457487
 20
-123.6513627468651
 10
83.62865119978869
 20
-123.6513627468651
 10
83.62865119978869
 20
-123.6513627468651
 10
83.62865119978869
 20
-123.6513627468651
 10
83.62865119978869
 20
-133.6514485776981
 10
83.62865119978869
 20
-133.6514485776981
 10
83.62865119978869
 20
-133.6514485776981
 10
83.62865119978869
 20
-133.6518013554758
 10
83.62865119978869
 20
-133.6518013554758
 10
83.62865119978869
 20
-133.6518013554758
 10
91.62887488457487
 20
-133.6518013554758
 10
91.62887488457487
 20
-133.6518013554758
 10
91.62887488457487
 20
-133.6518013554758
 10
91.62887488457487
 20
-134.1516874664618
 10
91.62887488457487
 20
-134.1516874664618
 10
91.62887488457487
 20
-134.4279830219488
 10
91.4049315569548
 20
-134.6515735774484
 10
91.12863600844814
 20
-134.6515735774484
 10
91.12863600844814
 20
-134.6515735774484
 10
83.12841232366196
 20
-134.6515735774484
 10
83.12841232366196
 20
-134.6515735774484
 10
82.8521167751553
 20
-134.6515735774484
 10
82.62856150308089
 20
-134.4279830219488
 10
82.62856150308089
 20
-134.1516874664618
 10
82.62856150308089
 20
-134.1516874664618
 10
82.62856150308089
 20
-123.1518294136565
 10
82.62856150308089
 20
-123.1518294136565
 10
82.62856150308089
 20
-122.8755338581701
 10
82.8521167751553
 20
-122.6515905248928
 10
83.12841232366196
 20
-122.6515905248928
 10
83.12841232366196
 20
-122.6515905248928
 10
91.12863600844814
 20
-122.6515905248928
 10
91.12863600844814
 20
-122.6515905248928
 10
91.4049315569548
 20
-122.6515905248928
 10
91.62887488457487
 20
-122.8755338581701
 10
91.62887488457487
 20
-123.1518294136565
 10
91.62887488457487
 20
-123.1518294136565
 10
91.62887488457487
 20
-123.6513627468651
 10
91.62887488457487
 20
-123.6513627468651
 97
        0
 97
        0
 75
     2
 76
     1
 98
        0
  0
ENDSEC
  0
SECTION
  2
OBJECTS
  0
DICTIONARY
  5
C
330
0
100
AcDbDictionary
281
     1
  3
ACAD_GROUP
350
D
  3
ACAD_LAYOUT
350
1A
  3
ACAD_MATERIAL
350
3B
  3
ACAD_MLEADERSTYLE
350
90
  3
ACAD_MLINESTYLE
350
17
  3
ACAD_PLOTSETTINGS
350
19
  3
ACAD_PLOTSTYLENAME
350
E
  3
ACAD_TABLESTYLE
350
8F
  3
ACAD_VISUALSTYLE
350
2A
  0
SUN
  5
3F
330
29
100
AcDbSun
 90
        1
290
     0
 63
     7
421
 16777215
 40
1.0
291
     1
 91
  2455826
 92
 54000000
292
     0
 70
     2
 71
   256
280
     1
  0
DICTIONARY
  5
D
102
{ACAD_REACTORS
330
C
102
}
330
C
100
AcDbDictionary
281
     1
  0
DICTIONARY
  5
1A
102
{ACAD_REACTORS
330
C
102
}
330
C
100
AcDbDictionary
281
     1
  3
Layout1
350
1E
  3
Layout2
350
26
  3
Model
350
22
  0
DICTIONARY
  5
3B
102
{ACAD_REACTORS
330
C
102
}
330
C
100
AcDbDictionary
281
     1
  3
ByBlock
350
3D
  3
ByLayer
350
3C
  3
Global
350
3E
  0
DICTIONARY
  5
90
102
{ACAD_REACTORS
330
C
102
}
330
C
100
AcDbDictionary
281
     1
  0
DICTIONARY
  5
17
102
{ACAD_REACTORS
330
C
102
}
330
C
100
AcDbDictionary
281
     1
  3
Standard
350
18
  0
DICTIONARY
  5
19
102
{ACAD_REACTORS
330
C
102
}
330
C
100
AcDbDictionary
281
     1
  0
ACDBDICTIONARYWDFLT
  5
E
102
{ACAD_REACTORS
330
C
102
}
330
C
100
AcDbDictionary
281
     1
  3
Normal
350
F
100
AcDbDictionaryWithDefault
340
F
  0
DICTIONARY
  5
8F
102
{ACAD_REACTORS
330
C
102
}
330
C
100
AcDbDictionary
281
     1
  0
DICTIONARY
  5
2A
102
{ACAD_REACTORS
330
C
102
}
330
C
100
AcDbDictionary
281
     1
  3
2dWireframe
350
2F
  3
3D Hidden
350
31
  3
3dWireframe
350
30
  3
Basic
350
32
  3
Brighten
350
36
  3
ColorChange
350
3A
  3
Conceptual
350
34
  3
Dim
350
35
  3
Facepattern
350
39
  3
Flat
350
2B
  3
FlatWithEdges
350
2C
  3
Gouraud
350
2D
  3
GouraudWithEdges
350
2E
  3
Linepattern
350
38
  3
Realistic
350
33
  3
Thicken
350
37
  0
LAYOUT
  5
1E
102
{ACAD_REACTORS
330
1A
102
}
330
1A
100
AcDbPlotSettings
  1

  2
none_device
  4

  6

 40
0.0
 41
0.0
 42
0.0
 43
0.0
 44
0.0
 45
0.0
 46
0.0
 47
0.0
 48
0.0
 49
0.0
140
0.0
141
0.0
142
1.0
143
1.0
 70
   688
 72
     0
 73
     0
 74
     5
  7

 75
    16
 76
     0
 77
     2
 78
   300
147
1.0
148
0.0
149
0.0
100
AcDbLayout
  1
Layout1
 70
     1
 71
     1
 10
0.0
 20
0.0
 11
12.0
 21
9.0
 12
0.0
 22
0.0
 32
0.0
 14
1.000000000000000E+20
 24
1.000000000000000E+20
 34
1.000000000000000E+20
 15
-1.000000000000000E+20
 25
-1.000000000000000E+20
 35
-1.000000000000000E+20
146
0.0
 13
0.0
 23
0.0
 33
0.0
 16
1.0
 26
0.0
 36
0.0
 17
0.0
 27
1.0
 37
0.0
 76
     0
330
1B
  0
LAYOUT
  5
26
102
{ACAD_REACTORS
330
1A
102
}
330
1A
100
AcDbPlotSettings
  1

  2
none_device
  4

  6

 40
0.0
 41
0.0
 42
0.0
 43
0.0
 44
0.0
 45
0.0
 46
0.0
 47
0.0
 48
0.0
 49
0.0
140
0.0
141
0.0
142
1.0
143
1.0
 70
   688
 72
     0
 73
     0
 74
     5
  7

 75
    16
 76
     0
 77
     2
 78
   300
147
1.0
148
0.0
149
0.0
100
AcDbLayout
  1
Layout2
 70
     1
 71
     2
 10
0.0
 20
0.0
 11
0.0
 21
0.0
 12
0.0
 22
0.0
 32
0.0
 14
0.0
 24
0.0
 34
0.0
 15
0.0
 25
0.0
 35
0.0
146
0.0
 13
0.0
 23
0.0
 33
0.0
 16
1.0
 26
0.0
 36
0.0
 17
0.0
 27
1.0
 37
0.0
 76
     0
330
23
  0
LAYOUT
  5
22
102
{ACAD_REACTORS
330
1A
102
}
330
1A
100
AcDbPlotSettings
  1

  2
none_device
  4

  6

 40
0.0
 41
0.0
 42
0.0
 43
0.0
 44
0.0
 45
0.0
 46
0.0
 47
0.0
 48
0.0
 49
0.0
140
0.0
141
0.0
142
1.0
143
1.0
 70
  1712
 72
     0
 73
     0
 74
     0
  7

 75
     0
 76
     0
 77
     2
 78
   300
147
1.0
148
0.0
149
0.0
100
AcDbLayout
  1
Model
 70
     1
 71
     0
 10
0.0
 20
0.0
 11
12.0
 21
9.0
 12
0.0
 22
0.0
 32
0.0
 14
1.000000000000000E+20
 24
1.000000000000000E+20
 34
1.000000000000000E+20
 15
-1.000000000000000E+20
 25
-1.000000000000000E+20
 35
-1.000000000000000E+20
146
0.0
 13
0.0
 23
0.0
 33
0.0
 16
1.0
 26
0.0
 36
0.0
 17
0.0
 27
1.0
 37
0.0
 76
     0
330
1F
331
29
  0
MATERIAL
  5
3D
102
{ACAD_REACTORS
330
3B
102
}
330
3B
100
AcDbMaterial
  1
ByBlock
 72
     1
 94
      127
  0
MATERIAL
  5
3C
102
{ACAD_REACTORS
330
3B
102
}
330
3B
100
AcDbMaterial
  1
ByLayer
 72
     1
 94
      127
  0
MATERIAL
  5
3E
102
{ACAD_REACTORS
330
3B
102
}
330
3B
100
AcDbMaterial
  1
Global
 72
     1
 94
      127
  0
MLINESTYLE
  5
18
102
{ACAD_REACTORS
330
17
102
}
330
17
100
AcDbMlineStyle
  2
Standard
 70
     0
  3

 62
   256
 51
90.0
 52
90.0
 71
     2
 49
0.5
 62
   256
  6
BYLAYER
 49
-0.5
 62
   256
  6
BYLAYER
  0
ACDBPLACEHOLDER
  5
F
102
{ACAD_REACTORS
330
E
102
}
330
E
  0
VISUALSTYLE
  5
2F
102
{ACAD_REACTORS
330
2A
102
}
330
2A
100
AcDbVisualStyle
  2
2dWireframe
 70
     4
177
     2
291
     0
 71
     0
176
     1
 72
     2
176
     1
 73
     0
176
     1
 90
        0
176
     1
 40
-0.6
176
     1
 41
-30.0
176
     1
 62
     5
 63
     7
421
 16777215
176
     1
 74
     1
176
     1
 91
        4
176
     1
 64
     7
176
     1
 65
   257
176
     1
 75
     1
176
     1
175
     1
176
     1
 42
1.0
176
     1
 92
        0
176
     1
 66
   257
176
     1
 43
1.0
176
     1
 76
     1
176
     1
 77
     6
176
     1
 78
     2
176
     1
 67
     7
176
     1
 79
     5
176
     1
170
     0
176
     1
171
     0
176
     1
290
     0
176
     1
 93
        1
176
     1
 44
0.0
176
     1
173
     0
176
     1
  0
VISUALSTYLE
  5
31
102
{ACAD_REACTORS
330
2A
102
}
330
2A
100
AcDbVisualStyle
  2
3D Hidden
 70
     6
177
     2
291
     0
 71
     1
176
     1
 72
     2
176
     1
 73
     2
176
     1
 90
        0
176
     1
 40
-0.6
176
     1
 41
-30.0
176
     1
 62
     5
 63
     7
421
 16777215
176
     1
 74
     2
176
     1
 91
        2
176
     1
 64
     7
176
     1
 65
   257
176
     1
 75
     2
176
     1
175
     1
176
     1
 42
40.0
176
     1
 92
        0
176
     1
 66
   257
176
     1
 43
1.0
176
     1
 76
     1
176
     1
 77
     6
176
     1
 78
     2
176
     1
 67
     7
176
     1
 79
     3
176
     1
170
     0
176
     1
171
     0
176
     1
290
     0
176
     1
 93
        1
176
     1
 44
0.0
176
     1
173
     0
176
     1
  0
VISUALSTYLE
  5
30
102
{ACAD_REACTORS
330
2A
102
}
330
2A
100
AcDbVisualStyle
  2
3dWireframe
 70
     5
177
     2
291
     0
 71
     0
176
     1
 72
     2
176
     1
 73
     0
176
     1
 90
        0
176
     1
 40
-0.6
176
     1
 41
-30.0
176
     1
 62
     5
 63
     7
421
 16777215
176
     1
 74
     1
176
     1
 91
        4
176
     1
 64
     7
176
     1
 65
   257
176
     1
 75
     1
176
     1
175
     1
176
     1
 42
1.0
176
     1
 92
        0
176
     1
 66
   257
176
     1
 43
1.0
176
     1
 76
     1
176
     1
 77
     6
176
     1
 78
     2
176
     1
 67
     7
176
     1
 79
     5
176
     1
170
     0
176
     1
171
     0
176
     1
290
     0
176
     1
 93
        1
176
     1
 44
0.0
176
     1
173
     0
176
     1
  0
VISUALSTYLE
  5
32
102
{ACAD_REACTORS
330
2A
102
}
330
2A
100
AcDbVisualStyle
  2
Basic
 70
     7
177
     2
291
     1
 71
     1
176
     1
 72
     0
176
     1
 73
     1
176
     1
 90
        0
176
     1
 40
-0.6
176
     1
 41
-30.0
176
     1
 62
     5
 63
     7
421
 16777215
176
     1
 74
     0
176
     1
 91
        4
176
     1
 64
     7
176
     1
 65
   257
176
     1
 75
     1
176
     1
175
     1
176
     1
 42
1.0
176
     1
 92
        8
176
     1
 66
     7
176
     1
 43
1.0
176
     1
 76
     1
176
     1
 77
     6
176
     1
 78
     2
176
     1
 67
     7
176
     1
 79
     5
176
     1
170
     0
176
     1
171
     0
176
     1
290
     0
176
     1
 93
        1
176
     1
 44
0.0
176
     1
173
     0
176
     1
  0
VISUALSTYLE
  5
36
102
{ACAD_REACTORS
330
2A
102
}
330
2A
100
AcDbVisualStyle
  2
Brighten
 70
    12
177
     2
291
     1
 71
     2
176
     1
 72
     2
176
     1
 73
     0
176
     1
 90
        0
176
     1
 40
-0.6
176
     1
 41
-30.0
176
     1
 62
     5
 63
     7
421
 16777215
176
     1
 74
     1
176
     1
 91
        4
176
     1
 64
     7
176
     1
 65
   257
176
     1
 75
     1
176
     1
175
     1
176
     1
 42
1.0
176
     1
 92
        8
176
     1
 66
     7
176
     1
 43
1.0
176
     1
 76
     1
176
     1
 77
     6
176
     1
 78
     2
176
     1
 67
     7
176
     1
 79
     5
176
     1
170
     0
176
     1
171
     0
176
     1
290
     0
176
     1
 93
        1
176
     1
 44
50.0
176
     1
173
     0
176
     1
  0
VISUALSTYLE
  5
3A
102
{ACAD_REACTORS
330
2A
102
}
330
2A
100
AcDbVisualStyle
  2
ColorChange
 70
    16
177
     2
291
     1
 71
     2
176
     1
 72
     2
176
     1
 73
     3
176
     1
 90
        0
176
     1
 40
-0.6
176
     1
 41
-30.0
176
     1
 62
     5
 63
     8
421
  8421504
176
     1
 74
     1
176
     1
 91
        4
176
     1
 64
     7
176
     1
 65
   257
176
     1
 75
     1
176
     1
175
     1
176
     1
 42
1.0
176
     1
 92
        8
176
     1
 66
     8
424
  8421504
176
     1
 43
1.0
176
     1
 76
     1
176
     1
 77
     6
176
     1
 78
     2
176
     1
 67
     7
176
     1
 79
     5
176
     1
170
     0
176
     1
171
     0
176
     1
290
     0
176
     1
 93
        1
176
     1
 44
0.0
176
     1
173
     0
176
     1
  0
VISUALSTYLE
  5
34
102
{ACAD_REACTORS
330
2A
102
}
330
2A
100
AcDbVisualStyle
  2
Conceptual
 70
     9
177
     2
291
     0
 71
     3
176
     1
 72
     2
176
     1
 73
     0
176
     1
 90
        0
176
     1
 40
-0.6
176
     1
 41
-30.0
176
     1
 62
     5
 63
     7
421
 16777215
176
     1
 74
     2
176
     1
 91
        2
176
     1
 64
     7
176
     1
 65
   257
176
     1
 75
     1
176
     1
175
     1
176
     1
 42
40.0
176
     1
 92
        8
176
     1
 66
     7
176
     1
 43
1.0
176
     1
 76
     1
176
     1
 77
     6
176
     1
 78
     2
176
     1
 67
     7
176
     1
 79
     3
176
     1
170
     0
176
     1
171
     0
176
     1
290
     0
176
     1
 93
        1
176
     1
 44
0.0
176
     1
173
     0
176
     1
  0
VISUALSTYLE
  5
35
102
{ACAD_REACTORS
330
2A
102
}
330
2A
100
AcDbVisualStyle
  2
Dim
 70
    11
177
     2
291
     1
 71
     2
176
     1
 72
     2
176
     1
 73
     0
176
     1
 90
        0
176
     1
 40
-0.6
176
     1
 41
-30.0
176
     1
 62
     5
 63
     7
421
 16777215
176
     1
 74
     1
176
     1
 91
        4
176
     1
 64
     7
176
     1
 65
   257
176
     1
 75
     1
176
     1
175
     1
176
     1
 42
1.0
176
     1
 92
        8
176
     1
 66
     7
176
     1
 43
1.0
176
     1
 76
     1
176
     1
 77
     6
176
     1
 78
     2
176
     1
 67
     7
176
     1
 79
     5
176
     1
170
     0
176
     1
171
     0
176
     1
290
     0
176
     1
 93
        1
176
     1
 44
-50.0
176
     1
173
     0
176
     1
  0
VISUALSTYLE
  5
39
102
{ACAD_REACTORS
330
2A
102
}
330
2A
100
AcDbVisualStyle
  2
Facepattern
 70
    15
177
     2
291
     1
 71
     2
176
     1
 72
     2
176
     1
 73
     0
176
     1
 90
        0
176
     1
 40
-0.6
176
     1
 41
-30.0
176
     1
 62
     5
 63
     7
421
 16777215
176
     1
 74
     1
176
     1
 91
        4
176
     1
 64
     7
176
     1
 65
   257
176
     1
 75
     1
176
     1
175
     1
176
     1
 42
1.0
176
     1
 92
        8
176
     1
 66
     7
176
     1
 43
1.0
176
     1
 76
     1
176
     1
 77
     6
176
     1
 78
     2
176
     1
 67
     7
176
     1
 79
     5
176
     1
170
     0
176
     1
171
     0
176
     1
290
     0
176
     1
 93
        1
176
     1
 44
0.0
176
     1
173
     0
176
     1
  0
VISUALSTYLE
  5
2B
102
{ACAD_REACTORS
330
2A
102
}
330
2A
100
AcDbVisualStyle
  2
Flat
 70
     0
177
     2
291
     1
 71
     2
176
     1
 72
     1
176
     1
 73
     1
176
     1
 90
        2
176
     1
 40
-0.6
176
     1
 41
30.0
176
     1
 62
     5
 63
     7
421
 16777215
176
     1
 74
     0
176
     1
 91
        4
176
     1
 64
     7
176
     1
 65
   257
176
     1
 75
     1
176
     1
175
     1
176
     1
 42
1.0
176
     1
 92
        8
176
     1
 66
     7
176
     1
 43
1.0
176
     1
 76
     1
176
     1
 77
     6
176
     1
 78
     2
176
     1
 67
     7
176
     1
 79
     5
176
     1
170
     0
176
     1
171
     0
176
     1
290
     0
176
     1
 93
       13
176
     1
 44
0.0
176
     1
173
     0
176
     1
  0
VISUALSTYLE
  5
2C
102
{ACAD_REACTORS
330
2A
102
}
330
2A
100
AcDbVisualStyle
  2
FlatWithEdges
 70
     1
177
     2
291
     1
 71
     2
176
     1
 72
     1
176
     1
 73
     1
176
     1
 90
        2
176
     1
 40
-0.6
176
     1
 41
30.0
176
     1
 62
     5
 63
     7
421
 16777215
176
     1
 74
     1
176
     1
 91
        4
176
     1
 64
     7
176
     1
 65
   257
176
     1
 75
     1
176
     1
175
     1
176
     1
 42
1.0
176
     1
 92
        0
176
     1
 66
   257
176
     1
 43
1.0
176
     1
 76
     1
176
     1
 77
     6
176
     1
 78
     2
176
     1
 67
     7
176
     1
 79
     5
176
     1
170
     0
176
     1
171
     0
176
     1
290
     0
176
     1
 93
       13
176
     1
 44
0.0
176
     1
173
     0
176
     1
  0
VISUALSTYLE
  5
2D
102
{ACAD_REACTORS
330
2A
102
}
330
2A
100
AcDbVisualStyle
  2
Gouraud
 70
     2
177
     2
291
     1
 71
     2
176
     1
 72
     2
176
     1
 73
     1
176
     1
 90
        2
176
     1
 40
-0.6
176
     1
 41
30.0
176
     1
 62
     5
 63
     7
421
 16777215
176
     1
 74
     0
176
     1
 91
        4
176
     1
 64
     7
176
     1
 65
   257
176
     1
 75
     1
176
     1
175
     1
176
     1
 42
1.0
176
     1
 92
        0
176
     1
 66
     7
176
     1
 43
1.0
176
     1
 76
     1
176
     1
 77
     6
176
     1
 78
     2
176
     1
 67
     7
176
     1
 79
     5
176
     1
170
     0
176
     1
171
     0
176
     1
290
     0
176
     1
 93
       13
176
     1
 44
0.0
176
     1
173
     0
176
     1
  0
VISUALSTYLE
  5
2E
102
{ACAD_REACTORS
330
2A
102
}
330
2A
100
AcDbVisualStyle
  2
GouraudWithEdges
 70
     3
177
     2
291
     1
 71
     2
176
     1
 72
     2
176
     1
 73
     1
176
     1
 90
        2
176
     1
 40
-0.6
176
     1
 41
30.0
176
     1
 62
     5
 63
     7
421
 16777215
176
     1
 74
     1
176
     1
 91
        4
176
     1
 64
     7
176
     1
 65
   257
176
     1
 75
     1
176
     1
175
     1
176
     1
 42
1.0
176
     1
 92
        0
176
     1
 66
   257
176
     1
 43
1.0
176
     1
 76
     1
176
     1
 77
     6
176
     1
 78
     2
176
     1
 67
     7
176
     1
 79
     5
176
     1
170
     0
176
     1
171
     0
176
     1
290
     0
176
     1
 93
       13
176
     1
 44
0.0
176
     1
173
     0
176
     1
  0
VISUALSTYLE
  5
38
102
{ACAD_REACTORS
330
2A
102
}
330
2A
100
AcDbVisualStyle
  2
Linepattern
 70
    14
177
     2
291
     1
 71
     2
176
     1
 72
     2
176
     1
 73
     0
176
     1
 90
        0
176
     1
 40
-0.6
176
     1
 41
-30.0
176
     1
 62
     5
 63
     7
421
 16777215
176
     1
 74
     1
176
     1
 91
        4
176
     1
 64
     7
176
     1
 65
   257
176
     1
 75
     7
176
     1
175
     7
176
     1
 42
1.0
176
     1
 92
        8
176
     1
 66
     7
176
     1
 43
1.0
176
     1
 76
     1
176
     1
 77
     6
176
     1
 78
     2
176
     1
 67
     7
176
     1
 79
     5
176
     1
170
     0
176
     1
171
     0
176
     1
290
     0
176
     1
 93
        1
176
     1
 44
0.0
176
     1
173
     0
176
     1
  0
VISUALSTYLE
  5
33
102
{ACAD_REACTORS
330
2A
102
}
330
2A
100
AcDbVisualStyle
  2
Realistic
 70
     8
177
     2
291
     0
 71
     2
176
     1
 72
     2
176
     1
 73
     0
176
     1
 90
        0
176
     1
 40
-0.6
176
     1
 41
-30.0
176
     1
 62
     5
 63
     7
421
 16777215
176
     1
 74
     1
176
     1
 91
        0
176
     1
 64
     7
176
     1
 65
   257
176
     1
 75
     1
176
     1
175
     1
176
     1
 42
1.0
176
     1
 92
        8
176
     1
 66
     8
424
  7895160
176
     1
 43
1.0
176
     1
 76
     1
176
     1
 77
     6
176
     1
 78
     2
176
     1
 67
     7
176
     1
 79
     5
176
     1
170
     0
176
     1
171
     0
176
     1
290
     0
176
     1
 93
       13
176
     1
 44
0.0
176
     1
173
     0
176
     1
  0
VISUALSTYLE
  5
37
102
{ACAD_REACTORS
330
2A
102
}
330
2A
100
AcDbVisualStyle
  2
Thicken
 70
    13
177
     2
291
     1
 71
     2
176
     1
 72
     2
176
     1
 73
     0
176
     1
 90
        0
176
     1
 40
-0.6
176
     1
 41
-30.0
176
     1
 62
     5
 63
     7
421
 16777215
176
     1
 74
     1
176
     1
 91
        4
176
     1
 64
     7
176
     1
 65
   257
176
     1
 75
     1
176
     1
175
     1
176
     1
 42
1.0
176
     1
 92
       12
176
     1
 66
     7
176
     1
 43
1.0
176
     1
 76
     1
176
     1
 77
     6
176
     1
 78
     2
176
     1
 67
     7
176
     1
 79
     5
176
     1
170
     0
176
     1
171
     0
176
     1
290
     0
176
     1
 93
        1
176
     1
 44
0.0
176
     1
173
     0
176
     1
  0
ENDSEC
  0
EOF
