  0
SECTION
  2
HEADER
  9
$ACADVER
  1
AC1024
  9
$ACADMAINTVER
 70
     6
  9
$DWGCODEPAGE
  3
UNDEFINED
  9
$INSBASE
 10
0.0
 20
0.0
 30
0.0
  9
$EXTMIN
 10
1.000000000000000E+20
 20
1.000000000000000E+20
 30
1.000000000000000E+20
  9
$EXTMAX
 10
-1.000000000000000E+20
 20
-1.000000000000000E+20
 30
-1.000000000000000E+20
  9
$LIMMIN
 10
0.0
 20
0.0
  9
$LIMMAX
 10
12.0
 20
9.0
  9
$ORTHOMODE
 70
     0
  9
$REGENMODE
 70
     1
  9
$FILLMODE
 70
     1
  9
$QTEXTMODE
 70
     0
  9
$MIRRTEXT
 70
     1
  9
$LTSCALE
 40
1.0
  9
$ATTMODE
 70
     1
  9
$TEXTSIZE
 40
0.2
  9
$TRACEWID
 40
0.05
  9
$TEXTSTYLE
  7
Standard
  9
$CLAYER
  8
0
  9
$CELTYPE
  6
ByLayer
  9
$CECOLOR
 62
   256
  9
$CELTSCALE
 40
1.0
  9
$DISPSILH
 70
     0
  9
$DIMSCALE
 40
1.0
  9
$DIMASZ
 40
0.18
  9
$DIMEXO
 40
0.0625
  9
$DIMDLI
 40
0.38
  9
$DIMRND
 40
0.0
  9
$DIMDLE
 40
0.0
  9
$DIMEXE
 40
0.18
  9
$DIMTP
 40
0.0
  9
$DIMTM
 40
0.0
  9
$DIMTXT
 40
0.18
  9
$DIMCEN
 40
0.09
  9
$DIMTSZ
 40
0.0
  9
$DIMTOL
 70
     0
  9
$DIMLIM
 70
     0
  9
$DIMTIH
 70
     1
  9
$DIMTOH
 70
     1
  9
$DIMSE1
 70
     0
  9
$DIMSE2
 70
     0
  9
$DIMTAD
 70
     0
  9
$DIMZIN
 70
     0
  9
$DIMBLK
  1

  9
$DIMASO
 70
     1
  9
$DIMSHO
 70
     1
  9
$DIMPOST
  1

  9
$DIMAPOST
  1

  9
$DIMALT
 70
     0
  9
$DIMALTD
 70
     2
  9
$DIMALTF
 40
25.4
  9
$DIMLFAC
 40
1.0
  9
$DIMTOFL
 70
     0
  9
$DIMTVP
 40
0.0
  9
$DIMTIX
 70
     0
  9
$DIMSOXD
 70
     0
  9
$DIMSAH
 70
     0
  9
$DIMBLK1
  1

  9
$DIMBLK2
  1

  9
$DIMSTYLE
  2
Standard
  9
$DIMCLRD
 70
     0
  9
$DIMCLRE
 70
     0
  9
$DIMCLRT
 70
     0
  9
$DIMTFAC
 40
1.0
  9
$DIMGAP
 40
0.09
  9
$DIMJUST
 70
     0
  9
$DIMSD1
 70
     0
  9
$DIMSD2
 70
     0
  9
$DIMTOLJ
 70
     1
  9
$DIMTZIN
 70
     0
  9
$DIMALTZ
 70
     0
  9
$DIMALTTZ
 70
     0
  9
$DIMUPT
 70
     0
  9
$DIMDEC
 70
     4
  9
$DIMTDEC
 70
     4
  9
$DIMALTU
 70
     2
  9
$DIMALTTD
 70
     2
  9
$DIMTXSTY
  7
Standard
  9
$DIMAUNIT
 70
     0
  9
$DIMADEC
 70
     0
  9
$DIMALTRND
 40
0.0
  9
$DIMAZIN
 70
     0
  9
$DIMDSEP
 70
    46
  9
$DIMATFIT
 70
     3
  9
$DIMFRAC
 70
     0
  9
$DIMLDRBLK
  1

  9
$DIMLUNIT
 70
     2
  9
$DIMLWD
 70
    -2
  9
$DIMLWE
 70
    -2
  9
$DIMTMOVE
 70
     0
  9
$DIMFXL
 40
1.0
  9
$DIMFXLON
 70
     0
  9
$DIMJOGANG
 40
0.7853981633974483
  9
$DIMTFILL
 70
     0
  9
$DIMTFILLCLR
 70
     0
  9
$DIMARCSYM
 70
     0
  9
$DIMLTYPE
  6

  9
$DIMLTEX1
  6

  9
$DIMLTEX2
  6

  9
$DIMTXTDIRECTION
 70
     0
  9
$LUNITS
 70
     2
  9
$LUPREC
 70
     4
  9
$SKETCHINC
 40
0.1
  9
$FILLETRAD
 40
0.5
  9
$AUNITS
 70
     0
  9
$AUPREC
 70
     0
  9
$MENU
  1
.
  9
$ELEVATION
 40
0.0
  9
$PELEVATION
 40
0.0
  9
$THICKNESS
 40
0.0
  9
$LIMCHECK
 70
     0
  9
$CHAMFERA
 40
0.5
  9
$CHAMFERB
 40
0.5
  9
$CHAMFERC
 40
1.0
  9
$CHAMFERD
 40
0.0
  9
$SKPOLY
 70
     0
  9
$TDCREATE
 40
2457917.621284722
  9
$TDUCREATE
 40
2457917.246284722
  9
$TDUPDATE
 40
2457917.621284722
  9
$TDUUPDATE
 40
2457917.246284722
  9
$TDINDWG
 40
0.0000000116
  9
$TDUSRTIMER
 40
0.0000000116
  9
$USRTIMER
 70
     1
  9
$ANGBASE
 50
0.0
  9
$ANGDIR
 70
     0
  9
$PDMODE
 70
     0
  9
$PDSIZE
 40
0.0
  9
$PLINEWID
 40
0.0
  9
$SPLFRAME
 70
     0
  9
$SPLINETYPE
 70
     6
  9
$SPLINESEGS
 70
     8
  9
$HANDSEED
  5
94
  9
$SURFTAB1
 70
     6
  9
$SURFTAB2
 70
     6
  9
$SURFTYPE
 70
     6
  9
$SURFU
 70
     6
  9
$SURFV
 70
     6
  9
$UCSBASE
  2

  9
$UCSNAME
  2

  9
$UCSORG
 10
0.0
 20
0.0
 30
0.0
  9
$UCSXDIR
 10
1.0
 20
0.0
 30
0.0
  9
$UCSYDIR
 10
0.0
 20
1.0
 30
0.0
  9
$UCSORTHOREF
  2

  9
$UCSORTHOVIEW
 70
     0
  9
$UCSORGTOP
 10
0.0
 20
0.0
 30
0.0
  9
$UCSORGBOTTOM
 10
0.0
 20
0.0
 30
0.0
  9
$UCSORGLEFT
 10
0.0
 20
0.0
 30
0.0
  9
$UCSORGRIGHT
 10
0.0
 20
0.0
 30
0.0
  9
$UCSORGFRONT
 10
0.0
 20
0.0
 30
0.0
  9
$UCSORGBACK
 10
0.0
 20
0.0
 30
0.0
  9
$PUCSBASE
  2

  9
$PUCSNAME
  2

  9
$PUCSORG
 10
0.0
 20
0.0
 30
0.0
  9
$PUCSXDIR
 10
1.0
 20
0.0
 30
0.0
  9
$PUCSYDIR
 10
0.0
 20
1.0
 30
0.0
  9
$PUCSORTHOREF
  2

  9
$PUCSORTHOVIEW
 70
     0
  9
$PUCSORGTOP
 10
0.0
 20
0.0
 30
0.0
  9
$PUCSORGBOTTOM
 10
0.0
 20
0.0
 30
0.0
  9
$PUCSORGLEFT
 10
0.0
 20
0.0
 30
0.0
  9
$PUCSORGRIGHT
 10
0.0
 20
0.0
 30
0.0
  9
$PUCSORGFRONT
 10
0.0
 20
0.0
 30
0.0
  9
$PUCSORGBACK
 10
0.0
 20
0.0
 30
0.0
  9
$USERI1
 70
     0
  9
$USERI2
 70
     0
  9
$USERI3
 70
     0
  9
$USERI4
 70
     0
  9
$USERI5
 70
     0
  9
$USERR1
 40
0.0
  9
$USERR2
 40
0.0
  9
$USERR3
 40
0.0
  9
$USERR4
 40
0.0
  9
$USERR5
 40
0.0
  9
$WORLDVIEW
 70
     1
  9
$SHADEDGE
 70
     3
  9
$SHADEDIF
 70
    70
  9
$TILEMODE
 70
     1
  9
$MAXACTVP
 70
    64
  9
$PINSBASE
 10
0.0
 20
0.0
 30
0.0
  9
$PLIMCHECK
 70
     0
  9
$PEXTMIN
 10
1.000000000000000E+20
 20
1.000000000000000E+20
 30
1.000000000000000E+20
  9
$PEXTMAX
 10
-1.000000000000000E+20
 20
-1.000000000000000E+20
 30
-1.000000000000000E+20
  9
$PLIMMIN
 10
0.0
 20
0.0
  9
$PLIMMAX
 10
12.0
 20
9.0
  9
$UNITMODE
 70
     0
  9
$VISRETAIN
 70
     1
  9
$PLINEGEN
 70
     0
  9
$PSLTSCALE
 70
     1
  9
$TREEDEPTH
 70
  3020
  9
$CMLSTYLE
  2
Standard
  9
$CMLJUST
 70
     0
  9
$CMLSCALE
 40
1.0
  9
$PROXYGRAPHICS
 70
     1
  9
$MEASUREMENT
 70
     0
  9
$CELWEIGHT
370
    -1
  9
$ENDCAPS
280
     0
  9
$JOINSTYLE
280
     0
  9
$LWDISPLAY
290
     1
  9
$INSUNITS
 70
     1
  9
$HYPERLINKBASE
  1

  9
$STYLESHEET
  1

  9
$XEDIT
290
     1
  9
$CEPSNTYPE
380
     0
  9
$PSTYLEMODE
290
     1
  9
$FINGERPRINTGUID
  2
{DE986CEB-CCF2-2447-9419-1128D50FDBF0}
  9
$VERSIONGUID
  2
{FAEB1C32-E019-11D5-929B-00C0DF256EC4}
  9
$EXTNAMES
290
     1
  9
$PSVPSCALE
 40
0.0
  9
$OLESTARTUP
290
     0
  9
$SORTENTS
280
   127
  9
$INDEXCTL
280
     0
  9
$HIDETEXT
280
     1
  9
$XCLIPFRAME
280
     2
  9
$HALOGAP
280
     0
  9
$OBSCOLOR
 70
   257
  9
$OBSLTYPE
280
     0
  9
$INTERSECTIONDISPLAY
280
     0
  9
$INTERSECTIONCOLOR
 70
   257
  9
$DIMASSOC
280
     2
  9
$PROJECTNAME
  1

  9
$CAMERADISPLAY
290
     0
  9
$LENSLENGTH
 40
50.0
  9
$CAMERAHEIGHT
 40
0.0
  9
$STEPSPERSEC
 40
2.0
  9
$STEPSIZE
 40
6.0
  9
$3DDWFPREC
 40
2.0
  9
$PSOLWIDTH
 40
0.25
  9
$PSOLHEIGHT
 40
4.0
  9
$LOFTANG1
 40
1.570796326794897
  9
$LOFTANG2
 40
1.570796326794897
  9
$LOFTMAG1
 40
0.0
  9
$LOFTMAG2
 40
0.0
  9
$LOFTPARAM
 70
     7
  9
$LOFTNORMALS
280
     1
  9
$LATITUDE
 40
37.795
  9
$LONGITUDE
 40
-122.394
  9
$NORTHDIRECTION
 40
0.0
  9
$TIMEZONE
 70
 -8000
  9
$LIGHTGLYPHDISPLAY
280
     1
  9
$TILEMODELIGHTSYNCH
280
     1
  9
$CMATERIAL
347
3C
  9
$SOLIDHIST
280
     1
  9
$SHOWHIST
280
     1
  9
$DWFFRAME
280
     2
  9
$DGNFRAME
280
     2
  9
$REALWORLDSCALE
290
     1
  9
$INTERFERECOLOR
 62
   256
  9
$CSHADOW
280
     0
  9
$SHADOWPLANELOCATION
 40
0.0
  0
ENDSEC
  0
SECTION
  2
CLASSES
  0
CLASS
  1
ACDBDICTIONARYWDFLT
  2
AcDbDictionaryWithDefault
  3
ObjectDBX Classes
 90
        0
 91
        4
280
     0
281
     0
  0
CLASS
  1
VISUALSTYLE
  2
AcDbVisualStyle
  3
ObjectDBX Classes
 90
     4095
 91
        4
280
     0
281
     0
  0
CLASS
  1
MATERIAL
  2
AcDbMaterial
  3
ObjectDBX Classes
 90
     1153
 91
        4
280
     0
281
     0
  0
CLASS
  1
SUN
  2
AcDbSun
  3
SCENEOE
 90
     1024
 91
        4
280
     0
281
     0
  0
ENDSEC
  0
SECTION
  2
TABLES
  0
TABLE
  2
VPORT
  5
8
330
0
100
AcDbSymbolTable
 70
     1
  0
VPORT
  5
29
330
8
100
AcDbSymbolTableRecord
100
AcDbViewportTableRecord
  2
*Active
 70
     0
 10
0.0
 20
0.0
 11
1.0
 21
1.0
 12
0.0
 22
0.0
 13
0.0
 23
0.0
 14
0.5
 24
0.5
 15
0.5
 25
0.5
 16
0.0
 26
0.0
 36
1.0
 17
91.00082462281999
 27
-128.4993055234307
 37
0.0
 40
256.9986110468615
 41
0.7081814508812795
 42
50.0
 43
0.0
 44
0.0
 50
0.0
 51
0.0
 71
     0
 72
   100
 73
     1
 74
     3
 75
     0
 76
     0
 77
     0
 78
     0
281
     0
 65
     1
110
0.0
120
0.0
130
0.0
111
1.0
121
0.0
131
0.0
112
0.0
122
1.0
132
0.0
 79
     0
146
0.0
 60
     3
 61
     5
292
     1
282
     1
141
0.0
142
0.0
 63
   250
361
3F
  0
ENDTAB
  0
TABLE
  2
LTYPE
  5
5
330
0
100
AcDbSymbolTable
 70
     1
  0
LTYPE
  5
14
330
5
100
AcDbSymbolTableRecord
100
AcDbLinetypeTableRecord
  2
ByBlock
 70
     0
  3

 72
    65
 73
     0
 40
0.0
  0
LTYPE
  5
15
330
5
100
AcDbSymbolTableRecord
100
AcDbLinetypeTableRecord
  2
ByLayer
 70
     0
  3

 72
    65
 73
     0
 40
0.0
  0
LTYPE
  5
16
330
5
100
AcDbSymbolTableRecord
100
AcDbLinetypeTableRecord
  2
Continuous
 70
     0
  3
Solid line
 72
    65
 73
     0
 40
0.0
  0
ENDTAB
  0
TABLE
  2
LAYER
  5
2
330
0
100
AcDbSymbolTable
 70
     2
  0
LAYER
  5
10
330
2
100
AcDbSymbolTableRecord
100
AcDbLayerTableRecord
  2
0
 70
     0
 62
     7
  6
Continuous
370
    -3
390
F
347
3E
  0
LAYER
  5
40
330
2
100
AcDbSymbolTableRecord
100
AcDbLayerTableRecord
  2
_U+30EC_U+30A4_U+30E4_U+30FC 1
 70
     0
 62
     7
  6
Continuous
370
    -3
390
F
347
3E
  0
ENDTAB
  0
TABLE
  2
STYLE
  5
3
330
0
100
AcDbSymbolTable
 70
     1
  0
STYLE
  5
11
330
3
100
AcDbSymbolTableRecord
100
AcDbTextStyleTableRecord
  2
Standard
 70
     0
 40
0.0
 41
1.0
 50
0.0
 71
     0
 42
0.2
  3
txt
  4

  0
ENDTAB
  0
TABLE
  2
VIEW
  5
6
330
0
100
AcDbSymbolTable
 70
     0
  0
ENDTAB
  0
TABLE
  2
UCS
  5
7
330
0
100
AcDbSymbolTable
 70
     0
  0
ENDTAB
  0
TABLE
  2
APPID
  5
9
330
0
100
AcDbSymbolTable
 70
     1
  0
APPID
  5
12
330
9
100
AcDbSymbolTableRecord
100
AcDbRegAppTableRecord
  2
ACAD
 70
     0
  0
ENDTAB
  0
TABLE
  2
DIMSTYLE
  5
A
330
0
100
AcDbSymbolTable
 70
     1
100
AcDbDimStyleTable
  0
DIMSTYLE
105
27
330
A
100
AcDbSymbolTableRecord
100
AcDbDimStyleTableRecord
  2
Standard
 70
     0
178
     0
340
11
  0
ENDTAB
  0
TABLE
  2
BLOCK_RECORD
  5
1
330
0
100
AcDbSymbolTable
 70
     4
  0
BLOCK_RECORD
  5
1F
330
1
100
AcDbSymbolTableRecord
100
AcDbBlockTableRecord
  2
*Model_Space
340
22
 70
     0
280
     1
281
     0
  0
BLOCK_RECORD
  5
1B
330
1
100
AcDbSymbolTableRecord
100
AcDbBlockTableRecord
  2
*Paper_Space
340
1E
 70
     0
280
     1
281
     0
  0
BLOCK_RECORD
  5
23
330
1
100
AcDbSymbolTableRecord
100
AcDbBlockTableRecord
  2
*Paper_Space0
340
26
 70
     0
280
     1
281
     0
  0
BLOCK_RECORD
  5
57
330
1
100
AcDbSymbolTableRecord
100
AcDbBlockTableRecord
  2
block 2
340
0
102
{BLKREFS
331
58
102
}
 70
     0
280
     1
281
     0
  0
BLOCK_RECORD
  5
73
330
1
100
AcDbSymbolTableRecord
100
AcDbBlockTableRecord
  2
block 3
340
0
102
{BLKREFS
331
74
102
}
 70
     0
280
     1
281
     0
  0
BLOCK_RECORD
  5
88
330
1
100
AcDbSymbolTableRecord
100
AcDbBlockTableRecord
  2
block 4
340
0
102
{BLKREFS
331
89
102
}
 70
     0
280
     1
281
     0
  0
ENDTAB
  0
ENDSEC
  0
SECTION
  2
BLOCKS
  0
BLOCK
  5
20
330
1F
100
AcDbEntity
  8
0
100
AcDbBlockBegin
  2
*Model_Space
 70
     0
 10
0.0
 20
0.0
 30
0.0
  3
*Model_Space
  1

  0
ENDBLK
  5
21
330
1F
100
AcDbEntity
  8
0
100
AcDbBlockEnd
  0
BLOCK
  5
1C
330
1B
100
AcDbEntity
 67
     1
  8
0
100
AcDbBlockBegin
  2
*Paper_Space
 70
     0
 10
0.0
 20
0.0
 30
0.0
  3
*Paper_Space
  1

  0
ENDBLK
  5
1D
330
1B
100
AcDbEntity
 67
     1
  8
0
100
AcDbBlockEnd
  0
BLOCK
  5
24
330
23
100
AcDbEntity
  8
0
100
AcDbBlockBegin
  2
*Paper_Space0
 70
     0
 10
0.0
 20
0.0
 30
0.0
  3
*Paper_Space0
  1

  0
ENDBLK
  5
25
330
23
100
AcDbEntity
  8
0
100
AcDbBlockEnd
  0
BLOCK
  5
59
330
57
100
AcDbEntity
  8
0
100
AcDbBlockBegin
  2
block 2
 70
     0
 10
0.0
 20
0.0
 30
0.0
  3
block 2
  1

  0
SPLINE
  5
5B
330
57
100
AcDbEntity
  8
_U+30EC_U+30A4_U+30E4_U+30FC 1
370
     0
100
AcDbSpline
210
0.0
220
0.0
230
1.0
 70
    11
 71
     3
 72
    26
 73
    22
 74
     0
 42
0.0000000001
 43
0.0000000001
 12
1.0
 22
0.0
 32
0.0
 13
1.0
 23
0.0
 33
0.0
 40
0.0
 40
0.0
 40
0.0
 40
0.0
 40
1.0
 40
1.0
 40
1.0
 40
2.0
 40
2.0
 40
2.0
 40
3.0
 40
3.0
 40
3.0
 40
4.0
 40
4.0
 40
4.0
 40
5.0
 40
5.0
 40
5.0
 40
6.0
 40
6.0
 40
6.0
 40
7.0
 40
7.0
 40
7.0
 40
7.0
 10
104.6733696569914
 20
-132.2940782004334
 30
0.0
 10
104.6733696569914
 20
-132.2940782004334
 30
0.0
 10
103.5692165539688
 20
-132.2940782004334
 30
0.0
 10
103.5692165539688
 20
-132.2940782004334
 30
0.0
 10
103.5692165539688
 20
-132.2940782004334
 30
0.0
 10
103.5692165539688
 20
-132.5896673930679
 30
0.0
 10
103.5692165539688
 20
-132.5896673930679
 30
0.0
 10
103.5692165539688
 20
-132.5896673930679
 30
0.0
 10
103.4210774481031
 20
-132.5896673930679
 30
0.0
 10
103.4210774481031
 20
-132.5896673930679
 30
0.0
 10
103.4062635375165
 20
-132.2920111431423
 30
0.0
 10
103.2433105210642
 20
-132.2503254877708
 30
0.0
 10
103.1289333509539
 20
-132.2237982525343
 30
0.0
 10
103.1289333509539
 20
-132.2237982525343
 30
0.0
 10
103.1289333509539
 20
-132.0928846240948
 30
0.0
 10
103.1289333509539
 20
-132.0928846240948
 30
0.0
 10
103.1289333509539
 20
-132.0928846240948
 30
0.0
 10
104.6733696569914
 20
-132.0928846240948
 30
0.0
 10
104.6733696569914
 20
-132.0928846240948
 30
0.0
 10
104.6733696569914
 20
-132.0928846240948
 30
0.0
 10
104.6733696569914
 20
-132.2940782004334
 30
0.0
 10
104.6733696569914
 20
-132.2940782004334
 30
0.0
  0
HATCH
  5
5C
330
57
100
AcDbEntity
  8
_U+30EC_U+30A4_U+30E4_U+30FC 1
 62
   179
420
  2234388
100
AcDbHatch
 10
0.0
 20
0.0
 30
0.0
210
0.0
220
0.0
230
1.0
  2
SOLID
 70
     1
 71
     0
 91
        1
 92
        1
 93
        1
 72
     4
 94
        3
 73
     0
 74
     1
 95
       26
 96
       22
 40
0.0
 40
0.0
 40
0.0
 40
0.0
 40
1.0
 40
1.0
 40
1.0
 40
2.0
 40
2.0
 40
2.0
 40
3.0
 40
3.0
 40
3.0
 40
4.0
 40
4.0
 40
4.0
 40
5.0
 40
5.0
 40
5.0
 40
6.0
 40
6.0
 40
6.0
 40
7.0
 40
7.0
 40
7.0
 40
7.0
 10
104.6733696569914
 20
-132.2940782004334
 10
104.6733696569914
 20
-132.2940782004334
 10
103.5692165539688
 20
-132.2940782004334
 10
103.5692165539688
 20
-132.2940782004334
 10
103.5692165539688
 20
-132.2940782004334
 10
103.5692165539688
 20
-132.5896673930679
 10
103.5692165539688
 20
-132.5896673930679
 10
103.5692165539688
 20
-132.5896673930679
 10
103.4210774481031
 20
-132.5896673930679
 10
103.4210774481031
 20
-132.5896673930679
 10
103.4062635375165
 20
-132.2920111431423
 10
103.2433105210642
 20
-132.2503254877708
 10
103.1289333509539
 20
-132.2237982525343
 10
103.1289333509539
 20
-132.2237982525343
 10
103.1289333509539
 20
-132.0928846240948
 10
103.1289333509539
 20
-132.0928846240948
 10
103.1289333509539
 20
-132.0928846240948
 10
104.6733696569914
 20
-132.0928846240948
 10
104.6733696569914
 20
-132.0928846240948
 10
104.6733696569914
 20
-132.0928846240948
 10
104.6733696569914
 20
-132.2940782004334
 10
104.6733696569914
 20
-132.2940782004334
 97
        0
 97
        0
 75
     2
 76
     1
 98
        0
  0
POLYLINE
  5
5D
330
57
100
AcDbEntity
  8
_U+30EC_U+30A4_U+30E4_U+30FC 1
370
     0
100
AcDb2dPolyline
 66
     1
 10
0.0
 20
0.0
 30
0.0
  0
VERTEX
  5
5E
330
5D
100
AcDbEntity
  8
_U+30EC_U+30A4_U+30E4_U+30FC 1
370
     0
100
AcDbVertex
100
AcDb2dVertex
 10
104.6733696569914
 20
-131.5909342118939
 30
0.0
  0
VERTEX
  5
5F
330
5D
100
AcDbEntity
  8
_U+30EC_U+30A4_U+30E4_U+30FC 1
370
     0
100
AcDbVertex
100
AcDb2dVertex
 10
104.4215331770196
 20
-131.5909342118939
 30
0.0
  0
VERTEX
  5
60
330
5D
100
AcDbEntity
  8
_U+30EC_U+30A4_U+30E4_U+30FC 1
370
     0
100
AcDbVertex
100
AcDb2dVertex
 10
104.4215331770196
 20
-131.3652804576101
 30
0.0
  0
VERTEX
  5
61
330
5D
100
AcDbEntity
  8
_U+30EC_U+30A4_U+30E4_U+30FC 1
370
     0
100
AcDbVertex
100
AcDb2dVertex
 10
104.6733696569914
 20
-131.3652804576101
 30
0.0
  0
VERTEX
  5
62
330
5D
100
AcDbEntity
  8
_U+30EC_U+30A4_U+30E4_U+30FC 1
370
     0
100
AcDbVertex
100
AcDb2dVertex
 10
104.6733696569914
 20
-131.5909342118939
 30
0.0
  0
SEQEND
  5
63
330
5D
100
AcDbEntity
  8
_U+30EC_U+30A4_U+30E4_U+30FC 1
370
     0
  0
HATCH
  5
64
330
57
100
AcDbEntity
  8
_U+30EC_U+30A4_U+30E4_U+30FC 1
 62
   179
420
  2234388
100
AcDbHatch
 10
0.0
 20
0.0
 30
0.0
210
0.0
220
0.0
230
1.0
  2
SOLID
 70
     1
 71
     0
 91
        1
 92
        1
 93
        4
 72
     1
 10
104.6733696569914
 20
-131.5909342118939
 11
104.4215331770196
 21
-131.5909342118939
 72
     1
 10
104.4215331770196
 20
-131.5909342118939
 11
104.4215331770196
 21
-131.3652804576101
 72
     1
 10
104.4215331770196
 20
-131.3652804576101
 11
104.6733696569914
 21
-131.3652804576101
 72
     1
 10
104.6733696569914
 20
-131.3652804576101
 11
104.6733696569914
 21
-131.5909342118939
 97
        0
 75
     2
 76
     1
 98
        0
  0
SPLINE
  5
65
330
57
100
AcDbEntity
  8
_U+30EC_U+30A4_U+30E4_U+30FC 1
370
     0
100
AcDbSpline
210
0.0
220
0.0
230
1.0
 70
    11
 71
     3
 72
    44
 73
    40
 74
     0
 42
0.0000000001
 43
0.0000000001
 12
1.0
 22
0.0
 32
0.0
 13
1.0
 23
0.0
 33
0.0
 40
0.0
 40
0.0
 40
0.0
 40
0.0
 40
1.0
 40
1.0
 40
1.0
 40
2.0
 40
2.0
 40
2.0
 40
3.0
 40
3.0
 40
3.0
 40
4.0
 40
4.0
 40
4.0
 40
5.0
 40
5.0
 40
5.0
 40
6.0
 40
6.0
 40
6.0
 40
7.0
 40
7.0
 40
7.0
 40
8.0
 40
8.0
 40
8.0
 40
9.0
 40
9.0
 40
9.0
 40
10.0
 40
10.0
 40
10.0
 40
11.0
 40
11.0
 40
11.0
 40
12.0
 40
12.0
 40
12.0
 40
13.0
 40
13.0
 40
13.0
 40
13.0
 10
104.0914930295327
 20
-130.6228623805387
 30
0.0
 10
104.2503119314027
 20
-130.8181992945524
 30
0.0
 10
104.3243814843356
 20
-130.9015706052954
 30
0.0
 10
104.4680419660705
 20
-130.9449788084096
 30
0.0
 10
104.4680419660705
 20
-130.9449788084096
 30
0.0
 10
104.4680419660705
 20
-130.247691482195
 30
0.0
 10
104.4680419660705
 20
-130.247691482195
 30
0.0
 10
104.4680419660705
 20
-130.247691482195
 30
0.0
 10
104.6733696569914
 20
-130.247691482195
 30
0.0
 10
104.6733696569914
 20
-130.247691482195
 30
0.0
 10
104.6733696569914
 20
-130.247691482195
 30
0.0
 10
104.6733696569914
 20
-131.1685655054023
 30
0.0
 10
104.6733696569914
 20
-131.1685655054023
 30
0.0
 10
104.3157687456224
 20
-131.1399712128747
 30
0.0
 10
104.2375650781073
 20
-131.0814045896255
 30
0.0
 10
103.9392198090846
 20
-130.736550531552
 30
0.0
 10
103.7404377995857
 20
-130.5074516817829
 30
0.0
 10
103.6725694185263
 20
-130.4485405489851
 30
0.0
 10
103.5351101086648
 20
-130.4485405489851
 30
0.0
 10
103.4165988239723
 20
-130.4485405489851
 30
0.0
 10
103.2856851955327
 20
-130.5129638345593
 30
0.0
 10
103.2856851955327
 20
-130.6893527234041
 30
0.0
 10
103.2856851955327
 20
-130.9222411782069
 30
0.0
 10
103.516162083496
 20
-130.9298203882745
 30
0.0
 10
103.6326063108974
 20
-130.9336099933083
 30
0.0
 10
103.6326063108974
 20
-130.9336099933083
 30
0.0
 10
103.6326063108974
 20
-131.1344590600983
 30
0.0
 10
103.6326063108974
 20
-131.1344590600983
 30
0.0
 10
103.5054822874917
 20
-131.1268798500308
 30
0.0
 10
103.3935166842211
 20
-131.1172335826721
 30
0.0
 10
103.2750053995285
 20
-131.0455755965789
 30
0.0
 10
103.1141194403673
 20
-130.9470458657007
 30
0.0
 10
103.0803575046119
 20
-130.7803032442147
 30
0.0
 10
103.0803575046119
 20
-130.6759168510116
 30
0.0
 10
103.0803575046119
 20
-130.4275254665251
 30
0.0
 10
103.2643256035242
 20
-130.2421793294186
 30
0.0
 10
103.537177165956
 20
-130.2421793294186
 30
0.0
 10
103.7659315061766
 20
-130.2421793294186
 30
0.0
 10
103.8651502561518
 20
-130.3462212130732
 30
0.0
 10
104.0914930295327
 20
-130.6228623805387
 30
0.0
  0
HATCH
  5
66
330
57
100
AcDbEntity
  8
_U+30EC_U+30A4_U+30E4_U+30FC 1
 62
   179
420
  2234388
100
AcDbHatch
 10
0.0
 20
0.0
 30
0.0
210
0.0
220
0.0
230
1.0
  2
SOLID
 70
     1
 71
     0
 91
        1
 92
        1
 93
        1
 72
     4
 94
        3
 73
     0
 74
     1
 95
       44
 96
       40
 40
0.0
 40
0.0
 40
0.0
 40
0.0
 40
1.0
 40
1.0
 40
1.0
 40
2.0
 40
2.0
 40
2.0
 40
3.0
 40
3.0
 40
3.0
 40
4.0
 40
4.0
 40
4.0
 40
5.0
 40
5.0
 40
5.0
 40
6.0
 40
6.0
 40
6.0
 40
7.0
 40
7.0
 40
7.0
 40
8.0
 40
8.0
 40
8.0
 40
9.0
 40
9.0
 40
9.0
 40
10.0
 40
10.0
 40
10.0
 40
11.0
 40
11.0
 40
11.0
 40
12.0
 40
12.0
 40
12.0
 40
13.0
 40
13.0
 40
13.0
 40
13.0
 10
104.0914930295327
 20
-130.6228623805387
 10
104.2503119314027
 20
-130.8181992945524
 10
104.3243814843356
 20
-130.9015706052954
 10
104.4680419660705
 20
-130.9449788084096
 10
104.4680419660705
 20
-130.9449788084096
 10
104.4680419660705
 20
-130.247691482195
 10
104.4680419660705
 20
-130.247691482195
 10
104.4680419660705
 20
-130.247691482195
 10
104.6733696569914
 20
-130.247691482195
 10
104.6733696569914
 20
-130.247691482195
 10
104.6733696569914
 20
-130.247691482195
 10
104.6733696569914
 20
-131.1685655054023
 10
104.6733696569914
 20
-131.1685655054023
 10
104.3157687456224
 20
-131.1399712128747
 10
104.2375650781073
 20
-131.0814045896255
 10
103.9392198090846
 20
-130.736550531552
 10
103.7404377995857
 20
-130.5074516817829
 10
103.6725694185263
 20
-130.4485405489851
 10
103.5351101086648
 20
-130.4485405489851
 10
103.4165988239723
 20
-130.4485405489851
 10
103.2856851955327
 20
-130.5129638345593
 10
103.2856851955327
 20
-130.6893527234041
 10
103.2856851955327
 20
-130.9222411782069
 10
103.516162083496
 20
-130.9298203882745
 10
103.6326063108974
 20
-130.9336099933083
 10
103.6326063108974
 20
-130.9336099933083
 10
103.6326063108974
 20
-131.1344590600983
 10
103.6326063108974
 20
-131.1344590600983
 10
103.5054822874917
 20
-131.1268798500308
 10
103.3935166842211
 20
-131.1172335826721
 10
103.2750053995285
 20
-131.0455755965789
 10
103.1141194403673
 20
-130.9470458657007
 10
103.0803575046119
 20
-130.7803032442147
 10
103.0803575046119
 20
-130.6759168510116
 10
103.0803575046119
 20
-130.4275254665251
 10
103.2643256035242
 20
-130.2421793294186
 10
103.537177165956
 20
-130.2421793294186
 10
103.7659315061766
 20
-130.2421793294186
 10
103.8651502561518
 20
-130.3462212130732
 10
104.0914930295327
 20
-130.6228623805387
 97
        0
 97
        0
 75
     2
 76
     1
 98
        0
  0
ENDBLK
  5
5A
330
57
100
AcDbEntity
  8
0
100
AcDbBlockEnd
  0
BLOCK
  5
75
330
73
100
AcDbEntity
  8
0
100
AcDbBlockBegin
  2
block 3
 70
     0
 10
0.0
 20
0.0
 30
0.0
  3
block 3
  1

  0
SPLINE
  5
77
330
73
100
AcDbEntity
  8
_U+30EC_U+30A4_U+30E4_U+30FC 1
370
     0
100
AcDbSpline
210
0.0
220
0.0
230
1.0
 70
    11
 71
     3
 72
    26
 73
    22
 74
     0
 42
0.0000000001
 43
0.0000000001
 12
1.0
 22
0.0
 32
0.0
 13
1.0
 23
0.0
 33
0.0
 40
0.0
 40
0.0
 40
0.0
 40
0.0
 40
1.0
 40
1.0
 40
1.0
 40
2.0
 40
2.0
 40
2.0
 40
3.0
 40
3.0
 40
3.0
 40
4.0
 40
4.0
 40
4.0
 40
5.0
 40
5.0
 40
5.0
 40
6.0
 40
6.0
 40
6.0
 40
7.0
 40
7.0
 40
7.0
 40
7.0
 10
77.67295055566858
 20
-126.8439371427682
 30
0.0
 10
77.67295055566858
 20
-126.8439371427682
 30
0.0
 10
76.56862519787174
 20
-126.8439371427682
 30
0.0
 10
76.56862519787174
 20
-126.8439371427682
 30
0.0
 10
76.56862519787174
 20
-126.8439371427682
 30
0.0
 10
76.56862519787174
 20
-127.1395263354026
 30
0.0
 10
76.56862519787174
 20
-127.1395263354026
 30
0.0
 10
76.56862519787174
 20
-127.1395263354026
 30
0.0
 10
76.42048609200599
 20
-127.1395263354026
 30
0.0
 10
76.42048609200599
 20
-127.1395263354026
 30
0.0
 10
76.40584443619368
 20
-126.841870085477
 30
0.0
 10
76.24289141974137
 20
-126.8001844301055
 30
0.0
 10
76.12868650440534
 20
-126.7736571948691
 30
0.0
 10
76.12868650440534
 20
-126.7736571948691
 30
0.0
 10
76.12868650440534
 20
-126.6427435664296
 30
0.0
 10
76.12868650440534
 20
-126.6427435664296
 30
0.0
 10
76.12868650440534
 20
-126.6427435664296
 30
0.0
 10
77.67295055566858
 20
-126.6427435664296
 30
0.0
 10
77.67295055566858
 20
-126.6427435664296
 30
0.0
 10
77.67295055566858
 20
-126.6427435664296
 30
0.0
 10
77.67295055566858
 20
-126.8439371427682
 30
0.0
 10
77.67295055566858
 20
-126.8439371427682
 30
0.0
  0
HATCH
  5
78
330
73
100
AcDbEntity
  8
_U+30EC_U+30A4_U+30E4_U+30FC 1
 62
   179
420
  2234388
100
AcDbHatch
 10
0.0
 20
0.0
 30
0.0
210
0.0
220
0.0
230
1.0
  2
SOLID
 70
     1
 71
     0
 91
        1
 92
        1
 93
        1
 72
     4
 94
        3
 73
     0
 74
     1
 95
       26
 96
       22
 40
0.0
 40
0.0
 40
0.0
 40
0.0
 40
1.0
 40
1.0
 40
1.0
 40
2.0
 40
2.0
 40
2.0
 40
3.0
 40
3.0
 40
3.0
 40
4.0
 40
4.0
 40
4.0
 40
5.0
 40
5.0
 40
5.0
 40
6.0
 40
6.0
 40
6.0
 40
7.0
 40
7.0
 40
7.0
 40
7.0
 10
77.67295055566858
 20
-126.8439371427682
 10
77.67295055566858
 20
-126.8439371427682
 10
76.56862519787174
 20
-126.8439371427682
 10
76.56862519787174
 20
-126.8439371427682
 10
76.56862519787174
 20
-126.8439371427682
 10
76.56862519787174
 20
-127.1395263354026
 10
76.56862519787174
 20
-127.1395263354026
 10
76.56862519787174
 20
-127.1395263354026
 10
76.42048609200599
 20
-127.1395263354026
 10
76.42048609200599
 20
-127.1395263354026
 10
76.40584443619368
 20
-126.841870085477
 10
76.24289141974137
 20
-126.8001844301055
 10
76.12868650440534
 20
-126.7736571948691
 10
76.12868650440534
 20
-126.7736571948691
 10
76.12868650440534
 20
-126.6427435664296
 10
76.12868650440534
 20
-126.6427435664296
 10
76.12868650440534
 20
-126.6427435664296
 10
77.67295055566858
 20
-126.6427435664296
 10
77.67295055566858
 20
-126.6427435664296
 10
77.67295055566858
 20
-126.6427435664296
 10
77.67295055566858
 20
-126.8439371427682
 10
77.67295055566858
 20
-126.8439371427682
 97
        0
 97
        0
 75
     2
 76
     1
 98
        0
  0
SPLINE
  5
79
330
73
100
AcDbEntity
  8
_U+30EC_U+30A4_U+30E4_U+30FC 1
370
     0
100
AcDbSpline
210
0.0
220
0.0
230
1.0
 70
    11
 71
     3
 72
    32
 73
    28
 74
     0
 42
0.0000000001
 43
0.0000000001
 12
1.0
 22
0.0
 32
0.0
 13
1.0
 23
0.0
 33
0.0
 40
0.0
 40
0.0
 40
0.0
 40
0.0
 40
1.0
 40
1.0
 40
1.0
 40
2.0
 40
2.0
 40
2.0
 40
3.0
 40
3.0
 40
3.0
 40
4.0
 40
4.0
 40
4.0
 40
5.0
 40
5.0
 40
5.0
 40
6.0
 40
6.0
 40
6.0
 40
7.0
 40
7.0
 40
7.0
 40
8.0
 40
8.0
 40
8.0
 40
9.0
 40
9.0
 40
9.0
 40
9.0
 10
77.72376571407601
 20
-125.7845702810539
 30
0.0
 10
77.72376571407601
 20
-125.9399440874386
 30
0.0
 10
77.65383027572544
 20
-126.1597411793976
 30
0.0
 10
77.32172307094736
 20
-126.1938476247015
 30
0.0
 10
77.32172307094736
 20
-126.1938476247015
 30
0.0
 10
77.32172307094736
 20
-126.0026448252702
 30
0.0
 10
77.32172307094736
 20
-126.0026448252702
 30
0.0
 10
77.38097871329364
 20
-125.9929985579115
 30
0.0
 10
77.5291178191594
 20
-125.9647487749324
 30
0.0
 10
77.5291178191594
 20
-125.7828477333112
 30
0.0
 10
77.5291178191594
 20
-125.5210204764323
 30
0.0
 10
77.19907767167246
 20
-125.4872585406768
 30
0.0
 10
76.99392223552583
 20
-125.475545216027
 30
0.0
 10
77.07419296033216
 20
-125.5571939790274
 30
0.0
 10
77.1313815453873
 20
-125.6178276595678
 30
0.0
 10
77.1313815453873
 20
-125.7807806760201
 30
0.0
 10
77.1313815453873
 20
-125.9420111447298
 30
0.0
 10
77.02561711399012
 20
-126.2127956498704
 30
0.0
 10
76.61944035627917
 20
-126.2127956498704
 30
0.0
 10
76.29990775002224
 20
-126.2127956498704
 30
0.0
 10
76.07993840328905
 20
-126.034684213283
 30
0.0
 10
76.07993840328905
 20
-125.7504638357499
 30
0.0
 10
76.07993840328905
 20
-125.2901990789205
 30
0.0
 10
76.63425426686574
 20
-125.2805528115618
 30
0.0
 10
76.84785018695123
 20
-125.2805528115618
 30
0.0
 10
77.07849932968871
 20
-125.2805528115618
 30
0.0
 10
77.72376571407601
 20
-125.2977782889881
 30
0.0
 10
77.72376571407601
 20
-125.7845702810539
 30
0.0
  0
SPLINE
  5
7A
330
73
100
AcDbEntity
  8
_U+30EC_U+30A4_U+30E4_U+30FC 1
370
     0
100
AcDbSpline
210
0.0
220
0.0
230
1.0
 70
    11
 71
     3
 72
    17
 73
    13
 74
     0
 42
0.0000000001
 43
0.0000000001
 12
1.0
 22
0.0
 32
0.0
 13
1.0
 23
0.0
 33
0.0
 40
0.0
 40
0.0
 40
0.0
 40
0.0
 40
1.0
 40
1.0
 40
1.0
 40
2.0
 40
2.0
 40
2.0
 40
3.0
 40
3.0
 40
3.0
 40
4.0
 40
4.0
 40
4.0
 40
4.0
 10
76.27251924091452
 20
-125.7483967784587
 30
0.0
 10
76.27251924091452
 20
-125.8545057194044
 30
0.0
 10
76.3295355711954
 20
-126.0119465830804
 30
0.0
 10
76.61513398692261
 20
-126.0119465830804
 30
0.0
 10
76.84147676030352
 20
-126.0119465830804
 30
0.0
 10
76.93673365047069
 20
-125.8868896169658
 30
0.0
 10
76.93673365047069
 20
-125.765622255885
 30
0.0
 10
76.93673365047069
 20
-125.5306667437909
 30
0.0
 10
76.72727184496749
 20
-125.496560298487
 30
0.0
 10
76.61099987234032
 20
-125.496560298487
 30
0.0
 10
76.43530000259257
 20
-125.496560298487
 30
0.0
 10
76.27251924091452
 20
-125.5816541569726
 30
0.0
 10
76.27251924091452
 20
-125.7483967784587
 30
0.0
  0
HATCH
  5
7B
330
73
100
AcDbEntity
  8
_U+30EC_U+30A4_U+30E4_U+30FC 1
 62
   179
420
  2234388
100
AcDbHatch
 10
0.0
 20
0.0
 30
0.0
210
0.0
220
0.0
230
1.0
  2
SOLID
 70
     1
 71
     0
 91
        2
 92
        1
 93
        1
 72
     4
 94
        3
 73
     0
 74
     1
 95
       32
 96
       28
 40
0.0
 40
0.0
 40
0.0
 40
0.0
 40
1.0
 40
1.0
 40
1.0
 40
2.0
 40
2.0
 40
2.0
 40
3.0
 40
3.0
 40
3.0
 40
4.0
 40
4.0
 40
4.0
 40
5.0
 40
5.0
 40
5.0
 40
6.0
 40
6.0
 40
6.0
 40
7.0
 40
7.0
 40
7.0
 40
8.0
 40
8.0
 40
8.0
 40
9.0
 40
9.0
 40
9.0
 40
9.0
 10
77.72376571407601
 20
-125.7845702810539
 10
77.72376571407601
 20
-125.9399440874386
 10
77.65383027572544
 20
-126.1597411793976
 10
77.32172307094736
 20
-126.1938476247015
 10
77.32172307094736
 20
-126.1938476247015
 10
77.32172307094736
 20
-126.0026448252702
 10
77.32172307094736
 20
-126.0026448252702
 10
77.38097871329364
 20
-125.9929985579115
 10
77.5291178191594
 20
-125.9647487749324
 10
77.5291178191594
 20
-125.7828477333112
 10
77.5291178191594
 20
-125.5210204764323
 10
77.19907767167246
 20
-125.4872585406768
 10
76.99392223552583
 20
-125.475545216027
 10
77.07419296033216
 20
-125.5571939790274
 10
77.1313815453873
 20
-125.6178276595678
 10
77.1313815453873
 20
-125.7807806760201
 10
77.1313815453873
 20
-125.9420111447298
 10
77.02561711399012
 20
-126.2127956498704
 10
76.61944035627917
 20
-126.2127956498704
 10
76.29990775002224
 20
-126.2127956498704
 10
76.07993840328905
 20
-126.034684213283
 10
76.07993840328905
 20
-125.7504638357499
 10
76.07993840328905
 20
-125.2901990789205
 10
76.63425426686574
 20
-125.2805528115618
 10
76.84785018695123
 20
-125.2805528115618
 10
77.07849932968871
 20
-125.2805528115618
 10
77.72376571407601
 20
-125.2977782889881
 10
77.72376571407601
 20
-125.7845702810539
 97
        0
 97
        0
 92
        1
 93
        1
 72
     4
 94
        3
 73
     0
 74
     1
 95
       17
 96
       13
 40
0.0
 40
0.0
 40
0.0
 40
0.0
 40
1.0
 40
1.0
 40
1.0
 40
2.0
 40
2.0
 40
2.0
 40
3.0
 40
3.0
 40
3.0
 40
4.0
 40
4.0
 40
4.0
 40
4.0
 10
76.27251924091452
 20
-125.7483967784587
 10
76.27251924091452
 20
-125.8545057194044
 10
76.3295355711954
 20
-126.0119465830804
 10
76.61513398692261
 20
-126.0119465830804
 10
76.84147676030352
 20
-126.0119465830804
 10
76.93673365047069
 20
-125.8868896169658
 10
76.93673365047069
 20
-125.765622255885
 10
76.93673365047069
 20
-125.5306667437909
 10
76.72727184496749
 20
-125.496560298487
 10
76.61099987234032
 20
-125.496560298487
 10
76.43530000259257
 20
-125.496560298487
 10
76.27251924091452
 20
-125.5816541569726
 10
76.27251924091452
 20
-125.7483967784587
 97
        0
 97
        0
 75
     2
 76
     1
 98
        0
  0
ENDBLK
  5
76
330
73
100
AcDbEntity
  8
0
100
AcDbBlockEnd
  0
BLOCK
  5
8A
330
88
100
AcDbEntity
  8
0
100
AcDbBlockBegin
  2
block 4
 70
     0
 10
0.0
 20
0.0
 30
0.0
  3
block 4
  1

  0
SPLINE
  5
8C
330
88
100
AcDbEntity
  8
_U+30EC_U+30A4_U+30E4_U+30FC 1
370
     0
100
AcDbSpline
210
0.0
220
0.0
230
1.0
 70
    11
 71
     3
 72
    26
 73
    22
 74
     0
 42
0.0000000001
 43
0.0000000001
 12
1.0
 22
0.0
 32
0.0
 13
1.0
 23
0.0
 33
0.0
 40
0.0
 40
0.0
 40
0.0
 40
0.0
 40
1.0
 40
1.0
 40
1.0
 40
2.0
 40
2.0
 40
2.0
 40
3.0
 40
3.0
 40
3.0
 40
4.0
 40
4.0
 40
4.0
 40
5.0
 40
5.0
 40
5.0
 40
6.0
 40
6.0
 40
6.0
 40
7.0
 40
7.0
 40
7.0
 40
7.0
 10
91.0001301855833
 20
-138.9782524609152
 30
0.0
 10
91.0001301855833
 20
-138.9782524609152
 30
0.0
 10
91.0001301855833
 20
-137.8740993578926
 30
0.0
 10
91.0001301855833
 20
-137.8740993578926
 30
0.0
 10
91.0001301855833
 20
-137.8740993578926
 30
0.0
 10
90.70454099294886
 20
-137.8740993578926
 30
0.0
 10
90.70454099294886
 20
-137.8740993578926
 30
0.0
 10
90.70454099294886
 20
-137.8740993578926
 30
0.0
 10
90.70454099294886
 20
-137.7259602520269
 30
0.0
 10
90.70454099294886
 20
-137.7259602520269
 30
0.0
 10
91.00219724287446
 20
-137.7111463414403
 30
0.0
 10
91.04388289824598
 20
-137.5481933249879
 30
0.0
 10
91.0704101334824
 20
-137.4338161548777
 30
0.0
 10
91.0704101334824
 20
-137.4338161548777
 30
0.0
 10
91.2013237619219
 20
-137.4338161548777
 30
0.0
 10
91.2013237619219
 20
-137.4338161548777
 30
0.0
 10
91.2013237619219
 20
-137.4338161548777
 30
0.0
 10
91.2013237619219
 20
-138.9782524609152
 30
0.0
 10
91.2013237619219
 20
-138.9782524609152
 30
0.0
 10
91.2013237619219
 20
-138.9782524609152
 30
0.0
 10
91.0001301855833
 20
-138.9782524609152
 30
0.0
 10
91.0001301855833
 20
-138.9782524609152
 30
0.0
  0
HATCH
  5
8D
330
88
100
AcDbEntity
  8
_U+30EC_U+30A4_U+30E4_U+30FC 1
 62
   179
420
  2234388
100
AcDbHatch
 10
0.0
 20
0.0
 30
0.0
210
0.0
220
0.0
230
1.0
  2
SOLID
 70
     1
 71
     0
 91
        1
 92
        1
 93
        1
 72
     4
 94
        3
 73
     0
 74
     1
 95
       26
 96
       22
 40
0.0
 40
0.0
 40
0.0
 40
0.0
 40
1.0
 40
1.0
 40
1.0
 40
2.0
 40
2.0
 40
2.0
 40
3.0
 40
3.0
 40
3.0
 40
4.0
 40
4.0
 40
4.0
 40
5.0
 40
5.0
 40
5.0
 40
6.0
 40
6.0
 40
6.0
 40
7.0
 40
7.0
 40
7.0
 40
7.0
 10
91.0001301855833
 20
-138.9782524609152
 10
91.0001301855833
 20
-138.9782524609152
 10
91.0001301855833
 20
-137.8740993578926
 10
91.0001301855833
 20
-137.8740993578926
 10
91.0001301855833
 20
-137.8740993578926
 10
90.70454099294886
 20
-137.8740993578926
 10
90.70454099294886
 20
-137.8740993578926
 10
90.70454099294886
 20
-137.8740993578926
 10
90.70454099294886
 20
-137.7259602520269
 10
90.70454099294886
 20
-137.7259602520269
 10
91.00219724287446
 20
-137.7111463414403
 10
91.04388289824598
 20
-137.5481933249879
 10
91.0704101334824
 20
-137.4338161548777
 10
91.0704101334824
 20
-137.4338161548777
 10
91.2013237619219
 20
-137.4338161548777
 10
91.2013237619219
 20
-137.4338161548777
 10
91.2013237619219
 20
-137.4338161548777
 10
91.2013237619219
 20
-138.9782524609152
 10
91.2013237619219
 20
-138.9782524609152
 10
91.2013237619219
 20
-138.9782524609152
 10
91.0001301855833
 20
-138.9782524609152
 10
91.0001301855833
 20
-138.9782524609152
 97
        0
 97
        0
 75
     2
 76
     1
 98
        0
  0
SPLINE
  5
8E
330
88
100
AcDbEntity
  8
_U+30EC_U+30A4_U+30E4_U+30FC 1
370
     0
100
AcDbSpline
210
0.0
220
0.0
230
1.0
 70
    11
 71
     3
 72
    32
 73
    28
 74
     0
 42
0.0000000001
 43
0.0000000001
 12
1.0
 22
0.0
 32
0.0
 13
1.0
 23
0.0
 33
0.0
 40
0.0
 40
0.0
 40
0.0
 40
0.0
 40
1.0
 40
1.0
 40
1.0
 40
2.0
 40
2.0
 40
2.0
 40
3.0
 40
3.0
 40
3.0
 40
4.0
 40
4.0
 40
4.0
 40
5.0
 40
5.0
 40
5.0
 40
6.0
 40
6.0
 40
6.0
 40
7.0
 40
7.0
 40
7.0
 40
8.0
 40
8.0
 40
8.0
 40
9.0
 40
9.0
 40
9.0
 40
9.0
 10
92.05949704729763
 20
-139.0288953645483
 30
0.0
 10
91.90412324091287
 20
-139.0288953645483
 30
0.0
 10
91.68432614895393
 20
-138.9593044357463
 30
0.0
 10
91.65021970364995
 20
-138.6271972309682
 30
0.0
 10
91.65021970364995
 20
-138.6271972309682
 30
0.0
 10
91.84142250308132
 20
-138.6271972309682
 30
0.0
 10
91.84142250308132
 20
-138.6271972309682
 30
0.0
 10
91.85106877044001
 20
-138.6864528733145
 30
0.0
 10
91.87931855341907
 20
-138.8342474696317
 30
0.0
 10
92.06121959504026
 20
-138.8342474696317
 30
0.0
 10
92.32304685191924
 20
-138.8342474696317
 30
0.0
 10
92.3568087876747
 20
-138.5042073221448
 30
0.0
 10
92.36852211232454
 20
-138.2992241407724
 30
0.0
 10
92.28687334932413
 20
-138.3794948655787
 30
0.0
 10
92.22623966878372
 20
-138.4366834506339
 30
0.0
 10
92.0632866523314
 20
-138.4366834506339
 30
0.0
 10
91.90205618362171
 20
-138.4366834506339
 30
0.0
 10
91.63127167848107
 20
-138.3309190192367
 30
0.0
 10
91.63127167848107
 20
-137.9247422615258
 30
0.0
 10
91.63127167848107
 20
-137.6053819100431
 30
0.0
 10
91.80938311506848
 20
-137.3852403085356
 30
0.0
 10
92.0936034926016
 20
-137.3852403085356
 30
0.0
 10
92.55386824943098
 20
-137.3852403085356
 30
0.0
 10
92.56351451678968
 20
-137.9395561721123
 30
0.0
 10
92.56351451678968
 20
-138.1531520921978
 30
0.0
 10
92.56351451678968
 20
-138.383628980161
 30
0.0
 10
92.54628903936343
 20
-139.0288953645483
 30
0.0
 10
92.05949704729763
 20
-139.0288953645483
 30
0.0
  0
SPLINE
  5
8F
330
88
100
AcDbEntity
  8
_U+30EC_U+30A4_U+30E4_U+30FC 1
370
     0
100
AcDbSpline
210
0.0
220
0.0
230
1.0
 70
    11
 71
     3
 72
    17
 73
    13
 74
     0
 42
0.0000000001
 43
0.0000000001
 12
1.0
 22
0.0
 32
0.0
 13
1.0
 23
0.0
 33
0.0
 40
0.0
 40
0.0
 40
0.0
 40
0.0
 40
1.0
 40
1.0
 40
1.0
 40
2.0
 40
2.0
 40
2.0
 40
3.0
 40
3.0
 40
3.0
 40
4.0
 40
4.0
 40
4.0
 40
4.0
 10
92.09567054989276
 20
-137.5778211461611
 30
0.0
 10
91.98956160894706
 20
-137.5778211461611
 30
0.0
 10
91.83212074527114
 20
-137.6350097312163
 30
0.0
 10
91.83212074527114
 20
-137.9206081469435
 30
0.0
 10
91.83212074527114
 20
-138.1469509203244
 30
0.0
 10
91.95717771138571
 20
-138.2420355557173
 30
0.0
 10
92.07844507246651
 20
-138.2420355557173
 30
0.0
 10
92.31340058456054
 20
-138.2420355557173
 30
0.0
 10
92.34750702986452
 20
-138.0325737502141
 30
0.0
 10
92.34750702986452
 20
-137.9161295228126
 30
0.0
 10
92.34750702986452
 20
-137.7407741626134
 30
0.0
 10
92.26241317137884
 20
-137.5778211461611
 30
0.0
 10
92.09567054989276
 20
-137.5778211461611
 30
0.0
  0
HATCH
  5
90
330
88
100
AcDbEntity
  8
_U+30EC_U+30A4_U+30E4_U+30FC 1
 62
   179
420
  2234388
100
AcDbHatch
 10
0.0
 20
0.0
 30
0.0
210
0.0
220
0.0
230
1.0
  2
SOLID
 70
     1
 71
     0
 91
        2
 92
        1
 93
        1
 72
     4
 94
        3
 73
     0
 74
     1
 95
       32
 96
       28
 40
0.0
 40
0.0
 40
0.0
 40
0.0
 40
1.0
 40
1.0
 40
1.0
 40
2.0
 40
2.0
 40
2.0
 40
3.0
 40
3.0
 40
3.0
 40
4.0
 40
4.0
 40
4.0
 40
5.0
 40
5.0
 40
5.0
 40
6.0
 40
6.0
 40
6.0
 40
7.0
 40
7.0
 40
7.0
 40
8.0
 40
8.0
 40
8.0
 40
9.0
 40
9.0
 40
9.0
 40
9.0
 10
92.05949704729763
 20
-139.0288953645483
 10
91.90412324091287
 20
-139.0288953645483
 10
91.68432614895393
 20
-138.9593044357463
 10
91.65021970364995
 20
-138.6271972309682
 10
91.65021970364995
 20
-138.6271972309682
 10
91.84142250308132
 20
-138.6271972309682
 10
91.84142250308132
 20
-138.6271972309682
 10
91.85106877044001
 20
-138.6864528733145
 10
91.87931855341907
 20
-138.8342474696317
 10
92.06121959504026
 20
-138.8342474696317
 10
92.32304685191924
 20
-138.8342474696317
 10
92.3568087876747
 20
-138.5042073221448
 10
92.36852211232454
 20
-138.2992241407724
 10
92.28687334932413
 20
-138.3794948655787
 10
92.22623966878372
 20
-138.4366834506339
 10
92.0632866523314
 20
-138.4366834506339
 10
91.90205618362171
 20
-138.4366834506339
 10
91.63127167848107
 20
-138.3309190192367
 10
91.63127167848107
 20
-137.9247422615258
 10
91.63127167848107
 20
-137.6053819100431
 10
91.80938311506848
 20
-137.3852403085356
 10
92.0936034926016
 20
-137.3852403085356
 10
92.55386824943098
 20
-137.3852403085356
 10
92.56351451678968
 20
-137.9395561721123
 10
92.56351451678968
 20
-138.1531520921978
 10
92.56351451678968
 20
-138.383628980161
 10
92.54628903936343
 20
-139.0288953645483
 10
92.05949704729763
 20
-139.0288953645483
 97
        0
 97
        0
 92
        1
 93
        1
 72
     4
 94
        3
 73
     0
 74
     1
 95
       17
 96
       13
 40
0.0
 40
0.0
 40
0.0
 40
0.0
 40
1.0
 40
1.0
 40
1.0
 40
2.0
 40
2.0
 40
2.0
 40
3.0
 40
3.0
 40
3.0
 40
4.0
 40
4.0
 40
4.0
 40
4.0
 10
92.09567054989276
 20
-137.5778211461611
 10
91.98956160894706
 20
-137.5778211461611
 10
91.83212074527114
 20
-137.6350097312163
 10
91.83212074527114
 20
-137.9206081469435
 10
91.83212074527114
 20
-138.1469509203244
 10
91.95717771138571
 20
-138.2420355557173
 10
92.07844507246651
 20
-138.2420355557173
 10
92.31340058456054
 20
-138.2420355557173
 10
92.34750702986452
 20
-138.0325737502141
 10
92.34750702986452
 20
-137.9161295228126
 10
92.34750702986452
 20
-137.7407741626134
 10
92.26241317137884
 20
-137.5778211461611
 10
92.09567054989276
 20
-137.5778211461611
 97
        0
 97
        0
 75
     2
 76
     1
 98
        0
  0
ENDBLK
  5
8B
330
88
100
AcDbEntity
  8
0
100
AcDbBlockEnd
  0
ENDSEC
  0
SECTION
  2
ENTITIES
  0
SPLINE
  5
41
330
1F
100
AcDbEntity
  8
_U+30EC_U+30A4_U+30E4_U+30FC 1
 62
   179
420
  2234388
370
     9
100
AcDbSpline
210
0.0
220
0.0
230
1.0
 70
    11
 71
     3
 72
    17
 73
    13
 74
     0
 42
0.0000000001
 43
0.0000000001
 12
1.0
 22
0.0
 32
0.0
 13
1.0
 23
0.0
 33
0.0
 40
0.0
 40
0.0
 40
0.0
 40
0.0
 40
1.0
 40
1.0
 40
1.0
 40
2.0
 40
2.0
 40
2.0
 40
3.0
 40
3.0
 40
3.0
 40
4.0
 40
4.0
 40
4.0
 40
4.0
 10
105.3696042562419
 20
-135.57451079944
 30
0.0
 10
105.3696042562419
 20
-135.5193716327869
 30
0.0
 10
105.324836757384
 20
-135.4746041327977
 30
0.0
 10
105.269697592124
 20
-135.4746041327977
 30
0.0
 10
105.214593704641
 20
-135.4746041327977
 30
0.0
 10
105.1697909280062
 20
-135.5193716327869
 30
0.0
 10
105.1697909280062
 20
-135.57451079944
 30
0.0
 10
105.1697909280062
 20
-135.6296146883149
 30
0.0
 10
105.214593704641
 20
-135.6744174660816
 30
0.0
 10
105.269697592124
 20
-135.6744174660816
 30
0.0
 10
105.324836757384
 20
-135.6744174660816
 30
0.0
 10
105.3696042562419
 20
-135.6296146883149
 30
0.0
 10
105.3696042562419
 20
-135.57451079944
 30
0.0
  0
SPLINE
  5
42
330
1F
100
AcDbEntity
  8
_U+30EC_U+30A4_U+30E4_U+30FC 1
 62
   179
420
  2234388
370
     9
100
AcDbSpline
210
0.0
220
0.0
230
1.0
 70
    11
 71
     3
 72
    17
 73
    13
 74
     0
 42
0.0000000001
 43
0.0000000001
 12
1.0
 22
0.0
 32
0.0
 13
1.0
 23
0.0
 33
0.0
 40
0.0
 40
0.0
 40
0.0
 40
0.0
 40
1.0
 40
1.0
 40
1.0
 40
2.0
 40
2.0
 40
2.0
 40
3.0
 40
3.0
 40
3.0
 40
4.0
 40
4.0
 40
4.0
 40
4.0
 10
105.3696042562419
 20
-134.3742196886286
 30
0.0
 10
105.3696042562419
 20
-134.3191157997537
 30
0.0
 10
105.324836757384
 20
-134.274313021987
 30
0.0
 10
105.269697592124
 20
-134.274313021987
 30
0.0
 10
105.214593704641
 20
-134.274313021987
 30
0.0
 10
105.1697909280062
 20
-134.3191157997537
 30
0.0
 10
105.1697909280062
 20
-134.3742196886286
 30
0.0
 10
105.1697909280062
 20
-134.4296763552813
 30
0.0
 10
105.214593704641
 20
-134.474479133048
 30
0.0
 10
105.269697592124
 20
-134.474479133048
 30
0.0
 10
105.324836757384
 20
-134.474479133048
 30
0.0
 10
105.3696042562419
 20
-134.4296763552813
 30
0.0
 10
105.3696042562419
 20
-134.3742196886286
 30
0.0
  0
SPLINE
  5
43
330
1F
100
AcDbEntity
  8
_U+30EC_U+30A4_U+30E4_U+30FC 1
 62
   179
420
  2234388
370
     9
100
AcDbSpline
210
0.0
220
0.0
230
1.0
 70
    11
 71
     3
 72
    17
 73
    13
 74
     0
 42
0.0000000001
 43
0.0000000001
 12
1.0
 22
0.0
 32
0.0
 13
1.0
 23
0.0
 33
0.0
 40
0.0
 40
0.0
 40
0.0
 40
0.0
 40
1.0
 40
1.0
 40
1.0
 40
2.0
 40
2.0
 40
2.0
 40
3.0
 40
3.0
 40
3.0
 40
4.0
 40
4.0
 40
4.0
 40
4.0
 10
101.3695276916257
 20
-139.5742699651062
 30
0.0
 10
101.3695276916257
 20
-139.5191307984538
 30
0.0
 10
101.3250776927597
 20
-139.4743632984646
 30
0.0
 10
101.2696210275078
 20
-139.4743632984646
 30
0.0
 10
101.2144818622479
 20
-139.4743632984646
 30
0.0
 10
101.16971436339
 20
-139.5191307984538
 30
0.0
 10
101.16971436339
 20
-139.5742699651062
 30
0.0
 10
101.16971436339
 20
-139.6297266317596
 30
0.0
 10
101.2144818622479
 20
-139.6744941317481
 30
0.0
 10
101.2696210275078
 20
-139.6744941317481
 30
0.0
 10
101.3250776927597
 20
-139.6744941317481
 30
0.0
 10
101.3695276916257
 20
-139.6297266317596
 30
0.0
 10
101.3695276916257
 20
-139.5742699651062
 30
0.0
  0
SPLINE
  5
44
330
1F
100
AcDbEntity
  8
_U+30EC_U+30A4_U+30E4_U+30FC 1
 62
   179
420
  2234388
370
     9
100
AcDbSpline
210
0.0
220
0.0
230
1.0
 70
    11
 71
     3
 72
    17
 73
    13
 74
     0
 42
0.0000000001
 43
0.0000000001
 12
1.0
 22
0.0
 32
0.0
 13
1.0
 23
0.0
 33
0.0
 40
0.0
 40
0.0
 40
0.0
 40
0.0
 40
1.0
 40
1.0
 40
1.0
 40
2.0
 40
2.0
 40
2.0
 40
3.0
 40
3.0
 40
3.0
 40
4.0
 40
4.0
 40
4.0
 40
4.0
 10
82.36948150969057
 20
-139.5742699651062
 30
0.0
 10
82.36948150969057
 20
-139.5191307984538
 30
0.0
 10
82.3246787330558
 20
-139.4743632984646
 30
0.0
 10
82.26957484557273
 20
-139.4743632984646
 30
0.0
 10
82.21443568031279
 20
-139.4743632984646
 30
0.0
 10
82.1696681814549
 20
-139.5191307984538
 30
0.0
 10
82.1696681814549
 20
-139.5742699651062
 30
0.0
 10
82.1696681814549
 20
-139.6297266317596
 30
0.0
 10
82.21443568031279
 20
-139.6744941317481
 30
0.0
 10
82.26957484557273
 20
-139.6744941317481
 30
0.0
 10
82.3246787330558
 20
-139.6744941317481
 30
0.0
 10
82.36948150969057
 20
-139.6297266317596
 30
0.0
 10
82.36948150969057
 20
-139.5742699651062
 30
0.0
  0
SPLINE
  5
45
330
1F
100
AcDbEntity
  8
_U+30EC_U+30A4_U+30E4_U+30FC 1
 62
   179
420
  2234388
370
     9
100
AcDbSpline
210
0.0
220
0.0
230
1.0
 70
    11
 71
     3
 72
    17
 73
    13
 74
     0
 42
0.0000000001
 43
0.0000000001
 12
1.0
 22
0.0
 32
0.0
 13
1.0
 23
0.0
 33
0.0
 40
0.0
 40
0.0
 40
0.0
 40
0.0
 40
1.0
 40
1.0
 40
1.0
 40
2.0
 40
2.0
 40
2.0
 40
3.0
 40
3.0
 40
3.0
 40
4.0
 40
4.0
 40
4.0
 40
4.0
 10
78.36972244506626
 20
-135.57451079944
 30
0.0
 10
78.36972244506626
 20
-135.5193716327869
 30
0.0
 10
78.32491966843149
 20
-135.4746041327977
 30
0.0
 10
78.26981578094842
 20
-135.4746041327977
 30
0.0
 10
78.21467661568848
 20
-135.4746041327977
 30
0.0
 10
78.16991109156858
 20
-135.5193716327869
 30
0.0
 10
78.16991109156858
 20
-135.57451079944
 30
0.0
 10
78.16991109156858
 20
-135.6296146883149
 30
0.0
 10
78.21467661568848
 20
-135.6744174660816
 30
0.0
 10
78.26981578094842
 20
-135.6744174660816
 30
0.0
 10
78.32491966843149
 20
-135.6744174660816
 30
0.0
 10
78.36972244506626
 20
-135.6296146883149
 30
0.0
 10
78.36972244506626
 20
-135.57451079944
 30
0.0
  0
SPLINE
  5
46
330
1F
100
AcDbEntity
  8
_U+30EC_U+30A4_U+30E4_U+30FC 1
 62
   179
420
  2234388
370
     9
100
AcDbSpline
210
0.0
220
0.0
230
1.0
 70
    11
 71
     3
 72
    17
 73
    13
 74
     0
 42
0.0000000001
 43
0.0000000001
 12
1.0
 22
0.0
 32
0.0
 13
1.0
 23
0.0
 33
0.0
 40
0.0
 40
0.0
 40
0.0
 40
0.0
 40
1.0
 40
1.0
 40
1.0
 40
2.0
 40
2.0
 40
2.0
 40
3.0
 40
3.0
 40
3.0
 40
4.0
 40
4.0
 40
4.0
 40
4.0
 10
78.36972244506626
 20
-116.574464137523
 30
0.0
 10
78.36972244506626
 20
-116.5191485819814
 30
0.0
 10
78.32491966843149
 20
-116.4743810819925
 30
0.0
 10
78.26981578094842
 20
-116.4743810819925
 30
0.0
 10
78.21467661568848
 20
-116.4743810819925
 30
0.0
 10
78.16991109156858
 20
-116.5191485819814
 30
0.0
 10
78.16991109156858
 20
-116.574464137523
 30
0.0
 10
78.16991109156858
 20
-116.6295680263982
 30
0.0
 10
78.21467661568848
 20
-116.6743708041646
 30
0.0
 10
78.26981578094842
 20
-116.6743708041646
 30
0.0
 10
78.32491966843149
 20
-116.6743708041646
 30
0.0
 10
78.36972244506626
 20
-116.6295680263982
 30
0.0
 10
78.36972244506626
 20
-116.574464137523
 30
0.0
  0
POLYLINE
  5
47
330
1F
100
AcDbEntity
  8
_U+30EC_U+30A4_U+30E4_U+30FC 1
 62
   179
420
  2234388
370
     9
100
AcDb2dPolyline
 66
     1
 10
0.0
 20
0.0
 30
0.0
  0
VERTEX
  5
48
330
47
100
AcDbEntity
  8
_U+30EC_U+30A4_U+30E4_U+30FC 1
 62
   179
420
  2234388
370
     9
100
AcDbVertex
100
AcDb2dVertex
 10
105.269697592124
 20
-134.3742196886286
 30
0.0
  0
VERTEX
  5
49
330
47
100
AcDbEntity
  8
_U+30EC_U+30A4_U+30E4_U+30FC 1
 62
   179
420
  2234388
370
     9
100
AcDbVertex
100
AcDb2dVertex
 10
105.269697592124
 20
-129.1166666343875
 30
0.0
  0
SEQEND
  5
4A
330
47
100
AcDbEntity
  8
_U+30EC_U+30A4_U+30E4_U+30FC 1
 62
   179
420
  2234388
370
     9
  0
POLYLINE
  5
4B
330
1F
100
AcDbEntity
  8
_U+30EC_U+30A4_U+30E4_U+30FC 1
 62
   179
420
  2234388
370
     9
100
AcDb2dPolyline
 66
     1
 10
0.0
 20
0.0
 30
0.0
  0
VERTEX
  5
4C
330
4B
100
AcDbEntity
  8
_U+30EC_U+30A4_U+30E4_U+30FC 1
 62
   179
420
  2234388
370
     9
100
AcDbVertex
100
AcDb2dVertex
 10
105.269697592124
 20
-134.3742196886286
 30
0.0
  0
VERTEX
  5
4D
330
4B
100
AcDbEntity
  8
_U+30EC_U+30A4_U+30E4_U+30FC 1
 62
   179
420
  2234388
370
     9
100
AcDbVertex
100
AcDb2dVertex
 10
105.269697592124
 20
-136.5742477436344
 30
0.0
  0
SEQEND
  5
4E
330
4B
100
AcDbEntity
  8
_U+30EC_U+30A4_U+30E4_U+30FC 1
 62
   179
420
  2234388
370
     9
  0
POLYLINE
  5
4F
330
1F
100
AcDbEntity
  8
_U+30EC_U+30A4_U+30E4_U+30FC 1
 62
   179
420
  2234388
370
     9
100
AcDb2dPolyline
 66
     1
 10
0.0
 20
0.0
 30
0.0
  0
VERTEX
  5
50
330
4F
100
AcDbEntity
  8
_U+30EC_U+30A4_U+30E4_U+30FC 1
 62
   179
420
  2234388
370
     9
100
AcDbVertex
100
AcDb2dVertex
 10
103.8096915182608
 20
-134.3742196886286
 30
0.0
  0
VERTEX
  5
51
330
4F
100
AcDbEntity
  8
_U+30EC_U+30A4_U+30E4_U+30FC 1
 62
   179
420
  2234388
370
     9
100
AcDbVertex
100
AcDb2dVertex
 10
106.2698225666087
 20
-134.3742196886286
 30
0.0
  0
SEQEND
  5
52
330
4F
100
AcDbEntity
  8
_U+30EC_U+30A4_U+30E4_U+30FC 1
 62
   179
420
  2234388
370
     9
  0
POLYLINE
  5
53
330
1F
100
AcDbEntity
  8
_U+30EC_U+30A4_U+30E4_U+30FC 1
 62
   179
420
  2234388
370
     9
100
AcDb2dPolyline
 66
     1
 10
0.0
 20
0.0
 30
0.0
  0
VERTEX
  5
54
330
53
100
AcDbEntity
  8
_U+30EC_U+30A4_U+30E4_U+30FC 1
 62
   179
420
  2234388
370
     9
100
AcDbVertex
100
AcDb2dVertex
 10
103.8096915182608
 20
-135.57451079944
 30
0.0
  0
VERTEX
  5
55
330
53
100
AcDbEntity
  8
_U+30EC_U+30A4_U+30E4_U+30FC 1
 62
   179
420
  2234388
370
     9
100
AcDbVertex
100
AcDb2dVertex
 10
106.2698225666087
 20
-135.57451079944
 30
0.0
  0
SEQEND
  5
56
330
53
100
AcDbEntity
  8
_U+30EC_U+30A4_U+30E4_U+30FC 1
 62
   179
420
  2234388
370
     9
  0
INSERT
  5
58
330
1F
100
AcDbEntity
  8
_U+30EC_U+30A4_U+30E4_U+30FC 1
100
AcDbBlockReference
  2
block 2
 10
0.0
 20
0.0
 30
0.0
  0
POLYLINE
  5
67
330
1F
100
AcDbEntity
  8
_U+30EC_U+30A4_U+30E4_U+30FC 1
 62
   179
420
  2234388
370
     9
100
AcDb2dPolyline
 66
     1
 10
0.0
 20
0.0
 30
0.0
  0
VERTEX
  5
68
330
67
100
AcDbEntity
  8
_U+30EC_U+30A4_U+30E4_U+30FC 1
 62
   179
420
  2234388
370
     9
100
AcDbVertex
100
AcDb2dVertex
 10
78.26981578094842
 20
-116.574464137523
 30
0.0
  0
VERTEX
  5
69
330
67
100
AcDbEntity
  8
_U+30EC_U+30A4_U+30E4_U+30FC 1
 62
   179
420
  2234388
370
     9
100
AcDbVertex
100
AcDb2dVertex
 10
78.26981578094842
 20
-135.57451079944
 30
0.0
  0
SEQEND
  5
6A
330
67
100
AcDbEntity
  8
_U+30EC_U+30A4_U+30E4_U+30FC 1
 62
   179
420
  2234388
370
     9
  0
POLYLINE
  5
6B
330
1F
100
AcDbEntity
  8
_U+30EC_U+30A4_U+30E4_U+30FC 1
 62
   179
420
  2234388
370
     9
100
AcDb2dPolyline
 66
     1
 10
0.0
 20
0.0
 30
0.0
  0
VERTEX
  5
6C
330
6B
100
AcDbEntity
  8
_U+30EC_U+30A4_U+30E4_U+30FC 1
 62
   179
420
  2234388
370
     9
100
AcDbVertex
100
AcDb2dVertex
 10
79.72985713258855
 20
-116.574464137523
 30
0.0
  0
VERTEX
  5
6D
330
6B
100
AcDbEntity
  8
_U+30EC_U+30A4_U+30E4_U+30FC 1
 62
   179
420
  2234388
370
     9
100
AcDbVertex
100
AcDb2dVertex
 10
77.26969080646373
 20
-116.574464137523
 30
0.0
  0
SEQEND
  5
6E
330
6B
100
AcDbEntity
  8
_U+30EC_U+30A4_U+30E4_U+30FC 1
 62
   179
420
  2234388
370
     9
  0
POLYLINE
  5
6F
330
1F
100
AcDbEntity
  8
_U+30EC_U+30A4_U+30E4_U+30FC 1
 62
   179
420
  2234388
370
     9
100
AcDb2dPolyline
 66
     1
 10
0.0
 20
0.0
 30
0.0
  0
VERTEX
  5
70
330
6F
100
AcDbEntity
  8
_U+30EC_U+30A4_U+30E4_U+30FC 1
 62
   179
420
  2234388
370
     9
100
AcDbVertex
100
AcDb2dVertex
 10
80.12948378905989
 20
-135.57451079944
 30
0.0
  0
VERTEX
  5
71
330
6F
100
AcDbEntity
  8
_U+30EC_U+30A4_U+30E4_U+30FC 1
 62
   179
420
  2234388
370
     9
100
AcDbVertex
100
AcDb2dVertex
 10
77.26969080646373
 20
-135.57451079944
 30
0.0
  0
SEQEND
  5
72
330
6F
100
AcDbEntity
  8
_U+30EC_U+30A4_U+30E4_U+30FC 1
 62
   179
420
  2234388
370
     9
  0
INSERT
  5
74
330
1F
100
AcDbEntity
  8
_U+30EC_U+30A4_U+30E4_U+30FC 1
100
AcDbBlockReference
  2
block 3
 10
0.0
 20
0.0
 30
0.0
  0
POLYLINE
  5
7C
330
1F
100
AcDbEntity
  8
_U+30EC_U+30A4_U+30E4_U+30FC 1
 62
   179
420
  2234388
370
     9
100
AcDb2dPolyline
 66
     1
 10
0.0
 20
0.0
 30
0.0
  0
VERTEX
  5
7D
330
7C
100
AcDbEntity
  8
_U+30EC_U+30A4_U+30E4_U+30FC 1
 62
   179
420
  2234388
370
     9
100
AcDbVertex
100
AcDb2dVertex
 10
82.26957484557273
 20
-139.5742699651062
 30
0.0
  0
VERTEX
  5
7E
330
7C
100
AcDbEntity
  8
_U+30EC_U+30A4_U+30E4_U+30FC 1
 62
   179
420
  2234388
370
     9
100
AcDbVertex
100
AcDb2dVertex
 10
101.2696210275078
 20
-139.5742699651062
 30
0.0
  0
SEQEND
  5
7F
330
7C
100
AcDbEntity
  8
_U+30EC_U+30A4_U+30E4_U+30FC 1
 62
   179
420
  2234388
370
     9
  0
POLYLINE
  5
80
330
1F
100
AcDbEntity
  8
_U+30EC_U+30A4_U+30E4_U+30FC 1
 62
   179
420
  2234388
370
     9
100
AcDb2dPolyline
 66
     1
 10
0.0
 20
0.0
 30
0.0
  0
VERTEX
  5
81
330
80
100
AcDbEntity
  8
_U+30EC_U+30A4_U+30E4_U+30FC 1
 62
   179
420
  2234388
370
     9
100
AcDbVertex
100
AcDb2dVertex
 10
82.26957484557273
 20
-137.714601910016
 30
0.0
  0
VERTEX
  5
82
330
80
100
AcDbEntity
  8
_U+30EC_U+30A4_U+30E4_U+30FC 1
 62
   179
420
  2234388
370
     9
100
AcDbVertex
100
AcDb2dVertex
 10
82.26957484557273
 20
-140.5743596870784
 30
0.0
  0
SEQEND
  5
83
330
80
100
AcDbEntity
  8
_U+30EC_U+30A4_U+30E4_U+30FC 1
 62
   179
420
  2234388
370
     9
  0
POLYLINE
  5
84
330
1F
100
AcDbEntity
  8
_U+30EC_U+30A4_U+30E4_U+30FC 1
 62
   179
420
  2234388
370
     9
100
AcDb2dPolyline
 66
     1
 10
0.0
 20
0.0
 30
0.0
  0
VERTEX
  5
85
330
84
100
AcDbEntity
  8
_U+30EC_U+30A4_U+30E4_U+30FC 1
 62
   179
420
  2234388
370
     9
100
AcDbVertex
100
AcDb2dVertex
 10
101.2696210275078
 20
-138.1142285765825
 30
0.0
  0
VERTEX
  5
86
330
84
100
AcDbEntity
  8
_U+30EC_U+30A4_U+30E4_U+30FC 1
 62
   179
420
  2234388
370
     9
100
AcDbVertex
100
AcDb2dVertex
 10
101.2696210275078
 20
-140.5743596870784
 30
0.0
  0
SEQEND
  5
87
330
84
100
AcDbEntity
  8
_U+30EC_U+30A4_U+30E4_U+30FC 1
 62
   179
420
  2234388
370
     9
  0
INSERT
  5
89
330
1F
100
AcDbEntity
  8
_U+30EC_U+30A4_U+30E4_U+30FC 1
100
AcDbBlockReference
  2
block 4
 10
0.0
 20
0.0
 30
0.0
  0
SPLINE
  5
91
330
1F
100
AcDbEntity
  8
_U+30EC_U+30A4_U+30E4_U+30FC 1
 62
   179
420
  2234388
370
    25
100
AcDbSpline
210
0.0
220
0.0
230
1.0
 70
    11
 71
     3
 72
    29
 73
    25
 74
     0
 42
0.0000000001
 43
0.0000000001
 12
1.0
 22
0.0
 32
0.0
 13
1.0
 23
0.0
 33
0.0
 40
0.0
 40
0.0
 40
0.0
 40
0.0
 40
1.0
 40
1.0
 40
1.0
 40
2.0
 40
2.0
 40
2.0
 40
3.0
 40
3.0
 40
3.0
 40
4.0
 40
4.0
 40
4.0
 40
5.0
 40
5.0
 40
5.0
 40
6.0
 40
6.0
 40
6.0
 40
7.0
 40
7.0
 40
7.0
 40
8.0
 40
8.0
 40
8.0
 40
8.0
 10
82.22512484670675
 20
-116.6004638597387
 30
0.0
 10
82.22512484670675
 20
-116.6004638597387
 30
0.0
 10
83.42816759379235
 20
-116.6004638597387
 30
0.0
 10
83.42816759379235
 20
-116.6004638597387
 30
0.0
 10
83.42816759379235
 20
-116.6004638597387
 30
0.0
 10
83.42816759379235
 20
-133.5932402443796
 30
0.0
 10
83.42816759379235
 20
-133.5932402443796
 30
0.0
 10
83.42816759379235
 20
-133.5932402443796
 30
0.0
 10
83.39024398364874
 20
-134.345291910858
 30
0.0
 10
84.14233090890586
 20
-134.345291910858
 30
0.0
 10
84.14233090890586
 20
-134.345291910858
 30
0.0
 10
101.1731388635959
 20
-134.345291910858
 30
0.0
 10
101.1731388635959
 20
-134.345291910858
 30
0.0
 10
101.1731388635959
 20
-134.345291910858
 30
0.0
 10
101.1731388635959
 20
-135.623758577205
 30
0.0
 10
101.1731388635959
 20
-135.623758577205
 30
0.0
 10
101.1731388635959
 20
-135.623758577205
 30
0.0
 10
83.46570314839029
 20
-135.623758577205
 30
0.0
 10
83.46570314839029
 20
-135.623758577205
 30
0.0
 10
83.46570314839029
 20
-135.623758577205
 30
0.0
 10
82.22512484670675
 20
-135.7739713549455
 30
0.0
 10
82.22512484670675
 20
-134.420751077506
 30
0.0
 10
82.22512484670675
 20
-134.420751077506
 30
0.0
 10
82.22512484670675
 20
-116.6004638597387
 30
0.0
 10
82.22512484670675
 20
-116.6004638597387
 30
0.0
  0
ENDSEC
  0
SECTION
  2
OBJECTS
  0
DICTIONARY
  5
C
330
0
100
AcDbDictionary
281
     1
  3
ACAD_GROUP
350
D
  3
ACAD_LAYOUT
350
1A
  3
ACAD_MATERIAL
350
3B
  3
ACAD_MLEADERSTYLE
350
93
  3
ACAD_MLINESTYLE
350
17
  3
ACAD_PLOTSETTINGS
350
19
  3
ACAD_PLOTSTYLENAME
350
E
  3
ACAD_TABLESTYLE
350
92
  3
ACAD_VISUALSTYLE
350
2A
  0
SUN
  5
3F
330
29
100
AcDbSun
 90
        1
290
     0
 63
     7
421
 16777215
 40
1.0
291
     1
 91
  2455826
 92
 54000000
292
     0
 70
     2
 71
   256
280
     1
  0
DICTIONARY
  5
D
102
{ACAD_REACTORS
330
C
102
}
330
C
100
AcDbDictionary
281
     1
  0
DICTIONARY
  5
1A
102
{ACAD_REACTORS
330
C
102
}
330
C
100
AcDbDictionary
281
     1
  3
Layout1
350
1E
  3
Layout2
350
26
  3
Model
350
22
  0
DICTIONARY
  5
3B
102
{ACAD_REACTORS
330
C
102
}
330
C
100
AcDbDictionary
281
     1
  3
ByBlock
350
3D
  3
ByLayer
350
3C
  3
Global
350
3E
  0
DICTIONARY
  5
93
102
{ACAD_REACTORS
330
C
102
}
330
C
100
AcDbDictionary
281
     1
  0
DICTIONARY
  5
17
102
{ACAD_REACTORS
330
C
102
}
330
C
100
AcDbDictionary
281
     1
  3
Standard
350
18
  0
DICTIONARY
  5
19
102
{ACAD_REACTORS
330
C
102
}
330
C
100
AcDbDictionary
281
     1
  0
ACDBDICTIONARYWDFLT
  5
E
102
{ACAD_REACTORS
330
C
102
}
330
C
100
AcDbDictionary
281
     1
  3
Normal
350
F
100
AcDbDictionaryWithDefault
340
F
  0
DICTIONARY
  5
92
102
{ACAD_REACTORS
330
C
102
}
330
C
100
AcDbDictionary
281
     1
  0
DICTIONARY
  5
2A
102
{ACAD_REACTORS
330
C
102
}
330
C
100
AcDbDictionary
281
     1
  3
2dWireframe
350
2F
  3
3D Hidden
350
31
  3
3dWireframe
350
30
  3
Basic
350
32
  3
Brighten
350
36
  3
ColorChange
350
3A
  3
Conceptual
350
34
  3
Dim
350
35
  3
Facepattern
350
39
  3
Flat
350
2B
  3
FlatWithEdges
350
2C
  3
Gouraud
350
2D
  3
GouraudWithEdges
350
2E
  3
Linepattern
350
38
  3
Realistic
350
33
  3
Thicken
350
37
  0
LAYOUT
  5
1E
102
{ACAD_REACTORS
330
1A
102
}
330
1A
100
AcDbPlotSettings
  1

  2
none_device
  4

  6

 40
0.0
 41
0.0
 42
0.0
 43
0.0
 44
0.0
 45
0.0
 46
0.0
 47
0.0
 48
0.0
 49
0.0
140
0.0
141
0.0
142
1.0
143
1.0
 70
   688
 72
     0
 73
     0
 74
     5
  7

 75
    16
 76
     0
 77
     2
 78
   300
147
1.0
148
0.0
149
0.0
100
AcDbLayout
  1
Layout1
 70
     1
 71
     1
 10
0.0
 20
0.0
 11
12.0
 21
9.0
 12
0.0
 22
0.0
 32
0.0
 14
1.000000000000000E+20
 24
1.000000000000000E+20
 34
1.000000000000000E+20
 15
-1.000000000000000E+20
 25
-1.000000000000000E+20
 35
-1.000000000000000E+20
146
0.0
 13
0.0
 23
0.0
 33
0.0
 16
1.0
 26
0.0
 36
0.0
 17
0.0
 27
1.0
 37
0.0
 76
     0
330
1B
  0
LAYOUT
  5
26
102
{ACAD_REACTORS
330
1A
102
}
330
1A
100
AcDbPlotSettings
  1

  2
none_device
  4

  6

 40
0.0
 41
0.0
 42
0.0
 43
0.0
 44
0.0
 45
0.0
 46
0.0
 47
0.0
 48
0.0
 49
0.0
140
0.0
141
0.0
142
1.0
143
1.0
 70
   688
 72
     0
 73
     0
 74
     5
  7

 75
    16
 76
     0
 77
     2
 78
   300
147
1.0
148
0.0
149
0.0
100
AcDbLayout
  1
Layout2
 70
     1
 71
     2
 10
0.0
 20
0.0
 11
0.0
 21
0.0
 12
0.0
 22
0.0
 32
0.0
 14
0.0
 24
0.0
 34
0.0
 15
0.0
 25
0.0
 35
0.0
146
0.0
 13
0.0
 23
0.0
 33
0.0
 16
1.0
 26
0.0
 36
0.0
 17
0.0
 27
1.0
 37
0.0
 76
     0
330
23
  0
LAYOUT
  5
22
102
{ACAD_REACTORS
330
1A
102
}
330
1A
100
AcDbPlotSettings
  1

  2
none_device
  4

  6

 40
0.0
 41
0.0
 42
0.0
 43
0.0
 44
0.0
 45
0.0
 46
0.0
 47
0.0
 48
0.0
 49
0.0
140
0.0
141
0.0
142
1.0
143
1.0
 70
  1712
 72
     0
 73
     0
 74
     0
  7

 75
     0
 76
     0
 77
     2
 78
   300
147
1.0
148
0.0
149
0.0
100
AcDbLayout
  1
Model
 70
     1
 71
     0
 10
0.0
 20
0.0
 11
12.0
 21
9.0
 12
0.0
 22
0.0
 32
0.0
 14
1.000000000000000E+20
 24
1.000000000000000E+20
 34
1.000000000000000E+20
 15
-1.000000000000000E+20
 25
-1.000000000000000E+20
 35
-1.000000000000000E+20
146
0.0
 13
0.0
 23
0.0
 33
0.0
 16
1.0
 26
0.0
 36
0.0
 17
0.0
 27
1.0
 37
0.0
 76
     0
330
1F
331
29
  0
MATERIAL
  5
3D
102
{ACAD_REACTORS
330
3B
102
}
330
3B
100
AcDbMaterial
  1
ByBlock
 72
     1
 94
      127
  0
MATERIAL
  5
3C
102
{ACAD_REACTORS
330
3B
102
}
330
3B
100
AcDbMaterial
  1
ByLayer
 72
     1
 94
      127
  0
MATERIAL
  5
3E
102
{ACAD_REACTORS
330
3B
102
}
330
3B
100
AcDbMaterial
  1
Global
 72
     1
 94
      127
  0
MLINESTYLE
  5
18
102
{ACAD_REACTORS
330
17
102
}
330
17
100
AcDbMlineStyle
  2
Standard
 70
     0
  3

 62
   256
 51
90.0
 52
90.0
 71
     2
 49
0.5
 62
   256
  6
BYLAYER
 49
-0.5
 62
   256
  6
BYLAYER
  0
ACDBPLACEHOLDER
  5
F
102
{ACAD_REACTORS
330
E
102
}
330
E
  0
VISUALSTYLE
  5
2F
102
{ACAD_REACTORS
330
2A
102
}
330
2A
100
AcDbVisualStyle
  2
2dWireframe
 70
     4
177
     2
291
     0
 71
     0
176
     1
 72
     2
176
     1
 73
     0
176
     1
 90
        0
176
     1
 40
-0.6
176
     1
 41
-30.0
176
     1
 62
     5
 63
     7
421
 16777215
176
     1
 74
     1
176
     1
 91
        4
176
     1
 64
     7
176
     1
 65
   257
176
     1
 75
     1
176
     1
175
     1
176
     1
 42
1.0
176
     1
 92
        0
176
     1
 66
   257
176
     1
 43
1.0
176
     1
 76
     1
176
     1
 77
     6
176
     1
 78
     2
176
     1
 67
     7
176
     1
 79
     5
176
     1
170
     0
176
     1
171
     0
176
     1
290
     0
176
     1
 93
        1
176
     1
 44
0.0
176
     1
173
     0
176
     1
  0
VISUALSTYLE
  5
31
102
{ACAD_REACTORS
330
2A
102
}
330
2A
100
AcDbVisualStyle
  2
3D Hidden
 70
     6
177
     2
291
     0
 71
     1
176
     1
 72
     2
176
     1
 73
     2
176
     1
 90
        0
176
     1
 40
-0.6
176
     1
 41
-30.0
176
     1
 62
     5
 63
     7
421
 16777215
176
     1
 74
     2
176
     1
 91
        2
176
     1
 64
     7
176
     1
 65
   257
176
     1
 75
     2
176
     1
175
     1
176
     1
 42
40.0
176
     1
 92
        0
176
     1
 66
   257
176
     1
 43
1.0
176
     1
 76
     1
176
     1
 77
     6
176
     1
 78
     2
176
     1
 67
     7
176
     1
 79
     3
176
     1
170
     0
176
     1
171
     0
176
     1
290
     0
176
     1
 93
        1
176
     1
 44
0.0
176
     1
173
     0
176
     1
  0
VISUALSTYLE
  5
30
102
{ACAD_REACTORS
330
2A
102
}
330
2A
100
AcDbVisualStyle
  2
3dWireframe
 70
     5
177
     2
291
     0
 71
     0
176
     1
 72
     2
176
     1
 73
     0
176
     1
 90
        0
176
     1
 40
-0.6
176
     1
 41
-30.0
176
     1
 62
     5
 63
     7
421
 16777215
176
     1
 74
     1
176
     1
 91
        4
176
     1
 64
     7
176
     1
 65
   257
176
     1
 75
     1
176
     1
175
     1
176
     1
 42
1.0
176
     1
 92
        0
176
     1
 66
   257
176
     1
 43
1.0
176
     1
 76
     1
176
     1
 77
     6
176
     1
 78
     2
176
     1
 67
     7
176
     1
 79
     5
176
     1
170
     0
176
     1
171
     0
176
     1
290
     0
176
     1
 93
        1
176
     1
 44
0.0
176
     1
173
     0
176
     1
  0
VISUALSTYLE
  5
32
102
{ACAD_REACTORS
330
2A
102
}
330
2A
100
AcDbVisualStyle
  2
Basic
 70
     7
177
     2
291
     1
 71
     1
176
     1
 72
     0
176
     1
 73
     1
176
     1
 90
        0
176
     1
 40
-0.6
176
     1
 41
-30.0
176
     1
 62
     5
 63
     7
421
 16777215
176
     1
 74
     0
176
     1
 91
        4
176
     1
 64
     7
176
     1
 65
   257
176
     1
 75
     1
176
     1
175
     1
176
     1
 42
1.0
176
     1
 92
        8
176
     1
 66
     7
176
     1
 43
1.0
176
     1
 76
     1
176
     1
 77
     6
176
     1
 78
     2
176
     1
 67
     7
176
     1
 79
     5
176
     1
170
     0
176
     1
171
     0
176
     1
290
     0
176
     1
 93
        1
176
     1
 44
0.0
176
     1
173
     0
176
     1
  0
VISUALSTYLE
  5
36
102
{ACAD_REACTORS
330
2A
102
}
330
2A
100
AcDbVisualStyle
  2
Brighten
 70
    12
177
     2
291
     1
 71
     2
176
     1
 72
     2
176
     1
 73
     0
176
     1
 90
        0
176
     1
 40
-0.6
176
     1
 41
-30.0
176
     1
 62
     5
 63
     7
421
 16777215
176
     1
 74
     1
176
     1
 91
        4
176
     1
 64
     7
176
     1
 65
   257
176
     1
 75
     1
176
     1
175
     1
176
     1
 42
1.0
176
     1
 92
        8
176
     1
 66
     7
176
     1
 43
1.0
176
     1
 76
     1
176
     1
 77
     6
176
     1
 78
     2
176
     1
 67
     7
176
     1
 79
     5
176
     1
170
     0
176
     1
171
     0
176
     1
290
     0
176
     1
 93
        1
176
     1
 44
50.0
176
     1
173
     0
176
     1
  0
VISUALSTYLE
  5
3A
102
{ACAD_REACTORS
330
2A
102
}
330
2A
100
AcDbVisualStyle
  2
ColorChange
 70
    16
177
     2
291
     1
 71
     2
176
     1
 72
     2
176
     1
 73
     3
176
     1
 90
        0
176
     1
 40
-0.6
176
     1
 41
-30.0
176
     1
 62
     5
 63
     8
421
  8421504
176
     1
 74
     1
176
     1
 91
        4
176
     1
 64
     7
176
     1
 65
   257
176
     1
 75
     1
176
     1
175
     1
176
     1
 42
1.0
176
     1
 92
        8
176
     1
 66
     8
424
  8421504
176
     1
 43
1.0
176
     1
 76
     1
176
     1
 77
     6
176
     1
 78
     2
176
     1
 67
     7
176
     1
 79
     5
176
     1
170
     0
176
     1
171
     0
176
     1
290
     0
176
     1
 93
        1
176
     1
 44
0.0
176
     1
173
     0
176
     1
  0
VISUALSTYLE
  5
34
102
{ACAD_REACTORS
330
2A
102
}
330
2A
100
AcDbVisualStyle
  2
Conceptual
 70
     9
177
     2
291
     0
 71
     3
176
     1
 72
     2
176
     1
 73
     0
176
     1
 90
        0
176
     1
 40
-0.6
176
     1
 41
-30.0
176
     1
 62
     5
 63
     7
421
 16777215
176
     1
 74
     2
176
     1
 91
        2
176
     1
 64
     7
176
     1
 65
   257
176
     1
 75
     1
176
     1
175
     1
176
     1
 42
40.0
176
     1
 92
        8
176
     1
 66
     7
176
     1
 43
1.0
176
     1
 76
     1
176
     1
 77
     6
176
     1
 78
     2
176
     1
 67
     7
176
     1
 79
     3
176
     1
170
     0
176
     1
171
     0
176
     1
290
     0
176
     1
 93
        1
176
     1
 44
0.0
176
     1
173
     0
176
     1
  0
VISUALSTYLE
  5
35
102
{ACAD_REACTORS
330
2A
102
}
330
2A
100
AcDbVisualStyle
  2
Dim
 70
    11
177
     2
291
     1
 71
     2
176
     1
 72
     2
176
     1
 73
     0
176
     1
 90
        0
176
     1
 40
-0.6
176
     1
 41
-30.0
176
     1
 62
     5
 63
     7
421
 16777215
176
     1
 74
     1
176
     1
 91
        4
176
     1
 64
     7
176
     1
 65
   257
176
     1
 75
     1
176
     1
175
     1
176
     1
 42
1.0
176
     1
 92
        8
176
     1
 66
     7
176
     1
 43
1.0
176
     1
 76
     1
176
     1
 77
     6
176
     1
 78
     2
176
     1
 67
     7
176
     1
 79
     5
176
     1
170
     0
176
     1
171
     0
176
     1
290
     0
176
     1
 93
        1
176
     1
 44
-50.0
176
     1
173
     0
176
     1
  0
VISUALSTYLE
  5
39
102
{ACAD_REACTORS
330
2A
102
}
330
2A
100
AcDbVisualStyle
  2
Facepattern
 70
    15
177
     2
291
     1
 71
     2
176
     1
 72
     2
176
     1
 73
     0
176
     1
 90
        0
176
     1
 40
-0.6
176
     1
 41
-30.0
176
     1
 62
     5
 63
     7
421
 16777215
176
     1
 74
     1
176
     1
 91
        4
176
     1
 64
     7
176
     1
 65
   257
176
     1
 75
     1
176
     1
175
     1
176
     1
 42
1.0
176
     1
 92
        8
176
     1
 66
     7
176
     1
 43
1.0
176
     1
 76
     1
176
     1
 77
     6
176
     1
 78
     2
176
     1
 67
     7
176
     1
 79
     5
176
     1
170
     0
176
     1
171
     0
176
     1
290
     0
176
     1
 93
        1
176
     1
 44
0.0
176
     1
173
     0
176
     1
  0
VISUALSTYLE
  5
2B
102
{ACAD_REACTORS
330
2A
102
}
330
2A
100
AcDbVisualStyle
  2
Flat
 70
     0
177
     2
291
     1
 71
     2
176
     1
 72
     1
176
     1
 73
     1
176
     1
 90
        2
176
     1
 40
-0.6
176
     1
 41
30.0
176
     1
 62
     5
 63
     7
421
 16777215
176
     1
 74
     0
176
     1
 91
        4
176
     1
 64
     7
176
     1
 65
   257
176
     1
 75
     1
176
     1
175
     1
176
     1
 42
1.0
176
     1
 92
        8
176
     1
 66
     7
176
     1
 43
1.0
176
     1
 76
     1
176
     1
 77
     6
176
     1
 78
     2
176
     1
 67
     7
176
     1
 79
     5
176
     1
170
     0
176
     1
171
     0
176
     1
290
     0
176
     1
 93
       13
176
     1
 44
0.0
176
     1
173
     0
176
     1
  0
VISUALSTYLE
  5
2C
102
{ACAD_REACTORS
330
2A
102
}
330
2A
100
AcDbVisualStyle
  2
FlatWithEdges
 70
     1
177
     2
291
     1
 71
     2
176
     1
 72
     1
176
     1
 73
     1
176
     1
 90
        2
176
     1
 40
-0.6
176
     1
 41
30.0
176
     1
 62
     5
 63
     7
421
 16777215
176
     1
 74
     1
176
     1
 91
        4
176
     1
 64
     7
176
     1
 65
   257
176
     1
 75
     1
176
     1
175
     1
176
     1
 42
1.0
176
     1
 92
        0
176
     1
 66
   257
176
     1
 43
1.0
176
     1
 76
     1
176
     1
 77
     6
176
     1
 78
     2
176
     1
 67
     7
176
     1
 79
     5
176
     1
170
     0
176
     1
171
     0
176
     1
290
     0
176
     1
 93
       13
176
     1
 44
0.0
176
     1
173
     0
176
     1
  0
VISUALSTYLE
  5
2D
102
{ACAD_REACTORS
330
2A
102
}
330
2A
100
AcDbVisualStyle
  2
Gouraud
 70
     2
177
     2
291
     1
 71
     2
176
     1
 72
     2
176
     1
 73
     1
176
     1
 90
        2
176
     1
 40
-0.6
176
     1
 41
30.0
176
     1
 62
     5
 63
     7
421
 16777215
176
     1
 74
     0
176
     1
 91
        4
176
     1
 64
     7
176
     1
 65
   257
176
     1
 75
     1
176
     1
175
     1
176
     1
 42
1.0
176
     1
 92
        0
176
     1
 66
     7
176
     1
 43
1.0
176
     1
 76
     1
176
     1
 77
     6
176
     1
 78
     2
176
     1
 67
     7
176
     1
 79
     5
176
     1
170
     0
176
     1
171
     0
176
     1
290
     0
176
     1
 93
       13
176
     1
 44
0.0
176
     1
173
     0
176
     1
  0
VISUALSTYLE
  5
2E
102
{ACAD_REACTORS
330
2A
102
}
330
2A
100
AcDbVisualStyle
  2
GouraudWithEdges
 70
     3
177
     2
291
     1
 71
     2
176
     1
 72
     2
176
     1
 73
     1
176
     1
 90
        2
176
     1
 40
-0.6
176
     1
 41
30.0
176
     1
 62
     5
 63
     7
421
 16777215
176
     1
 74
     1
176
     1
 91
        4
176
     1
 64
     7
176
     1
 65
   257
176
     1
 75
     1
176
     1
175
     1
176
     1
 42
1.0
176
     1
 92
        0
176
     1
 66
   257
176
     1
 43
1.0
176
     1
 76
     1
176
     1
 77
     6
176
     1
 78
     2
176
     1
 67
     7
176
     1
 79
     5
176
     1
170
     0
176
     1
171
     0
176
     1
290
     0
176
     1
 93
       13
176
     1
 44
0.0
176
     1
173
     0
176
     1
  0
VISUALSTYLE
  5
38
102
{ACAD_REACTORS
330
2A
102
}
330
2A
100
AcDbVisualStyle
  2
Linepattern
 70
    14
177
     2
291
     1
 71
     2
176
     1
 72
     2
176
     1
 73
     0
176
     1
 90
        0
176
     1
 40
-0.6
176
     1
 41
-30.0
176
     1
 62
     5
 63
     7
421
 16777215
176
     1
 74
     1
176
     1
 91
        4
176
     1
 64
     7
176
     1
 65
   257
176
     1
 75
     7
176
     1
175
     7
176
     1
 42
1.0
176
     1
 92
        8
176
     1
 66
     7
176
     1
 43
1.0
176
     1
 76
     1
176
     1
 77
     6
176
     1
 78
     2
176
     1
 67
     7
176
     1
 79
     5
176
     1
170
     0
176
     1
171
     0
176
     1
290
     0
176
     1
 93
        1
176
     1
 44
0.0
176
     1
173
     0
176
     1
  0
VISUALSTYLE
  5
33
102
{ACAD_REACTORS
330
2A
102
}
330
2A
100
AcDbVisualStyle
  2
Realistic
 70
     8
177
     2
291
     0
 71
     2
176
     1
 72
     2
176
     1
 73
     0
176
     1
 90
        0
176
     1
 40
-0.6
176
     1
 41
-30.0
176
     1
 62
     5
 63
     7
421
 16777215
176
     1
 74
     1
176
     1
 91
        0
176
     1
 64
     7
176
     1
 65
   257
176
     1
 75
     1
176
     1
175
     1
176
     1
 42
1.0
176
     1
 92
        8
176
     1
 66
     8
424
  7895160
176
     1
 43
1.0
176
     1
 76
     1
176
     1
 77
     6
176
     1
 78
     2
176
     1
 67
     7
176
     1
 79
     5
176
     1
170
     0
176
     1
171
     0
176
     1
290
     0
176
     1
 93
       13
176
     1
 44
0.0
176
     1
173
     0
176
     1
  0
VISUALSTYLE
  5
37
102
{ACAD_REACTORS
330
2A
102
}
330
2A
100
AcDbVisualStyle
  2
Thicken
 70
    13
177
     2
291
     1
 71
     2
176
     1
 72
     2
176
     1
 73
     0
176
     1
 90
        0
176
     1
 40
-0.6
176
     1
 41
-30.0
176
     1
 62
     5
 63
     7
421
 16777215
176
     1
 74
     1
176
     1
 91
        4
176
     1
 64
     7
176
     1
 65
   257
176
     1
 75
     1
176
     1
175
     1
176
     1
 42
1.0
176
     1
 92
       12
176
     1
 66
     7
176
     1
 43
1.0
176
     1
 76
     1
176
     1
 77
     6
176
     1
 78
     2
176
     1
 67
     7
176
     1
 79
     5
176
     1
170
     0
176
     1
171
     0
176
     1
290
     0
176
     1
 93
        1
176
     1
 44
0.0
176
     1
173
     0
176
     1
  0
ENDSEC
  0
EOF
