  0
SECTION
  2
HEADER
  9
$ACADVER
  1
AC1024
  9
$ACADMAINTVER
 70
     6
  9
$DWGCODEPAGE
  3
UNDEFINED
  9
$INSBASE
 10
0.0
 20
0.0
 30
0.0
  9
$EXTMIN
 10
1.000000000000000E+20
 20
1.000000000000000E+20
 30
1.000000000000000E+20
  9
$EXTMAX
 10
-1.000000000000000E+20
 20
-1.000000000000000E+20
 30
-1.000000000000000E+20
  9
$LIMMIN
 10
0.0
 20
0.0
  9
$LIMMAX
 10
12.0
 20
9.0
  9
$ORTHOMODE
 70
     0
  9
$REGENMODE
 70
     1
  9
$FILLMODE
 70
     1
  9
$QTEXTMODE
 70
     0
  9
$MIRRTEXT
 70
     1
  9
$LTSCALE
 40
1.0
  9
$ATTMODE
 70
     1
  9
$TEXTSIZE
 40
0.2
  9
$TRACEWID
 40
0.05
  9
$TEXTSTYLE
  7
Standard
  9
$CLAYER
  8
0
  9
$CELTYPE
  6
ByLayer
  9
$CECOLOR
 62
   256
  9
$CELTSCALE
 40
1.0
  9
$DISPSILH
 70
     0
  9
$DIMSCALE
 40
1.0
  9
$DIMASZ
 40
0.18
  9
$DIMEXO
 40
0.0625
  9
$DIMDLI
 40
0.38
  9
$DIMRND
 40
0.0
  9
$DIMDLE
 40
0.0
  9
$DIMEXE
 40
0.18
  9
$DIMTP
 40
0.0
  9
$DIMTM
 40
0.0
  9
$DIMTXT
 40
0.18
  9
$DIMCEN
 40
0.09
  9
$DIMTSZ
 40
0.0
  9
$DIMTOL
 70
     0
  9
$DIMLIM
 70
     0
  9
$DIMTIH
 70
     1
  9
$DIMTOH
 70
     1
  9
$DIMSE1
 70
     0
  9
$DIMSE2
 70
     0
  9
$DIMTAD
 70
     0
  9
$DIMZIN
 70
     0
  9
$DIMBLK
  1

  9
$DIMASO
 70
     1
  9
$DIMSHO
 70
     1
  9
$DIMPOST
  1

  9
$DIMAPOST
  1

  9
$DIMALT
 70
     0
  9
$DIMALTD
 70
     2
  9
$DIMALTF
 40
25.4
  9
$DIMLFAC
 40
1.0
  9
$DIMTOFL
 70
     0
  9
$DIMTVP
 40
0.0
  9
$DIMTIX
 70
     0
  9
$DIMSOXD
 70
     0
  9
$DIMSAH
 70
     0
  9
$DIMBLK1
  1

  9
$DIMBLK2
  1

  9
$DIMSTYLE
  2
Standard
  9
$DIMCLRD
 70
     0
  9
$DIMCLRE
 70
     0
  9
$DIMCLRT
 70
     0
  9
$DIMTFAC
 40
1.0
  9
$DIMGAP
 40
0.09
  9
$DIMJUST
 70
     0
  9
$DIMSD1
 70
     0
  9
$DIMSD2
 70
     0
  9
$DIMTOLJ
 70
     1
  9
$DIMTZIN
 70
     0
  9
$DIMALTZ
 70
     0
  9
$DIMALTTZ
 70
     0
  9
$DIMUPT
 70
     0
  9
$DIMDEC
 70
     4
  9
$DIMTDEC
 70
     4
  9
$DIMALTU
 70
     2
  9
$DIMALTTD
 70
     2
  9
$DIMTXSTY
  7
Standard
  9
$DIMAUNIT
 70
     0
  9
$DIMADEC
 70
     0
  9
$DIMALTRND
 40
0.0
  9
$DIMAZIN
 70
     0
  9
$DIMDSEP
 70
    46
  9
$DIMATFIT
 70
     3
  9
$DIMFRAC
 70
     0
  9
$DIMLDRBLK
  1

  9
$DIMLUNIT
 70
     2
  9
$DIMLWD
 70
    -2
  9
$DIMLWE
 70
    -2
  9
$DIMTMOVE
 70
     0
  9
$DIMFXL
 40
1.0
  9
$DIMFXLON
 70
     0
  9
$DIMJOGANG
 40
0.7853981633974483
  9
$DIMTFILL
 70
     0
  9
$DIMTFILLCLR
 70
     0
  9
$DIMARCSYM
 70
     0
  9
$DIMLTYPE
  6

  9
$DIMLTEX1
  6

  9
$DIMLTEX2
  6

  9
$DIMTXTDIRECTION
 70
     0
  9
$LUNITS
 70
     2
  9
$LUPREC
 70
     4
  9
$SKETCHINC
 40
0.1
  9
$FILLETRAD
 40
0.5
  9
$AUNITS
 70
     0
  9
$AUPREC
 70
     0
  9
$MENU
  1
.
  9
$ELEVATION
 40
0.0
  9
$PELEVATION
 40
0.0
  9
$THICKNESS
 40
0.0
  9
$LIMCHECK
 70
     0
  9
$CHAMFERA
 40
0.5
  9
$CHAMFERB
 40
0.5
  9
$CHAMFERC
 40
1.0
  9
$CHAMFERD
 40
0.0
  9
$SKPOLY
 70
     0
  9
$TDCREATE
 40
2457917.621388889
  9
$TDUCREATE
 40
2457917.246388889
  9
$TDUPDATE
 40
2457917.621388889
  9
$TDUUPDATE
 40
2457917.246388889
  9
$TDINDWG
 40
0.0000000116
  9
$TDUSRTIMER
 40
0.0000000116
  9
$USRTIMER
 70
     1
  9
$ANGBASE
 50
0.0
  9
$ANGDIR
 70
     0
  9
$PDMODE
 70
     0
  9
$PDSIZE
 40
0.0
  9
$PLINEWID
 40
0.0
  9
$SPLFRAME
 70
     0
  9
$SPLINETYPE
 70
     6
  9
$SPLINESEGS
 70
     8
  9
$HANDSEED
  5
C7
  9
$SURFTAB1
 70
     6
  9
$SURFTAB2
 70
     6
  9
$SURFTYPE
 70
     6
  9
$SURFU
 70
     6
  9
$SURFV
 70
     6
  9
$UCSBASE
  2

  9
$UCSNAME
  2

  9
$UCSORG
 10
0.0
 20
0.0
 30
0.0
  9
$UCSXDIR
 10
1.0
 20
0.0
 30
0.0
  9
$UCSYDIR
 10
0.0
 20
1.0
 30
0.0
  9
$UCSORTHOREF
  2

  9
$UCSORTHOVIEW
 70
     0
  9
$UCSORGTOP
 10
0.0
 20
0.0
 30
0.0
  9
$UCSORGBOTTOM
 10
0.0
 20
0.0
 30
0.0
  9
$UCSORGLEFT
 10
0.0
 20
0.0
 30
0.0
  9
$UCSORGRIGHT
 10
0.0
 20
0.0
 30
0.0
  9
$UCSORGFRONT
 10
0.0
 20
0.0
 30
0.0
  9
$UCSORGBACK
 10
0.0
 20
0.0
 30
0.0
  9
$PUCSBASE
  2

  9
$PUCSNAME
  2

  9
$PUCSORG
 10
0.0
 20
0.0
 30
0.0
  9
$PUCSXDIR
 10
1.0
 20
0.0
 30
0.0
  9
$PUCSYDIR
 10
0.0
 20
1.0
 30
0.0
  9
$PUCSORTHOREF
  2

  9
$PUCSORTHOVIEW
 70
     0
  9
$PUCSORGTOP
 10
0.0
 20
0.0
 30
0.0
  9
$PUCSORGBOTTOM
 10
0.0
 20
0.0
 30
0.0
  9
$PUCSORGLEFT
 10
0.0
 20
0.0
 30
0.0
  9
$PUCSORGRIGHT
 10
0.0
 20
0.0
 30
0.0
  9
$PUCSORGFRONT
 10
0.0
 20
0.0
 30
0.0
  9
$PUCSORGBACK
 10
0.0
 20
0.0
 30
0.0
  9
$USERI1
 70
     0
  9
$USERI2
 70
     0
  9
$USERI3
 70
     0
  9
$USERI4
 70
     0
  9
$USERI5
 70
     0
  9
$USERR1
 40
0.0
  9
$USERR2
 40
0.0
  9
$USERR3
 40
0.0
  9
$USERR4
 40
0.0
  9
$USERR5
 40
0.0
  9
$WORLDVIEW
 70
     1
  9
$SHADEDGE
 70
     3
  9
$SHADEDIF
 70
    70
  9
$TILEMODE
 70
     1
  9
$MAXACTVP
 70
    64
  9
$PINSBASE
 10
0.0
 20
0.0
 30
0.0
  9
$PLIMCHECK
 70
     0
  9
$PEXTMIN
 10
1.000000000000000E+20
 20
1.000000000000000E+20
 30
1.000000000000000E+20
  9
$PEXTMAX
 10
-1.000000000000000E+20
 20
-1.000000000000000E+20
 30
-1.000000000000000E+20
  9
$PLIMMIN
 10
0.0
 20
0.0
  9
$PLIMMAX
 10
12.0
 20
9.0
  9
$UNITMODE
 70
     0
  9
$VISRETAIN
 70
     1
  9
$PLINEGEN
 70
     0
  9
$PSLTSCALE
 70
     1
  9
$TREEDEPTH
 70
  3020
  9
$CMLSTYLE
  2
Standard
  9
$CMLJUST
 70
     0
  9
$CMLSCALE
 40
1.0
  9
$PROXYGRAPHICS
 70
     1
  9
$MEASUREMENT
 70
     0
  9
$CELWEIGHT
370
    -1
  9
$ENDCAPS
280
     0
  9
$JOINSTYLE
280
     0
  9
$LWDISPLAY
290
     1
  9
$INSUNITS
 70
     1
  9
$HYPERLINKBASE
  1

  9
$STYLESHEET
  1

  9
$XEDIT
290
     1
  9
$CEPSNTYPE
380
     0
  9
$PSTYLEMODE
290
     1
  9
$FINGERPRINTGUID
  2
{35FA547E-BA39-7F45-6049-1927F49627EF}
  9
$VERSIONGUID
  2
{FAEB1C32-E019-11D5-929B-00C0DF256EC4}
  9
$EXTNAMES
290
     1
  9
$PSVPSCALE
 40
0.0
  9
$OLESTARTUP
290
     0
  9
$SORTENTS
280
   127
  9
$INDEXCTL
280
     0
  9
$HIDETEXT
280
     1
  9
$XCLIPFRAME
280
     2
  9
$HALOGAP
280
     0
  9
$OBSCOLOR
 70
   257
  9
$OBSLTYPE
280
     0
  9
$INTERSECTIONDISPLAY
280
     0
  9
$INTERSECTIONCOLOR
 70
   257
  9
$DIMASSOC
280
     2
  9
$PROJECTNAME
  1

  9
$CAMERADISPLAY
290
     0
  9
$LENSLENGTH
 40
50.0
  9
$CAMERAHEIGHT
 40
0.0
  9
$STEPSPERSEC
 40
2.0
  9
$STEPSIZE
 40
6.0
  9
$3DDWFPREC
 40
2.0
  9
$PSOLWIDTH
 40
0.25
  9
$PSOLHEIGHT
 40
4.0
  9
$LOFTANG1
 40
1.570796326794897
  9
$LOFTANG2
 40
1.570796326794897
  9
$LOFTMAG1
 40
0.0
  9
$LOFTMAG2
 40
0.0
  9
$LOFTPARAM
 70
     7
  9
$LOFTNORMALS
280
     1
  9
$LATITUDE
 40
37.795
  9
$LONGITUDE
 40
-122.394
  9
$NORTHDIRECTION
 40
0.0
  9
$TIMEZONE
 70
 -8000
  9
$LIGHTGLYPHDISPLAY
280
     1
  9
$TILEMODELIGHTSYNCH
280
     1
  9
$CMATERIAL
347
3C
  9
$SOLIDHIST
280
     1
  9
$SHOWHIST
280
     1
  9
$DWFFRAME
280
     2
  9
$DGNFRAME
280
     2
  9
$REALWORLDSCALE
290
     1
  9
$INTERFERECOLOR
 62
   256
  9
$CSHADOW
280
     0
  9
$SHADOWPLANELOCATION
 40
0.0
  0
ENDSEC
  0
SECTION
  2
CLASSES
  0
CLASS
  1
ACDBDICTIONARYWDFLT
  2
AcDbDictionaryWithDefault
  3
ObjectDBX Classes
 90
        0
 91
        4
280
     0
281
     0
  0
CLASS
  1
VISUALSTYLE
  2
AcDbVisualStyle
  3
ObjectDBX Classes
 90
     4095
 91
        4
280
     0
281
     0
  0
CLASS
  1
MATERIAL
  2
AcDbMaterial
  3
ObjectDBX Classes
 90
     1153
 91
        4
280
     0
281
     0
  0
CLASS
  1
SUN
  2
AcDbSun
  3
SCENEOE
 90
     1024
 91
        4
280
     0
281
     0
  0
ENDSEC
  0
SECTION
  2
TABLES
  0
TABLE
  2
VPORT
  5
8
330
0
100
AcDbSymbolTable
 70
     1
  0
VPORT
  5
29
330
8
100
AcDbSymbolTableRecord
100
AcDbViewportTableRecord
  2
*Active
 70
     0
 10
0.0
 20
0.0
 11
1.0
 21
1.0
 12
0.0
 22
0.0
 13
0.0
 23
0.0
 14
0.5
 24
0.5
 15
0.5
 25
0.5
 16
0.0
 26
0.0
 36
1.0
 17
91.00082462281999
 27
-128.4993055234307
 37
0.0
 40
256.9986110468615
 41
0.7081814508812795
 42
50.0
 43
0.0
 44
0.0
 50
0.0
 51
0.0
 71
     0
 72
   100
 73
     1
 74
     3
 75
     0
 76
     0
 77
     0
 78
     0
281
     0
 65
     1
110
0.0
120
0.0
130
0.0
111
1.0
121
0.0
131
0.0
112
0.0
122
1.0
132
0.0
 79
     0
146
0.0
 60
     3
 61
     5
292
     1
282
     1
141
0.0
142
0.0
 63
   250
361
3F
  0
ENDTAB
  0
TABLE
  2
LTYPE
  5
5
330
0
100
AcDbSymbolTable
 70
     1
  0
LTYPE
  5
14
330
5
100
AcDbSymbolTableRecord
100
AcDbLinetypeTableRecord
  2
ByBlock
 70
     0
  3

 72
    65
 73
     0
 40
0.0
  0
LTYPE
  5
15
330
5
100
AcDbSymbolTableRecord
100
AcDbLinetypeTableRecord
  2
ByLayer
 70
     0
  3

 72
    65
 73
     0
 40
0.0
  0
LTYPE
  5
16
330
5
100
AcDbSymbolTableRecord
100
AcDbLinetypeTableRecord
  2
Continuous
 70
     0
  3
Solid line
 72
    65
 73
     0
 40
0.0
  0
ENDTAB
  0
TABLE
  2
LAYER
  5
2
330
0
100
AcDbSymbolTable
 70
     2
  0
LAYER
  5
10
330
2
100
AcDbSymbolTableRecord
100
AcDbLayerTableRecord
  2
0
 70
     0
 62
     7
  6
Continuous
370
    -3
390
F
347
3E
  0
LAYER
  5
40
330
2
100
AcDbSymbolTableRecord
100
AcDbLayerTableRecord
  2
_U+30EC_U+30A4_U+30E4_U+30FC 1
 70
     0
 62
     7
  6
Continuous
370
    -3
390
F
347
3E
  0
ENDTAB
  0
TABLE
  2
STYLE
  5
3
330
0
100
AcDbSymbolTable
 70
     1
  0
STYLE
  5
11
330
3
100
AcDbSymbolTableRecord
100
AcDbTextStyleTableRecord
  2
Standard
 70
     0
 40
0.0
 41
1.0
 50
0.0
 71
     0
 42
0.2
  3
txt
  4

  0
ENDTAB
  0
TABLE
  2
VIEW
  5
6
330
0
100
AcDbSymbolTable
 70
     0
  0
ENDTAB
  0
TABLE
  2
UCS
  5
7
330
0
100
AcDbSymbolTable
 70
     0
  0
ENDTAB
  0
TABLE
  2
APPID
  5
9
330
0
100
AcDbSymbolTable
 70
     1
  0
APPID
  5
12
330
9
100
AcDbSymbolTableRecord
100
AcDbRegAppTableRecord
  2
ACAD
 70
     0
  0
ENDTAB
  0
TABLE
  2
DIMSTYLE
  5
A
330
0
100
AcDbSymbolTable
 70
     1
100
AcDbDimStyleTable
  0
DIMSTYLE
105
27
330
A
100
AcDbSymbolTableRecord
100
AcDbDimStyleTableRecord
  2
Standard
 70
     0
178
     0
340
11
  0
ENDTAB
  0
TABLE
  2
BLOCK_RECORD
  5
1
330
0
100
AcDbSymbolTable
 70
     4
  0
BLOCK_RECORD
  5
1F
330
1
100
AcDbSymbolTableRecord
100
AcDbBlockTableRecord
  2
*Model_Space
340
22
 70
     0
280
     1
281
     0
  0
BLOCK_RECORD
  5
1B
330
1
100
AcDbSymbolTableRecord
100
AcDbBlockTableRecord
  2
*Paper_Space
340
1E
 70
     0
280
     1
281
     0
  0
BLOCK_RECORD
  5
23
330
1
100
AcDbSymbolTableRecord
100
AcDbBlockTableRecord
  2
*Paper_Space0
340
26
 70
     0
280
     1
281
     0
  0
BLOCK_RECORD
  5
6B
330
1
100
AcDbSymbolTableRecord
100
AcDbBlockTableRecord
  2
block 2
340
0
102
{BLKREFS
331
6C
102
}
 70
     0
280
     1
281
     0
  0
BLOCK_RECORD
  5
82
330
1
100
AcDbSymbolTableRecord
100
AcDbBlockTableRecord
  2
block 3
340
0
102
{BLKREFS
331
83
102
}
 70
     0
280
     1
281
     0
  0
BLOCK_RECORD
  5
9D
330
1
100
AcDbSymbolTableRecord
100
AcDbBlockTableRecord
  2
block 4
340
0
102
{BLKREFS
331
9E
102
}
 70
     0
280
     1
281
     0
  0
ENDTAB
  0
ENDSEC
  0
SECTION
  2
BLOCKS
  0
BLOCK
  5
20
330
1F
100
AcDbEntity
  8
0
100
AcDbBlockBegin
  2
*Model_Space
 70
     0
 10
0.0
 20
0.0
 30
0.0
  3
*Model_Space
  1

  0
ENDBLK
  5
21
330
1F
100
AcDbEntity
  8
0
100
AcDbBlockEnd
  0
BLOCK
  5
1C
330
1B
100
AcDbEntity
 67
     1
  8
0
100
AcDbBlockBegin
  2
*Paper_Space
 70
     0
 10
0.0
 20
0.0
 30
0.0
  3
*Paper_Space
  1

  0
ENDBLK
  5
1D
330
1B
100
AcDbEntity
 67
     1
  8
0
100
AcDbBlockEnd
  0
BLOCK
  5
24
330
23
100
AcDbEntity
  8
0
100
AcDbBlockBegin
  2
*Paper_Space0
 70
     0
 10
0.0
 20
0.0
 30
0.0
  3
*Paper_Space0
  1

  0
ENDBLK
  5
25
330
23
100
AcDbEntity
  8
0
100
AcDbBlockEnd
  0
BLOCK
  5
6D
330
6B
100
AcDbEntity
  8
0
100
AcDbBlockBegin
  2
block 2
 70
     0
 10
0.0
 20
0.0
 30
0.0
  3
block 2
  1

  0
SPLINE
  5
6F
330
6B
100
AcDbEntity
  8
_U+30EC_U+30A4_U+30E4_U+30FC 1
370
     0
100
AcDbSpline
210
0.0
220
0.0
230
1.0
 70
    11
 71
     3
 72
    26
 73
    22
 74
     0
 42
0.0000000001
 43
0.0000000001
 12
1.0
 22
0.0
 32
0.0
 13
1.0
 23
0.0
 33
0.0
 40
0.0
 40
0.0
 40
0.0
 40
0.0
 40
1.0
 40
1.0
 40
1.0
 40
2.0
 40
2.0
 40
2.0
 40
3.0
 40
3.0
 40
3.0
 40
4.0
 40
4.0
 40
4.0
 40
5.0
 40
5.0
 40
5.0
 40
6.0
 40
6.0
 40
6.0
 40
7.0
 40
7.0
 40
7.0
 40
7.0
 10
92.01333276779528
 20
-134.9919324749326
 30
0.0
 10
92.01333276779528
 20
-134.9919324749326
 30
0.0
 10
92.01333276779528
 20
-133.8874348623615
 30
0.0
 10
92.01333276779528
 20
-133.8874348623615
 30
0.0
 10
92.01333276779528
 20
-133.8874348623615
 30
0.0
 10
91.68329262030835
 20
-133.8874348623615
 30
0.0
 10
91.68329262030835
 20
-133.8874348623615
 30
0.0
 10
91.68329262030835
 20
-133.8874348623615
 30
0.0
 10
91.68329262030835
 20
-133.7392957564957
 30
0.0
 10
91.68329262030835
 20
-133.7392957564957
 30
0.0
 10
92.01539982508643
 20
-133.7244818459092
 30
0.0
 10
92.06190861413731
 20
-133.5618733390054
 30
0.0
 10
92.09153643531046
 20
-133.4474961688951
 30
0.0
 10
92.09153643531046
 20
-133.4474961688951
 30
0.0
 10
92.23760848388504
 20
-133.4474961688951
 30
0.0
 10
92.23760848388504
 20
-133.4474961688951
 30
0.0
 10
92.23760848388504
 20
-133.4474961688951
 30
0.0
 10
92.23760848388504
 20
-134.9919324749326
 30
0.0
 10
92.23760848388504
 20
-134.9919324749326
 30
0.0
 10
92.23760848388504
 20
-134.9919324749326
 30
0.0
 10
92.01333276779528
 20
-134.9919324749326
 30
0.0
 10
92.01333276779528
 20
-134.9919324749326
 30
0.0
  0
HATCH
  5
70
330
6B
100
AcDbEntity
  8
_U+30EC_U+30A4_U+30E4_U+30FC 1
 62
   179
420
  2234388
100
AcDbHatch
 10
0.0
 20
0.0
 30
0.0
210
0.0
220
0.0
230
1.0
  2
SOLID
 70
     1
 71
     0
 91
        1
 92
        1
 93
        1
 72
     4
 94
        3
 73
     0
 74
     1
 95
       26
 96
       22
 40
0.0
 40
0.0
 40
0.0
 40
0.0
 40
1.0
 40
1.0
 40
1.0
 40
2.0
 40
2.0
 40
2.0
 40
3.0
 40
3.0
 40
3.0
 40
4.0
 40
4.0
 40
4.0
 40
5.0
 40
5.0
 40
5.0
 40
6.0
 40
6.0
 40
6.0
 40
7.0
 40
7.0
 40
7.0
 40
7.0
 10
92.01333276779528
 20
-134.9919324749326
 10
92.01333276779528
 20
-134.9919324749326
 10
92.01333276779528
 20
-133.8874348623615
 10
92.01333276779528
 20
-133.8874348623615
 10
92.01333276779528
 20
-133.8874348623615
 10
91.68329262030835
 20
-133.8874348623615
 10
91.68329262030835
 20
-133.8874348623615
 10
91.68329262030835
 20
-133.8874348623615
 10
91.68329262030835
 20
-133.7392957564957
 10
91.68329262030835
 20
-133.7392957564957
 10
92.01539982508643
 20
-133.7244818459092
 10
92.06190861413731
 20
-133.5618733390054
 10
92.09153643531046
 20
-133.4474961688951
 10
92.09153643531046
 20
-133.4474961688951
 10
92.23760848388504
 20
-133.4474961688951
 10
92.23760848388504
 20
-133.4474961688951
 10
92.23760848388504
 20
-133.4474961688951
 10
92.23760848388504
 20
-134.9919324749326
 10
92.23760848388504
 20
-134.9919324749326
 10
92.23760848388504
 20
-134.9919324749326
 10
92.01333276779528
 20
-134.9919324749326
 10
92.01333276779528
 20
-134.9919324749326
 97
        0
 97
        0
 75
     2
 76
     1
 98
        0
  0
SPLINE
  5
71
330
6B
100
AcDbEntity
  8
_U+30EC_U+30A4_U+30E4_U+30FC 1
370
     0
100
AcDbSpline
210
0.0
220
0.0
230
1.0
 70
    11
 71
     3
 72
    44
 73
    40
 74
     0
 42
0.0000000001
 43
0.0000000001
 12
1.0
 22
0.0
 32
0.0
 13
1.0
 23
0.0
 33
0.0
 40
0.0
 40
0.0
 40
0.0
 40
0.0
 40
1.0
 40
1.0
 40
1.0
 40
2.0
 40
2.0
 40
2.0
 40
3.0
 40
3.0
 40
3.0
 40
4.0
 40
4.0
 40
4.0
 40
5.0
 40
5.0
 40
5.0
 40
6.0
 40
6.0
 40
6.0
 40
7.0
 40
7.0
 40
7.0
 40
8.0
 40
8.0
 40
8.0
 40
9.0
 40
9.0
 40
9.0
 40
10.0
 40
10.0
 40
10.0
 40
11.0
 40
11.0
 40
11.0
 40
12.0
 40
12.0
 40
12.0
 40
13.0
 40
13.0
 40
13.0
 40
13.0
 10
93.33177081000039
 20
-134.4100558474739
 30
0.0
 10
93.11404077533261
 20
-134.5685302397954
 30
0.0
 10
93.02102319723086
 20
-134.6425997927282
 30
0.0
 10
92.97210284134032
 20
-134.7866047840117
 30
0.0
 10
92.97210284134032
 20
-134.7866047840117
 30
0.0
 10
93.75069442100677
 20
-134.7866047840117
 30
0.0
 10
93.75069442100677
 20
-134.7866047840117
 30
0.0
 10
93.75069442100677
 20
-134.7866047840117
 30
0.0
 10
93.75069442100677
 20
-134.9919324749326
 30
0.0
 10
93.75069442100677
 20
-134.9919324749326
 30
0.0
 10
93.75069442100677
 20
-134.9919324749326
 30
0.0
 10
92.72267792820823
 20
-134.9919324749326
 30
0.0
 10
92.72267792820823
 20
-134.9919324749326
 30
0.0
 10
92.75437280667252
 20
-134.6343315635636
 30
0.0
 10
92.81982962089226
 20
-134.5561278960485
 30
0.0
 10
93.2049912961432
 20
-134.2577826270258
 30
0.0
 10
93.46096189069726
 20
-134.0590006175269
 30
0.0
 10
93.526418704917
 20
-133.9911322364675
 30
0.0
 10
93.526418704917
 20
-133.853672926606
 30
0.0
 10
93.526418704917
 20
-133.7351616419134
 30
0.0
 10
93.4544162092753
 20
-133.6039035039254
 30
0.0
 10
93.25770125706752
 20
-133.6039035039254
 30
0.0
 10
92.99759654793117
 20
-133.6039035039254
 30
0.0
 10
92.98932831876657
 20
-133.8347249014372
 30
0.0
 10
92.98484969463574
 20
-133.9508246192901
 30
0.0
 10
92.98484969463574
 20
-133.9508246192901
 30
0.0
 10
92.76057397854598
 20
-133.9508246192901
 30
0.0
 10
92.76057397854598
 20
-133.9508246192901
 30
0.0
 10
92.7691867172591
 20
-133.8240451054329
 30
0.0
 10
92.77986651326337
 20
-133.7120795021623
 30
0.0
 10
92.8601372380697
 20
-133.5935682174697
 30
0.0
 10
92.97003578404916
 20
-133.4326822583085
 30
0.0
 10
93.15641544980117
 20
-133.3989203225531
 30
0.0
 10
93.27251516765409
 20
-133.3989203225531
 30
0.0
 10
93.54984535421671
 20
-133.3989203225531
 30
0.0
 10
93.75724010242875
 20
-133.5828884214654
 30
0.0
 10
93.75724010242875
 20
-133.8557399838972
 30
0.0
 10
93.75724010242875
 20
-134.0841498145693
 30
0.0
 10
93.64079587502731
 20
-134.183713074093
 30
0.0
 10
93.33177081000039
 20
-134.4100558474739
 30
0.0
  0
HATCH
  5
72
330
6B
100
AcDbEntity
  8
_U+30EC_U+30A4_U+30E4_U+30FC 1
 62
   179
420
  2234388
100
AcDbHatch
 10
0.0
 20
0.0
 30
0.0
210
0.0
220
0.0
230
1.0
  2
SOLID
 70
     1
 71
     0
 91
        1
 92
        1
 93
        1
 72
     4
 94
        3
 73
     0
 74
     1
 95
       44
 96
       40
 40
0.0
 40
0.0
 40
0.0
 40
0.0
 40
1.0
 40
1.0
 40
1.0
 40
2.0
 40
2.0
 40
2.0
 40
3.0
 40
3.0
 40
3.0
 40
4.0
 40
4.0
 40
4.0
 40
5.0
 40
5.0
 40
5.0
 40
6.0
 40
6.0
 40
6.0
 40
7.0
 40
7.0
 40
7.0
 40
8.0
 40
8.0
 40
8.0
 40
9.0
 40
9.0
 40
9.0
 40
10.0
 40
10.0
 40
10.0
 40
11.0
 40
11.0
 40
11.0
 40
12.0
 40
12.0
 40
12.0
 40
13.0
 40
13.0
 40
13.0
 40
13.0
 10
93.33177081000039
 20
-134.4100558474739
 10
93.11404077533261
 20
-134.5685302397954
 10
93.02102319723086
 20
-134.6425997927282
 10
92.97210284134032
 20
-134.7866047840117
 10
92.97210284134032
 20
-134.7866047840117
 10
93.75069442100677
 20
-134.7866047840117
 10
93.75069442100677
 20
-134.7866047840117
 10
93.75069442100677
 20
-134.7866047840117
 10
93.75069442100677
 20
-134.9919324749326
 10
93.75069442100677
 20
-134.9919324749326
 10
93.75069442100677
 20
-134.9919324749326
 10
92.72267792820823
 20
-134.9919324749326
 10
92.72267792820823
 20
-134.9919324749326
 10
92.75437280667252
 20
-134.6343315635636
 10
92.81982962089226
 20
-134.5561278960485
 10
93.2049912961432
 20
-134.2577826270258
 10
93.46096189069726
 20
-134.0590006175269
 10
93.526418704917
 20
-133.9911322364675
 10
93.526418704917
 20
-133.853672926606
 10
93.526418704917
 20
-133.7351616419134
 10
93.4544162092753
 20
-133.6039035039254
 10
93.25770125706752
 20
-133.6039035039254
 10
92.99759654793117
 20
-133.6039035039254
 10
92.98932831876657
 20
-133.8347249014372
 10
92.98484969463574
 20
-133.9508246192901
 10
92.98484969463574
 20
-133.9508246192901
 10
92.76057397854598
 20
-133.9508246192901
 10
92.76057397854598
 20
-133.9508246192901
 10
92.7691867172591
 20
-133.8240451054329
 10
92.77986651326337
 20
-133.7120795021623
 10
92.8601372380697
 20
-133.5935682174697
 10
92.97003578404916
 20
-133.4326822583085
 10
93.15641544980117
 20
-133.3989203225531
 10
93.27251516765409
 20
-133.3989203225531
 10
93.54984535421671
 20
-133.3989203225531
 10
93.75724010242875
 20
-133.5828884214654
 10
93.75724010242875
 20
-133.8557399838972
 10
93.75724010242875
 20
-134.0841498145693
 10
93.64079587502731
 20
-134.183713074093
 10
93.33177081000039
 20
-134.4100558474739
 97
        0
 97
        0
 75
     2
 76
     1
 98
        0
  0
ENDBLK
  5
6E
330
6B
100
AcDbEntity
  8
0
100
AcDbBlockEnd
  0
BLOCK
  5
84
330
82
100
AcDbEntity
  8
0
100
AcDbBlockBegin
  2
block 3
 70
     0
 10
0.0
 20
0.0
 30
0.0
  3
block 3
  1

  0
SPLINE
  5
86
330
82
100
AcDbEntity
  8
_U+30EC_U+30A4_U+30E4_U+30FC 1
370
     0
100
AcDbSpline
210
0.0
220
0.0
230
1.0
 70
    11
 71
     3
 72
    26
 73
    22
 74
     0
 42
0.0000000001
 43
0.0000000001
 12
1.0
 22
0.0
 32
0.0
 13
1.0
 23
0.0
 33
0.0
 40
0.0
 40
0.0
 40
0.0
 40
0.0
 40
1.0
 40
1.0
 40
1.0
 40
2.0
 40
2.0
 40
2.0
 40
3.0
 40
3.0
 40
3.0
 40
4.0
 40
4.0
 40
4.0
 40
5.0
 40
5.0
 40
5.0
 40
6.0
 40
6.0
 40
6.0
 40
7.0
 40
7.0
 40
7.0
 40
7.0
 10
82.27800969080202
 20
-126.0014390418503
 30
0.0
 10
82.27800969080202
 20
-126.0014390418503
 30
0.0
 10
81.1736843330052
 20
-126.0014390418503
 30
0.0
 10
81.1736843330052
 20
-126.0014390418503
 30
0.0
 10
81.1736843330052
 20
-126.0014390418503
 30
0.0
 10
81.1736843330052
 20
-126.3314791893373
 30
0.0
 10
81.1736843330052
 20
-126.3314791893373
 30
0.0
 10
81.1736843330052
 20
-126.3314791893373
 30
0.0
 10
81.02571748191372
 20
-126.3314791893373
 30
0.0
 10
81.02571748191372
 20
-126.3314791893373
 30
0.0
 10
81.01090357132713
 20
-125.9993719845592
 30
0.0
 10
80.84795055487483
 20
-125.9526909407341
 30
0.0
 10
80.7337456395388
 20
-125.9232353743352
 30
0.0
 10
80.7337456395388
 20
-125.9232353743352
 30
0.0
 10
80.7337456395388
 20
-125.7771633257606
 30
0.0
 10
80.7337456395388
 20
-125.7771633257606
 30
0.0
 10
80.7337456395388
 20
-125.7771633257606
 30
0.0
 10
82.27800969080202
 20
-125.7771633257606
 30
0.0
 10
82.27800969080202
 20
-125.7771633257606
 30
0.0
 10
82.27800969080202
 20
-125.7771633257606
 30
0.0
 10
82.27800969080202
 20
-126.0014390418503
 30
0.0
 10
82.27800969080202
 20
-126.0014390418503
 30
0.0
  0
HATCH
  5
87
330
82
100
AcDbEntity
  8
_U+30EC_U+30A4_U+30E4_U+30FC 1
 62
   179
420
  2234388
100
AcDbHatch
 10
0.0
 20
0.0
 30
0.0
210
0.0
220
0.0
230
1.0
  2
SOLID
 70
     1
 71
     0
 91
        1
 92
        1
 93
        1
 72
     4
 94
        3
 73
     0
 74
     1
 95
       26
 96
       22
 40
0.0
 40
0.0
 40
0.0
 40
0.0
 40
1.0
 40
1.0
 40
1.0
 40
2.0
 40
2.0
 40
2.0
 40
3.0
 40
3.0
 40
3.0
 40
4.0
 40
4.0
 40
4.0
 40
5.0
 40
5.0
 40
5.0
 40
6.0
 40
6.0
 40
6.0
 40
7.0
 40
7.0
 40
7.0
 40
7.0
 10
82.27800969080202
 20
-126.0014390418503
 10
82.27800969080202
 20
-126.0014390418503
 10
81.1736843330052
 20
-126.0014390418503
 10
81.1736843330052
 20
-126.0014390418503
 10
81.1736843330052
 20
-126.0014390418503
 10
81.1736843330052
 20
-126.3314791893373
 10
81.1736843330052
 20
-126.3314791893373
 10
81.1736843330052
 20
-126.3314791893373
 10
81.02571748191372
 20
-126.3314791893373
 10
81.02571748191372
 20
-126.3314791893373
 10
81.01090357132713
 20
-125.9993719845592
 10
80.84795055487483
 20
-125.9526909407341
 10
80.7337456395388
 20
-125.9232353743352
 10
80.7337456395388
 20
-125.9232353743352
 10
80.7337456395388
 20
-125.7771633257606
 10
80.7337456395388
 20
-125.7771633257606
 10
80.7337456395388
 20
-125.7771633257606
 10
82.27800969080202
 20
-125.7771633257606
 10
82.27800969080202
 20
-125.7771633257606
 10
82.27800969080202
 20
-125.7771633257606
 10
82.27800969080202
 20
-126.0014390418503
 10
82.27800969080202
 20
-126.0014390418503
 97
        0
 97
        0
 75
     2
 76
     1
 98
        0
  0
SPLINE
  5
88
330
82
100
AcDbEntity
  8
_U+30EC_U+30A4_U+30E4_U+30FC 1
370
     0
100
AcDbSpline
210
0.0
220
0.0
230
1.0
 70
    11
 71
     3
 72
    44
 73
    40
 74
     0
 42
0.0000000001
 43
0.0000000001
 12
1.0
 22
0.0
 32
0.0
 13
1.0
 23
0.0
 33
0.0
 40
0.0
 40
0.0
 40
0.0
 40
0.0
 40
1.0
 40
1.0
 40
1.0
 40
2.0
 40
2.0
 40
2.0
 40
3.0
 40
3.0
 40
3.0
 40
4.0
 40
4.0
 40
4.0
 40
5.0
 40
5.0
 40
5.0
 40
6.0
 40
6.0
 40
6.0
 40
7.0
 40
7.0
 40
7.0
 40
8.0
 40
8.0
 40
8.0
 40
9.0
 40
9.0
 40
9.0
 40
10.0
 40
10.0
 40
10.0
 40
11.0
 40
11.0
 40
11.0
 40
12.0
 40
12.0
 40
12.0
 40
13.0
 40
13.0
 40
13.0
 40
13.0
 10
81.6963053181176
 20
-124.682828744871
 30
0.0
 10
81.85495196521335
 20
-124.900731034313
 30
0.0
 10
81.92902151814621
 20
-124.9937486124148
 30
0.0
 10
82.0728542546554
 20
-125.0424967135311
 30
0.0
 10
82.0728542546554
 20
-125.0424967135311
 30
0.0
 10
82.0728542546554
 20
-124.2639051338646
 30
0.0
 10
82.0728542546554
 20
-124.2639051338646
 30
0.0
 10
82.0728542546554
 20
-124.2639051338646
 30
0.0
 10
82.27800969080202
 20
-124.2639051338646
 30
0.0
 10
82.27800969080202
 20
-124.2639051338646
 30
0.0
 10
82.27800969080202
 20
-124.2639051338646
 30
0.0
 10
82.27800969080202
 20
-125.2920938814374
 30
0.0
 10
82.27800969080202
 20
-125.2920938814374
 30
0.0
 10
81.92058103420736
 20
-125.2603990029731
 30
0.0
 10
81.84220511191792
 20
-125.1947699339791
 30
0.0
 10
81.54403209766956
 20
-124.8097805135024
 30
0.0
 10
81.34507783339637
 20
-124.5538099189484
 30
0.0
 10
81.27738170711122
 20
-124.4881808499543
 30
0.0
 10
81.13992239724975
 20
-124.4881808499543
 30
0.0
 10
81.02141111255715
 20
-124.4881808499543
 30
0.0
 10
80.89032522934339
 20
-124.5601833455961
 30
0.0
 10
80.89032522934339
 20
-124.7568982978038
 30
0.0
 10
80.89032522934339
 20
-125.0170030069402
 30
0.0
 10
81.12080211730661
 20
-125.0256157456533
 30
0.0
 10
81.23724634470805
 20
-125.0297498602356
 30
0.0
 10
81.23724634470805
 20
-125.0297498602356
 30
0.0
 10
81.23724634470805
 20
-125.2540255763254
 30
0.0
 10
81.23724634470805
 20
-125.2540255763254
 30
0.0
 10
81.1102945760766
 20
-125.2455850923865
 30
0.0
 10
80.99815671803171
 20
-125.2349052963823
 30
0.0
 10
80.87964543333912
 20
-125.1546345715759
 30
0.0
 10
80.71893172895221
 20
-125.0445637708222
 30
0.0
 10
80.68499753842251
 20
-124.8583563598444
 30
0.0
 10
80.68499753842251
 20
-124.7420843872173
 30
0.0
 10
80.68499753842251
 20
-124.4649264554289
 30
0.0
 10
80.86913789210911
 20
-124.2575317072169
 30
0.0
 10
81.14198945454089
 20
-124.2575317072169
 30
0.0
 10
81.37057153998722
 20
-124.2575317072169
 30
0.0
 10
81.46996254473667
 20
-124.3739759346183
 30
0.0
 10
81.6963053181176
 20
-124.682828744871
 30
0.0
  0
HATCH
  5
89
330
82
100
AcDbEntity
  8
_U+30EC_U+30A4_U+30E4_U+30FC 1
 62
   179
420
  2234388
100
AcDbHatch
 10
0.0
 20
0.0
 30
0.0
210
0.0
220
0.0
230
1.0
  2
SOLID
 70
     1
 71
     0
 91
        1
 92
        1
 93
        1
 72
     4
 94
        3
 73
     0
 74
     1
 95
       44
 96
       40
 40
0.0
 40
0.0
 40
0.0
 40
0.0
 40
1.0
 40
1.0
 40
1.0
 40
2.0
 40
2.0
 40
2.0
 40
3.0
 40
3.0
 40
3.0
 40
4.0
 40
4.0
 40
4.0
 40
5.0
 40
5.0
 40
5.0
 40
6.0
 40
6.0
 40
6.0
 40
7.0
 40
7.0
 40
7.0
 40
8.0
 40
8.0
 40
8.0
 40
9.0
 40
9.0
 40
9.0
 40
10.0
 40
10.0
 40
10.0
 40
11.0
 40
11.0
 40
11.0
 40
12.0
 40
12.0
 40
12.0
 40
13.0
 40
13.0
 40
13.0
 40
13.0
 10
81.6963053181176
 20
-124.682828744871
 10
81.85495196521335
 20
-124.900731034313
 10
81.92902151814621
 20
-124.9937486124148
 10
82.0728542546554
 20
-125.0424967135311
 10
82.0728542546554
 20
-125.0424967135311
 10
82.0728542546554
 20
-124.2639051338646
 10
82.0728542546554
 20
-124.2639051338646
 10
82.0728542546554
 20
-124.2639051338646
 10
82.27800969080202
 20
-124.2639051338646
 10
82.27800969080202
 20
-124.2639051338646
 10
82.27800969080202
 20
-124.2639051338646
 10
82.27800969080202
 20
-125.2920938814374
 10
82.27800969080202
 20
-125.2920938814374
 10
81.92058103420736
 20
-125.2603990029731
 10
81.84220511191792
 20
-125.1947699339791
 10
81.54403209766956
 20
-124.8097805135024
 10
81.34507783339637
 20
-124.5538099189484
 10
81.27738170711122
 20
-124.4881808499543
 10
81.13992239724975
 20
-124.4881808499543
 10
81.02141111255715
 20
-124.4881808499543
 10
80.89032522934339
 20
-124.5601833455961
 10
80.89032522934339
 20
-124.7568982978038
 10
80.89032522934339
 20
-125.0170030069402
 10
81.12080211730661
 20
-125.0256157456533
 10
81.23724634470805
 20
-125.0297498602356
 10
81.23724634470805
 20
-125.0297498602356
 10
81.23724634470805
 20
-125.2540255763254
 10
81.23724634470805
 20
-125.2540255763254
 10
81.1102945760766
 20
-125.2455850923865
 10
80.99815671803171
 20
-125.2349052963823
 10
80.87964543333912
 20
-125.1546345715759
 10
80.71893172895221
 20
-125.0445637708222
 10
80.68499753842251
 20
-124.8583563598444
 10
80.68499753842251
 20
-124.7420843872173
 10
80.68499753842251
 20
-124.4649264554289
 10
80.86913789210911
 20
-124.2575317072169
 10
81.14198945454089
 20
-124.2575317072169
 10
81.37057153998722
 20
-124.2575317072169
 10
81.46996254473667
 20
-124.3739759346183
 10
81.6963053181176
 20
-124.682828744871
 97
        0
 97
        0
 75
     2
 76
     1
 98
        0
  0
ENDBLK
  5
85
330
82
100
AcDbEntity
  8
0
100
AcDbBlockEnd
  0
BLOCK
  5
9F
330
9D
100
AcDbEntity
  8
0
100
AcDbBlockBegin
  2
block 4
 70
     0
 10
0.0
 20
0.0
 30
0.0
  3
block 4
  1

  0
SPLINE
  5
A1
330
9D
100
AcDbEntity
  8
_U+30EC_U+30A4_U+30E4_U+30FC 1
370
     0
100
AcDbSpline
210
0.0
220
0.0
230
1.0
 70
    11
 71
     3
 72
    29
 73
    25
 74
     0
 42
0.0000000001
 43
0.0000000001
 12
1.0
 22
0.0
 32
0.0
 13
1.0
 23
0.0
 33
0.0
 40
0.0
 40
0.0
 40
0.0
 40
0.0
 40
1.0
 40
1.0
 40
1.0
 40
2.0
 40
2.0
 40
2.0
 40
3.0
 40
3.0
 40
3.0
 40
4.0
 40
4.0
 40
4.0
 40
5.0
 40
5.0
 40
5.0
 40
6.0
 40
6.0
 40
6.0
 40
7.0
 40
7.0
 40
7.0
 40
8.0
 40
8.0
 40
8.0
 40
8.0
 10
100.6894612378485
 20
-131.4393500105429
 30
0.0
 10
100.8989230433517
 20
-131.5471814992313
 30
0.0
 10
100.9178710685205
 20
-131.7208143116879
 30
0.0
 10
100.9178710685205
 20
-131.8372585390893
 30
0.0
 10
100.9178710685205
 20
-131.997799988702
 30
0.0
 10
100.8713622794697
 20
-132.1397379226943
 30
0.0
 10
100.6894612378485
 20
-132.2348225580871
 30
0.0
 10
100.4948133429319
 20
-132.3385199321932
 30
0.0
 10
100.2577907735467
 20
-132.357467957362
 30
0.0
 10
100.0948377570944
 20
-132.357467957362
 30
0.0
 10
99.95117727535943
 20
-132.357467957362
 30
0.0
 10
99.69934079538767
 20
-132.3405869894843
 30
0.0
 10
99.50055878588876
 20
-132.2348225580871
 30
0.0
 10
99.29729815225902
 20
-132.1269910693988
 30
0.0
 10
99.27421601250784
 20
-131.9661051102376
 30
0.0
 10
99.27421601250784
 20
-131.8372585390893
 30
0.0
 10
99.27421601250784
 20
-131.6784396372193
 30
0.0
 10
99.31865774426757
 20
-131.5344346459358
 30
0.0
 10
99.50055878588876
 20
-131.4393500105429
 30
0.0
 10
99.69313962351421
 20
-131.3401312605677
 30
0.0
 10
99.92154945418629
 20
-131.3167046112681
 30
0.0
 10
100.0948377570944
 20
-131.3167046112681
 30
0.0
 10
100.2664035122598
 20
-131.3167046112681
 30
0.0
 10
100.496880400223
 20
-131.3377196937281
 30
0.0
 10
100.6894612378485
 20
-131.4393500105429
 30
0.0
  0
SPLINE
  5
A2
330
9D
100
AcDbEntity
  8
_U+30EC_U+30A4_U+30E4_U+30FC 1
370
     0
100
AcDbSpline
210
0.0
220
0.0
230
1.0
 70
    11
 71
     3
 72
    17
 73
    13
 74
     0
 42
0.0000000001
 43
0.0000000001
 12
1.0
 22
0.0
 32
0.0
 13
1.0
 23
0.0
 33
0.0
 40
0.0
 40
0.0
 40
0.0
 40
0.0
 40
1.0
 40
1.0
 40
1.0
 40
2.0
 40
2.0
 40
2.0
 40
3.0
 40
3.0
 40
3.0
 40
4.0
 40
4.0
 40
4.0
 40
4.0
 10
99.4667968501333
 20
-131.8372585390893
 30
0.0
 10
99.4667968501333
 20
-132.0866834522214
 30
0.0
 10
99.74998369902085
 20
-132.1331922412723
 30
0.0
 10
100.0948377570944
 20
-132.1331922412723
 30
0.0
 10
100.414198108577
 20
-132.1331922412723
 30
0.0
 10
100.7232231736039
 20
-132.0973632482257
 30
0.0
 10
100.7232231736039
 20
-131.8372585390893
 30
0.0
 10
100.7232231736039
 20
-131.5895561736998
 30
0.0
 10
100.441758872459
 20
-131.5409803273578
 30
0.0
 10
100.0948377570944
 20
-131.5409803273578
 30
0.0
 10
99.7754774056117
 20
-131.5409803273578
 30
0.0
 10
99.4667968501333
 20
-131.5788763776956
 30
0.0
 10
99.4667968501333
 20
-131.8372585390893
 30
0.0
  0
HATCH
  5
A3
330
9D
100
AcDbEntity
  8
_U+30EC_U+30A4_U+30E4_U+30FC 1
 62
   179
420
  2234388
100
AcDbHatch
 10
0.0
 20
0.0
 30
0.0
210
0.0
220
0.0
230
1.0
  2
SOLID
 70
     1
 71
     0
 91
        2
 92
        1
 93
        1
 72
     4
 94
        3
 73
     0
 74
     1
 95
       29
 96
       25
 40
0.0
 40
0.0
 40
0.0
 40
0.0
 40
1.0
 40
1.0
 40
1.0
 40
2.0
 40
2.0
 40
2.0
 40
3.0
 40
3.0
 40
3.0
 40
4.0
 40
4.0
 40
4.0
 40
5.0
 40
5.0
 40
5.0
 40
6.0
 40
6.0
 40
6.0
 40
7.0
 40
7.0
 40
7.0
 40
8.0
 40
8.0
 40
8.0
 40
8.0
 10
100.6894612378485
 20
-131.4393500105429
 10
100.8989230433517
 20
-131.5471814992313
 10
100.9178710685205
 20
-131.7208143116879
 10
100.9178710685205
 20
-131.8372585390893
 10
100.9178710685205
 20
-131.997799988702
 10
100.8713622794697
 20
-132.1397379226943
 10
100.6894612378485
 20
-132.2348225580871
 10
100.4948133429319
 20
-132.3385199321932
 10
100.2577907735467
 20
-132.357467957362
 10
100.0948377570944
 20
-132.357467957362
 10
99.95117727535943
 20
-132.357467957362
 10
99.69934079538767
 20
-132.3405869894843
 10
99.50055878588876
 20
-132.2348225580871
 10
99.29729815225902
 20
-132.1269910693988
 10
99.27421601250784
 20
-131.9661051102376
 10
99.27421601250784
 20
-131.8372585390893
 10
99.27421601250784
 20
-131.6784396372193
 10
99.31865774426757
 20
-131.5344346459358
 10
99.50055878588876
 20
-131.4393500105429
 10
99.69313962351421
 20
-131.3401312605677
 10
99.92154945418629
 20
-131.3167046112681
 10
100.0948377570944
 20
-131.3167046112681
 10
100.2664035122598
 20
-131.3167046112681
 10
100.496880400223
 20
-131.3377196937281
 10
100.6894612378485
 20
-131.4393500105429
 97
        0
 97
        0
 92
        1
 93
        1
 72
     4
 94
        3
 73
     0
 74
     1
 95
       17
 96
       13
 40
0.0
 40
0.0
 40
0.0
 40
0.0
 40
1.0
 40
1.0
 40
1.0
 40
2.0
 40
2.0
 40
2.0
 40
3.0
 40
3.0
 40
3.0
 40
4.0
 40
4.0
 40
4.0
 40
4.0
 10
99.4667968501333
 20
-131.8372585390893
 10
99.4667968501333
 20
-132.0866834522214
 10
99.74998369902085
 20
-132.1331922412723
 10
100.0948377570944
 20
-132.1331922412723
 10
100.414198108577
 20
-132.1331922412723
 10
100.7232231736039
 20
-132.0973632482257
 10
100.7232231736039
 20
-131.8372585390893
 10
100.7232231736039
 20
-131.5895561736998
 10
100.441758872459
 20
-131.5409803273578
 10
100.0948377570944
 20
-131.5409803273578
 10
99.7754774056117
 20
-131.5409803273578
 10
99.4667968501333
 20
-131.5788763776956
 10
99.4667968501333
 20
-131.8372585390893
 97
        0
 97
        0
 75
     2
 76
     1
 98
        0
  0
POLYLINE
  5
A4
330
9D
100
AcDbEntity
  8
_U+30EC_U+30A4_U+30E4_U+30FC 1
370
     0
100
AcDb2dPolyline
 66
     1
 10
0.0
 20
0.0
 30
0.0
  0
VERTEX
  5
A5
330
A4
100
AcDbEntity
  8
_U+30EC_U+30A4_U+30E4_U+30FC 1
370
     0
100
AcDbVertex
100
AcDb2dVertex
 10
100.8672281648874
 20
-131.1003526147944
 30
0.0
  0
VERTEX
  5
A6
330
A4
100
AcDbEntity
  8
_U+30EC_U+30A4_U+30E4_U+30FC 1
370
     0
100
AcDbVertex
100
AcDb2dVertex
 10
100.6153916849156
 20
-131.1003526147944
 30
0.0
  0
VERTEX
  5
A7
330
A4
100
AcDbEntity
  8
_U+30EC_U+30A4_U+30E4_U+30FC 1
370
     0
100
AcDbVertex
100
AcDb2dVertex
 10
100.6153916849156
 20
-130.8485161348226
 30
0.0
  0
VERTEX
  5
A8
330
A4
100
AcDbEntity
  8
_U+30EC_U+30A4_U+30E4_U+30FC 1
370
     0
100
AcDbVertex
100
AcDb2dVertex
 10
100.8672281648874
 20
-130.8485161348226
 30
0.0
  0
VERTEX
  5
A9
330
A4
100
AcDbEntity
  8
_U+30EC_U+30A4_U+30E4_U+30FC 1
370
     0
100
AcDbVertex
100
AcDb2dVertex
 10
100.8672281648874
 20
-131.1003526147944
 30
0.0
  0
SEQEND
  5
AA
330
A4
100
AcDbEntity
  8
_U+30EC_U+30A4_U+30E4_U+30FC 1
370
     0
  0
HATCH
  5
AB
330
9D
100
AcDbEntity
  8
_U+30EC_U+30A4_U+30E4_U+30FC 1
 62
   179
420
  2234388
100
AcDbHatch
 10
0.0
 20
0.0
 30
0.0
210
0.0
220
0.0
230
1.0
  2
SOLID
 70
     1
 71
     0
 91
        1
 92
        1
 93
        4
 72
     1
 10
100.8672281648874
 20
-131.1003526147944
 11
100.6153916849156
 21
-131.1003526147944
 72
     1
 10
100.6153916849156
 20
-131.1003526147944
 11
100.6153916849156
 21
-130.8485161348226
 72
     1
 10
100.6153916849156
 20
-130.8485161348226
 11
100.8672281648874
 21
-130.8485161348226
 72
     1
 10
100.8672281648874
 20
-130.8485161348226
 11
100.8672281648874
 21
-131.1003526147944
 97
        0
 75
     2
 76
     1
 98
        0
  0
SPLINE
  5
AC
330
9D
100
AcDbEntity
  8
_U+30EC_U+30A4_U+30E4_U+30FC 1
370
     0
100
AcDbSpline
210
0.0
220
0.0
230
1.0
 70
    11
 71
     3
 72
    29
 73
    25
 74
     0
 42
0.0000000001
 43
0.0000000001
 12
1.0
 22
0.0
 32
0.0
 13
1.0
 23
0.0
 33
0.0
 40
0.0
 40
0.0
 40
0.0
 40
0.0
 40
1.0
 40
1.0
 40
1.0
 40
2.0
 40
2.0
 40
2.0
 40
3.0
 40
3.0
 40
3.0
 40
4.0
 40
4.0
 40
4.0
 40
5.0
 40
5.0
 40
5.0
 40
6.0
 40
6.0
 40
6.0
 40
7.0
 40
7.0
 40
7.0
 40
8.0
 40
8.0
 40
8.0
 40
8.0
 10
100.9178710685205
 20
-130.1119547200762
 30
0.0
 10
100.9178710685205
 20
-130.3786051106345
 30
0.0
 10
100.7804117586591
 20
-130.6325086478974
 30
0.0
 10
100.4314235860033
 20
-130.6325086478974
 30
0.0
 10
100.1754529914492
 20
-130.6325086478974
 30
0.0
 10
100.0800238465078
 20
-130.4905707139051
 30
0.0
 10
100.0187011468703
 20
-130.384806282508
 30
0.0
 10
99.95944550452403
 20
-130.5098632486225
 30
0.0
 10
99.84541284396227
 20
-130.5859998588465
 30
0.0
 10
99.6845268848011
 20
-130.5859998588465
 30
0.0
 10
99.40960826507816
 20
-130.5859998588465
 30
0.0
 10
99.27421601250784
 20
-130.3872178493476
 30
0.0
 10
99.27421601250784
 20
-130.1119547200762
 30
0.0
 10
99.27421601250784
 20
-129.8284233616401
 30
0.0
 10
99.41787649424276
 20
-129.6382540908543
 30
0.0
 10
99.6845268848011
 20
-129.6382540908543
 30
0.0
 10
99.84541284396227
 20
-129.6382540908543
 30
0.0
 10
99.95944550452403
 20
-129.7164577583695
 30
0.0
 10
100.0187011468703
 20
-129.8411702149355
 30
0.0
 10
100.069688560052
 20
-129.7522867514161
 30
0.0
 10
100.1647731954449
 20
-129.5938123590946
 30
0.0
 10
100.4269449618724
 20
-129.5938123590946
 30
0.0
 10
100.8014268411191
 20
-129.5938123590946
 30
0.0
 10
100.9178710685205
 20
-129.8728650933998
 30
0.0
 10
100.9178710685205
 20
-130.1119547200762
 30
0.0
  0
SPLINE
  5
AD
330
9D
100
AcDbEntity
  8
_U+30EC_U+30A4_U+30E4_U+30FC 1
370
     0
100
AcDbSpline
210
0.0
220
0.0
230
1.0
 70
    11
 71
     3
 72
    17
 73
    13
 74
     0
 42
0.0000000001
 43
0.0000000001
 12
1.0
 22
0.0
 32
0.0
 13
1.0
 23
0.0
 33
0.0
 40
0.0
 40
0.0
 40
0.0
 40
0.0
 40
1.0
 40
1.0
 40
1.0
 40
2.0
 40
2.0
 40
2.0
 40
3.0
 40
3.0
 40
3.0
 40
4.0
 40
4.0
 40
4.0
 40
4.0
 10
99.4667968501333
 20
-130.1119547200762
 30
0.0
 10
99.4667968501333
 20
-130.2769747938196
 30
0.0
 10
99.5618814855262
 20
-130.3617241427568
 30
0.0
 10
99.69727373809651
 20
-130.3617241427568
 30
0.0
 10
99.81991913737141
 20
-130.3617241427568
 30
0.0
 10
99.938430422064
 20
-130.2897216471151
 30
0.0
 10
99.938430422064
 20
-130.1119547200762
 30
0.0
 10
99.938430422064
 20
-129.9341877930373
 30
0.0
 10
99.81991913737141
 20
-129.8625298069441
 30
0.0
 10
99.69727373809651
 20
-129.8625298069441
 30
0.0
 10
99.5618814855262
 20
-129.8625298069441
 30
0.0
 10
99.4667968501333
 20
-129.9490017036239
 30
0.0
 10
99.4667968501333
 20
-130.1119547200762
 30
0.0
  0
SPLINE
  5
AE
330
9D
100
AcDbEntity
  8
_U+30EC_U+30A4_U+30E4_U+30FC 1
370
     0
100
AcDbSpline
210
0.0
220
0.0
230
1.0
 70
    11
 71
     3
 72
    17
 73
    13
 74
     0
 42
0.0000000001
 43
0.0000000001
 12
1.0
 22
0.0
 32
0.0
 13
1.0
 23
0.0
 33
0.0
 40
0.0
 40
0.0
 40
0.0
 40
0.0
 40
1.0
 40
1.0
 40
1.0
 40
2.0
 40
2.0
 40
2.0
 40
3.0
 40
3.0
 40
3.0
 40
4.0
 40
4.0
 40
4.0
 40
4.0
 10
100.1265326355586
 20
-130.1119547200762
 30
0.0
 10
100.1265326355586
 20
-130.2559597113596
 30
0.0
 10
100.2133490417869
 20
-130.4082329318077
 30
0.0
 10
100.4166096754167
 20
-130.4082329318077
 30
0.0
 10
100.6215928567891
 20
-130.4082329318077
 30
0.0
 10
100.7232231736039
 20
-130.2814534179505
 30
0.0
 10
100.7232231736039
 20
-130.1119547200762
 30
0.0
 10
100.7232231736039
 20
-129.9259195638727
 30
0.0
 10
100.600577774329
 20
-129.8160210178932
 30
0.0
 10
100.4228108472901
 20
-129.8160210178932
 30
0.0
 10
100.2006021884915
 20
-129.8160210178932
 30
0.0
 10
100.1265326355586
 20
-129.978629524797
 30
0.0
 10
100.1265326355586
 20
-130.1119547200762
 30
0.0
  0
HATCH
  5
AF
330
9D
100
AcDbEntity
  8
_U+30EC_U+30A4_U+30E4_U+30FC 1
 62
   179
420
  2234388
100
AcDbHatch
 10
0.0
 20
0.0
 30
0.0
210
0.0
220
0.0
230
1.0
  2
SOLID
 70
     1
 71
     0
 91
        3
 92
        1
 93
        1
 72
     4
 94
        3
 73
     0
 74
     1
 95
       29
 96
       25
 40
0.0
 40
0.0
 40
0.0
 40
0.0
 40
1.0
 40
1.0
 40
1.0
 40
2.0
 40
2.0
 40
2.0
 40
3.0
 40
3.0
 40
3.0
 40
4.0
 40
4.0
 40
4.0
 40
5.0
 40
5.0
 40
5.0
 40
6.0
 40
6.0
 40
6.0
 40
7.0
 40
7.0
 40
7.0
 40
8.0
 40
8.0
 40
8.0
 40
8.0
 10
100.9178710685205
 20
-130.1119547200762
 10
100.9178710685205
 20
-130.3786051106345
 10
100.7804117586591
 20
-130.6325086478974
 10
100.4314235860033
 20
-130.6325086478974
 10
100.1754529914492
 20
-130.6325086478974
 10
100.0800238465078
 20
-130.4905707139051
 10
100.0187011468703
 20
-130.384806282508
 10
99.95944550452403
 20
-130.5098632486225
 10
99.84541284396227
 20
-130.5859998588465
 10
99.6845268848011
 20
-130.5859998588465
 10
99.40960826507816
 20
-130.5859998588465
 10
99.27421601250784
 20
-130.3872178493476
 10
99.27421601250784
 20
-130.1119547200762
 10
99.27421601250784
 20
-129.8284233616401
 10
99.41787649424276
 20
-129.6382540908543
 10
99.6845268848011
 20
-129.6382540908543
 10
99.84541284396227
 20
-129.6382540908543
 10
99.95944550452403
 20
-129.7164577583695
 10
100.0187011468703
 20
-129.8411702149355
 10
100.069688560052
 20
-129.7522867514161
 10
100.1647731954449
 20
-129.5938123590946
 10
100.4269449618724
 20
-129.5938123590946
 10
100.8014268411191
 20
-129.5938123590946
 10
100.9178710685205
 20
-129.8728650933998
 10
100.9178710685205
 20
-130.1119547200762
 97
        0
 97
        0
 92
        1
 93
        1
 72
     4
 94
        3
 73
     0
 74
     1
 95
       17
 96
       13
 40
0.0
 40
0.0
 40
0.0
 40
0.0
 40
1.0
 40
1.0
 40
1.0
 40
2.0
 40
2.0
 40
2.0
 40
3.0
 40
3.0
 40
3.0
 40
4.0
 40
4.0
 40
4.0
 40
4.0
 10
99.4667968501333
 20
-130.1119547200762
 10
99.4667968501333
 20
-130.2769747938196
 10
99.5618814855262
 20
-130.3617241427568
 10
99.69727373809651
 20
-130.3617241427568
 10
99.81991913737141
 20
-130.3617241427568
 10
99.938430422064
 20
-130.2897216471151
 10
99.938430422064
 20
-130.1119547200762
 10
99.938430422064
 20
-129.9341877930373
 10
99.81991913737141
 20
-129.8625298069441
 10
99.69727373809651
 20
-129.8625298069441
 10
99.5618814855262
 20
-129.8625298069441
 10
99.4667968501333
 20
-129.9490017036239
 10
99.4667968501333
 20
-130.1119547200762
 97
        0
 97
        0
 92
        1
 93
        1
 72
     4
 94
        3
 73
     0
 74
     1
 95
       17
 96
       13
 40
0.0
 40
0.0
 40
0.0
 40
0.0
 40
1.0
 40
1.0
 40
1.0
 40
2.0
 40
2.0
 40
2.0
 40
3.0
 40
3.0
 40
3.0
 40
4.0
 40
4.0
 40
4.0
 40
4.0
 10
100.1265326355586
 20
-130.1119547200762
 10
100.1265326355586
 20
-130.2559597113596
 10
100.2133490417869
 20
-130.4082329318077
 10
100.4166096754167
 20
-130.4082329318077
 10
100.6215928567891
 20
-130.4082329318077
 10
100.7232231736039
 20
-130.2814534179505
 10
100.7232231736039
 20
-130.1119547200762
 10
100.7232231736039
 20
-129.9259195638727
 10
100.600577774329
 20
-129.8160210178932
 10
100.4228108472901
 20
-129.8160210178932
 10
100.2006021884915
 20
-129.8160210178932
 10
100.1265326355586
 20
-129.978629524797
 10
100.1265326355586
 20
-130.1119547200762
 97
        0
 97
        0
 75
     2
 76
     1
 98
        0
  0
ENDBLK
  5
A0
330
9D
100
AcDbEntity
  8
0
100
AcDbBlockEnd
  0
ENDSEC
  0
SECTION
  2
ENTITIES
  0
POLYLINE
  5
41
330
1F
100
AcDbEntity
  8
_U+30EC_U+30A4_U+30E4_U+30FC 1
 62
   179
420
  2234388
370
    25
100
AcDb2dPolyline
 66
     1
 10
0.0
 20
0.0
 30
0.0
  0
VERTEX
  5
42
330
41
100
AcDbEntity
  8
_U+30EC_U+30A4_U+30E4_U+30FC 1
 62
   179
420
  2234388
370
    25
100
AcDbVertex
100
AcDb2dVertex
 10
86.65068886722615
 20
-131.3642491338257
 30
0.0
  0
VERTEX
  5
43
330
41
100
AcDbEntity
  8
_U+30EC_U+30A4_U+30E4_U+30FC 1
 62
   179
420
  2234388
370
    25
100
AcDbVertex
100
AcDb2dVertex
 10
98.65063414987931
 20
-131.3642491338257
 30
0.0
  0
SEQEND
  5
44
330
41
100
AcDbEntity
  8
_U+30EC_U+30A4_U+30E4_U+30FC 1
 62
   179
420
  2234388
370
    25
  0
POLYLINE
  5
45
330
1F
100
AcDbEntity
  8
_U+30EC_U+30A4_U+30E4_U+30FC 1
 62
   179
420
  2234388
370
    25
100
AcDb2dPolyline
 66
     1
 10
0.0
 20
0.0
 30
0.0
  0
VERTEX
  5
46
330
45
100
AcDbEntity
  8
_U+30EC_U+30A4_U+30E4_U+30FC 1
 62
   179
420
  2234388
370
    25
100
AcDbVertex
100
AcDb2dVertex
 10
86.65068886722615
 20
-119.3641249701588
 30
0.0
  0
VERTEX
  5
47
330
45
100
AcDbEntity
  8
_U+30EC_U+30A4_U+30E4_U+30FC 1
 62
   179
420
  2234388
370
    25
100
AcDbVertex
100
AcDb2dVertex
 10
86.65068886722615
 20
-131.3642491338257
 30
0.0
  0
SEQEND
  5
48
330
45
100
AcDbEntity
  8
_U+30EC_U+30A4_U+30E4_U+30FC 1
 62
   179
420
  2234388
370
    25
  0
POLYLINE
  5
49
330
1F
100
AcDbEntity
  8
_U+30EC_U+30A4_U+30E4_U+30FC 1
 62
   179
420
  2234388
370
    25
100
AcDb2dPolyline
 66
     1
 10
0.0
 20
0.0
 30
0.0
  0
VERTEX
  5
4A
330
49
100
AcDbEntity
  8
_U+30EC_U+30A4_U+30E4_U+30FC 1
 62
   179
420
  2234388
370
    25
100
AcDbVertex
100
AcDb2dVertex
 10
87.45064554672594
 20
-119.3641249701588
 30
0.0
  0
VERTEX
  5
4B
330
49
100
AcDbEntity
  8
_U+30EC_U+30A4_U+30E4_U+30FC 1
 62
   179
420
  2234388
370
    25
100
AcDbVertex
100
AcDb2dVertex
 10
87.45064554672594
 20
-130.5642902451364
 30
0.0
  0
SEQEND
  5
4C
330
49
100
AcDbEntity
  8
_U+30EC_U+30A4_U+30E4_U+30FC 1
 62
   179
420
  2234388
370
    25
  0
POLYLINE
  5
4D
330
1F
100
AcDbEntity
  8
_U+30EC_U+30A4_U+30E4_U+30FC 1
 62
   179
420
  2234388
370
    25
100
AcDb2dPolyline
 66
     1
 10
0.0
 20
0.0
 30
0.0
  0
VERTEX
  5
4E
330
4D
100
AcDbEntity
  8
_U+30EC_U+30A4_U+30E4_U+30FC 1
 62
   179
420
  2234388
370
    25
100
AcDbVertex
100
AcDb2dVertex
 10
87.45064554672594
 20
-130.5642902451364
 30
0.0
  0
VERTEX
  5
4F
330
4D
100
AcDbEntity
  8
_U+30EC_U+30A4_U+30E4_U+30FC 1
 62
   179
420
  2234388
370
    25
100
AcDbVertex
100
AcDb2dVertex
 10
98.65063414987931
 20
-130.5642902451364
 30
0.0
  0
SEQEND
  5
50
330
4D
100
AcDbEntity
  8
_U+30EC_U+30A4_U+30E4_U+30FC 1
 62
   179
420
  2234388
370
    25
  0
POLYLINE
  5
51
330
1F
100
AcDbEntity
  8
_U+30EC_U+30A4_U+30E4_U+30FC 1
 62
   179
420
  2234388
370
    25
100
AcDb2dPolyline
 66
     1
 10
0.0
 20
0.0
 30
0.0
  0
VERTEX
  5
52
330
51
100
AcDbEntity
  8
_U+30EC_U+30A4_U+30E4_U+30FC 1
 62
   179
420
  2234388
370
    25
100
AcDbVertex
100
AcDb2dVertex
 10
86.65068886722615
 20
-119.3641249701588
 30
0.0
  0
VERTEX
  5
53
330
51
100
AcDbEntity
  8
_U+30EC_U+30A4_U+30E4_U+30FC 1
 62
   179
420
  2234388
370
    25
100
AcDbVertex
100
AcDb2dVertex
 10
87.45064554672594
 20
-119.3641249701588
 30
0.0
  0
SEQEND
  5
54
330
51
100
AcDbEntity
  8
_U+30EC_U+30A4_U+30E4_U+30FC 1
 62
   179
420
  2234388
370
    25
  0
POLYLINE
  5
55
330
1F
100
AcDbEntity
  8
_U+30EC_U+30A4_U+30E4_U+30FC 1
 62
   179
420
  2234388
370
    25
100
AcDb2dPolyline
 66
     1
 10
0.0
 20
0.0
 30
0.0
  0
VERTEX
  5
56
330
55
100
AcDbEntity
  8
_U+30EC_U+30A4_U+30E4_U+30FC 1
 62
   179
420
  2234388
370
    25
100
AcDbVertex
100
AcDb2dVertex
 10
98.65063414987931
 20
-130.5642902451364
 30
0.0
  0
VERTEX
  5
57
330
55
100
AcDbEntity
  8
_U+30EC_U+30A4_U+30E4_U+30FC 1
 62
   179
420
  2234388
370
    25
100
AcDbVertex
100
AcDb2dVertex
 10
98.65063414987931
 20
-131.3642491338257
 30
0.0
  0
SEQEND
  5
58
330
55
100
AcDbEntity
  8
_U+30EC_U+30A4_U+30E4_U+30FC 1
 62
   179
420
  2234388
370
    25
  0
SPLINE
  5
59
330
1F
100
AcDbEntity
  8
_U+30EC_U+30A4_U+30E4_U+30FC 1
 62
   179
420
  2234388
370
     9
100
AcDbSpline
210
0.0
220
0.0
230
1.0
 70
    11
 71
     3
 72
    17
 73
    13
 74
     0
 42
0.0000000001
 43
0.0000000001
 12
1.0
 22
0.0
 32
0.0
 13
1.0
 23
0.0
 33
0.0
 40
0.0
 40
0.0
 40
0.0
 40
0.0
 40
1.0
 40
1.0
 40
1.0
 40
2.0
 40
2.0
 40
2.0
 40
3.0
 40
3.0
 40
3.0
 40
4.0
 40
4.0
 40
4.0
 40
4.0
 10
102.7506526563902
 20
-131.3642491338257
 30
0.0
 10
102.7506526563902
 20
-131.3091099671726
 30
0.0
 10
102.7058851575324
 20
-131.2643424671841
 30
0.0
 10
102.6503932145036
 20
-131.2643424671841
 30
0.0
 10
102.5952893270206
 20
-131.2643424671841
 30
0.0
 10
102.5504865503858
 20
-131.3091099671726
 30
0.0
 10
102.5504865503858
 20
-131.3642491338257
 30
0.0
 10
102.5504865503858
 20
-131.4193530227006
 30
0.0
 10
102.5952893270206
 20
-131.4641558004674
 30
0.0
 10
102.6503932145036
 20
-131.4641558004674
 30
0.0
 10
102.7058851575324
 20
-131.4641558004674
 30
0.0
 10
102.7506526563902
 20
-131.4193530227006
 30
0.0
 10
102.7506526563902
 20
-131.3642491338257
 30
0.0
  0
SPLINE
  5
5A
330
1F
100
AcDbEntity
  8
_U+30EC_U+30A4_U+30E4_U+30FC 1
 62
   179
420
  2234388
370
     9
100
AcDbSpline
210
0.0
220
0.0
230
1.0
 70
    11
 71
     3
 72
    17
 73
    13
 74
     0
 42
0.0000000001
 43
0.0000000001
 12
1.0
 22
0.0
 32
0.0
 13
1.0
 23
0.0
 33
0.0
 40
0.0
 40
0.0
 40
0.0
 40
0.0
 40
1.0
 40
1.0
 40
1.0
 40
2.0
 40
2.0
 40
2.0
 40
3.0
 40
3.0
 40
3.0
 40
4.0
 40
4.0
 40
4.0
 40
4.0
 10
102.7506526563902
 20
-130.5642902451364
 30
0.0
 10
102.7506526563902
 20
-130.5091863562615
 30
0.0
 10
102.7058851575324
 20
-130.4643835784948
 30
0.0
 10
102.6503932145036
 20
-130.4643835784948
 30
0.0
 10
102.5952893270206
 20
-130.4643835784948
 30
0.0
 10
102.5504865503858
 20
-130.5091863562615
 30
0.0
 10
102.5504865503858
 20
-130.5642902451364
 30
0.0
 10
102.5504865503858
 20
-130.6194294117895
 30
0.0
 10
102.5952893270206
 20
-130.6641969117781
 30
0.0
 10
102.6503932145036
 20
-130.6641969117781
 30
0.0
 10
102.7058851575324
 20
-130.6641969117781
 30
0.0
 10
102.7506526563902
 20
-130.6194294117895
 30
0.0
 10
102.7506526563902
 20
-130.5642902451364
 30
0.0
  0
SPLINE
  5
5B
330
1F
100
AcDbEntity
  8
_U+30EC_U+30A4_U+30E4_U+30FC 1
 62
   179
420
  2234388
370
     9
100
AcDbSpline
210
0.0
220
0.0
230
1.0
 70
    11
 71
     3
 72
    17
 73
    13
 74
     0
 42
0.0000000001
 43
0.0000000001
 12
1.0
 22
0.0
 32
0.0
 13
1.0
 23
0.0
 33
0.0
 40
0.0
 40
0.0
 40
0.0
 40
0.0
 40
1.0
 40
1.0
 40
1.0
 40
2.0
 40
2.0
 40
2.0
 40
3.0
 40
3.0
 40
3.0
 40
4.0
 40
4.0
 40
4.0
 40
4.0
 10
98.75057609177402
 20
-135.3640082994926
 30
0.0
 10
98.75057609177402
 20
-135.3088691328395
 30
0.0
 10
98.70577331513927
 20
-135.264101632851
 30
0.0
 10
98.65063414987931
 20
-135.264101632851
 30
0.0
 10
98.59553026239624
 20
-135.264101632851
 30
0.0
 10
98.55072748576148
 20
-135.3088691328395
 30
0.0
 10
98.55072748576148
 20
-135.3640082994926
 30
0.0
 10
98.55072748576148
 20
-135.419817743923
 30
0.0
 10
98.59553026239624
 20
-135.4645852439116
 30
0.0
 10
98.65063414987931
 20
-135.4645852439116
 30
0.0
 10
98.70577331513927
 20
-135.4645852439116
 30
0.0
 10
98.75057609177402
 20
-135.419817743923
 30
0.0
 10
98.75057609177402
 20
-135.3640082994926
 30
0.0
  0
SPLINE
  5
5C
330
1F
100
AcDbEntity
  8
_U+30EC_U+30A4_U+30E4_U+30FC 1
 62
   179
420
  2234388
370
     9
100
AcDbSpline
210
0.0
220
0.0
230
1.0
 70
    11
 71
     3
 72
    17
 73
    13
 74
     0
 42
0.0000000001
 43
0.0000000001
 12
1.0
 22
0.0
 32
0.0
 13
1.0
 23
0.0
 33
0.0
 40
0.0
 40
0.0
 40
0.0
 40
0.0
 40
1.0
 40
1.0
 40
1.0
 40
2.0
 40
2.0
 40
2.0
 40
3.0
 40
3.0
 40
3.0
 40
4.0
 40
4.0
 40
4.0
 40
4.0
 10
86.75059334236353
 20
-135.3640082994926
 30
0.0
 10
86.75059334236353
 20
-135.3088691328395
 30
0.0
 10
86.70582584350565
 20
-135.264101632851
 30
0.0
 10
86.65068886722615
 20
-135.264101632851
 30
0.0
 10
86.59558279076263
 20
-135.264101632851
 30
0.0
 10
86.55078001412787
 20
-135.3088691328395
 30
0.0
 10
86.55078001412787
 20
-135.3640082994926
 30
0.0
 10
86.55078001412787
 20
-135.419817743923
 30
0.0
 10
86.59558279076263
 20
-135.4645852439116
 30
0.0
 10
86.65068886722615
 20
-135.4645852439116
 30
0.0
 10
86.70582584350565
 20
-135.4645852439116
 30
0.0
 10
86.75059334236353
 20
-135.419817743923
 30
0.0
 10
86.75059334236353
 20
-135.3640082994926
 30
0.0
  0
SPLINE
  5
5D
330
1F
100
AcDbEntity
  8
_U+30EC_U+30A4_U+30E4_U+30FC 1
 62
   179
420
  2234388
370
     9
100
AcDbSpline
210
0.0
220
0.0
230
1.0
 70
    11
 71
     3
 72
    17
 73
    13
 74
     0
 42
0.0000000001
 43
0.0000000001
 12
1.0
 22
0.0
 32
0.0
 13
1.0
 23
0.0
 33
0.0
 40
0.0
 40
0.0
 40
0.0
 40
0.0
 40
1.0
 40
1.0
 40
1.0
 40
2.0
 40
2.0
 40
2.0
 40
3.0
 40
3.0
 40
3.0
 40
4.0
 40
4.0
 40
4.0
 40
4.0
 10
82.75083427773923
 20
-131.3642491338257
 30
0.0
 10
82.75083427773923
 20
-131.3091099671726
 30
0.0
 10
82.70606677888134
 20
-131.2643424671841
 30
0.0
 10
82.65061011362948
 20
-131.2643424671841
 30
0.0
 10
82.59547094836954
 20
-131.2643424671841
 30
0.0
 10
82.55070553491802
 20
-131.3091099671726
 30
0.0
 10
82.55070553491802
 20
-131.3642491338257
 30
0.0
 10
82.55070553491802
 20
-131.4193530227006
 30
0.0
 10
82.59547094836954
 20
-131.4641558004674
 30
0.0
 10
82.65061011362948
 20
-131.4641558004674
 30
0.0
 10
82.70606677888134
 20
-131.4641558004674
 30
0.0
 10
82.75083427773923
 20
-131.4193530227006
 30
0.0
 10
82.75083427773923
 20
-131.3642491338257
 30
0.0
  0
SPLINE
  5
5E
330
1F
100
AcDbEntity
  8
_U+30EC_U+30A4_U+30E4_U+30FC 1
 62
   179
420
  2234388
370
     9
100
AcDbSpline
210
0.0
220
0.0
230
1.0
 70
    11
 71
     3
 72
    17
 73
    13
 74
     0
 42
0.0000000001
 43
0.0000000001
 12
1.0
 22
0.0
 32
0.0
 13
1.0
 23
0.0
 33
0.0
 40
0.0
 40
0.0
 40
0.0
 40
0.0
 40
1.0
 40
1.0
 40
1.0
 40
2.0
 40
2.0
 40
2.0
 40
3.0
 40
3.0
 40
3.0
 40
4.0
 40
4.0
 40
4.0
 40
4.0
 10
82.75083427773923
 20
-119.3641249701588
 30
0.0
 10
82.75083427773923
 20
-119.3089858035061
 30
0.0
 10
82.70606677888134
 20
-119.2642183035172
 30
0.0
 10
82.65061011362948
 20
-119.2642183035172
 30
0.0
 10
82.59547094836954
 20
-119.2642183035172
 30
0.0
 10
82.55070553491802
 20
-119.3089858035061
 30
0.0
 10
82.55070553491802
 20
-119.3641249701588
 30
0.0
 10
82.55070553491802
 20
-119.4195816368118
 30
0.0
 10
82.59547094836954
 20
-119.4643844145782
 30
0.0
 10
82.65061011362948
 20
-119.4643844145782
 30
0.0
 10
82.70606677888134
 20
-119.4643844145782
 30
0.0
 10
82.75083427773923
 20
-119.4195816368118
 30
0.0
 10
82.75083427773923
 20
-119.3641249701588
 30
0.0
  0
POLYLINE
  5
5F
330
1F
100
AcDbEntity
  8
_U+30EC_U+30A4_U+30E4_U+30FC 1
 62
   179
420
  2234388
370
     9
100
AcDb2dPolyline
 66
     1
 10
0.0
 20
0.0
 30
0.0
  0
VERTEX
  5
60
330
5F
100
AcDbEntity
  8
_U+30EC_U+30A4_U+30E4_U+30FC 1
 62
   179
420
  2234388
370
     9
100
AcDbVertex
100
AcDb2dVertex
 10
86.65068886722615
 20
-135.3640082994926
 30
0.0
  0
VERTEX
  5
61
330
5F
100
AcDbEntity
  8
_U+30EC_U+30A4_U+30E4_U+30FC 1
 62
   179
420
  2234388
370
     9
100
AcDbVertex
100
AcDb2dVertex
 10
98.65063414987931
 20
-135.3640082994926
 30
0.0
  0
SEQEND
  5
62
330
5F
100
AcDbEntity
  8
_U+30EC_U+30A4_U+30E4_U+30FC 1
 62
   179
420
  2234388
370
     9
  0
POLYLINE
  5
63
330
1F
100
AcDbEntity
  8
_U+30EC_U+30A4_U+30E4_U+30FC 1
 62
   179
420
  2234388
370
     9
100
AcDb2dPolyline
 66
     1
 10
0.0
 20
0.0
 30
0.0
  0
VERTEX
  5
64
330
63
100
AcDbEntity
  8
_U+30EC_U+30A4_U+30E4_U+30FC 1
 62
   179
420
  2234388
370
     9
100
AcDbVertex
100
AcDb2dVertex
 10
86.65068886722615
 20
-133.9039669109683
 30
0.0
  0
VERTEX
  5
65
330
63
100
AcDbEntity
  8
_U+30EC_U+30A4_U+30E4_U+30FC 1
 62
   179
420
  2234388
370
     9
100
AcDbVertex
100
AcDb2dVertex
 10
86.65068886722615
 20
-136.3644507992425
 30
0.0
  0
SEQEND
  5
66
330
63
100
AcDbEntity
  8
_U+30EC_U+30A4_U+30E4_U+30FC 1
 62
   179
420
  2234388
370
     9
  0
POLYLINE
  5
67
330
1F
100
AcDbEntity
  8
_U+30EC_U+30A4_U+30E4_U+30FC 1
 62
   179
420
  2234388
370
     9
100
AcDb2dPolyline
 66
     1
 10
0.0
 20
0.0
 30
0.0
  0
VERTEX
  5
68
330
67
100
AcDbEntity
  8
_U+30EC_U+30A4_U+30E4_U+30FC 1
 62
   179
420
  2234388
370
     9
100
AcDbVertex
100
AcDb2dVertex
 10
98.65063414987931
 20
-133.9039669109683
 30
0.0
  0
VERTEX
  5
69
330
67
100
AcDbEntity
  8
_U+30EC_U+30A4_U+30E4_U+30FC 1
 62
   179
420
  2234388
370
     9
100
AcDbVertex
100
AcDb2dVertex
 10
98.65063414987931
 20
-136.3644507992425
 30
0.0
  0
SEQEND
  5
6A
330
67
100
AcDbEntity
  8
_U+30EC_U+30A4_U+30E4_U+30FC 1
 62
   179
420
  2234388
370
     9
  0
INSERT
  5
6C
330
1F
100
AcDbEntity
  8
_U+30EC_U+30A4_U+30E4_U+30FC 1
100
AcDbBlockReference
  2
block 2
 10
0.0
 20
0.0
 30
0.0
  0
SPLINE
  5
73
330
1F
100
AcDbEntity
  8
_U+30EC_U+30A4_U+30E4_U+30FC 1
 62
   179
420
  2234388
370
    25
100
AcDbSpline
210
0.0
220
0.0
230
1.0
 70
    11
 71
     3
 72
    17
 73
    13
 74
     0
 42
0.0000000001
 43
0.0000000001
 12
1.0
 22
0.0
 32
0.0
 13
1.0
 23
0.0
 33
0.0
 40
0.0
 40
0.0
 40
0.0
 40
0.0
 40
1.0
 40
1.0
 40
1.0
 40
2.0
 40
2.0
 40
2.0
 40
3.0
 40
3.0
 40
3.0
 40
4.0
 40
4.0
 40
4.0
 40
4.0
 10
86.68582334401596
 20
-131.3642491338257
 30
0.0
 10
86.68582334401596
 20
-131.3835460782655
 30
0.0
 10
86.66998362219783
 20
-131.3993858004834
 30
0.0
 10
86.65068886722615
 20
-131.3993858004834
 30
0.0
 10
86.63138973429356
 20
-131.3993858004834
 30
0.0
 10
86.61555001247545
 20
-131.3835460782655
 30
0.0
 10
86.61555001247545
 20
-131.3642491338257
 30
0.0
 10
86.61555001247545
 20
-131.3449521893859
 30
0.0
 10
86.63138973429356
 20
-131.329112467168
 30
0.0
 10
86.65068886722615
 20
-131.329112467168
 30
0.0
 10
86.66998362219783
 20
-131.329112467168
 30
0.0
 10
86.68582334401596
 20
-131.3449521893859
 30
0.0
 10
86.68582334401596
 20
-131.3642491338257
 30
0.0
  0
SPLINE
  5
74
330
1F
100
AcDbEntity
  8
_U+30EC_U+30A4_U+30E4_U+30FC 1
 62
   179
420
  2234388
370
    25
100
AcDbSpline
210
0.0
220
0.0
230
1.0
 70
    11
 71
     3
 72
    17
 73
    13
 74
     0
 42
0.0000000001
 43
0.0000000001
 12
1.0
 22
0.0
 32
0.0
 13
1.0
 23
0.0
 33
0.0
 40
0.0
 40
0.0
 40
0.0
 40
0.0
 40
1.0
 40
1.0
 40
1.0
 40
2.0
 40
2.0
 40
2.0
 40
3.0
 40
3.0
 40
3.0
 40
4.0
 40
4.0
 40
4.0
 40
4.0
 10
98.68580609342645
 20
-131.3642491338257
 30
0.0
 10
98.68580609342645
 20
-131.3835460782655
 30
0.0
 10
98.66993109383145
 20
-131.3993858004834
 30
0.0
 10
98.65063414987931
 20
-131.3993858004834
 30
0.0
 10
98.63137497534186
 20
-131.3993858004834
 30
0.0
 10
98.61549997534644
 20
-131.3835460782655
 30
0.0
 10
98.61549997534644
 20
-131.3642491338257
 30
0.0
 10
98.61549997534644
 20
-131.3449521893859
 30
0.0
 10
98.63137497534186
 20
-131.329112467168
 30
0.0
 10
98.65063414987931
 20
-131.329112467168
 30
0.0
 10
98.66993109383145
 20
-131.329112467168
 30
0.0
 10
98.68580609342645
 20
-131.3449521893859
 30
0.0
 10
98.68580609342645
 20
-131.3642491338257
 30
0.0
  0
SPLINE
  5
75
330
1F
100
AcDbEntity
  8
_U+30EC_U+30A4_U+30E4_U+30FC 1
 62
   179
420
  2234388
370
     9
100
AcDbSpline
210
0.0
220
0.0
230
1.0
 70
    11
 71
     3
 72
    17
 73
    13
 74
     0
 42
0.0000000001
 43
0.0000000001
 12
1.0
 22
0.0
 32
0.0
 13
1.0
 23
0.0
 33
0.0
 40
0.0
 40
0.0
 40
0.0
 40
0.0
 40
1.0
 40
1.0
 40
1.0
 40
2.0
 40
2.0
 40
2.0
 40
3.0
 40
3.0
 40
3.0
 40
4.0
 40
4.0
 40
4.0
 40
4.0
 10
98.68580609342645
 20
-135.3640082994926
 30
0.0
 10
98.68580609342645
 20
-135.3839755217098
 30
0.0
 10
98.66993109383145
 20
-135.3998152439277
 30
0.0
 10
98.65063414987931
 20
-135.3998152439277
 30
0.0
 10
98.63137497534186
 20
-135.3998152439277
 30
0.0
 10
98.61549997534644
 20
-135.3839755217098
 30
0.0
 10
98.61549997534644
 20
-135.3640082994926
 30
0.0
 10
98.61549997534644
 20
-135.3447113550528
 30
0.0
 10
98.63137497534186
 20
-135.3288716328342
 30
0.0
 10
98.65063414987931
 20
-135.3288716328342
 30
0.0
 10
98.66993109383145
 20
-135.3288716328342
 30
0.0
 10
98.68580609342645
 20
-135.3447113550528
 30
0.0
 10
98.68580609342645
 20
-135.3640082994926
 30
0.0
  0
POLYLINE
  5
76
330
1F
100
AcDbEntity
  8
_U+30EC_U+30A4_U+30E4_U+30FC 1
 62
   179
420
  2234388
370
     9
100
AcDb2dPolyline
 66
     1
 10
0.0
 20
0.0
 30
0.0
  0
VERTEX
  5
77
330
76
100
AcDbEntity
  8
_U+30EC_U+30A4_U+30E4_U+30FC 1
 62
   179
420
  2234388
370
     9
100
AcDbVertex
100
AcDb2dVertex
 10
82.65061011362948
 20
-119.3641249701588
 30
0.0
  0
VERTEX
  5
78
330
76
100
AcDbEntity
  8
_U+30EC_U+30A4_U+30E4_U+30FC 1
 62
   179
420
  2234388
370
     9
100
AcDbVertex
100
AcDb2dVertex
 10
82.65061011362948
 20
-131.3642491338257
 30
0.0
  0
SEQEND
  5
79
330
76
100
AcDbEntity
  8
_U+30EC_U+30A4_U+30E4_U+30FC 1
 62
   179
420
  2234388
370
     9
  0
POLYLINE
  5
7A
330
1F
100
AcDbEntity
  8
_U+30EC_U+30A4_U+30E4_U+30FC 1
 62
   179
420
  2234388
370
     9
100
AcDb2dPolyline
 66
     1
 10
0.0
 20
0.0
 30
0.0
  0
VERTEX
  5
7B
330
7A
100
AcDbEntity
  8
_U+30EC_U+30A4_U+30E4_U+30FC 1
 62
   179
420
  2234388
370
     9
100
AcDbVertex
100
AcDb2dVertex
 10
84.11061618749274
 20
-119.3641249701588
 30
0.0
  0
VERTEX
  5
7C
330
7A
100
AcDbEntity
  8
_U+30EC_U+30A4_U+30E4_U+30FC 1
 62
   179
420
  2234388
370
     9
100
AcDbVertex
100
AcDb2dVertex
 10
81.6504851391448
 20
-119.3641249701588
 30
0.0
  0
SEQEND
  5
7D
330
7A
100
AcDbEntity
  8
_U+30EC_U+30A4_U+30E4_U+30FC 1
 62
   179
420
  2234388
370
     9
  0
POLYLINE
  5
7E
330
1F
100
AcDbEntity
  8
_U+30EC_U+30A4_U+30E4_U+30FC 1
 62
   179
420
  2234388
370
     9
100
AcDb2dPolyline
 66
     1
 10
0.0
 20
0.0
 30
0.0
  0
VERTEX
  5
7F
330
7E
100
AcDbEntity
  8
_U+30EC_U+30A4_U+30E4_U+30FC 1
 62
   179
420
  2234388
370
     9
100
AcDbVertex
100
AcDb2dVertex
 10
84.11061618749274
 20
-131.3642491338257
 30
0.0
  0
VERTEX
  5
80
330
7E
100
AcDbEntity
  8
_U+30EC_U+30A4_U+30E4_U+30FC 1
 62
   179
420
  2234388
370
     9
100
AcDbVertex
100
AcDb2dVertex
 10
81.6504851391448
 20
-131.3642491338257
 30
0.0
  0
SEQEND
  5
81
330
7E
100
AcDbEntity
  8
_U+30EC_U+30A4_U+30E4_U+30FC 1
 62
   179
420
  2234388
370
     9
  0
INSERT
  5
83
330
1F
100
AcDbEntity
  8
_U+30EC_U+30A4_U+30E4_U+30FC 1
100
AcDbBlockReference
  2
block 3
 10
0.0
 20
0.0
 30
0.0
  0
SPLINE
  5
8A
330
1F
100
AcDbEntity
  8
_U+30EC_U+30A4_U+30E4_U+30FC 1
 62
   179
420
  2234388
370
    25
100
AcDbSpline
210
0.0
220
0.0
230
1.0
 70
    11
 71
     3
 72
    17
 73
    13
 74
     0
 42
0.0000000001
 43
0.0000000001
 12
1.0
 22
0.0
 32
0.0
 13
1.0
 23
0.0
 33
0.0
 40
0.0
 40
0.0
 40
0.0
 40
0.0
 40
1.0
 40
1.0
 40
1.0
 40
2.0
 40
2.0
 40
2.0
 40
3.0
 40
3.0
 40
3.0
 40
4.0
 40
4.0
 40
4.0
 40
4.0
 10
86.68582334401596
 20
-119.3641249701588
 30
0.0
 10
86.68582334401596
 20
-119.3837394145986
 30
0.0
 10
86.66998362219783
 20
-119.3996144145946
 30
0.0
 10
86.65068886722615
 20
-119.3996144145946
 30
0.0
 10
86.63138973429356
 20
-119.3996144145946
 30
0.0
 10
86.61555001247545
 20
-119.3837394145986
 30
0.0
 10
86.61555001247545
 20
-119.3641249701588
 30
0.0
 10
86.61555001247545
 20
-119.3448280257193
 30
0.0
 10
86.63138973429356
 20
-119.3289883035011
 30
0.0
 10
86.65068886722615
 20
-119.3289883035011
 30
0.0
 10
86.66998362219783
 20
-119.3289883035011
 30
0.0
 10
86.68582334401596
 20
-119.3448280257193
 30
0.0
 10
86.68582334401596
 20
-119.3641249701588
 30
0.0
  0
SPLINE
  5
8B
330
1F
100
AcDbEntity
  8
_U+30EC_U+30A4_U+30E4_U+30FC 1
 62
   179
420
  2234388
370
    25
100
AcDbSpline
210
0.0
220
0.0
230
1.0
 70
    11
 71
     3
 72
    17
 73
    13
 74
     0
 42
0.0000000001
 43
0.0000000001
 12
1.0
 22
0.0
 32
0.0
 13
1.0
 23
0.0
 33
0.0
 40
0.0
 40
0.0
 40
0.0
 40
0.0
 40
1.0
 40
1.0
 40
1.0
 40
2.0
 40
2.0
 40
2.0
 40
3.0
 40
3.0
 40
3.0
 40
4.0
 40
4.0
 40
4.0
 40
4.0
 10
86.68582334401596
 20
-131.3642491338257
 30
0.0
 10
86.68582334401596
 20
-131.3835460782655
 30
0.0
 10
86.66998362219783
 20
-131.3993858004834
 30
0.0
 10
86.65068886722615
 20
-131.3993858004834
 30
0.0
 10
86.63138973429356
 20
-131.3993858004834
 30
0.0
 10
86.61555001247545
 20
-131.3835460782655
 30
0.0
 10
86.61555001247545
 20
-131.3642491338257
 30
0.0
 10
86.61555001247545
 20
-131.3449521893859
 30
0.0
 10
86.63138973429356
 20
-131.329112467168
 30
0.0
 10
86.65068886722615
 20
-131.329112467168
 30
0.0
 10
86.66998362219783
 20
-131.329112467168
 30
0.0
 10
86.68582334401596
 20
-131.3449521893859
 30
0.0
 10
86.68582334401596
 20
-131.3642491338257
 30
0.0
  0
SPLINE
  5
8C
330
1F
100
AcDbEntity
  8
_U+30EC_U+30A4_U+30E4_U+30FC 1
 62
   179
420
  2234388
370
     9
100
AcDbSpline
210
0.0
220
0.0
230
1.0
 70
    11
 71
     3
 72
    17
 73
    13
 74
     0
 42
0.0000000001
 43
0.0000000001
 12
1.0
 22
0.0
 32
0.0
 13
1.0
 23
0.0
 33
0.0
 40
0.0
 40
0.0
 40
0.0
 40
0.0
 40
1.0
 40
1.0
 40
1.0
 40
2.0
 40
2.0
 40
2.0
 40
3.0
 40
3.0
 40
3.0
 40
4.0
 40
4.0
 40
4.0
 40
4.0
 10
82.68606427939164
 20
-131.3642491338257
 30
0.0
 10
82.68606427939164
 20
-131.3835460782655
 30
0.0
 10
82.67022455757353
 20
-131.3993858004834
 30
0.0
 10
82.65061011362948
 20
-131.3993858004834
 30
0.0
 10
82.63096039190857
 20
-131.3993858004834
 30
0.0
 10
82.61543817008236
 20
-131.3835460782655
 30
0.0
 10
82.61543817008236
 20
-131.3642491338257
 30
0.0
 10
82.61543817008236
 20
-131.3449521893859
 30
0.0
 10
82.63096039190857
 20
-131.329112467168
 30
0.0
 10
82.65061011362948
 20
-131.329112467168
 30
0.0
 10
82.67022455757353
 20
-131.329112467168
 30
0.0
 10
82.68606427939164
 20
-131.3449521893859
 30
0.0
 10
82.68606427939164
 20
-131.3642491338257
 30
0.0
  0
POLYLINE
  5
8D
330
1F
100
AcDbEntity
  8
_U+30EC_U+30A4_U+30E4_U+30FC 1
 62
   179
420
  2234388
370
     9
100
AcDb2dPolyline
 66
     1
 10
0.0
 20
0.0
 30
0.0
  0
VERTEX
  5
8E
330
8D
100
AcDbEntity
  8
_U+30EC_U+30A4_U+30E4_U+30FC 1
 62
   179
420
  2234388
370
     9
100
AcDbVertex
100
AcDb2dVertex
 10
102.6503932145036
 20
-130.5642902451364
 30
0.0
  0
VERTEX
  5
8F
330
8D
100
AcDbEntity
  8
_U+30EC_U+30A4_U+30E4_U+30FC 1
 62
   179
420
  2234388
370
     9
100
AcDbVertex
100
AcDb2dVertex
 10
102.6503932145036
 20
-125.3065608020067
 30
0.0
  0
SEQEND
  5
90
330
8D
100
AcDbEntity
  8
_U+30EC_U+30A4_U+30E4_U+30FC 1
 62
   179
420
  2234388
370
     9
  0
POLYLINE
  5
91
330
1F
100
AcDbEntity
  8
_U+30EC_U+30A4_U+30E4_U+30FC 1
 62
   179
420
  2234388
370
     9
100
AcDb2dPolyline
 66
     1
 10
0.0
 20
0.0
 30
0.0
  0
VERTEX
  5
92
330
91
100
AcDbEntity
  8
_U+30EC_U+30A4_U+30E4_U+30FC 1
 62
   179
420
  2234388
370
     9
100
AcDbVertex
100
AcDb2dVertex
 10
102.6503932145036
 20
-132.3640213557976
 30
0.0
  0
VERTEX
  5
93
330
91
100
AcDbEntity
  8
_U+30EC_U+30A4_U+30E4_U+30FC 1
 62
   179
420
  2234388
370
     9
100
AcDbVertex
100
AcDb2dVertex
 10
102.6503932145036
 20
-130.5642902451364
 30
0.0
  0
SEQEND
  5
94
330
91
100
AcDbEntity
  8
_U+30EC_U+30A4_U+30E4_U+30FC 1
 62
   179
420
  2234388
370
     9
  0
POLYLINE
  5
95
330
1F
100
AcDbEntity
  8
_U+30EC_U+30A4_U+30E4_U+30FC 1
 62
   179
420
  2234388
370
     9
100
AcDb2dPolyline
 66
     1
 10
0.0
 20
0.0
 30
0.0
  0
VERTEX
  5
96
330
95
100
AcDbEntity
  8
_U+30EC_U+30A4_U+30E4_U+30FC 1
 62
   179
420
  2234388
370
     9
100
AcDbVertex
100
AcDb2dVertex
 10
101.1907046406323
 20
-131.3642491338257
 30
0.0
  0
VERTEX
  5
97
330
95
100
AcDbEntity
  8
_U+30EC_U+30A4_U+30E4_U+30FC 1
 62
   179
420
  2234388
370
     9
100
AcDbVertex
100
AcDb2dVertex
 10
103.6508709667571
 20
-131.3642491338257
 30
0.0
  0
SEQEND
  5
98
330
95
100
AcDbEntity
  8
_U+30EC_U+30A4_U+30E4_U+30FC 1
 62
   179
420
  2234388
370
     9
  0
POLYLINE
  5
99
330
1F
100
AcDbEntity
  8
_U+30EC_U+30A4_U+30E4_U+30FC 1
 62
   179
420
  2234388
370
     9
100
AcDb2dPolyline
 66
     1
 10
0.0
 20
0.0
 30
0.0
  0
VERTEX
  5
9A
330
99
100
AcDbEntity
  8
_U+30EC_U+30A4_U+30E4_U+30FC 1
 62
   179
420
  2234388
370
     9
100
AcDbVertex
100
AcDb2dVertex
 10
101.1907046406323
 20
-130.5642902451364
 30
0.0
  0
VERTEX
  5
9B
330
99
100
AcDbEntity
  8
_U+30EC_U+30A4_U+30E4_U+30FC 1
 62
   179
420
  2234388
370
     9
100
AcDbVertex
100
AcDb2dVertex
 10
103.6508709667571
 20
-130.5642902451364
 30
0.0
  0
SEQEND
  5
9C
330
99
100
AcDbEntity
  8
_U+30EC_U+30A4_U+30E4_U+30FC 1
 62
   179
420
  2234388
370
     9
  0
INSERT
  5
9E
330
1F
100
AcDbEntity
  8
_U+30EC_U+30A4_U+30E4_U+30FC 1
100
AcDbBlockReference
  2
block 4
 10
0.0
 20
0.0
 30
0.0
  0
SPLINE
  5
B0
330
1F
100
AcDbEntity
  8
_U+30EC_U+30A4_U+30E4_U+30FC 1
 62
   179
420
  2234388
370
    25
100
AcDbSpline
210
0.0
220
0.0
230
1.0
 70
    11
 71
     3
 72
    17
 73
    13
 74
     0
 42
0.0000000001
 43
0.0000000001
 12
1.0
 22
0.0
 32
0.0
 13
1.0
 23
0.0
 33
0.0
 40
0.0
 40
0.0
 40
0.0
 40
0.0
 40
1.0
 40
1.0
 40
1.0
 40
2.0
 40
2.0
 40
2.0
 40
3.0
 40
3.0
 40
3.0
 40
4.0
 40
4.0
 40
4.0
 40
4.0
 10
98.68580609342645
 20
-131.3642491338257
 30
0.0
 10
98.68580609342645
 20
-131.3835460782655
 30
0.0
 10
98.66993109383145
 20
-131.3993858004834
 30
0.0
 10
98.65063414987931
 20
-131.3993858004834
 30
0.0
 10
98.63137497534186
 20
-131.3993858004834
 30
0.0
 10
98.61549997534644
 20
-131.3835460782655
 30
0.0
 10
98.61549997534644
 20
-131.3642491338257
 30
0.0
 10
98.61549997534644
 20
-131.3449521893859
 30
0.0
 10
98.63137497534186
 20
-131.329112467168
 30
0.0
 10
98.65063414987931
 20
-131.329112467168
 30
0.0
 10
98.66993109383145
 20
-131.329112467168
 30
0.0
 10
98.68580609342645
 20
-131.3449521893859
 30
0.0
 10
98.68580609342645
 20
-131.3642491338257
 30
0.0
  0
SPLINE
  5
B1
330
1F
100
AcDbEntity
  8
_U+30EC_U+30A4_U+30E4_U+30FC 1
 62
   179
420
  2234388
370
    25
100
AcDbSpline
210
0.0
220
0.0
230
1.0
 70
    11
 71
     3
 72
    17
 73
    13
 74
     0
 42
0.0000000001
 43
0.0000000001
 12
1.0
 22
0.0
 32
0.0
 13
1.0
 23
0.0
 33
0.0
 40
0.0
 40
0.0
 40
0.0
 40
0.0
 40
1.0
 40
1.0
 40
1.0
 40
2.0
 40
2.0
 40
2.0
 40
3.0
 40
3.0
 40
3.0
 40
4.0
 40
4.0
 40
4.0
 40
4.0
 10
98.68580609342645
 20
-130.5642902451364
 30
0.0
 10
98.68580609342645
 20
-130.5835871895763
 30
0.0
 10
98.66993109383145
 20
-130.5994269117948
 30
0.0
 10
98.65063414987931
 20
-130.5994269117948
 30
0.0
 10
98.63137497534186
 20
-130.5994269117948
 30
0.0
 10
98.61549997534644
 20
-130.5835871895763
 30
0.0
 10
98.61549997534644
 20
-130.5642902451364
 30
0.0
 10
98.61549997534644
 20
-130.5449933006973
 30
0.0
 10
98.63137497534186
 20
-130.5291535784787
 30
0.0
 10
98.65063414987931
 20
-130.5291535784787
 30
0.0
 10
98.66993109383145
 20
-130.5291535784787
 30
0.0
 10
98.68580609342645
 20
-130.5449933006973
 30
0.0
 10
98.68580609342645
 20
-130.5642902451364
 30
0.0
  0
SPLINE
  5
B2
330
1F
100
AcDbEntity
  8
_U+30EC_U+30A4_U+30E4_U+30FC 1
 62
   179
420
  2234388
370
     9
100
AcDbSpline
210
0.0
220
0.0
230
1.0
 70
    11
 71
     3
 72
    17
 73
    13
 74
     0
 42
0.0000000001
 43
0.0000000001
 12
1.0
 22
0.0
 32
0.0
 13
1.0
 23
0.0
 33
0.0
 40
0.0
 40
0.0
 40
0.0
 40
0.0
 40
1.0
 40
1.0
 40
1.0
 40
2.0
 40
2.0
 40
2.0
 40
3.0
 40
3.0
 40
3.0
 40
4.0
 40
4.0
 40
4.0
 40
4.0
 10
102.6858826580427
 20
-130.5642902451364
 30
0.0
 10
102.6858826580427
 20
-130.5835871895763
 30
0.0
 10
102.6703957139933
 20
-130.5994269117948
 30
0.0
 10
102.6503932145036
 20
-130.5994269117948
 30
0.0
 10
102.6311315483284
 20
-130.5994269117948
 30
0.0
 10
102.6152565487334
 20
-130.5835871895763
 30
0.0
 10
102.6152565487334
 20
-130.5642902451364
 30
0.0
 10
102.6152565487334
 20
-130.5449933006973
 30
0.0
 10
102.6311315483284
 20
-130.5291535784787
 30
0.0
 10
102.6503932145036
 20
-130.5291535784787
 30
0.0
 10
102.6703957139933
 20
-130.5291535784787
 30
0.0
 10
102.6858826580427
 20
-130.5449933006973
 30
0.0
 10
102.6858826580427
 20
-130.5642902451364
 30
0.0
  0
SPLINE
  5
B3
330
1F
100
AcDbEntity
  8
_U+30EC_U+30A4_U+30E4_U+30FC 1
370
     0
100
AcDbSpline
210
0.0
220
0.0
230
1.0
 70
    11
 71
     3
 72
    35
 73
    31
 74
     0
 42
0.0000000001
 43
0.0000000001
 12
1.0
 22
0.0
 32
0.0
 13
1.0
 23
0.0
 33
0.0
 40
0.0
 40
0.0
 40
0.0
 40
0.0
 40
1.0
 40
1.0
 40
1.0
 40
2.0
 40
2.0
 40
2.0
 40
3.0
 40
3.0
 40
3.0
 40
4.0
 40
4.0
 40
4.0
 40
5.0
 40
5.0
 40
5.0
 40
6.0
 40
6.0
 40
6.0
 40
7.0
 40
7.0
 40
7.0
 40
8.0
 40
8.0
 40
8.0
 40
9.0
 40
9.0
 40
9.0
 40
10.0
 40
10.0
 40
10.0
 40
10.0
 10
98.61549997534644
 20
-130.5642902451364
 30
0.0
 10
98.61549997534644
 20
-130.5642902451364
 30
0.0
 10
87.45064554672594
 20
-130.5642902451364
 30
0.0
 10
87.45064554672594
 20
-130.5642902451364
 30
0.0
 10
87.45064554672594
 20
-130.5642902451364
 30
0.0
 10
87.45064554672594
 20
-119.3641249701588
 30
0.0
 10
87.45064554672594
 20
-119.3641249701588
 30
0.0
 10
87.45064554672594
 20
-119.3641249701588
 30
0.0
 10
86.68582334401596
 20
-119.3641249701588
 30
0.0
 10
86.68582334401596
 20
-119.3641249701588
 30
0.0
 10
86.68582334401596
 20
-119.3837394145986
 30
0.0
 10
86.66998362219783
 20
-119.3996144145946
 30
0.0
 10
86.65068886722615
 20
-119.3996144145946
 30
0.0
 10
86.65068886722615
 20
-119.3996144145946
 30
0.0
 10
86.65068886722615
 20
-131.329112467168
 30
0.0
 10
86.65068886722615
 20
-131.329112467168
 30
0.0
 10
86.66998362219783
 20
-131.329112467168
 30
0.0
 10
86.68582334401596
 20
-131.3449521893859
 30
0.0
 10
86.68582334401596
 20
-131.3642491338257
 30
0.0
 10
86.68582334401596
 20
-131.3642491338257
 30
0.0
 10
98.61549997534644
 20
-131.3642491338257
 30
0.0
 10
98.61549997534644
 20
-131.3642491338257
 30
0.0
 10
98.61549997534644
 20
-131.3449521893859
 30
0.0
 10
98.63137497534186
 20
-131.329112467168
 30
0.0
 10
98.65063414987931
 20
-131.329112467168
 30
0.0
 10
98.65063414987931
 20
-131.329112467168
 30
0.0
 10
98.65063414987931
 20
-130.5994269117948
 30
0.0
 10
98.65063414987931
 20
-130.5994269117948
 30
0.0
 10
98.63137497534186
 20
-130.5994269117948
 30
0.0
 10
98.61549997534644
 20
-130.5835871895763
 30
0.0
 10
98.61549997534644
 20
-130.5642902451364
 30
0.0
  0
HATCH
  5
B4
330
1F
100
AcDbEntity
  8
_U+30EC_U+30A4_U+30E4_U+30FC 1
 62
    54
420
 10196235
100
AcDbHatch
 10
0.0
 20
0.0
 30
0.0
210
0.0
220
0.0
230
1.0
  2
SOLID
 70
     1
 71
     0
 91
        1
 92
        1
 93
        1
 72
     4
 94
        3
 73
     0
 74
     1
 95
       35
 96
       31
 40
0.0
 40
0.0
 40
0.0
 40
0.0
 40
1.0
 40
1.0
 40
1.0
 40
2.0
 40
2.0
 40
2.0
 40
3.0
 40
3.0
 40
3.0
 40
4.0
 40
4.0
 40
4.0
 40
5.0
 40
5.0
 40
5.0
 40
6.0
 40
6.0
 40
6.0
 40
7.0
 40
7.0
 40
7.0
 40
8.0
 40
8.0
 40
8.0
 40
9.0
 40
9.0
 40
9.0
 40
10.0
 40
10.0
 40
10.0
 40
10.0
 10
98.61549997534644
 20
-130.5642902451364
 10
98.61549997534644
 20
-130.5642902451364
 10
87.45064554672594
 20
-130.5642902451364
 10
87.45064554672594
 20
-130.5642902451364
 10
87.45064554672594
 20
-130.5642902451364
 10
87.45064554672594
 20
-119.3641249701588
 10
87.45064554672594
 20
-119.3641249701588
 10
87.45064554672594
 20
-119.3641249701588
 10
86.68582334401596
 20
-119.3641249701588
 10
86.68582334401596
 20
-119.3641249701588
 10
86.68582334401596
 20
-119.3837394145986
 10
86.66998362219783
 20
-119.3996144145946
 10
86.65068886722615
 20
-119.3996144145946
 10
86.65068886722615
 20
-119.3996144145946
 10
86.65068886722615
 20
-131.329112467168
 10
86.65068886722615
 20
-131.329112467168
 10
86.66998362219783
 20
-131.329112467168
 10
86.68582334401596
 20
-131.3449521893859
 10
86.68582334401596
 20
-131.3642491338257
 10
86.68582334401596
 20
-131.3642491338257
 10
98.61549997534644
 20
-131.3642491338257
 10
98.61549997534644
 20
-131.3642491338257
 10
98.61549997534644
 20
-131.3449521893859
 10
98.63137497534186
 20
-131.329112467168
 10
98.65063414987931
 20
-131.329112467168
 10
98.65063414987931
 20
-131.329112467168
 10
98.65063414987931
 20
-130.5994269117948
 10
98.65063414987931
 20
-130.5994269117948
 10
98.63137497534186
 20
-130.5994269117948
 10
98.61549997534644
 20
-130.5835871895763
 10
98.61549997534644
 20
-130.5642902451364
 97
        0
 97
        0
 75
     2
 76
     1
 98
        0
  0
SPLINE
  5
B5
330
1F
100
AcDbEntity
  8
_U+30EC_U+30A4_U+30E4_U+30FC 1
370
     0
100
AcDbSpline
210
0.0
220
0.0
230
1.0
 70
    11
 71
     3
 72
    14
 73
    10
 74
     0
 42
0.0000000001
 43
0.0000000001
 12
1.0
 22
0.0
 32
0.0
 13
1.0
 23
0.0
 33
0.0
 40
0.0
 40
0.0
 40
0.0
 40
0.0
 40
1.0
 40
1.0
 40
1.0
 40
2.0
 40
2.0
 40
2.0
 40
3.0
 40
3.0
 40
3.0
 40
3.0
 10
86.68582334401596
 20
-119.3641249701588
 30
0.0
 10
86.68582334401596
 20
-119.3641249701588
 30
0.0
 10
86.65068886722615
 20
-119.3641249701588
 30
0.0
 10
86.65068886722615
 20
-119.3641249701588
 30
0.0
 10
86.65068886722615
 20
-119.3641249701588
 30
0.0
 10
86.65068886722615
 20
-119.3996144145946
 30
0.0
 10
86.65068886722615
 20
-119.3996144145946
 30
0.0
 10
86.66998362219783
 20
-119.3996144145946
 30
0.0
 10
86.68582334401596
 20
-119.3837394145986
 30
0.0
 10
86.68582334401596
 20
-119.3641249701588
 30
0.0
  0
HATCH
  5
B6
330
1F
100
AcDbEntity
  8
_U+30EC_U+30A4_U+30E4_U+30FC 1
 62
    52
420
 14268416
100
AcDbHatch
 10
0.0
 20
0.0
 30
0.0
210
0.0
220
0.0
230
1.0
  2
SOLID
 70
     1
 71
     0
 91
        1
 92
        1
 93
        1
 72
     4
 94
        3
 73
     0
 74
     1
 95
       14
 96
       10
 40
0.0
 40
0.0
 40
0.0
 40
0.0
 40
1.0
 40
1.0
 40
1.0
 40
2.0
 40
2.0
 40
2.0
 40
3.0
 40
3.0
 40
3.0
 40
3.0
 10
86.68582334401596
 20
-119.3641249701588
 10
86.68582334401596
 20
-119.3641249701588
 10
86.65068886722615
 20
-119.3641249701588
 10
86.65068886722615
 20
-119.3641249701588
 10
86.65068886722615
 20
-119.3641249701588
 10
86.65068886722615
 20
-119.3996144145946
 10
86.65068886722615
 20
-119.3996144145946
 10
86.66998362219783
 20
-119.3996144145946
 10
86.68582334401596
 20
-119.3837394145986
 10
86.68582334401596
 20
-119.3641249701588
 97
        0
 97
        0
 75
     2
 76
     1
 98
        0
  0
SPLINE
  5
B7
330
1F
100
AcDbEntity
  8
_U+30EC_U+30A4_U+30E4_U+30FC 1
370
     0
100
AcDbSpline
210
0.0
220
0.0
230
1.0
 70
    11
 71
     3
 72
    20
 73
    16
 74
     0
 42
0.0000000001
 43
0.0000000001
 12
1.0
 22
0.0
 32
0.0
 13
1.0
 23
0.0
 33
0.0
 40
0.0
 40
0.0
 40
0.0
 40
0.0
 40
1.0
 40
1.0
 40
1.0
 40
2.0
 40
2.0
 40
2.0
 40
3.0
 40
3.0
 40
3.0
 40
4.0
 40
4.0
 40
4.0
 40
5.0
 40
5.0
 40
5.0
 40
5.0
 10
86.68582334401596
 20
-119.3641249701588
 30
0.0
 10
86.68582334401596
 20
-119.3448280257193
 30
0.0
 10
86.66998362219783
 20
-119.3289883035011
 30
0.0
 10
86.65068886722615
 20
-119.3289883035011
 30
0.0
 10
86.63138973429356
 20
-119.3289883035011
 30
0.0
 10
86.61555001247545
 20
-119.3448280257193
 30
0.0
 10
86.61555001247545
 20
-119.3641249701588
 30
0.0
 10
86.61555001247545
 20
-119.3837394145986
 30
0.0
 10
86.63138973429356
 20
-119.3996144145946
 30
0.0
 10
86.65068886722615
 20
-119.3996144145946
 30
0.0
 10
86.65068886722615
 20
-119.3996144145946
 30
0.0
 10
86.65068886722615
 20
-119.3641249701588
 30
0.0
 10
86.65068886722615
 20
-119.3641249701588
 30
0.0
 10
86.65068886722615
 20
-119.3641249701588
 30
0.0
 10
86.68582334401596
 20
-119.3641249701588
 30
0.0
 10
86.68582334401596
 20
-119.3641249701588
 30
0.0
  0
HATCH
  5
B8
330
1F
100
AcDbEntity
  8
_U+30EC_U+30A4_U+30E4_U+30FC 1
 62
    52
420
 14268416
100
AcDbHatch
 10
0.0
 20
0.0
 30
0.0
210
0.0
220
0.0
230
1.0
  2
SOLID
 70
     1
 71
     0
 91
        1
 92
        1
 93
        1
 72
     4
 94
        3
 73
     0
 74
     1
 95
       20
 96
       16
 40
0.0
 40
0.0
 40
0.0
 40
0.0
 40
1.0
 40
1.0
 40
1.0
 40
2.0
 40
2.0
 40
2.0
 40
3.0
 40
3.0
 40
3.0
 40
4.0
 40
4.0
 40
4.0
 40
5.0
 40
5.0
 40
5.0
 40
5.0
 10
86.68582334401596
 20
-119.3641249701588
 10
86.68582334401596
 20
-119.3448280257193
 10
86.66998362219783
 20
-119.3289883035011
 10
86.65068886722615
 20
-119.3289883035011
 10
86.63138973429356
 20
-119.3289883035011
 10
86.61555001247545
 20
-119.3448280257193
 10
86.61555001247545
 20
-119.3641249701588
 10
86.61555001247545
 20
-119.3837394145986
 10
86.63138973429356
 20
-119.3996144145946
 10
86.65068886722615
 20
-119.3996144145946
 10
86.65068886722615
 20
-119.3996144145946
 10
86.65068886722615
 20
-119.3641249701588
 10
86.65068886722615
 20
-119.3641249701588
 10
86.65068886722615
 20
-119.3641249701588
 10
86.68582334401596
 20
-119.3641249701588
 10
86.68582334401596
 20
-119.3641249701588
 97
        0
 97
        0
 75
     2
 76
     1
 98
        0
  0
SPLINE
  5
B9
330
1F
100
AcDbEntity
  8
_U+30EC_U+30A4_U+30E4_U+30FC 1
370
     0
100
AcDbSpline
210
0.0
220
0.0
230
1.0
 70
    11
 71
     3
 72
    20
 73
    16
 74
     0
 42
0.0000000001
 43
0.0000000001
 12
1.0
 22
0.0
 32
0.0
 13
1.0
 23
0.0
 33
0.0
 40
0.0
 40
0.0
 40
0.0
 40
0.0
 40
1.0
 40
1.0
 40
1.0
 40
2.0
 40
2.0
 40
2.0
 40
3.0
 40
3.0
 40
3.0
 40
4.0
 40
4.0
 40
4.0
 40
5.0
 40
5.0
 40
5.0
 40
5.0
 10
86.65068886722615
 20
-131.329112467168
 30
0.0
 10
86.63138973429356
 20
-131.329112467168
 30
0.0
 10
86.61555001247545
 20
-131.3449521893859
 30
0.0
 10
86.61555001247545
 20
-131.3642491338257
 30
0.0
 10
86.61555001247545
 20
-131.3835460782655
 30
0.0
 10
86.63138973429356
 20
-131.3993858004834
 30
0.0
 10
86.65068886722615
 20
-131.3993858004834
 30
0.0
 10
86.66998362219783
 20
-131.3993858004834
 30
0.0
 10
86.68582334401596
 20
-131.3835460782655
 30
0.0
 10
86.68582334401596
 20
-131.3642491338257
 30
0.0
 10
86.68582334401596
 20
-131.3642491338257
 30
0.0
 10
86.65068886722615
 20
-131.3642491338257
 30
0.0
 10
86.65068886722615
 20
-131.3642491338257
 30
0.0
 10
86.65068886722615
 20
-131.3642491338257
 30
0.0
 10
86.65068886722615
 20
-131.329112467168
 30
0.0
 10
86.65068886722615
 20
-131.329112467168
 30
0.0
  0
HATCH
  5
BA
330
1F
100
AcDbEntity
  8
_U+30EC_U+30A4_U+30E4_U+30FC 1
 62
    54
420
 10196235
100
AcDbHatch
 10
0.0
 20
0.0
 30
0.0
210
0.0
220
0.0
230
1.0
  2
SOLID
 70
     1
 71
     0
 91
        1
 92
        1
 93
        1
 72
     4
 94
        3
 73
     0
 74
     1
 95
       20
 96
       16
 40
0.0
 40
0.0
 40
0.0
 40
0.0
 40
1.0
 40
1.0
 40
1.0
 40
2.0
 40
2.0
 40
2.0
 40
3.0
 40
3.0
 40
3.0
 40
4.0
 40
4.0
 40
4.0
 40
5.0
 40
5.0
 40
5.0
 40
5.0
 10
86.65068886722615
 20
-131.329112467168
 10
86.63138973429356
 20
-131.329112467168
 10
86.61555001247545
 20
-131.3449521893859
 10
86.61555001247545
 20
-131.3642491338257
 10
86.61555001247545
 20
-131.3835460782655
 10
86.63138973429356
 20
-131.3993858004834
 10
86.65068886722615
 20
-131.3993858004834
 10
86.66998362219783
 20
-131.3993858004834
 10
86.68582334401596
 20
-131.3835460782655
 10
86.68582334401596
 20
-131.3642491338257
 10
86.68582334401596
 20
-131.3642491338257
 10
86.65068886722615
 20
-131.3642491338257
 10
86.65068886722615
 20
-131.3642491338257
 10
86.65068886722615
 20
-131.3642491338257
 10
86.65068886722615
 20
-131.329112467168
 10
86.65068886722615
 20
-131.329112467168
 97
        0
 97
        0
 75
     2
 76
     1
 98
        0
  0
SPLINE
  5
BB
330
1F
100
AcDbEntity
  8
_U+30EC_U+30A4_U+30E4_U+30FC 1
370
     0
100
AcDbSpline
210
0.0
220
0.0
230
1.0
 70
    11
 71
     3
 72
    14
 73
    10
 74
     0
 42
0.0000000001
 43
0.0000000001
 12
1.0
 22
0.0
 32
0.0
 13
1.0
 23
0.0
 33
0.0
 40
0.0
 40
0.0
 40
0.0
 40
0.0
 40
1.0
 40
1.0
 40
1.0
 40
2.0
 40
2.0
 40
2.0
 40
3.0
 40
3.0
 40
3.0
 40
3.0
 10
86.65068886722615
 20
-131.329112467168
 30
0.0
 10
86.65068886722615
 20
-131.329112467168
 30
0.0
 10
86.65068886722615
 20
-131.3642491338257
 30
0.0
 10
86.65068886722615
 20
-131.3642491338257
 30
0.0
 10
86.65068886722615
 20
-131.3642491338257
 30
0.0
 10
86.68582334401596
 20
-131.3642491338257
 30
0.0
 10
86.68582334401596
 20
-131.3642491338257
 30
0.0
 10
86.68582334401596
 20
-131.3449521893859
 30
0.0
 10
86.66998362219783
 20
-131.329112467168
 30
0.0
 10
86.65068886722615
 20
-131.329112467168
 30
0.0
  0
HATCH
  5
BC
330
1F
100
AcDbEntity
  8
_U+30EC_U+30A4_U+30E4_U+30FC 1
 62
    54
420
 10196235
100
AcDbHatch
 10
0.0
 20
0.0
 30
0.0
210
0.0
220
0.0
230
1.0
  2
SOLID
 70
     1
 71
     0
 91
        1
 92
        1
 93
        1
 72
     4
 94
        3
 73
     0
 74
     1
 95
       14
 96
       10
 40
0.0
 40
0.0
 40
0.0
 40
0.0
 40
1.0
 40
1.0
 40
1.0
 40
2.0
 40
2.0
 40
2.0
 40
3.0
 40
3.0
 40
3.0
 40
3.0
 10
86.65068886722615
 20
-131.329112467168
 10
86.65068886722615
 20
-131.329112467168
 10
86.65068886722615
 20
-131.3642491338257
 10
86.65068886722615
 20
-131.3642491338257
 10
86.65068886722615
 20
-131.3642491338257
 10
86.68582334401596
 20
-131.3642491338257
 10
86.68582334401596
 20
-131.3642491338257
 10
86.68582334401596
 20
-131.3449521893859
 10
86.66998362219783
 20
-131.329112467168
 10
86.65068886722615
 20
-131.329112467168
 97
        0
 97
        0
 75
     2
 76
     1
 98
        0
  0
SPLINE
  5
BD
330
1F
100
AcDbEntity
  8
_U+30EC_U+30A4_U+30E4_U+30FC 1
370
     0
100
AcDbSpline
210
0.0
220
0.0
230
1.0
 70
    11
 71
     3
 72
    14
 73
    10
 74
     0
 42
0.0000000001
 43
0.0000000001
 12
1.0
 22
0.0
 32
0.0
 13
1.0
 23
0.0
 33
0.0
 40
0.0
 40
0.0
 40
0.0
 40
0.0
 40
1.0
 40
1.0
 40
1.0
 40
2.0
 40
2.0
 40
2.0
 40
3.0
 40
3.0
 40
3.0
 40
3.0
 10
98.61549997534644
 20
-131.3642491338257
 30
0.0
 10
98.61549997534644
 20
-131.3642491338257
 30
0.0
 10
98.65063414987931
 20
-131.3642491338257
 30
0.0
 10
98.65063414987931
 20
-131.3642491338257
 30
0.0
 10
98.65063414987931
 20
-131.3642491338257
 30
0.0
 10
98.65063414987931
 20
-131.329112467168
 30
0.0
 10
98.65063414987931
 20
-131.329112467168
 30
0.0
 10
98.63137497534186
 20
-131.329112467168
 30
0.0
 10
98.61549997534644
 20
-131.3449521893859
 30
0.0
 10
98.61549997534644
 20
-131.3642491338257
 30
0.0
  0
HATCH
  5
BE
330
1F
100
AcDbEntity
  8
_U+30EC_U+30A4_U+30E4_U+30FC 1
 62
    54
420
 10196235
100
AcDbHatch
 10
0.0
 20
0.0
 30
0.0
210
0.0
220
0.0
230
1.0
  2
SOLID
 70
     1
 71
     0
 91
        1
 92
        1
 93
        1
 72
     4
 94
        3
 73
     0
 74
     1
 95
       14
 96
       10
 40
0.0
 40
0.0
 40
0.0
 40
0.0
 40
1.0
 40
1.0
 40
1.0
 40
2.0
 40
2.0
 40
2.0
 40
3.0
 40
3.0
 40
3.0
 40
3.0
 10
98.61549997534644
 20
-131.3642491338257
 10
98.61549997534644
 20
-131.3642491338257
 10
98.65063414987931
 20
-131.3642491338257
 10
98.65063414987931
 20
-131.3642491338257
 10
98.65063414987931
 20
-131.3642491338257
 10
98.65063414987931
 20
-131.329112467168
 10
98.65063414987931
 20
-131.329112467168
 10
98.63137497534186
 20
-131.329112467168
 10
98.61549997534644
 20
-131.3449521893859
 10
98.61549997534644
 20
-131.3642491338257
 97
        0
 97
        0
 75
     2
 76
     1
 98
        0
  0
SPLINE
  5
BF
330
1F
100
AcDbEntity
  8
_U+30EC_U+30A4_U+30E4_U+30FC 1
370
     0
100
AcDbSpline
210
0.0
220
0.0
230
1.0
 70
    11
 71
     3
 72
    20
 73
    16
 74
     0
 42
0.0000000001
 43
0.0000000001
 12
1.0
 22
0.0
 32
0.0
 13
1.0
 23
0.0
 33
0.0
 40
0.0
 40
0.0
 40
0.0
 40
0.0
 40
1.0
 40
1.0
 40
1.0
 40
2.0
 40
2.0
 40
2.0
 40
3.0
 40
3.0
 40
3.0
 40
4.0
 40
4.0
 40
4.0
 40
5.0
 40
5.0
 40
5.0
 40
5.0
 10
98.61549997534644
 20
-131.3642491338257
 30
0.0
 10
98.61549997534644
 20
-131.3835460782655
 30
0.0
 10
98.63137497534186
 20
-131.3993858004834
 30
0.0
 10
98.65063414987931
 20
-131.3993858004834
 30
0.0
 10
98.66993109383145
 20
-131.3993858004834
 30
0.0
 10
98.68580609342645
 20
-131.3835460782655
 30
0.0
 10
98.68580609342645
 20
-131.3642491338257
 30
0.0
 10
98.68580609342645
 20
-131.3449521893859
 30
0.0
 10
98.66993109383145
 20
-131.329112467168
 30
0.0
 10
98.65063414987931
 20
-131.329112467168
 30
0.0
 10
98.65063414987931
 20
-131.329112467168
 30
0.0
 10
98.65063414987931
 20
-131.3642491338257
 30
0.0
 10
98.65063414987931
 20
-131.3642491338257
 30
0.0
 10
98.65063414987931
 20
-131.3642491338257
 30
0.0
 10
98.61549997534644
 20
-131.3642491338257
 30
0.0
 10
98.61549997534644
 20
-131.3642491338257
 30
0.0
  0
HATCH
  5
C0
330
1F
100
AcDbEntity
  8
_U+30EC_U+30A4_U+30E4_U+30FC 1
 62
    54
420
 10196235
100
AcDbHatch
 10
0.0
 20
0.0
 30
0.0
210
0.0
220
0.0
230
1.0
  2
SOLID
 70
     1
 71
     0
 91
        1
 92
        1
 93
        1
 72
     4
 94
        3
 73
     0
 74
     1
 95
       20
 96
       16
 40
0.0
 40
0.0
 40
0.0
 40
0.0
 40
1.0
 40
1.0
 40
1.0
 40
2.0
 40
2.0
 40
2.0
 40
3.0
 40
3.0
 40
3.0
 40
4.0
 40
4.0
 40
4.0
 40
5.0
 40
5.0
 40
5.0
 40
5.0
 10
98.61549997534644
 20
-131.3642491338257
 10
98.61549997534644
 20
-131.3835460782655
 10
98.63137497534186
 20
-131.3993858004834
 10
98.65063414987931
 20
-131.3993858004834
 10
98.66993109383145
 20
-131.3993858004834
 10
98.68580609342645
 20
-131.3835460782655
 10
98.68580609342645
 20
-131.3642491338257
 10
98.68580609342645
 20
-131.3449521893859
 10
98.66993109383145
 20
-131.329112467168
 10
98.65063414987931
 20
-131.329112467168
 10
98.65063414987931
 20
-131.329112467168
 10
98.65063414987931
 20
-131.3642491338257
 10
98.65063414987931
 20
-131.3642491338257
 10
98.65063414987931
 20
-131.3642491338257
 10
98.61549997534644
 20
-131.3642491338257
 10
98.61549997534644
 20
-131.3642491338257
 97
        0
 97
        0
 75
     2
 76
     1
 98
        0
  0
SPLINE
  5
C1
330
1F
100
AcDbEntity
  8
_U+30EC_U+30A4_U+30E4_U+30FC 1
370
     0
100
AcDbSpline
210
0.0
220
0.0
230
1.0
 70
    11
 71
     3
 72
    14
 73
    10
 74
     0
 42
0.0000000001
 43
0.0000000001
 12
1.0
 22
0.0
 32
0.0
 13
1.0
 23
0.0
 33
0.0
 40
0.0
 40
0.0
 40
0.0
 40
0.0
 40
1.0
 40
1.0
 40
1.0
 40
2.0
 40
2.0
 40
2.0
 40
3.0
 40
3.0
 40
3.0
 40
3.0
 10
98.65063414987931
 20
-130.5994269117948
 30
0.0
 10
98.65063414987931
 20
-130.5994269117948
 30
0.0
 10
98.65063414987931
 20
-130.5642902451364
 30
0.0
 10
98.65063414987931
 20
-130.5642902451364
 30
0.0
 10
98.65063414987931
 20
-130.5642902451364
 30
0.0
 10
98.61549997534644
 20
-130.5642902451364
 30
0.0
 10
98.61549997534644
 20
-130.5642902451364
 30
0.0
 10
98.61549997534644
 20
-130.5835871895763
 30
0.0
 10
98.63137497534186
 20
-130.5994269117948
 30
0.0
 10
98.65063414987931
 20
-130.5994269117948
 30
0.0
  0
HATCH
  5
C2
330
1F
100
AcDbEntity
  8
_U+30EC_U+30A4_U+30E4_U+30FC 1
 62
    54
420
 10196235
100
AcDbHatch
 10
0.0
 20
0.0
 30
0.0
210
0.0
220
0.0
230
1.0
  2
SOLID
 70
     1
 71
     0
 91
        1
 92
        1
 93
        1
 72
     4
 94
        3
 73
     0
 74
     1
 95
       14
 96
       10
 40
0.0
 40
0.0
 40
0.0
 40
0.0
 40
1.0
 40
1.0
 40
1.0
 40
2.0
 40
2.0
 40
2.0
 40
3.0
 40
3.0
 40
3.0
 40
3.0
 10
98.65063414987931
 20
-130.5994269117948
 10
98.65063414987931
 20
-130.5994269117948
 10
98.65063414987931
 20
-130.5642902451364
 10
98.65063414987931
 20
-130.5642902451364
 10
98.65063414987931
 20
-130.5642902451364
 10
98.61549997534644
 20
-130.5642902451364
 10
98.61549997534644
 20
-130.5642902451364
 10
98.61549997534644
 20
-130.5835871895763
 10
98.63137497534186
 20
-130.5994269117948
 10
98.65063414987931
 20
-130.5994269117948
 97
        0
 97
        0
 75
     2
 76
     1
 98
        0
  0
SPLINE
  5
C3
330
1F
100
AcDbEntity
  8
_U+30EC_U+30A4_U+30E4_U+30FC 1
370
     0
100
AcDbSpline
210
0.0
220
0.0
230
1.0
 70
    11
 71
     3
 72
    20
 73
    16
 74
     0
 42
0.0000000001
 43
0.0000000001
 12
1.0
 22
0.0
 32
0.0
 13
1.0
 23
0.0
 33
0.0
 40
0.0
 40
0.0
 40
0.0
 40
0.0
 40
1.0
 40
1.0
 40
1.0
 40
2.0
 40
2.0
 40
2.0
 40
3.0
 40
3.0
 40
3.0
 40
4.0
 40
4.0
 40
4.0
 40
5.0
 40
5.0
 40
5.0
 40
5.0
 10
98.65063414987931
 20
-130.5994269117948
 30
0.0
 10
98.66993109383145
 20
-130.5994269117948
 30
0.0
 10
98.68580609342645
 20
-130.5835871895763
 30
0.0
 10
98.68580609342645
 20
-130.5642902451364
 30
0.0
 10
98.68580609342645
 20
-130.5449933006973
 30
0.0
 10
98.66993109383145
 20
-130.5291535784787
 30
0.0
 10
98.65063414987931
 20
-130.5291535784787
 30
0.0
 10
98.63137497534186
 20
-130.5291535784787
 30
0.0
 10
98.61549997534644
 20
-130.5449933006973
 30
0.0
 10
98.61549997534644
 20
-130.5642902451364
 30
0.0
 10
98.61549997534644
 20
-130.5642902451364
 30
0.0
 10
98.65063414987931
 20
-130.5642902451364
 30
0.0
 10
98.65063414987931
 20
-130.5642902451364
 30
0.0
 10
98.65063414987931
 20
-130.5642902451364
 30
0.0
 10
98.65063414987931
 20
-130.5994269117948
 30
0.0
 10
98.65063414987931
 20
-130.5994269117948
 30
0.0
  0
HATCH
  5
C4
330
1F
100
AcDbEntity
  8
_U+30EC_U+30A4_U+30E4_U+30FC 1
 62
    54
420
 10196235
100
AcDbHatch
 10
0.0
 20
0.0
 30
0.0
210
0.0
220
0.0
230
1.0
  2
SOLID
 70
     1
 71
     0
 91
        1
 92
        1
 93
        1
 72
     4
 94
        3
 73
     0
 74
     1
 95
       20
 96
       16
 40
0.0
 40
0.0
 40
0.0
 40
0.0
 40
1.0
 40
1.0
 40
1.0
 40
2.0
 40
2.0
 40
2.0
 40
3.0
 40
3.0
 40
3.0
 40
4.0
 40
4.0
 40
4.0
 40
5.0
 40
5.0
 40
5.0
 40
5.0
 10
98.65063414987931
 20
-130.5994269117948
 10
98.66993109383145
 20
-130.5994269117948
 10
98.68580609342645
 20
-130.5835871895763
 10
98.68580609342645
 20
-130.5642902451364
 10
98.68580609342645
 20
-130.5449933006973
 10
98.66993109383145
 20
-130.5291535784787
 10
98.65063414987931
 20
-130.5291535784787
 10
98.63137497534186
 20
-130.5291535784787
 10
98.61549997534644
 20
-130.5449933006973
 10
98.61549997534644
 20
-130.5642902451364
 10
98.61549997534644
 20
-130.5642902451364
 10
98.65063414987931
 20
-130.5642902451364
 10
98.65063414987931
 20
-130.5642902451364
 10
98.65063414987931
 20
-130.5642902451364
 10
98.65063414987931
 20
-130.5994269117948
 10
98.65063414987931
 20
-130.5994269117948
 97
        0
 97
        0
 75
     2
 76
     1
 98
        0
  0
ENDSEC
  0
SECTION
  2
OBJECTS
  0
DICTIONARY
  5
C
330
0
100
AcDbDictionary
281
     1
  3
ACAD_GROUP
350
D
  3
ACAD_LAYOUT
350
1A
  3
ACAD_MATERIAL
350
3B
  3
ACAD_MLEADERSTYLE
350
C6
  3
ACAD_MLINESTYLE
350
17
  3
ACAD_PLOTSETTINGS
350
19
  3
ACAD_PLOTSTYLENAME
350
E
  3
ACAD_TABLESTYLE
350
C5
  3
ACAD_VISUALSTYLE
350
2A
  0
SUN
  5
3F
330
29
100
AcDbSun
 90
        1
290
     0
 63
     7
421
 16777215
 40
1.0
291
     1
 91
  2455826
 92
 54000000
292
     0
 70
     2
 71
   256
280
     1
  0
DICTIONARY
  5
D
102
{ACAD_REACTORS
330
C
102
}
330
C
100
AcDbDictionary
281
     1
  0
DICTIONARY
  5
1A
102
{ACAD_REACTORS
330
C
102
}
330
C
100
AcDbDictionary
281
     1
  3
Layout1
350
1E
  3
Layout2
350
26
  3
Model
350
22
  0
DICTIONARY
  5
3B
102
{ACAD_REACTORS
330
C
102
}
330
C
100
AcDbDictionary
281
     1
  3
ByBlock
350
3D
  3
ByLayer
350
3C
  3
Global
350
3E
  0
DICTIONARY
  5
C6
102
{ACAD_REACTORS
330
C
102
}
330
C
100
AcDbDictionary
281
     1
  0
DICTIONARY
  5
17
102
{ACAD_REACTORS
330
C
102
}
330
C
100
AcDbDictionary
281
     1
  3
Standard
350
18
  0
DICTIONARY
  5
19
102
{ACAD_REACTORS
330
C
102
}
330
C
100
AcDbDictionary
281
     1
  0
ACDBDICTIONARYWDFLT
  5
E
102
{ACAD_REACTORS
330
C
102
}
330
C
100
AcDbDictionary
281
     1
  3
Normal
350
F
100
AcDbDictionaryWithDefault
340
F
  0
DICTIONARY
  5
C5
102
{ACAD_REACTORS
330
C
102
}
330
C
100
AcDbDictionary
281
     1
  0
DICTIONARY
  5
2A
102
{ACAD_REACTORS
330
C
102
}
330
C
100
AcDbDictionary
281
     1
  3
2dWireframe
350
2F
  3
3D Hidden
350
31
  3
3dWireframe
350
30
  3
Basic
350
32
  3
Brighten
350
36
  3
ColorChange
350
3A
  3
Conceptual
350
34
  3
Dim
350
35
  3
Facepattern
350
39
  3
Flat
350
2B
  3
FlatWithEdges
350
2C
  3
Gouraud
350
2D
  3
GouraudWithEdges
350
2E
  3
Linepattern
350
38
  3
Realistic
350
33
  3
Thicken
350
37
  0
LAYOUT
  5
1E
102
{ACAD_REACTORS
330
1A
102
}
330
1A
100
AcDbPlotSettings
  1

  2
none_device
  4

  6

 40
0.0
 41
0.0
 42
0.0
 43
0.0
 44
0.0
 45
0.0
 46
0.0
 47
0.0
 48
0.0
 49
0.0
140
0.0
141
0.0
142
1.0
143
1.0
 70
   688
 72
     0
 73
     0
 74
     5
  7

 75
    16
 76
     0
 77
     2
 78
   300
147
1.0
148
0.0
149
0.0
100
AcDbLayout
  1
Layout1
 70
     1
 71
     1
 10
0.0
 20
0.0
 11
12.0
 21
9.0
 12
0.0
 22
0.0
 32
0.0
 14
1.000000000000000E+20
 24
1.000000000000000E+20
 34
1.000000000000000E+20
 15
-1.000000000000000E+20
 25
-1.000000000000000E+20
 35
-1.000000000000000E+20
146
0.0
 13
0.0
 23
0.0
 33
0.0
 16
1.0
 26
0.0
 36
0.0
 17
0.0
 27
1.0
 37
0.0
 76
     0
330
1B
  0
LAYOUT
  5
26
102
{ACAD_REACTORS
330
1A
102
}
330
1A
100
AcDbPlotSettings
  1

  2
none_device
  4

  6

 40
0.0
 41
0.0
 42
0.0
 43
0.0
 44
0.0
 45
0.0
 46
0.0
 47
0.0
 48
0.0
 49
0.0
140
0.0
141
0.0
142
1.0
143
1.0
 70
   688
 72
     0
 73
     0
 74
     5
  7

 75
    16
 76
     0
 77
     2
 78
   300
147
1.0
148
0.0
149
0.0
100
AcDbLayout
  1
Layout2
 70
     1
 71
     2
 10
0.0
 20
0.0
 11
0.0
 21
0.0
 12
0.0
 22
0.0
 32
0.0
 14
0.0
 24
0.0
 34
0.0
 15
0.0
 25
0.0
 35
0.0
146
0.0
 13
0.0
 23
0.0
 33
0.0
 16
1.0
 26
0.0
 36
0.0
 17
0.0
 27
1.0
 37
0.0
 76
     0
330
23
  0
LAYOUT
  5
22
102
{ACAD_REACTORS
330
1A
102
}
330
1A
100
AcDbPlotSettings
  1

  2
none_device
  4

  6

 40
0.0
 41
0.0
 42
0.0
 43
0.0
 44
0.0
 45
0.0
 46
0.0
 47
0.0
 48
0.0
 49
0.0
140
0.0
141
0.0
142
1.0
143
1.0
 70
  1712
 72
     0
 73
     0
 74
     0
  7

 75
     0
 76
     0
 77
     2
 78
   300
147
1.0
148
0.0
149
0.0
100
AcDbLayout
  1
Model
 70
     1
 71
     0
 10
0.0
 20
0.0
 11
12.0
 21
9.0
 12
0.0
 22
0.0
 32
0.0
 14
1.000000000000000E+20
 24
1.000000000000000E+20
 34
1.000000000000000E+20
 15
-1.000000000000000E+20
 25
-1.000000000000000E+20
 35
-1.000000000000000E+20
146
0.0
 13
0.0
 23
0.0
 33
0.0
 16
1.0
 26
0.0
 36
0.0
 17
0.0
 27
1.0
 37
0.0
 76
     0
330
1F
331
29
  0
MATERIAL
  5
3D
102
{ACAD_REACTORS
330
3B
102
}
330
3B
100
AcDbMaterial
  1
ByBlock
 72
     1
 94
      127
  0
MATERIAL
  5
3C
102
{ACAD_REACTORS
330
3B
102
}
330
3B
100
AcDbMaterial
  1
ByLayer
 72
     1
 94
      127
  0
MATERIAL
  5
3E
102
{ACAD_REACTORS
330
3B
102
}
330
3B
100
AcDbMaterial
  1
Global
 72
     1
 94
      127
  0
MLINESTYLE
  5
18
102
{ACAD_REACTORS
330
17
102
}
330
17
100
AcDbMlineStyle
  2
Standard
 70
     0
  3

 62
   256
 51
90.0
 52
90.0
 71
     2
 49
0.5
 62
   256
  6
BYLAYER
 49
-0.5
 62
   256
  6
BYLAYER
  0
ACDBPLACEHOLDER
  5
F
102
{ACAD_REACTORS
330
E
102
}
330
E
  0
VISUALSTYLE
  5
2F
102
{ACAD_REACTORS
330
2A
102
}
330
2A
100
AcDbVisualStyle
  2
2dWireframe
 70
     4
177
     2
291
     0
 71
     0
176
     1
 72
     2
176
     1
 73
     0
176
     1
 90
        0
176
     1
 40
-0.6
176
     1
 41
-30.0
176
     1
 62
     5
 63
     7
421
 16777215
176
     1
 74
     1
176
     1
 91
        4
176
     1
 64
     7
176
     1
 65
   257
176
     1
 75
     1
176
     1
175
     1
176
     1
 42
1.0
176
     1
 92
        0
176
     1
 66
   257
176
     1
 43
1.0
176
     1
 76
     1
176
     1
 77
     6
176
     1
 78
     2
176
     1
 67
     7
176
     1
 79
     5
176
     1
170
     0
176
     1
171
     0
176
     1
290
     0
176
     1
 93
        1
176
     1
 44
0.0
176
     1
173
     0
176
     1
  0
VISUALSTYLE
  5
31
102
{ACAD_REACTORS
330
2A
102
}
330
2A
100
AcDbVisualStyle
  2
3D Hidden
 70
     6
177
     2
291
     0
 71
     1
176
     1
 72
     2
176
     1
 73
     2
176
     1
 90
        0
176
     1
 40
-0.6
176
     1
 41
-30.0
176
     1
 62
     5
 63
     7
421
 16777215
176
     1
 74
     2
176
     1
 91
        2
176
     1
 64
     7
176
     1
 65
   257
176
     1
 75
     2
176
     1
175
     1
176
     1
 42
40.0
176
     1
 92
        0
176
     1
 66
   257
176
     1
 43
1.0
176
     1
 76
     1
176
     1
 77
     6
176
     1
 78
     2
176
     1
 67
     7
176
     1
 79
     3
176
     1
170
     0
176
     1
171
     0
176
     1
290
     0
176
     1
 93
        1
176
     1
 44
0.0
176
     1
173
     0
176
     1
  0
VISUALSTYLE
  5
30
102
{ACAD_REACTORS
330
2A
102
}
330
2A
100
AcDbVisualStyle
  2
3dWireframe
 70
     5
177
     2
291
     0
 71
     0
176
     1
 72
     2
176
     1
 73
     0
176
     1
 90
        0
176
     1
 40
-0.6
176
     1
 41
-30.0
176
     1
 62
     5
 63
     7
421
 16777215
176
     1
 74
     1
176
     1
 91
        4
176
     1
 64
     7
176
     1
 65
   257
176
     1
 75
     1
176
     1
175
     1
176
     1
 42
1.0
176
     1
 92
        0
176
     1
 66
   257
176
     1
 43
1.0
176
     1
 76
     1
176
     1
 77
     6
176
     1
 78
     2
176
     1
 67
     7
176
     1
 79
     5
176
     1
170
     0
176
     1
171
     0
176
     1
290
     0
176
     1
 93
        1
176
     1
 44
0.0
176
     1
173
     0
176
     1
  0
VISUALSTYLE
  5
32
102
{ACAD_REACTORS
330
2A
102
}
330
2A
100
AcDbVisualStyle
  2
Basic
 70
     7
177
     2
291
     1
 71
     1
176
     1
 72
     0
176
     1
 73
     1
176
     1
 90
        0
176
     1
 40
-0.6
176
     1
 41
-30.0
176
     1
 62
     5
 63
     7
421
 16777215
176
     1
 74
     0
176
     1
 91
        4
176
     1
 64
     7
176
     1
 65
   257
176
     1
 75
     1
176
     1
175
     1
176
     1
 42
1.0
176
     1
 92
        8
176
     1
 66
     7
176
     1
 43
1.0
176
     1
 76
     1
176
     1
 77
     6
176
     1
 78
     2
176
     1
 67
     7
176
     1
 79
     5
176
     1
170
     0
176
     1
171
     0
176
     1
290
     0
176
     1
 93
        1
176
     1
 44
0.0
176
     1
173
     0
176
     1
  0
VISUALSTYLE
  5
36
102
{ACAD_REACTORS
330
2A
102
}
330
2A
100
AcDbVisualStyle
  2
Brighten
 70
    12
177
     2
291
     1
 71
     2
176
     1
 72
     2
176
     1
 73
     0
176
     1
 90
        0
176
     1
 40
-0.6
176
     1
 41
-30.0
176
     1
 62
     5
 63
     7
421
 16777215
176
     1
 74
     1
176
     1
 91
        4
176
     1
 64
     7
176
     1
 65
   257
176
     1
 75
     1
176
     1
175
     1
176
     1
 42
1.0
176
     1
 92
        8
176
     1
 66
     7
176
     1
 43
1.0
176
     1
 76
     1
176
     1
 77
     6
176
     1
 78
     2
176
     1
 67
     7
176
     1
 79
     5
176
     1
170
     0
176
     1
171
     0
176
     1
290
     0
176
     1
 93
        1
176
     1
 44
50.0
176
     1
173
     0
176
     1
  0
VISUALSTYLE
  5
3A
102
{ACAD_REACTORS
330
2A
102
}
330
2A
100
AcDbVisualStyle
  2
ColorChange
 70
    16
177
     2
291
     1
 71
     2
176
     1
 72
     2
176
     1
 73
     3
176
     1
 90
        0
176
     1
 40
-0.6
176
     1
 41
-30.0
176
     1
 62
     5
 63
     8
421
  8421504
176
     1
 74
     1
176
     1
 91
        4
176
     1
 64
     7
176
     1
 65
   257
176
     1
 75
     1
176
     1
175
     1
176
     1
 42
1.0
176
     1
 92
        8
176
     1
 66
     8
424
  8421504
176
     1
 43
1.0
176
     1
 76
     1
176
     1
 77
     6
176
     1
 78
     2
176
     1
 67
     7
176
     1
 79
     5
176
     1
170
     0
176
     1
171
     0
176
     1
290
     0
176
     1
 93
        1
176
     1
 44
0.0
176
     1
173
     0
176
     1
  0
VISUALSTYLE
  5
34
102
{ACAD_REACTORS
330
2A
102
}
330
2A
100
AcDbVisualStyle
  2
Conceptual
 70
     9
177
     2
291
     0
 71
     3
176
     1
 72
     2
176
     1
 73
     0
176
     1
 90
        0
176
     1
 40
-0.6
176
     1
 41
-30.0
176
     1
 62
     5
 63
     7
421
 16777215
176
     1
 74
     2
176
     1
 91
        2
176
     1
 64
     7
176
     1
 65
   257
176
     1
 75
     1
176
     1
175
     1
176
     1
 42
40.0
176
     1
 92
        8
176
     1
 66
     7
176
     1
 43
1.0
176
     1
 76
     1
176
     1
 77
     6
176
     1
 78
     2
176
     1
 67
     7
176
     1
 79
     3
176
     1
170
     0
176
     1
171
     0
176
     1
290
     0
176
     1
 93
        1
176
     1
 44
0.0
176
     1
173
     0
176
     1
  0
VISUALSTYLE
  5
35
102
{ACAD_REACTORS
330
2A
102
}
330
2A
100
AcDbVisualStyle
  2
Dim
 70
    11
177
     2
291
     1
 71
     2
176
     1
 72
     2
176
     1
 73
     0
176
     1
 90
        0
176
     1
 40
-0.6
176
     1
 41
-30.0
176
     1
 62
     5
 63
     7
421
 16777215
176
     1
 74
     1
176
     1
 91
        4
176
     1
 64
     7
176
     1
 65
   257
176
     1
 75
     1
176
     1
175
     1
176
     1
 42
1.0
176
     1
 92
        8
176
     1
 66
     7
176
     1
 43
1.0
176
     1
 76
     1
176
     1
 77
     6
176
     1
 78
     2
176
     1
 67
     7
176
     1
 79
     5
176
     1
170
     0
176
     1
171
     0
176
     1
290
     0
176
     1
 93
        1
176
     1
 44
-50.0
176
     1
173
     0
176
     1
  0
VISUALSTYLE
  5
39
102
{ACAD_REACTORS
330
2A
102
}
330
2A
100
AcDbVisualStyle
  2
Facepattern
 70
    15
177
     2
291
     1
 71
     2
176
     1
 72
     2
176
     1
 73
     0
176
     1
 90
        0
176
     1
 40
-0.6
176
     1
 41
-30.0
176
     1
 62
     5
 63
     7
421
 16777215
176
     1
 74
     1
176
     1
 91
        4
176
     1
 64
     7
176
     1
 65
   257
176
     1
 75
     1
176
     1
175
     1
176
     1
 42
1.0
176
     1
 92
        8
176
     1
 66
     7
176
     1
 43
1.0
176
     1
 76
     1
176
     1
 77
     6
176
     1
 78
     2
176
     1
 67
     7
176
     1
 79
     5
176
     1
170
     0
176
     1
171
     0
176
     1
290
     0
176
     1
 93
        1
176
     1
 44
0.0
176
     1
173
     0
176
     1
  0
VISUALSTYLE
  5
2B
102
{ACAD_REACTORS
330
2A
102
}
330
2A
100
AcDbVisualStyle
  2
Flat
 70
     0
177
     2
291
     1
 71
     2
176
     1
 72
     1
176
     1
 73
     1
176
     1
 90
        2
176
     1
 40
-0.6
176
     1
 41
30.0
176
     1
 62
     5
 63
     7
421
 16777215
176
     1
 74
     0
176
     1
 91
        4
176
     1
 64
     7
176
     1
 65
   257
176
     1
 75
     1
176
     1
175
     1
176
     1
 42
1.0
176
     1
 92
        8
176
     1
 66
     7
176
     1
 43
1.0
176
     1
 76
     1
176
     1
 77
     6
176
     1
 78
     2
176
     1
 67
     7
176
     1
 79
     5
176
     1
170
     0
176
     1
171
     0
176
     1
290
     0
176
     1
 93
       13
176
     1
 44
0.0
176
     1
173
     0
176
     1
  0
VISUALSTYLE
  5
2C
102
{ACAD_REACTORS
330
2A
102
}
330
2A
100
AcDbVisualStyle
  2
FlatWithEdges
 70
     1
177
     2
291
     1
 71
     2
176
     1
 72
     1
176
     1
 73
     1
176
     1
 90
        2
176
     1
 40
-0.6
176
     1
 41
30.0
176
     1
 62
     5
 63
     7
421
 16777215
176
     1
 74
     1
176
     1
 91
        4
176
     1
 64
     7
176
     1
 65
   257
176
     1
 75
     1
176
     1
175
     1
176
     1
 42
1.0
176
     1
 92
        0
176
     1
 66
   257
176
     1
 43
1.0
176
     1
 76
     1
176
     1
 77
     6
176
     1
 78
     2
176
     1
 67
     7
176
     1
 79
     5
176
     1
170
     0
176
     1
171
     0
176
     1
290
     0
176
     1
 93
       13
176
     1
 44
0.0
176
     1
173
     0
176
     1
  0
VISUALSTYLE
  5
2D
102
{ACAD_REACTORS
330
2A
102
}
330
2A
100
AcDbVisualStyle
  2
Gouraud
 70
     2
177
     2
291
     1
 71
     2
176
     1
 72
     2
176
     1
 73
     1
176
     1
 90
        2
176
     1
 40
-0.6
176
     1
 41
30.0
176
     1
 62
     5
 63
     7
421
 16777215
176
     1
 74
     0
176
     1
 91
        4
176
     1
 64
     7
176
     1
 65
   257
176
     1
 75
     1
176
     1
175
     1
176
     1
 42
1.0
176
     1
 92
        0
176
     1
 66
     7
176
     1
 43
1.0
176
     1
 76
     1
176
     1
 77
     6
176
     1
 78
     2
176
     1
 67
     7
176
     1
 79
     5
176
     1
170
     0
176
     1
171
     0
176
     1
290
     0
176
     1
 93
       13
176
     1
 44
0.0
176
     1
173
     0
176
     1
  0
VISUALSTYLE
  5
2E
102
{ACAD_REACTORS
330
2A
102
}
330
2A
100
AcDbVisualStyle
  2
GouraudWithEdges
 70
     3
177
     2
291
     1
 71
     2
176
     1
 72
     2
176
     1
 73
     1
176
     1
 90
        2
176
     1
 40
-0.6
176
     1
 41
30.0
176
     1
 62
     5
 63
     7
421
 16777215
176
     1
 74
     1
176
     1
 91
        4
176
     1
 64
     7
176
     1
 65
   257
176
     1
 75
     1
176
     1
175
     1
176
     1
 42
1.0
176
     1
 92
        0
176
     1
 66
   257
176
     1
 43
1.0
176
     1
 76
     1
176
     1
 77
     6
176
     1
 78
     2
176
     1
 67
     7
176
     1
 79
     5
176
     1
170
     0
176
     1
171
     0
176
     1
290
     0
176
     1
 93
       13
176
     1
 44
0.0
176
     1
173
     0
176
     1
  0
VISUALSTYLE
  5
38
102
{ACAD_REACTORS
330
2A
102
}
330
2A
100
AcDbVisualStyle
  2
Linepattern
 70
    14
177
     2
291
     1
 71
     2
176
     1
 72
     2
176
     1
 73
     0
176
     1
 90
        0
176
     1
 40
-0.6
176
     1
 41
-30.0
176
     1
 62
     5
 63
     7
421
 16777215
176
     1
 74
     1
176
     1
 91
        4
176
     1
 64
     7
176
     1
 65
   257
176
     1
 75
     7
176
     1
175
     7
176
     1
 42
1.0
176
     1
 92
        8
176
     1
 66
     7
176
     1
 43
1.0
176
     1
 76
     1
176
     1
 77
     6
176
     1
 78
     2
176
     1
 67
     7
176
     1
 79
     5
176
     1
170
     0
176
     1
171
     0
176
     1
290
     0
176
     1
 93
        1
176
     1
 44
0.0
176
     1
173
     0
176
     1
  0
VISUALSTYLE
  5
33
102
{ACAD_REACTORS
330
2A
102
}
330
2A
100
AcDbVisualStyle
  2
Realistic
 70
     8
177
     2
291
     0
 71
     2
176
     1
 72
     2
176
     1
 73
     0
176
     1
 90
        0
176
     1
 40
-0.6
176
     1
 41
-30.0
176
     1
 62
     5
 63
     7
421
 16777215
176
     1
 74
     1
176
     1
 91
        0
176
     1
 64
     7
176
     1
 65
   257
176
     1
 75
     1
176
     1
175
     1
176
     1
 42
1.0
176
     1
 92
        8
176
     1
 66
     8
424
  7895160
176
     1
 43
1.0
176
     1
 76
     1
176
     1
 77
     6
176
     1
 78
     2
176
     1
 67
     7
176
     1
 79
     5
176
     1
170
     0
176
     1
171
     0
176
     1
290
     0
176
     1
 93
       13
176
     1
 44
0.0
176
     1
173
     0
176
     1
  0
VISUALSTYLE
  5
37
102
{ACAD_REACTORS
330
2A
102
}
330
2A
100
AcDbVisualStyle
  2
Thicken
 70
    13
177
     2
291
     1
 71
     2
176
     1
 72
     2
176
     1
 73
     0
176
     1
 90
        0
176
     1
 40
-0.6
176
     1
 41
-30.0
176
     1
 62
     5
 63
     7
421
 16777215
176
     1
 74
     1
176
     1
 91
        4
176
     1
 64
     7
176
     1
 65
   257
176
     1
 75
     1
176
     1
175
     1
176
     1
 42
1.0
176
     1
 92
       12
176
     1
 66
     7
176
     1
 43
1.0
176
     1
 76
     1
176
     1
 77
     6
176
     1
 78
     2
176
     1
 67
     7
176
     1
 79
     5
176
     1
170
     0
176
     1
171
     0
176
     1
290
     0
176
     1
 93
        1
176
     1
 44
0.0
176
     1
173
     0
176
     1
  0
ENDSEC
  0
EOF
