  0
SECTION
  2
HEADER
  9
$ACADVER
  1
AC1024
  9
$ACADMAINTVER
 70
     6
  9
$DWGCODEPAGE
  3
UNDEFINED
  9
$INSBASE
 10
0.0
 20
0.0
 30
0.0
  9
$EXTMIN
 10
1.000000000000000E+20
 20
1.000000000000000E+20
 30
1.000000000000000E+20
  9
$EXTMAX
 10
-1.000000000000000E+20
 20
-1.000000000000000E+20
 30
-1.000000000000000E+20
  9
$LIMMIN
 10
0.0
 20
0.0
  9
$LIMMAX
 10
12.0
 20
9.0
  9
$ORTHOMODE
 70
     0
  9
$REGENMODE
 70
     1
  9
$FILLMODE
 70
     1
  9
$QTEXTMODE
 70
     0
  9
$MIRRTEXT
 70
     1
  9
$LTSCALE
 40
1.0
  9
$ATTMODE
 70
     1
  9
$TEXTSIZE
 40
0.2
  9
$TRACEWID
 40
0.05
  9
$TEXTSTYLE
  7
Standard
  9
$CLAYER
  8
0
  9
$CELTYPE
  6
ByLayer
  9
$CECOLOR
 62
   256
  9
$CELTSCALE
 40
1.0
  9
$DISPSILH
 70
     0
  9
$DIMSCALE
 40
1.0
  9
$DIMASZ
 40
0.18
  9
$DIMEXO
 40
0.0625
  9
$DIMDLI
 40
0.38
  9
$DIMRND
 40
0.0
  9
$DIMDLE
 40
0.0
  9
$DIMEXE
 40
0.18
  9
$DIMTP
 40
0.0
  9
$DIMTM
 40
0.0
  9
$DIMTXT
 40
0.18
  9
$DIMCEN
 40
0.09
  9
$DIMTSZ
 40
0.0
  9
$DIMTOL
 70
     0
  9
$DIMLIM
 70
     0
  9
$DIMTIH
 70
     1
  9
$DIMTOH
 70
     1
  9
$DIMSE1
 70
     0
  9
$DIMSE2
 70
     0
  9
$DIMTAD
 70
     0
  9
$DIMZIN
 70
     0
  9
$DIMBLK
  1

  9
$DIMASO
 70
     1
  9
$DIMSHO
 70
     1
  9
$DIMPOST
  1

  9
$DIMAPOST
  1

  9
$DIMALT
 70
     0
  9
$DIMALTD
 70
     2
  9
$DIMALTF
 40
25.4
  9
$DIMLFAC
 40
1.0
  9
$DIMTOFL
 70
     0
  9
$DIMTVP
 40
0.0
  9
$DIMTIX
 70
     0
  9
$DIMSOXD
 70
     0
  9
$DIMSAH
 70
     0
  9
$DIMBLK1
  1

  9
$DIMBLK2
  1

  9
$DIMSTYLE
  2
Standard
  9
$DIMCLRD
 70
     0
  9
$DIMCLRE
 70
     0
  9
$DIMCLRT
 70
     0
  9
$DIMTFAC
 40
1.0
  9
$DIMGAP
 40
0.09
  9
$DIMJUST
 70
     0
  9
$DIMSD1
 70
     0
  9
$DIMSD2
 70
     0
  9
$DIMTOLJ
 70
     1
  9
$DIMTZIN
 70
     0
  9
$DIMALTZ
 70
     0
  9
$DIMALTTZ
 70
     0
  9
$DIMUPT
 70
     0
  9
$DIMDEC
 70
     4
  9
$DIMTDEC
 70
     4
  9
$DIMALTU
 70
     2
  9
$DIMALTTD
 70
     2
  9
$DIMTXSTY
  7
Standard
  9
$DIMAUNIT
 70
     0
  9
$DIMADEC
 70
     0
  9
$DIMALTRND
 40
0.0
  9
$DIMAZIN
 70
     0
  9
$DIMDSEP
 70
    46
  9
$DIMATFIT
 70
     3
  9
$DIMFRAC
 70
     0
  9
$DIMLDRBLK
  1

  9
$DIMLUNIT
 70
     2
  9
$DIMLWD
 70
    -2
  9
$DIMLWE
 70
    -2
  9
$DIMTMOVE
 70
     0
  9
$DIMFXL
 40
1.0
  9
$DIMFXLON
 70
     0
  9
$DIMJOGANG
 40
0.7853981633974483
  9
$DIMTFILL
 70
     0
  9
$DIMTFILLCLR
 70
     0
  9
$DIMARCSYM
 70
     0
  9
$DIMLTYPE
  6

  9
$DIMLTEX1
  6

  9
$DIMLTEX2
  6

  9
$DIMTXTDIRECTION
 70
     0
  9
$LUNITS
 70
     2
  9
$LUPREC
 70
     4
  9
$SKETCHINC
 40
0.1
  9
$FILLETRAD
 40
0.5
  9
$AUNITS
 70
     0
  9
$AUPREC
 70
     0
  9
$MENU
  1
.
  9
$ELEVATION
 40
0.0
  9
$PELEVATION
 40
0.0
  9
$THICKNESS
 40
0.0
  9
$LIMCHECK
 70
     0
  9
$CHAMFERA
 40
0.5
  9
$CHAMFERB
 40
0.5
  9
$CHAMFERC
 40
1.0
  9
$CHAMFERD
 40
0.0
  9
$SKPOLY
 70
     0
  9
$TDCREATE
 40
2457917.621365741
  9
$TDUCREATE
 40
2457917.246365741
  9
$TDUPDATE
 40
2457917.621365741
  9
$TDUUPDATE
 40
2457917.246365741
  9
$TDINDWG
 40
0.0000000116
  9
$TDUSRTIMER
 40
0.0000000116
  9
$USRTIMER
 70
     1
  9
$ANGBASE
 50
0.0
  9
$ANGDIR
 70
     0
  9
$PDMODE
 70
     0
  9
$PDSIZE
 40
0.0
  9
$PLINEWID
 40
0.0
  9
$SPLFRAME
 70
     0
  9
$SPLINETYPE
 70
     6
  9
$SPLINESEGS
 70
     8
  9
$HANDSEED
  5
B5
  9
$SURFTAB1
 70
     6
  9
$SURFTAB2
 70
     6
  9
$SURFTYPE
 70
     6
  9
$SURFU
 70
     6
  9
$SURFV
 70
     6
  9
$UCSBASE
  2

  9
$UCSNAME
  2

  9
$UCSORG
 10
0.0
 20
0.0
 30
0.0
  9
$UCSXDIR
 10
1.0
 20
0.0
 30
0.0
  9
$UCSYDIR
 10
0.0
 20
1.0
 30
0.0
  9
$UCSORTHOREF
  2

  9
$UCSORTHOVIEW
 70
     0
  9
$UCSORGTOP
 10
0.0
 20
0.0
 30
0.0
  9
$UCSORGBOTTOM
 10
0.0
 20
0.0
 30
0.0
  9
$UCSORGLEFT
 10
0.0
 20
0.0
 30
0.0
  9
$UCSORGRIGHT
 10
0.0
 20
0.0
 30
0.0
  9
$UCSORGFRONT
 10
0.0
 20
0.0
 30
0.0
  9
$UCSORGBACK
 10
0.0
 20
0.0
 30
0.0
  9
$PUCSBASE
  2

  9
$PUCSNAME
  2

  9
$PUCSORG
 10
0.0
 20
0.0
 30
0.0
  9
$PUCSXDIR
 10
1.0
 20
0.0
 30
0.0
  9
$PUCSYDIR
 10
0.0
 20
1.0
 30
0.0
  9
$PUCSORTHOREF
  2

  9
$PUCSORTHOVIEW
 70
     0
  9
$PUCSORGTOP
 10
0.0
 20
0.0
 30
0.0
  9
$PUCSORGBOTTOM
 10
0.0
 20
0.0
 30
0.0
  9
$PUCSORGLEFT
 10
0.0
 20
0.0
 30
0.0
  9
$PUCSORGRIGHT
 10
0.0
 20
0.0
 30
0.0
  9
$PUCSORGFRONT
 10
0.0
 20
0.0
 30
0.0
  9
$PUCSORGBACK
 10
0.0
 20
0.0
 30
0.0
  9
$USERI1
 70
     0
  9
$USERI2
 70
     0
  9
$USERI3
 70
     0
  9
$USERI4
 70
     0
  9
$USERI5
 70
     0
  9
$USERR1
 40
0.0
  9
$USERR2
 40
0.0
  9
$USERR3
 40
0.0
  9
$USERR4
 40
0.0
  9
$USERR5
 40
0.0
  9
$WORLDVIEW
 70
     1
  9
$SHADEDGE
 70
     3
  9
$SHADEDIF
 70
    70
  9
$TILEMODE
 70
     1
  9
$MAXACTVP
 70
    64
  9
$PINSBASE
 10
0.0
 20
0.0
 30
0.0
  9
$PLIMCHECK
 70
     0
  9
$PEXTMIN
 10
1.000000000000000E+20
 20
1.000000000000000E+20
 30
1.000000000000000E+20
  9
$PEXTMAX
 10
-1.000000000000000E+20
 20
-1.000000000000000E+20
 30
-1.000000000000000E+20
  9
$PLIMMIN
 10
0.0
 20
0.0
  9
$PLIMMAX
 10
12.0
 20
9.0
  9
$UNITMODE
 70
     0
  9
$VISRETAIN
 70
     1
  9
$PLINEGEN
 70
     0
  9
$PSLTSCALE
 70
     1
  9
$TREEDEPTH
 70
  3020
  9
$CMLSTYLE
  2
Standard
  9
$CMLJUST
 70
     0
  9
$CMLSCALE
 40
1.0
  9
$PROXYGRAPHICS
 70
     1
  9
$MEASUREMENT
 70
     0
  9
$CELWEIGHT
370
    -1
  9
$ENDCAPS
280
     0
  9
$JOINSTYLE
280
     0
  9
$LWDISPLAY
290
     1
  9
$INSUNITS
 70
     1
  9
$HYPERLINKBASE
  1

  9
$STYLESHEET
  1

  9
$XEDIT
290
     1
  9
$CEPSNTYPE
380
     0
  9
$PSTYLEMODE
290
     1
  9
$FINGERPRINTGUID
  2
{13070AE4-3044-9AE0-F949-9705BFF84665}
  9
$VERSIONGUID
  2
{FAEB1C32-E019-11D5-929B-00C0DF256EC4}
  9
$EXTNAMES
290
     1
  9
$PSVPSCALE
 40
0.0
  9
$OLESTARTUP
290
     0
  9
$SORTENTS
280
   127
  9
$INDEXCTL
280
     0
  9
$HIDETEXT
280
     1
  9
$XCLIPFRAME
280
     2
  9
$HALOGAP
280
     0
  9
$OBSCOLOR
 70
   257
  9
$OBSLTYPE
280
     0
  9
$INTERSECTIONDISPLAY
280
     0
  9
$INTERSECTIONCOLOR
 70
   257
  9
$DIMASSOC
280
     2
  9
$PROJECTNAME
  1

  9
$CAMERADISPLAY
290
     0
  9
$LENSLENGTH
 40
50.0
  9
$CAMERAHEIGHT
 40
0.0
  9
$STEPSPERSEC
 40
2.0
  9
$STEPSIZE
 40
6.0
  9
$3DDWFPREC
 40
2.0
  9
$PSOLWIDTH
 40
0.25
  9
$PSOLHEIGHT
 40
4.0
  9
$LOFTANG1
 40
1.570796326794897
  9
$LOFTANG2
 40
1.570796326794897
  9
$LOFTMAG1
 40
0.0
  9
$LOFTMAG2
 40
0.0
  9
$LOFTPARAM
 70
     7
  9
$LOFTNORMALS
280
     1
  9
$LATITUDE
 40
37.795
  9
$LONGITUDE
 40
-122.394
  9
$NORTHDIRECTION
 40
0.0
  9
$TIMEZONE
 70
 -8000
  9
$LIGHTGLYPHDISPLAY
280
     1
  9
$TILEMODELIGHTSYNCH
280
     1
  9
$CMATERIAL
347
3C
  9
$SOLIDHIST
280
     1
  9
$SHOWHIST
280
     1
  9
$DWFFRAME
280
     2
  9
$DGNFRAME
280
     2
  9
$REALWORLDSCALE
290
     1
  9
$INTERFERECOLOR
 62
   256
  9
$CSHADOW
280
     0
  9
$SHADOWPLANELOCATION
 40
0.0
  0
ENDSEC
  0
SECTION
  2
CLASSES
  0
CLASS
  1
ACDBDICTIONARYWDFLT
  2
AcDbDictionaryWithDefault
  3
ObjectDBX Classes
 90
        0
 91
        4
280
     0
281
     0
  0
CLASS
  1
VISUALSTYLE
  2
AcDbVisualStyle
  3
ObjectDBX Classes
 90
     4095
 91
        4
280
     0
281
     0
  0
CLASS
  1
MATERIAL
  2
AcDbMaterial
  3
ObjectDBX Classes
 90
     1153
 91
        4
280
     0
281
     0
  0
CLASS
  1
SUN
  2
AcDbSun
  3
SCENEOE
 90
     1024
 91
        4
280
     0
281
     0
  0
ENDSEC
  0
SECTION
  2
TABLES
  0
TABLE
  2
VPORT
  5
8
330
0
100
AcDbSymbolTable
 70
     1
  0
VPORT
  5
29
330
8
100
AcDbSymbolTableRecord
100
AcDbViewportTableRecord
  2
*Active
 70
     0
 10
0.0
 20
0.0
 11
1.0
 21
1.0
 12
0.0
 22
0.0
 13
0.0
 23
0.0
 14
0.5
 24
0.5
 15
0.5
 25
0.5
 16
0.0
 26
0.0
 36
1.0
 17
91.00082462281999
 27
-128.4993055234307
 37
0.0
 40
256.9986110468615
 41
0.7081814508812795
 42
50.0
 43
0.0
 44
0.0
 50
0.0
 51
0.0
 71
     0
 72
   100
 73
     1
 74
     3
 75
     0
 76
     0
 77
     0
 78
     0
281
     0
 65
     1
110
0.0
120
0.0
130
0.0
111
1.0
121
0.0
131
0.0
112
0.0
122
1.0
132
0.0
 79
     0
146
0.0
 60
     3
 61
     5
292
     1
282
     1
141
0.0
142
0.0
 63
   250
361
3F
  0
ENDTAB
  0
TABLE
  2
LTYPE
  5
5
330
0
100
AcDbSymbolTable
 70
     1
  0
LTYPE
  5
14
330
5
100
AcDbSymbolTableRecord
100
AcDbLinetypeTableRecord
  2
ByBlock
 70
     0
  3

 72
    65
 73
     0
 40
0.0
  0
LTYPE
  5
15
330
5
100
AcDbSymbolTableRecord
100
AcDbLinetypeTableRecord
  2
ByLayer
 70
     0
  3

 72
    65
 73
     0
 40
0.0
  0
LTYPE
  5
16
330
5
100
AcDbSymbolTableRecord
100
AcDbLinetypeTableRecord
  2
Continuous
 70
     0
  3
Solid line
 72
    65
 73
     0
 40
0.0
  0
ENDTAB
  0
TABLE
  2
LAYER
  5
2
330
0
100
AcDbSymbolTable
 70
     2
  0
LAYER
  5
10
330
2
100
AcDbSymbolTableRecord
100
AcDbLayerTableRecord
  2
0
 70
     0
 62
     7
  6
Continuous
370
    -3
390
F
347
3E
  0
LAYER
  5
40
330
2
100
AcDbSymbolTableRecord
100
AcDbLayerTableRecord
  2
_U+30EC_U+30A4_U+30E4_U+30FC 1
 70
     0
 62
     7
  6
Continuous
370
    -3
390
F
347
3E
  0
ENDTAB
  0
TABLE
  2
STYLE
  5
3
330
0
100
AcDbSymbolTable
 70
     1
  0
STYLE
  5
11
330
3
100
AcDbSymbolTableRecord
100
AcDbTextStyleTableRecord
  2
Standard
 70
     0
 40
0.0
 41
1.0
 50
0.0
 71
     0
 42
0.2
  3
txt
  4

  0
ENDTAB
  0
TABLE
  2
VIEW
  5
6
330
0
100
AcDbSymbolTable
 70
     0
  0
ENDTAB
  0
TABLE
  2
UCS
  5
7
330
0
100
AcDbSymbolTable
 70
     0
  0
ENDTAB
  0
TABLE
  2
APPID
  5
9
330
0
100
AcDbSymbolTable
 70
     1
  0
APPID
  5
12
330
9
100
AcDbSymbolTableRecord
100
AcDbRegAppTableRecord
  2
ACAD
 70
     0
  0
ENDTAB
  0
TABLE
  2
DIMSTYLE
  5
A
330
0
100
AcDbSymbolTable
 70
     1
100
AcDbDimStyleTable
  0
DIMSTYLE
105
27
330
A
100
AcDbSymbolTableRecord
100
AcDbDimStyleTableRecord
  2
Standard
 70
     0
178
     0
340
11
  0
ENDTAB
  0
TABLE
  2
BLOCK_RECORD
  5
1
330
0
100
AcDbSymbolTable
 70
     4
  0
BLOCK_RECORD
  5
1F
330
1
100
AcDbSymbolTableRecord
100
AcDbBlockTableRecord
  2
*Model_Space
340
22
 70
     0
280
     1
281
     0
  0
BLOCK_RECORD
  5
1B
330
1
100
AcDbSymbolTableRecord
100
AcDbBlockTableRecord
  2
*Paper_Space
340
1E
 70
     0
280
     1
281
     0
  0
BLOCK_RECORD
  5
23
330
1
100
AcDbSymbolTableRecord
100
AcDbBlockTableRecord
  2
*Paper_Space0
340
26
 70
     0
280
     1
281
     0
  0
BLOCK_RECORD
  5
6B
330
1
100
AcDbSymbolTableRecord
100
AcDbBlockTableRecord
  2
block 2
340
0
102
{BLKREFS
331
6C
102
}
 70
     0
280
     1
281
     0
  0
BLOCK_RECORD
  5
82
330
1
100
AcDbSymbolTableRecord
100
AcDbBlockTableRecord
  2
block 3
340
0
102
{BLKREFS
331
83
102
}
 70
     0
280
     1
281
     0
  0
BLOCK_RECORD
  5
9D
330
1
100
AcDbSymbolTableRecord
100
AcDbBlockTableRecord
  2
block 4
340
0
102
{BLKREFS
331
9E
102
}
 70
     0
280
     1
281
     0
  0
ENDTAB
  0
ENDSEC
  0
SECTION
  2
BLOCKS
  0
BLOCK
  5
20
330
1F
100
AcDbEntity
  8
0
100
AcDbBlockBegin
  2
*Model_Space
 70
     0
 10
0.0
 20
0.0
 30
0.0
  3
*Model_Space
  1

  0
ENDBLK
  5
21
330
1F
100
AcDbEntity
  8
0
100
AcDbBlockEnd
  0
BLOCK
  5
1C
330
1B
100
AcDbEntity
 67
     1
  8
0
100
AcDbBlockBegin
  2
*Paper_Space
 70
     0
 10
0.0
 20
0.0
 30
0.0
  3
*Paper_Space
  1

  0
ENDBLK
  5
1D
330
1B
100
AcDbEntity
 67
     1
  8
0
100
AcDbBlockEnd
  0
BLOCK
  5
24
330
23
100
AcDbEntity
  8
0
100
AcDbBlockBegin
  2
*Paper_Space0
 70
     0
 10
0.0
 20
0.0
 30
0.0
  3
*Paper_Space0
  1

  0
ENDBLK
  5
25
330
23
100
AcDbEntity
  8
0
100
AcDbBlockEnd
  0
BLOCK
  5
6D
330
6B
100
AcDbEntity
  8
0
100
AcDbBlockBegin
  2
block 2
 70
     0
 10
0.0
 20
0.0
 30
0.0
  3
block 2
  1

  0
SPLINE
  5
6F
330
6B
100
AcDbEntity
  8
_U+30EC_U+30A4_U+30E4_U+30FC 1
370
     0
100
AcDbSpline
210
0.0
220
0.0
230
1.0
 70
    11
 71
     3
 72
    26
 73
    22
 74
     0
 42
0.0000000001
 43
0.0000000001
 12
1.0
 22
0.0
 32
0.0
 13
1.0
 23
0.0
 33
0.0
 40
0.0
 40
0.0
 40
0.0
 40
0.0
 40
1.0
 40
1.0
 40
1.0
 40
2.0
 40
2.0
 40
2.0
 40
3.0
 40
3.0
 40
3.0
 40
4.0
 40
4.0
 40
4.0
 40
5.0
 40
5.0
 40
5.0
 40
6.0
 40
6.0
 40
6.0
 40
7.0
 40
7.0
 40
7.0
 40
7.0
 10
91.91135794143189
 20
-135.1125108169163
 30
0.0
 10
91.91135794143189
 20
-135.1125108169163
 30
0.0
 10
91.91135794143189
 20
-134.0080132043452
 30
0.0
 10
91.91135794143189
 20
-134.0080132043452
 30
0.0
 10
91.91135794143189
 20
-134.0080132043452
 30
0.0
 10
91.58131779394495
 20
-134.0080132043452
 30
0.0
 10
91.58131779394495
 20
-134.0080132043452
 30
0.0
 10
91.58131779394495
 20
-134.0080132043452
 30
0.0
 10
91.58131779394495
 20
-133.8598740984795
 30
0.0
 10
91.58131779394495
 20
-133.8598740984795
 30
0.0
 10
91.91342499872303
 20
-133.8450601878929
 30
0.0
 10
91.9599337877739
 20
-133.6824516809891
 30
0.0
 10
91.98956160894706
 20
-133.5680745108788
 30
0.0
 10
91.98956160894706
 20
-133.5680745108788
 30
0.0
 10
92.13563365752165
 20
-133.5680745108788
 30
0.0
 10
92.13563365752165
 20
-133.5680745108788
 30
0.0
 10
92.13563365752165
 20
-133.5680745108788
 30
0.0
 10
92.13563365752165
 20
-135.1125108169163
 30
0.0
 10
92.13563365752165
 20
-135.1125108169163
 30
0.0
 10
92.13563365752165
 20
-135.1125108169163
 30
0.0
 10
91.91135794143189
 20
-135.1125108169163
 30
0.0
 10
91.91135794143189
 20
-135.1125108169163
 30
0.0
  0
HATCH
  5
70
330
6B
100
AcDbEntity
  8
_U+30EC_U+30A4_U+30E4_U+30FC 1
 62
   179
420
  2234388
100
AcDbHatch
 10
0.0
 20
0.0
 30
0.0
210
0.0
220
0.0
230
1.0
  2
SOLID
 70
     1
 71
     0
 91
        1
 92
        1
 93
        1
 72
     4
 94
        3
 73
     0
 74
     1
 95
       26
 96
       22
 40
0.0
 40
0.0
 40
0.0
 40
0.0
 40
1.0
 40
1.0
 40
1.0
 40
2.0
 40
2.0
 40
2.0
 40
3.0
 40
3.0
 40
3.0
 40
4.0
 40
4.0
 40
4.0
 40
5.0
 40
5.0
 40
5.0
 40
6.0
 40
6.0
 40
6.0
 40
7.0
 40
7.0
 40
7.0
 40
7.0
 10
91.91135794143189
 20
-135.1125108169163
 10
91.91135794143189
 20
-135.1125108169163
 10
91.91135794143189
 20
-134.0080132043452
 10
91.91135794143189
 20
-134.0080132043452
 10
91.91135794143189
 20
-134.0080132043452
 10
91.58131779394495
 20
-134.0080132043452
 10
91.58131779394495
 20
-134.0080132043452
 10
91.58131779394495
 20
-134.0080132043452
 10
91.58131779394495
 20
-133.8598740984795
 10
91.58131779394495
 20
-133.8598740984795
 10
91.91342499872303
 20
-133.8450601878929
 10
91.9599337877739
 20
-133.6824516809891
 10
91.98956160894706
 20
-133.5680745108788
 10
91.98956160894706
 20
-133.5680745108788
 10
92.13563365752165
 20
-133.5680745108788
 10
92.13563365752165
 20
-133.5680745108788
 10
92.13563365752165
 20
-133.5680745108788
 10
92.13563365752165
 20
-135.1125108169163
 10
92.13563365752165
 20
-135.1125108169163
 10
92.13563365752165
 20
-135.1125108169163
 10
91.91135794143189
 20
-135.1125108169163
 10
91.91135794143189
 20
-135.1125108169163
 97
        0
 97
        0
 75
     2
 76
     1
 98
        0
  0
SPLINE
  5
71
330
6B
100
AcDbEntity
  8
_U+30EC_U+30A4_U+30E4_U+30FC 1
370
     0
100
AcDbSpline
210
0.0
220
0.0
230
1.0
 70
    11
 71
     3
 72
    44
 73
    40
 74
     0
 42
0.0000000001
 43
0.0000000001
 12
1.0
 22
0.0
 32
0.0
 13
1.0
 23
0.0
 33
0.0
 40
0.0
 40
0.0
 40
0.0
 40
0.0
 40
1.0
 40
1.0
 40
1.0
 40
2.0
 40
2.0
 40
2.0
 40
3.0
 40
3.0
 40
3.0
 40
4.0
 40
4.0
 40
4.0
 40
5.0
 40
5.0
 40
5.0
 40
6.0
 40
6.0
 40
6.0
 40
7.0
 40
7.0
 40
7.0
 40
8.0
 40
8.0
 40
8.0
 40
9.0
 40
9.0
 40
9.0
 40
10.0
 40
10.0
 40
10.0
 40
11.0
 40
11.0
 40
11.0
 40
12.0
 40
12.0
 40
12.0
 40
13.0
 40
13.0
 40
13.0
 40
13.0
 10
93.229795983637
 20
-134.5306341894576
 30
0.0
 10
93.01206594896921
 20
-134.6891085817791
 30
0.0
 10
92.91904837086746
 20
-134.763178134712
 30
0.0
 10
92.87012801497691
 20
-134.9071831259954
 30
0.0
 10
92.87012801497691
 20
-134.9071831259954
 30
0.0
 10
93.64871959464338
 20
-134.9071831259954
 30
0.0
 10
93.64871959464338
 20
-134.9071831259954
 30
0.0
 10
93.64871959464338
 20
-134.9071831259954
 30
0.0
 10
93.64871959464338
 20
-135.1125108169163
 30
0.0
 10
93.64871959464338
 20
-135.1125108169163
 30
0.0
 10
93.64871959464338
 20
-135.1125108169163
 30
0.0
 10
92.62070310184482
 20
-135.1125108169163
 30
0.0
 10
92.62070310184482
 20
-135.1125108169163
 30
0.0
 10
92.65239798030913
 20
-134.7549099055474
 30
0.0
 10
92.71785479452888
 20
-134.6767062380322
 30
0.0
 10
93.1030164697798
 20
-134.3783609690096
 30
0.0
 10
93.35898706433387
 20
-134.1795789595107
 30
0.0
 10
93.42444387855362
 20
-134.1117105784512
 30
0.0
 10
93.42444387855362
 20
-133.9742512685898
 30
0.0
 10
93.42444387855362
 20
-133.8557399838972
 30
0.0
 10
93.35244138291189
 20
-133.7244818459092
 30
0.0
 10
93.15572643070414
 20
-133.7244818459092
 30
0.0
 10
92.89562172156776
 20
-133.7244818459092
 30
0.0
 10
92.88735349240316
 20
-133.9553032434209
 30
0.0
 10
92.88287486827234
 20
-134.0714029612738
 30
0.0
 10
92.88287486827234
 20
-134.0714029612738
 30
0.0
 10
92.65859915218257
 20
-134.0714029612738
 30
0.0
 10
92.65859915218257
 20
-134.0714029612738
 30
0.0
 10
92.6672118908957
 20
-133.9446234474166
 30
0.0
 10
92.67789168689997
 20
-133.832657844146
 30
0.0
 10
92.7581624117063
 20
-133.7141465594534
 30
0.0
 10
92.86806095768577
 20
-133.5532606002922
 30
0.0
 10
93.05444062343778
 20
-133.5194986645368
 30
0.0
 10
93.1705403412907
 20
-133.5194986645368
 30
0.0
 10
93.44787052785331
 20
-133.5194986645368
 30
0.0
 10
93.65526527606535
 20
-133.7034667634491
 30
0.0
 10
93.65526527606535
 20
-133.9763183258809
 30
0.0
 10
93.65526527606535
 20
-134.204728156553
 30
0.0
 10
93.5388210486639
 20
-134.3042914160767
 30
0.0
 10
93.229795983637
 20
-134.5306341894576
 30
0.0
  0
HATCH
  5
72
330
6B
100
AcDbEntity
  8
_U+30EC_U+30A4_U+30E4_U+30FC 1
 62
   179
420
  2234388
100
AcDbHatch
 10
0.0
 20
0.0
 30
0.0
210
0.0
220
0.0
230
1.0
  2
SOLID
 70
     1
 71
     0
 91
        1
 92
        1
 93
        1
 72
     4
 94
        3
 73
     0
 74
     1
 95
       44
 96
       40
 40
0.0
 40
0.0
 40
0.0
 40
0.0
 40
1.0
 40
1.0
 40
1.0
 40
2.0
 40
2.0
 40
2.0
 40
3.0
 40
3.0
 40
3.0
 40
4.0
 40
4.0
 40
4.0
 40
5.0
 40
5.0
 40
5.0
 40
6.0
 40
6.0
 40
6.0
 40
7.0
 40
7.0
 40
7.0
 40
8.0
 40
8.0
 40
8.0
 40
9.0
 40
9.0
 40
9.0
 40
10.0
 40
10.0
 40
10.0
 40
11.0
 40
11.0
 40
11.0
 40
12.0
 40
12.0
 40
12.0
 40
13.0
 40
13.0
 40
13.0
 40
13.0
 10
93.229795983637
 20
-134.5306341894576
 10
93.01206594896921
 20
-134.6891085817791
 10
92.91904837086746
 20
-134.763178134712
 10
92.87012801497691
 20
-134.9071831259954
 10
92.87012801497691
 20
-134.9071831259954
 10
93.64871959464338
 20
-134.9071831259954
 10
93.64871959464338
 20
-134.9071831259954
 10
93.64871959464338
 20
-134.9071831259954
 10
93.64871959464338
 20
-135.1125108169163
 10
93.64871959464338
 20
-135.1125108169163
 10
93.64871959464338
 20
-135.1125108169163
 10
92.62070310184482
 20
-135.1125108169163
 10
92.62070310184482
 20
-135.1125108169163
 10
92.65239798030913
 20
-134.7549099055474
 10
92.71785479452888
 20
-134.6767062380322
 10
93.1030164697798
 20
-134.3783609690096
 10
93.35898706433387
 20
-134.1795789595107
 10
93.42444387855362
 20
-134.1117105784512
 10
93.42444387855362
 20
-133.9742512685898
 10
93.42444387855362
 20
-133.8557399838972
 10
93.35244138291189
 20
-133.7244818459092
 10
93.15572643070414
 20
-133.7244818459092
 10
92.89562172156776
 20
-133.7244818459092
 10
92.88735349240316
 20
-133.9553032434209
 10
92.88287486827234
 20
-134.0714029612738
 10
92.88287486827234
 20
-134.0714029612738
 10
92.65859915218257
 20
-134.0714029612738
 10
92.65859915218257
 20
-134.0714029612738
 10
92.6672118908957
 20
-133.9446234474166
 10
92.67789168689997
 20
-133.832657844146
 10
92.7581624117063
 20
-133.7141465594534
 10
92.86806095768577
 20
-133.5532606002922
 10
93.05444062343778
 20
-133.5194986645368
 10
93.1705403412907
 20
-133.5194986645368
 10
93.44787052785331
 20
-133.5194986645368
 10
93.65526527606535
 20
-133.7034667634491
 10
93.65526527606535
 20
-133.9763183258809
 10
93.65526527606535
 20
-134.204728156553
 10
93.5388210486639
 20
-134.3042914160767
 10
93.229795983637
 20
-134.5306341894576
 97
        0
 97
        0
 75
     2
 76
     1
 98
        0
  0
ENDBLK
  5
6E
330
6B
100
AcDbEntity
  8
0
100
AcDbBlockEnd
  0
BLOCK
  5
84
330
82
100
AcDbEntity
  8
0
100
AcDbBlockBegin
  2
block 3
 70
     0
 10
0.0
 20
0.0
 30
0.0
  3
block 3
  1

  0
SPLINE
  5
86
330
82
100
AcDbEntity
  8
_U+30EC_U+30A4_U+30E4_U+30FC 1
370
     0
100
AcDbSpline
210
0.0
220
0.0
230
1.0
 70
    11
 71
     3
 72
    26
 73
    22
 74
     0
 42
0.0000000001
 43
0.0000000001
 12
1.0
 22
0.0
 32
0.0
 13
1.0
 23
0.0
 33
0.0
 40
0.0
 40
0.0
 40
0.0
 40
0.0
 40
1.0
 40
1.0
 40
1.0
 40
2.0
 40
2.0
 40
2.0
 40
3.0
 40
3.0
 40
3.0
 40
4.0
 40
4.0
 40
4.0
 40
5.0
 40
5.0
 40
5.0
 40
6.0
 40
6.0
 40
6.0
 40
7.0
 40
7.0
 40
7.0
 40
7.0
 10
82.17603486443863
 20
-126.1223618933826
 30
0.0
 10
82.17603486443863
 20
-126.1223618933826
 30
0.0
 10
81.0717095066418
 20
-126.1223618933826
 30
0.0
 10
81.0717095066418
 20
-126.1223618933826
 30
0.0
 10
81.0717095066418
 20
-126.1223618933826
 30
0.0
 10
81.0717095066418
 20
-126.4524020408695
 30
0.0
 10
81.0717095066418
 20
-126.4524020408695
 30
0.0
 10
81.0717095066418
 20
-126.4524020408695
 30
0.0
 10
80.92374265555031
 20
-126.4524020408695
 30
0.0
 10
80.92374265555031
 20
-126.4524020408695
 30
0.0
 10
80.90892874496375
 20
-126.1202948360915
 30
0.0
 10
80.74597572851143
 20
-126.0736137922663
 30
0.0
 10
80.6317708131754
 20
-126.0441582258674
 30
0.0
 10
80.6317708131754
 20
-126.0441582258674
 30
0.0
 10
80.6317708131754
 20
-125.8980861772928
 30
0.0
 10
80.6317708131754
 20
-125.8980861772928
 30
0.0
 10
80.6317708131754
 20
-125.8980861772928
 30
0.0
 10
82.17603486443863
 20
-125.8980861772928
 30
0.0
 10
82.17603486443863
 20
-125.8980861772928
 30
0.0
 10
82.17603486443863
 20
-125.8980861772928
 30
0.0
 10
82.17603486443863
 20
-126.1223618933826
 30
0.0
 10
82.17603486443863
 20
-126.1223618933826
 30
0.0
  0
HATCH
  5
87
330
82
100
AcDbEntity
  8
_U+30EC_U+30A4_U+30E4_U+30FC 1
 62
   179
420
  2234388
100
AcDbHatch
 10
0.0
 20
0.0
 30
0.0
210
0.0
220
0.0
230
1.0
  2
SOLID
 70
     1
 71
     0
 91
        1
 92
        1
 93
        1
 72
     4
 94
        3
 73
     0
 74
     1
 95
       26
 96
       22
 40
0.0
 40
0.0
 40
0.0
 40
0.0
 40
1.0
 40
1.0
 40
1.0
 40
2.0
 40
2.0
 40
2.0
 40
3.0
 40
3.0
 40
3.0
 40
4.0
 40
4.0
 40
4.0
 40
5.0
 40
5.0
 40
5.0
 40
6.0
 40
6.0
 40
6.0
 40
7.0
 40
7.0
 40
7.0
 40
7.0
 10
82.17603486443863
 20
-126.1223618933826
 10
82.17603486443863
 20
-126.1223618933826
 10
81.0717095066418
 20
-126.1223618933826
 10
81.0717095066418
 20
-126.1223618933826
 10
81.0717095066418
 20
-126.1223618933826
 10
81.0717095066418
 20
-126.4524020408695
 10
81.0717095066418
 20
-126.4524020408695
 10
81.0717095066418
 20
-126.4524020408695
 10
80.92374265555031
 20
-126.4524020408695
 10
80.92374265555031
 20
-126.4524020408695
 10
80.90892874496375
 20
-126.1202948360915
 10
80.74597572851143
 20
-126.0736137922663
 10
80.6317708131754
 20
-126.0441582258674
 10
80.6317708131754
 20
-126.0441582258674
 10
80.6317708131754
 20
-125.8980861772928
 10
80.6317708131754
 20
-125.8980861772928
 10
80.6317708131754
 20
-125.8980861772928
 10
82.17603486443863
 20
-125.8980861772928
 10
82.17603486443863
 20
-125.8980861772928
 10
82.17603486443863
 20
-125.8980861772928
 10
82.17603486443863
 20
-126.1223618933826
 10
82.17603486443863
 20
-126.1223618933826
 97
        0
 97
        0
 75
     2
 76
     1
 98
        0
  0
SPLINE
  5
88
330
82
100
AcDbEntity
  8
_U+30EC_U+30A4_U+30E4_U+30FC 1
370
     0
100
AcDbSpline
210
0.0
220
0.0
230
1.0
 70
    11
 71
     3
 72
    44
 73
    40
 74
     0
 42
0.0000000001
 43
0.0000000001
 12
1.0
 22
0.0
 32
0.0
 13
1.0
 23
0.0
 33
0.0
 40
0.0
 40
0.0
 40
0.0
 40
0.0
 40
1.0
 40
1.0
 40
1.0
 40
2.0
 40
2.0
 40
2.0
 40
3.0
 40
3.0
 40
3.0
 40
4.0
 40
4.0
 40
4.0
 40
5.0
 40
5.0
 40
5.0
 40
6.0
 40
6.0
 40
6.0
 40
7.0
 40
7.0
 40
7.0
 40
8.0
 40
8.0
 40
8.0
 40
9.0
 40
9.0
 40
9.0
 40
10.0
 40
10.0
 40
10.0
 40
11.0
 40
11.0
 40
11.0
 40
12.0
 40
12.0
 40
12.0
 40
13.0
 40
13.0
 40
13.0
 40
13.0
 10
81.59433049175419
 20
-124.8037515964032
 30
0.0
 10
81.75297713884996
 20
-125.0216538858453
 30
0.0
 10
81.82704669178283
 20
-125.114671463947
 30
0.0
 10
81.97087942829201
 20
-125.1634195650633
 30
0.0
 10
81.97087942829201
 20
-125.1634195650633
 30
0.0
 10
81.97087942829201
 20
-124.3848279853969
 30
0.0
 10
81.97087942829201
 20
-124.3848279853969
 30
0.0
 10
81.97087942829201
 20
-124.3848279853969
 30
0.0
 10
82.17603486443863
 20
-124.3848279853969
 30
0.0
 10
82.17603486443863
 20
-124.3848279853969
 30
0.0
 10
82.17603486443863
 20
-124.3848279853969
 30
0.0
 10
82.17603486443863
 20
-125.4130167329697
 30
0.0
 10
82.17603486443863
 20
-125.4130167329697
 30
0.0
 10
81.81860620784396
 20
-125.3813218545054
 30
0.0
 10
81.74023028555453
 20
-125.3156927855114
 30
0.0
 10
81.44205727130615
 20
-124.9307033650347
 30
0.0
 10
81.24310300703297
 20
-124.6747327704806
 30
0.0
 10
81.17540688074781
 20
-124.6091037014866
 30
0.0
 10
81.03794757088635
 20
-124.6091037014866
 30
0.0
 10
80.91943628619376
 20
-124.6091037014866
 30
0.0
 10
80.78835040298
 20
-124.6811061971283
 30
0.0
 10
80.78835040298
 20
-124.8778211493361
 30
0.0
 10
80.78835040298
 20
-125.1379258584725
 30
0.0
 10
81.01882729094321
 20
-125.1465385971856
 30
0.0
 10
81.13527151834465
 20
-125.1506727117679
 30
0.0
 10
81.13527151834465
 20
-125.1506727117679
 30
0.0
 10
81.13527151834465
 20
-125.3749484278577
 30
0.0
 10
81.13527151834465
 20
-125.3749484278577
 30
0.0
 10
81.0083197497132
 20
-125.3665079439188
 30
0.0
 10
80.89618189166832
 20
-125.3558281479145
 30
0.0
 10
80.77767060697572
 20
-125.2755574231082
 30
0.0
 10
80.61695690258883
 20
-125.1654866223545
 30
0.0
 10
80.5830227120591
 20
-124.9792792113767
 30
0.0
 10
80.5830227120591
 20
-124.8630072387495
 30
0.0
 10
80.5830227120591
 20
-124.5858493069612
 30
0.0
 10
80.76716306574572
 20
-124.3784545587491
 30
0.0
 10
81.0400146281775
 20
-124.3784545587491
 30
0.0
 10
81.26859671362382
 20
-124.3784545587491
 30
0.0
 10
81.36798771837329
 20
-124.4948987861506
 30
0.0
 10
81.59433049175419
 20
-124.8037515964032
 30
0.0
  0
HATCH
  5
89
330
82
100
AcDbEntity
  8
_U+30EC_U+30A4_U+30E4_U+30FC 1
 62
   179
420
  2234388
100
AcDbHatch
 10
0.0
 20
0.0
 30
0.0
210
0.0
220
0.0
230
1.0
  2
SOLID
 70
     1
 71
     0
 91
        1
 92
        1
 93
        1
 72
     4
 94
        3
 73
     0
 74
     1
 95
       44
 96
       40
 40
0.0
 40
0.0
 40
0.0
 40
0.0
 40
1.0
 40
1.0
 40
1.0
 40
2.0
 40
2.0
 40
2.0
 40
3.0
 40
3.0
 40
3.0
 40
4.0
 40
4.0
 40
4.0
 40
5.0
 40
5.0
 40
5.0
 40
6.0
 40
6.0
 40
6.0
 40
7.0
 40
7.0
 40
7.0
 40
8.0
 40
8.0
 40
8.0
 40
9.0
 40
9.0
 40
9.0
 40
10.0
 40
10.0
 40
10.0
 40
11.0
 40
11.0
 40
11.0
 40
12.0
 40
12.0
 40
12.0
 40
13.0
 40
13.0
 40
13.0
 40
13.0
 10
81.59433049175419
 20
-124.8037515964032
 10
81.75297713884996
 20
-125.0216538858453
 10
81.82704669178283
 20
-125.114671463947
 10
81.97087942829201
 20
-125.1634195650633
 10
81.97087942829201
 20
-125.1634195650633
 10
81.97087942829201
 20
-124.3848279853969
 10
81.97087942829201
 20
-124.3848279853969
 10
81.97087942829201
 20
-124.3848279853969
 10
82.17603486443863
 20
-124.3848279853969
 10
82.17603486443863
 20
-124.3848279853969
 10
82.17603486443863
 20
-124.3848279853969
 10
82.17603486443863
 20
-125.4130167329697
 10
82.17603486443863
 20
-125.4130167329697
 10
81.81860620784396
 20
-125.3813218545054
 10
81.74023028555453
 20
-125.3156927855114
 10
81.44205727130615
 20
-124.9307033650347
 10
81.24310300703297
 20
-124.6747327704806
 10
81.17540688074781
 20
-124.6091037014866
 10
81.03794757088635
 20
-124.6091037014866
 10
80.91943628619376
 20
-124.6091037014866
 10
80.78835040298
 20
-124.6811061971283
 10
80.78835040298
 20
-124.8778211493361
 10
80.78835040298
 20
-125.1379258584725
 10
81.01882729094321
 20
-125.1465385971856
 10
81.13527151834465
 20
-125.1506727117679
 10
81.13527151834465
 20
-125.1506727117679
 10
81.13527151834465
 20
-125.3749484278577
 10
81.13527151834465
 20
-125.3749484278577
 10
81.0083197497132
 20
-125.3665079439188
 10
80.89618189166832
 20
-125.3558281479145
 10
80.77767060697572
 20
-125.2755574231082
 10
80.61695690258883
 20
-125.1654866223545
 10
80.5830227120591
 20
-124.9792792113767
 10
80.5830227120591
 20
-124.8630072387495
 10
80.5830227120591
 20
-124.5858493069612
 10
80.76716306574572
 20
-124.3784545587491
 10
81.0400146281775
 20
-124.3784545587491
 10
81.26859671362382
 20
-124.3784545587491
 10
81.36798771837329
 20
-124.4948987861506
 10
81.59433049175419
 20
-124.8037515964032
 97
        0
 97
        0
 75
     2
 76
     1
 98
        0
  0
ENDBLK
  5
85
330
82
100
AcDbEntity
  8
0
100
AcDbBlockEnd
  0
BLOCK
  5
9F
330
9D
100
AcDbEntity
  8
0
100
AcDbBlockBegin
  2
block 4
 70
     0
 10
0.0
 20
0.0
 30
0.0
  3
block 4
  1

  0
SPLINE
  5
A1
330
9D
100
AcDbEntity
  8
_U+30EC_U+30A4_U+30E4_U+30FC 1
370
     0
100
AcDbSpline
210
0.0
220
0.0
230
1.0
 70
    11
 71
     3
 72
    29
 73
    25
 74
     0
 42
0.0000000001
 43
0.0000000001
 12
1.0
 22
0.0
 32
0.0
 13
1.0
 23
0.0
 33
0.0
 40
0.0
 40
0.0
 40
0.0
 40
0.0
 40
1.0
 40
1.0
 40
1.0
 40
2.0
 40
2.0
 40
2.0
 40
3.0
 40
3.0
 40
3.0
 40
4.0
 40
4.0
 40
4.0
 40
5.0
 40
5.0
 40
5.0
 40
6.0
 40
6.0
 40
6.0
 40
7.0
 40
7.0
 40
7.0
 40
8.0
 40
8.0
 40
8.0
 40
8.0
 10
100.5874864114851
 20
-131.7955728837178
 30
0.0
 10
100.7969482169883
 20
-131.9034043724061
 30
0.0
 10
100.8158962421571
 20
-132.0770371848627
 30
0.0
 10
100.8158962421571
 20
-132.1934814122641
 30
0.0
 10
100.8158962421571
 20
-132.3540228618768
 30
0.0
 10
100.7693874531063
 20
-132.4959607958691
 30
0.0
 10
100.5874864114851
 20
-132.591045431262
 30
0.0
 10
100.3928385165685
 20
-132.694742805368
 30
0.0
 10
100.1558159471833
 20
-132.7136908305368
 30
0.0
 10
99.99286293073095
 20
-132.7136908305368
 30
0.0
 10
99.84920244899604
 20
-132.7136908305368
 30
0.0
 10
99.59736596902428
 20
-132.6968098626591
 30
0.0
 10
99.39858395952535
 20
-132.591045431262
 30
0.0
 10
99.19532332589561
 20
-132.4832139425737
 30
0.0
 10
99.17224118614445
 20
-132.3223279834125
 30
0.0
 10
99.17224118614445
 20
-132.1934814122641
 30
0.0
 10
99.17224118614445
 20
-132.0346625103941
 30
0.0
 10
99.21668291790417
 20
-131.8906575191107
 30
0.0
 10
99.39858395952535
 20
-131.7955728837178
 30
0.0
 10
99.59116479715082
 20
-131.6963541337426
 30
0.0
 10
99.81957462782289
 20
-131.6729274844429
 30
0.0
 10
99.99286293073095
 20
-131.6729274844429
 30
0.0
 10
100.1644286858964
 20
-131.6729274844429
 30
0.0
 10
100.3949055738596
 20
-131.6939425669029
 30
0.0
 10
100.5874864114851
 20
-131.7955728837178
 30
0.0
  0
SPLINE
  5
A2
330
9D
100
AcDbEntity
  8
_U+30EC_U+30A4_U+30E4_U+30FC 1
370
     0
100
AcDbSpline
210
0.0
220
0.0
230
1.0
 70
    11
 71
     3
 72
    17
 73
    13
 74
     0
 42
0.0000000001
 43
0.0000000001
 12
1.0
 22
0.0
 32
0.0
 13
1.0
 23
0.0
 33
0.0
 40
0.0
 40
0.0
 40
0.0
 40
0.0
 40
1.0
 40
1.0
 40
1.0
 40
2.0
 40
2.0
 40
2.0
 40
3.0
 40
3.0
 40
3.0
 40
4.0
 40
4.0
 40
4.0
 40
4.0
 10
99.3648220237699
 20
-132.1934814122641
 30
0.0
 10
99.3648220237699
 20
-132.4429063253962
 30
0.0
 10
99.64800887265744
 20
-132.4894151144471
 30
0.0
 10
99.99286293073095
 20
-132.4894151144471
 30
0.0
 10
100.3122232822136
 20
-132.4894151144471
 30
0.0
 10
100.6212483472405
 20
-132.4535861214005
 30
0.0
 10
100.6212483472405
 20
-132.1934814122641
 30
0.0
 10
100.6212483472405
 20
-131.9457790468747
 30
0.0
 10
100.3397840460956
 20
-131.8972032005327
 30
0.0
 10
99.99286293073095
 20
-131.8972032005327
 30
0.0
 10
99.6735025792483
 20
-131.8972032005327
 30
0.0
 10
99.3648220237699
 20
-131.9350992508704
 30
0.0
 10
99.3648220237699
 20
-132.1934814122641
 30
0.0
  0
HATCH
  5
A3
330
9D
100
AcDbEntity
  8
_U+30EC_U+30A4_U+30E4_U+30FC 1
 62
   179
420
  2234388
100
AcDbHatch
 10
0.0
 20
0.0
 30
0.0
210
0.0
220
0.0
230
1.0
  2
SOLID
 70
     1
 71
     0
 91
        2
 92
        1
 93
        1
 72
     4
 94
        3
 73
     0
 74
     1
 95
       29
 96
       25
 40
0.0
 40
0.0
 40
0.0
 40
0.0
 40
1.0
 40
1.0
 40
1.0
 40
2.0
 40
2.0
 40
2.0
 40
3.0
 40
3.0
 40
3.0
 40
4.0
 40
4.0
 40
4.0
 40
5.0
 40
5.0
 40
5.0
 40
6.0
 40
6.0
 40
6.0
 40
7.0
 40
7.0
 40
7.0
 40
8.0
 40
8.0
 40
8.0
 40
8.0
 10
100.5874864114851
 20
-131.7955728837178
 10
100.7969482169883
 20
-131.9034043724061
 10
100.8158962421571
 20
-132.0770371848627
 10
100.8158962421571
 20
-132.1934814122641
 10
100.8158962421571
 20
-132.3540228618768
 10
100.7693874531063
 20
-132.4959607958691
 10
100.5874864114851
 20
-132.591045431262
 10
100.3928385165685
 20
-132.694742805368
 10
100.1558159471833
 20
-132.7136908305368
 10
99.99286293073095
 20
-132.7136908305368
 10
99.84920244899604
 20
-132.7136908305368
 10
99.59736596902428
 20
-132.6968098626591
 10
99.39858395952535
 20
-132.591045431262
 10
99.19532332589561
 20
-132.4832139425737
 10
99.17224118614445
 20
-132.3223279834125
 10
99.17224118614445
 20
-132.1934814122641
 10
99.17224118614445
 20
-132.0346625103941
 10
99.21668291790417
 20
-131.8906575191107
 10
99.39858395952535
 20
-131.7955728837178
 10
99.59116479715082
 20
-131.6963541337426
 10
99.81957462782289
 20
-131.6729274844429
 10
99.99286293073095
 20
-131.6729274844429
 10
100.1644286858964
 20
-131.6729274844429
 10
100.3949055738596
 20
-131.6939425669029
 10
100.5874864114851
 20
-131.7955728837178
 97
        0
 97
        0
 92
        1
 93
        1
 72
     4
 94
        3
 73
     0
 74
     1
 95
       17
 96
       13
 40
0.0
 40
0.0
 40
0.0
 40
0.0
 40
1.0
 40
1.0
 40
1.0
 40
2.0
 40
2.0
 40
2.0
 40
3.0
 40
3.0
 40
3.0
 40
4.0
 40
4.0
 40
4.0
 40
4.0
 10
99.3648220237699
 20
-132.1934814122641
 10
99.3648220237699
 20
-132.4429063253962
 10
99.64800887265744
 20
-132.4894151144471
 10
99.99286293073095
 20
-132.4894151144471
 10
100.3122232822136
 20
-132.4894151144471
 10
100.6212483472405
 20
-132.4535861214005
 10
100.6212483472405
 20
-132.1934814122641
 10
100.6212483472405
 20
-131.9457790468747
 10
100.3397840460956
 20
-131.8972032005327
 10
99.99286293073095
 20
-131.8972032005327
 10
99.6735025792483
 20
-131.8972032005327
 10
99.3648220237699
 20
-131.9350992508704
 10
99.3648220237699
 20
-132.1934814122641
 97
        0
 97
        0
 75
     2
 76
     1
 98
        0
  0
POLYLINE
  5
A4
330
9D
100
AcDbEntity
  8
_U+30EC_U+30A4_U+30E4_U+30FC 1
370
     0
100
AcDb2dPolyline
 66
     1
 10
0.0
 20
0.0
 30
0.0
  0
VERTEX
  5
A5
330
A4
100
AcDbEntity
  8
_U+30EC_U+30A4_U+30E4_U+30FC 1
370
     0
100
AcDbVertex
100
AcDb2dVertex
 10
100.765253338524
 20
-131.4565754879692
 30
0.0
  0
VERTEX
  5
A6
330
A4
100
AcDbEntity
  8
_U+30EC_U+30A4_U+30E4_U+30FC 1
370
     0
100
AcDbVertex
100
AcDb2dVertex
 10
100.5134168585522
 20
-131.4565754879692
 30
0.0
  0
VERTEX
  5
A7
330
A4
100
AcDbEntity
  8
_U+30EC_U+30A4_U+30E4_U+30FC 1
370
     0
100
AcDbVertex
100
AcDb2dVertex
 10
100.5134168585522
 20
-131.2047390079974
 30
0.0
  0
VERTEX
  5
A8
330
A4
100
AcDbEntity
  8
_U+30EC_U+30A4_U+30E4_U+30FC 1
370
     0
100
AcDbVertex
100
AcDb2dVertex
 10
100.765253338524
 20
-131.2047390079974
 30
0.0
  0
VERTEX
  5
A9
330
A4
100
AcDbEntity
  8
_U+30EC_U+30A4_U+30E4_U+30FC 1
370
     0
100
AcDbVertex
100
AcDb2dVertex
 10
100.765253338524
 20
-131.4565754879692
 30
0.0
  0
SEQEND
  5
AA
330
A4
100
AcDbEntity
  8
_U+30EC_U+30A4_U+30E4_U+30FC 1
370
     0
  0
HATCH
  5
AB
330
9D
100
AcDbEntity
  8
_U+30EC_U+30A4_U+30E4_U+30FC 1
 62
   179
420
  2234388
100
AcDbHatch
 10
0.0
 20
0.0
 30
0.0
210
0.0
220
0.0
230
1.0
  2
SOLID
 70
     1
 71
     0
 91
        1
 92
        1
 93
        4
 72
     1
 10
100.765253338524
 20
-131.4565754879692
 11
100.5134168585522
 21
-131.4565754879692
 72
     1
 10
100.5134168585522
 20
-131.4565754879692
 11
100.5134168585522
 21
-131.2047390079974
 72
     1
 10
100.5134168585522
 20
-131.2047390079974
 11
100.765253338524
 21
-131.2047390079974
 72
     1
 10
100.765253338524
 20
-131.2047390079974
 11
100.765253338524
 21
-131.4565754879692
 97
        0
 75
     2
 76
     1
 98
        0
  0
SPLINE
  5
AC
330
9D
100
AcDbEntity
  8
_U+30EC_U+30A4_U+30E4_U+30FC 1
370
     0
100
AcDbSpline
210
0.0
220
0.0
230
1.0
 70
    11
 71
     3
 72
    29
 73
    25
 74
     0
 42
0.0000000001
 43
0.0000000001
 12
1.0
 22
0.0
 32
0.0
 13
1.0
 23
0.0
 33
0.0
 40
0.0
 40
0.0
 40
0.0
 40
0.0
 40
1.0
 40
1.0
 40
1.0
 40
2.0
 40
2.0
 40
2.0
 40
3.0
 40
3.0
 40
3.0
 40
4.0
 40
4.0
 40
4.0
 40
5.0
 40
5.0
 40
5.0
 40
6.0
 40
6.0
 40
6.0
 40
7.0
 40
7.0
 40
7.0
 40
8.0
 40
8.0
 40
8.0
 40
8.0
 10
100.8158962421571
 20
-130.468177593251
 30
0.0
 10
100.8158962421571
 20
-130.7348279838094
 30
0.0
 10
100.6784369322957
 20
-130.9887315210723
 30
0.0
 10
100.3294487596399
 20
-130.9887315210723
 30
0.0
 10
100.0734781650858
 20
-130.9887315210723
 30
0.0
 10
99.97804902014438
 20
-130.84679358708
 30
0.0
 10
99.91672632050694
 20
-130.7410291556828
 30
0.0
 10
99.85747067816064
 20
-130.8660861217974
 30
0.0
 10
99.74343801759886
 20
-130.9422227320214
 30
0.0
 10
99.5825520584377
 20
-130.9422227320214
 30
0.0
 10
99.30763343871476
 20
-130.9422227320214
 30
0.0
 10
99.17224118614445
 20
-130.7434407225225
 30
0.0
 10
99.17224118614445
 20
-130.468177593251
 30
0.0
 10
99.17224118614445
 20
-130.1846462348149
 30
0.0
 10
99.31590166787936
 20
-129.9944769640292
 30
0.0
 10
99.5825520584377
 20
-129.9944769640292
 30
0.0
 10
99.74343801759886
 20
-129.9944769640292
 30
0.0
 10
99.85747067816064
 20
-130.0726806315443
 30
0.0
 10
99.91672632050694
 20
-130.1973930881104
 30
0.0
 10
99.96771373368863
 20
-130.1085096245909
 30
0.0
 10
100.0627983690815
 20
-129.9500352322694
 30
0.0
 10
100.324970135509
 20
-129.9500352322694
 30
0.0
 10
100.6994520147557
 20
-129.9500352322694
 30
0.0
 10
100.8158962421571
 20
-130.2290879665747
 30
0.0
 10
100.8158962421571
 20
-130.468177593251
 30
0.0
  0
SPLINE
  5
AD
330
9D
100
AcDbEntity
  8
_U+30EC_U+30A4_U+30E4_U+30FC 1
370
     0
100
AcDbSpline
210
0.0
220
0.0
230
1.0
 70
    11
 71
     3
 72
    17
 73
    13
 74
     0
 42
0.0000000001
 43
0.0000000001
 12
1.0
 22
0.0
 32
0.0
 13
1.0
 23
0.0
 33
0.0
 40
0.0
 40
0.0
 40
0.0
 40
0.0
 40
1.0
 40
1.0
 40
1.0
 40
2.0
 40
2.0
 40
2.0
 40
3.0
 40
3.0
 40
3.0
 40
4.0
 40
4.0
 40
4.0
 40
4.0
 10
99.3648220237699
 20
-130.468177593251
 30
0.0
 10
99.3648220237699
 20
-130.6331976669945
 30
0.0
 10
99.45990665916281
 20
-130.7179470159316
 30
0.0
 10
99.59529891173312
 20
-130.7179470159316
 30
0.0
 10
99.71794431100801
 20
-130.7179470159316
 30
0.0
 10
99.83645559570061
 20
-130.6459445202899
 30
0.0
 10
99.83645559570061
 20
-130.468177593251
 30
0.0
 10
99.83645559570061
 20
-130.2904106662121
 30
0.0
 10
99.71794431100801
 20
-130.2187526801189
 30
0.0
 10
99.59529891173312
 20
-130.2187526801189
 30
0.0
 10
99.45990665916281
 20
-130.2187526801189
 30
0.0
 10
99.3648220237699
 20
-130.3052245767987
 30
0.0
 10
99.3648220237699
 20
-130.468177593251
 30
0.0
  0
SPLINE
  5
AE
330
9D
100
AcDbEntity
  8
_U+30EC_U+30A4_U+30E4_U+30FC 1
370
     0
100
AcDbSpline
210
0.0
220
0.0
230
1.0
 70
    11
 71
     3
 72
    17
 73
    13
 74
     0
 42
0.0000000001
 43
0.0000000001
 12
1.0
 22
0.0
 32
0.0
 13
1.0
 23
0.0
 33
0.0
 40
0.0
 40
0.0
 40
0.0
 40
0.0
 40
1.0
 40
1.0
 40
1.0
 40
2.0
 40
2.0
 40
2.0
 40
3.0
 40
3.0
 40
3.0
 40
4.0
 40
4.0
 40
4.0
 40
4.0
 10
100.0245578091953
 20
-130.468177593251
 30
0.0
 10
100.0245578091953
 20
-130.6121825845345
 30
0.0
 10
100.1113742154236
 20
-130.7644558049825
 30
0.0
 10
100.3146348490533
 20
-130.7644558049825
 30
0.0
 10
100.5196180304257
 20
-130.7644558049825
 30
0.0
 10
100.6212483472405
 20
-130.6376762911253
 30
0.0
 10
100.6212483472405
 20
-130.468177593251
 30
0.0
 10
100.6212483472405
 20
-130.2821424370475
 30
0.0
 10
100.4986029479656
 20
-130.1722438910681
 30
0.0
 10
100.3208360209267
 20
-130.1722438910681
 30
0.0
 10
100.0986273621281
 20
-130.1722438910681
 30
0.0
 10
100.0245578091953
 20
-130.3348523979718
 30
0.0
 10
100.0245578091953
 20
-130.468177593251
 30
0.0
  0
HATCH
  5
AF
330
9D
100
AcDbEntity
  8
_U+30EC_U+30A4_U+30E4_U+30FC 1
 62
   179
420
  2234388
100
AcDbHatch
 10
0.0
 20
0.0
 30
0.0
210
0.0
220
0.0
230
1.0
  2
SOLID
 70
     1
 71
     0
 91
        3
 92
        1
 93
        1
 72
     4
 94
        3
 73
     0
 74
     1
 95
       29
 96
       25
 40
0.0
 40
0.0
 40
0.0
 40
0.0
 40
1.0
 40
1.0
 40
1.0
 40
2.0
 40
2.0
 40
2.0
 40
3.0
 40
3.0
 40
3.0
 40
4.0
 40
4.0
 40
4.0
 40
5.0
 40
5.0
 40
5.0
 40
6.0
 40
6.0
 40
6.0
 40
7.0
 40
7.0
 40
7.0
 40
8.0
 40
8.0
 40
8.0
 40
8.0
 10
100.8158962421571
 20
-130.468177593251
 10
100.8158962421571
 20
-130.7348279838094
 10
100.6784369322957
 20
-130.9887315210723
 10
100.3294487596399
 20
-130.9887315210723
 10
100.0734781650858
 20
-130.9887315210723
 10
99.97804902014438
 20
-130.84679358708
 10
99.91672632050694
 20
-130.7410291556828
 10
99.85747067816064
 20
-130.8660861217974
 10
99.74343801759886
 20
-130.9422227320214
 10
99.5825520584377
 20
-130.9422227320214
 10
99.30763343871476
 20
-130.9422227320214
 10
99.17224118614445
 20
-130.7434407225225
 10
99.17224118614445
 20
-130.468177593251
 10
99.17224118614445
 20
-130.1846462348149
 10
99.31590166787936
 20
-129.9944769640292
 10
99.5825520584377
 20
-129.9944769640292
 10
99.74343801759886
 20
-129.9944769640292
 10
99.85747067816064
 20
-130.0726806315443
 10
99.91672632050694
 20
-130.1973930881104
 10
99.96771373368863
 20
-130.1085096245909
 10
100.0627983690815
 20
-129.9500352322694
 10
100.324970135509
 20
-129.9500352322694
 10
100.6994520147557
 20
-129.9500352322694
 10
100.8158962421571
 20
-130.2290879665747
 10
100.8158962421571
 20
-130.468177593251
 97
        0
 97
        0
 92
        1
 93
        1
 72
     4
 94
        3
 73
     0
 74
     1
 95
       17
 96
       13
 40
0.0
 40
0.0
 40
0.0
 40
0.0
 40
1.0
 40
1.0
 40
1.0
 40
2.0
 40
2.0
 40
2.0
 40
3.0
 40
3.0
 40
3.0
 40
4.0
 40
4.0
 40
4.0
 40
4.0
 10
99.3648220237699
 20
-130.468177593251
 10
99.3648220237699
 20
-130.6331976669945
 10
99.45990665916281
 20
-130.7179470159316
 10
99.59529891173312
 20
-130.7179470159316
 10
99.71794431100801
 20
-130.7179470159316
 10
99.83645559570061
 20
-130.6459445202899
 10
99.83645559570061
 20
-130.468177593251
 10
99.83645559570061
 20
-130.2904106662121
 10
99.71794431100801
 20
-130.2187526801189
 10
99.59529891173312
 20
-130.2187526801189
 10
99.45990665916281
 20
-130.2187526801189
 10
99.3648220237699
 20
-130.3052245767987
 10
99.3648220237699
 20
-130.468177593251
 97
        0
 97
        0
 92
        1
 93
        1
 72
     4
 94
        3
 73
     0
 74
     1
 95
       17
 96
       13
 40
0.0
 40
0.0
 40
0.0
 40
0.0
 40
1.0
 40
1.0
 40
1.0
 40
2.0
 40
2.0
 40
2.0
 40
3.0
 40
3.0
 40
3.0
 40
4.0
 40
4.0
 40
4.0
 40
4.0
 10
100.0245578091953
 20
-130.468177593251
 10
100.0245578091953
 20
-130.6121825845345
 10
100.1113742154236
 20
-130.7644558049825
 10
100.3146348490533
 20
-130.7644558049825
 10
100.5196180304257
 20
-130.7644558049825
 10
100.6212483472405
 20
-130.6376762911253
 10
100.6212483472405
 20
-130.468177593251
 10
100.6212483472405
 20
-130.2821424370475
 10
100.4986029479656
 20
-130.1722438910681
 10
100.3208360209267
 20
-130.1722438910681
 10
100.0986273621281
 20
-130.1722438910681
 10
100.0245578091953
 20
-130.3348523979718
 10
100.0245578091953
 20
-130.468177593251
 97
        0
 97
        0
 75
     2
 76
     1
 98
        0
  0
ENDBLK
  5
A0
330
9D
100
AcDbEntity
  8
0
100
AcDbBlockEnd
  0
ENDSEC
  0
SECTION
  2
ENTITIES
  0
POLYLINE
  5
41
330
1F
100
AcDbEntity
  8
_U+30EC_U+30A4_U+30E4_U+30FC 1
 62
   179
420
  2234388
370
    25
100
AcDb2dPolyline
 66
     1
 10
0.0
 20
0.0
 30
0.0
  0
VERTEX
  5
42
330
41
100
AcDbEntity
  8
_U+30EC_U+30A4_U+30E4_U+30FC 1
 62
   179
420
  2234388
370
    25
100
AcDbVertex
100
AcDb2dVertex
 10
86.54873608947395
 20
-131.4854988560174
 30
0.0
  0
VERTEX
  5
43
330
41
100
AcDbEntity
  8
_U+30EC_U+30A4_U+30E4_U+30FC 1
 62
   179
420
  2234388
370
    25
100
AcDbVertex
100
AcDb2dVertex
 10
98.54868137470257
 20
-131.4854988560174
 30
0.0
  0
SEQEND
  5
44
330
41
100
AcDbEntity
  8
_U+30EC_U+30A4_U+30E4_U+30FC 1
 62
   179
420
  2234388
370
    25
  0
POLYLINE
  5
45
330
1F
100
AcDbEntity
  8
_U+30EC_U+30A4_U+30E4_U+30FC 1
 62
   179
420
  2234388
370
    25
100
AcDb2dPolyline
 66
     1
 10
0.0
 20
0.0
 30
0.0
  0
VERTEX
  5
46
330
45
100
AcDbEntity
  8
_U+30EC_U+30A4_U+30E4_U+30FC 1
 62
   179
420
  2234388
370
    25
100
AcDbVertex
100
AcDb2dVertex
 10
86.54873608947395
 20
-119.4850571923509
 30
0.0
  0
VERTEX
  5
47
330
45
100
AcDbEntity
  8
_U+30EC_U+30A4_U+30E4_U+30FC 1
 62
   179
420
  2234388
370
    25
100
AcDbVertex
100
AcDb2dVertex
 10
86.54873608947395
 20
-131.4854988560174
 30
0.0
  0
SEQEND
  5
48
330
45
100
AcDbEntity
  8
_U+30EC_U+30A4_U+30E4_U+30FC 1
 62
   179
420
  2234388
370
    25
  0
POLYLINE
  5
49
330
1F
100
AcDbEntity
  8
_U+30EC_U+30A4_U+30E4_U+30FC 1
 62
   179
420
  2234388
370
    25
100
AcDb2dPolyline
 66
     1
 10
0.0
 20
0.0
 30
0.0
  0
VERTEX
  5
4A
330
49
100
AcDbEntity
  8
_U+30EC_U+30A4_U+30E4_U+30FC 1
 62
   179
420
  2234388
370
    25
100
AcDbVertex
100
AcDb2dVertex
 10
87.34865749377232
 20
-119.4850571923509
 30
0.0
  0
VERTEX
  5
4B
330
49
100
AcDbEntity
  8
_U+30EC_U+30A4_U+30E4_U+30FC 1
 62
   179
420
  2234388
370
    25
100
AcDbVertex
100
AcDb2dVertex
 10
87.34865749377232
 20
-130.6848696895508
 30
0.0
  0
SEQEND
  5
4C
330
49
100
AcDbEntity
  8
_U+30EC_U+30A4_U+30E4_U+30FC 1
 62
   179
420
  2234388
370
    25
  0
POLYLINE
  5
4D
330
1F
100
AcDbEntity
  8
_U+30EC_U+30A4_U+30E4_U+30FC 1
 62
   179
420
  2234388
370
    25
100
AcDb2dPolyline
 66
     1
 10
0.0
 20
0.0
 30
0.0
  0
VERTEX
  5
4E
330
4D
100
AcDbEntity
  8
_U+30EC_U+30A4_U+30E4_U+30FC 1
 62
   179
420
  2234388
370
    25
100
AcDbVertex
100
AcDb2dVertex
 10
87.34865749377232
 20
-130.6848696895508
 30
0.0
  0
VERTEX
  5
4F
330
4D
100
AcDbEntity
  8
_U+30EC_U+30A4_U+30E4_U+30FC 1
 62
   179
420
  2234388
370
    25
100
AcDbVertex
100
AcDb2dVertex
 10
98.54868137470257
 20
-130.6848696895508
 30
0.0
  0
SEQEND
  5
50
330
4D
100
AcDbEntity
  8
_U+30EC_U+30A4_U+30E4_U+30FC 1
 62
   179
420
  2234388
370
    25
  0
POLYLINE
  5
51
330
1F
100
AcDbEntity
  8
_U+30EC_U+30A4_U+30E4_U+30FC 1
 62
   179
420
  2234388
370
    25
100
AcDb2dPolyline
 66
     1
 10
0.0
 20
0.0
 30
0.0
  0
VERTEX
  5
52
330
51
100
AcDbEntity
  8
_U+30EC_U+30A4_U+30E4_U+30FC 1
 62
   179
420
  2234388
370
    25
100
AcDbVertex
100
AcDb2dVertex
 10
86.54873608947395
 20
-119.4850571923509
 30
0.0
  0
VERTEX
  5
53
330
51
100
AcDbEntity
  8
_U+30EC_U+30A4_U+30E4_U+30FC 1
 62
   179
420
  2234388
370
    25
100
AcDbVertex
100
AcDb2dVertex
 10
87.34865749377232
 20
-119.4850571923509
 30
0.0
  0
SEQEND
  5
54
330
51
100
AcDbEntity
  8
_U+30EC_U+30A4_U+30E4_U+30FC 1
 62
   179
420
  2234388
370
    25
  0
POLYLINE
  5
55
330
1F
100
AcDbEntity
  8
_U+30EC_U+30A4_U+30E4_U+30FC 1
 62
   179
420
  2234388
370
    25
100
AcDb2dPolyline
 66
     1
 10
0.0
 20
0.0
 30
0.0
  0
VERTEX
  5
56
330
55
100
AcDbEntity
  8
_U+30EC_U+30A4_U+30E4_U+30FC 1
 62
   179
420
  2234388
370
    25
100
AcDbVertex
100
AcDb2dVertex
 10
98.54868137470257
 20
-130.6848696895508
 30
0.0
  0
VERTEX
  5
57
330
55
100
AcDbEntity
  8
_U+30EC_U+30A4_U+30E4_U+30FC 1
 62
   179
420
  2234388
370
    25
100
AcDbVertex
100
AcDb2dVertex
 10
98.54868137470257
 20
-131.4854988560174
 30
0.0
  0
SEQEND
  5
58
330
55
100
AcDbEntity
  8
_U+30EC_U+30A4_U+30E4_U+30FC 1
 62
   179
420
  2234388
370
    25
  0
SPLINE
  5
59
330
1F
100
AcDbEntity
  8
_U+30EC_U+30A4_U+30E4_U+30FC 1
 62
   179
420
  2234388
370
     9
100
AcDbSpline
210
0.0
220
0.0
230
1.0
 70
    11
 71
     3
 72
    17
 73
    13
 74
     0
 42
0.0000000001
 43
0.0000000001
 12
1.0
 22
0.0
 32
0.0
 13
1.0
 23
0.0
 33
0.0
 40
0.0
 40
0.0
 40
0.0
 40
0.0
 40
1.0
 40
1.0
 40
1.0
 40
2.0
 40
2.0
 40
2.0
 40
3.0
 40
3.0
 40
3.0
 40
4.0
 40
4.0
 40
4.0
 40
4.0
 10
102.6486998812135
 20
-131.4854988560174
 30
0.0
 10
102.6486998812135
 20
-131.429689411587
 30
0.0
 10
102.6038971045787
 20
-131.3849219115984
 30
0.0
 10
102.5484404393269
 20
-131.3849219115984
 30
0.0
 10
102.4933012740669
 20
-131.3849219115984
 30
0.0
 10
102.448533775209
 20
-131.429689411587
 30
0.0
 10
102.448533775209
 20
-131.4854988560174
 30
0.0
 10
102.448533775209
 20
-131.5406380226705
 30
0.0
 10
102.4933012740669
 20
-131.5854055226591
 30
0.0
 10
102.5484404393269
 20
-131.5854055226591
 30
0.0
 10
102.6038971045787
 20
-131.5854055226591
 30
0.0
 10
102.6486998812135
 20
-131.5406380226705
 30
0.0
 10
102.6486998812135
 20
-131.4854988560174
 30
0.0
  0
SPLINE
  5
5A
330
1F
100
AcDbEntity
  8
_U+30EC_U+30A4_U+30E4_U+30FC 1
 62
   179
420
  2234388
370
     9
100
AcDbSpline
210
0.0
220
0.0
230
1.0
 70
    11
 71
     3
 72
    17
 73
    13
 74
     0
 42
0.0000000001
 43
0.0000000001
 12
1.0
 22
0.0
 32
0.0
 13
1.0
 23
0.0
 33
0.0
 40
0.0
 40
0.0
 40
0.0
 40
0.0
 40
1.0
 40
1.0
 40
1.0
 40
2.0
 40
2.0
 40
2.0
 40
3.0
 40
3.0
 40
3.0
 40
4.0
 40
4.0
 40
4.0
 40
4.0
 10
102.6486998812135
 20
-130.6848696895508
 30
0.0
 10
102.6486998812135
 20
-130.6297658006759
 30
0.0
 10
102.6038971045787
 20
-130.5849630229092
 30
0.0
 10
102.5484404393269
 20
-130.5849630229092
 30
0.0
 10
102.4933012740669
 20
-130.5849630229092
 30
0.0
 10
102.448533775209
 20
-130.6297658006759
 30
0.0
 10
102.448533775209
 20
-130.6848696895508
 30
0.0
 10
102.448533775209
 20
-130.7406791339812
 30
0.0
 10
102.4933012740669
 20
-130.785481911748
 30
0.0
 10
102.5484404393269
 20
-130.785481911748
 30
0.0
 10
102.6038971045787
 20
-130.785481911748
 30
0.0
 10
102.6486998812135
 20
-130.7406791339812
 30
0.0
 10
102.6486998812135
 20
-130.6848696895508
 30
0.0
  0
SPLINE
  5
5B
330
1F
100
AcDbEntity
  8
_U+30EC_U+30A4_U+30E4_U+30FC 1
 62
   179
420
  2234388
370
     9
100
AcDbSpline
210
0.0
220
0.0
230
1.0
 70
    11
 71
     3
 72
    17
 73
    13
 74
     0
 42
0.0000000001
 43
0.0000000001
 12
1.0
 22
0.0
 32
0.0
 13
1.0
 23
0.0
 33
0.0
 40
0.0
 40
0.0
 40
0.0
 40
0.0
 40
1.0
 40
1.0
 40
1.0
 40
2.0
 40
2.0
 40
2.0
 40
3.0
 40
3.0
 40
3.0
 40
4.0
 40
4.0
 40
4.0
 40
4.0
 10
98.6485880388204
 20
-135.4852580216843
 30
0.0
 10
98.6485880388204
 20
-135.4301541328094
 30
0.0
 10
98.60378526218564
 20
-135.3853513550427
 30
0.0
 10
98.54868137470257
 20
-135.3853513550427
 30
0.0
 10
98.49354220944262
 20
-135.3853513550427
 30
0.0
 10
98.44877471058473
 20
-135.4301541328094
 30
0.0
 10
98.44877471058473
 20
-135.4852580216843
 30
0.0
 10
98.44877471058473
 20
-135.5403971883374
 30
0.0
 10
98.49354220944262
 20
-135.585164688326
 30
0.0
 10
98.54868137470257
 20
-135.585164688326
 30
0.0
 10
98.60378526218564
 20
-135.585164688326
 30
0.0
 10
98.6485880388204
 20
-135.5403971883374
 30
0.0
 10
98.6485880388204
 20
-135.4852580216843
 30
0.0
  0
SPLINE
  5
5C
330
1F
100
AcDbEntity
  8
_U+30EC_U+30A4_U+30E4_U+30FC 1
 62
   179
420
  2234388
370
     9
100
AcDbSpline
210
0.0
220
0.0
230
1.0
 70
    11
 71
     3
 72
    17
 73
    13
 74
     0
 42
0.0000000001
 43
0.0000000001
 12
1.0
 22
0.0
 32
0.0
 13
1.0
 23
0.0
 33
0.0
 40
0.0
 40
0.0
 40
0.0
 40
0.0
 40
1.0
 40
1.0
 40
1.0
 40
2.0
 40
2.0
 40
2.0
 40
3.0
 40
3.0
 40
3.0
 40
4.0
 40
4.0
 40
4.0
 40
4.0
 10
86.64864056718679
 20
-135.4852580216843
 30
0.0
 10
86.64864056718679
 20
-135.4301541328094
 30
0.0
 10
86.60383779055202
 20
-135.3853513550427
 30
0.0
 10
86.54873608947395
 20
-135.3853513550427
 30
0.0
 10
86.493594737809
 20
-135.3853513550427
 30
0.0
 10
86.44882723895113
 20
-135.4301541328094
 30
0.0
 10
86.44882723895113
 20
-135.4852580216843
 30
0.0
 10
86.44882723895113
 20
-135.5403971883374
 30
0.0
 10
86.493594737809
 20
-135.585164688326
 30
0.0
 10
86.54873608947395
 20
-135.585164688326
 30
0.0
 10
86.60383779055202
 20
-135.585164688326
 30
0.0
 10
86.64864056718679
 20
-135.5403971883374
 30
0.0
 10
86.64864056718679
 20
-135.4852580216843
 30
0.0
  0
SPLINE
  5
5D
330
1F
100
AcDbEntity
  8
_U+30EC_U+30A4_U+30E4_U+30FC 1
 62
   179
420
  2234388
370
     9
100
AcDbSpline
210
0.0
220
0.0
230
1.0
 70
    11
 71
     3
 72
    17
 73
    13
 74
     0
 42
0.0000000001
 43
0.0000000001
 12
1.0
 22
0.0
 32
0.0
 13
1.0
 23
0.0
 33
0.0
 40
0.0
 40
0.0
 40
0.0
 40
0.0
 40
1.0
 40
1.0
 40
1.0
 40
2.0
 40
2.0
 40
2.0
 40
3.0
 40
3.0
 40
3.0
 40
4.0
 40
4.0
 40
4.0
 40
4.0
 10
82.64888150256247
 20
-131.4854988560174
 30
0.0
 10
82.64888150256247
 20
-131.429689411587
 30
0.0
 10
82.60407872592772
 20
-131.3849219115984
 30
0.0
 10
82.54862206067587
 20
-131.3849219115984
 30
0.0
 10
82.49348289541592
 20
-131.3849219115984
 30
0.0
 10
82.44871539655803
 20
-131.429689411587
 30
0.0
 10
82.44871539655803
 20
-131.4854988560174
 30
0.0
 10
82.44871539655803
 20
-131.5406380226705
 30
0.0
 10
82.49348289541592
 20
-131.5854055226591
 30
0.0
 10
82.54862206067587
 20
-131.5854055226591
 30
0.0
 10
82.60407872592772
 20
-131.5854055226591
 30
0.0
 10
82.64888150256247
 20
-131.5406380226705
 30
0.0
 10
82.64888150256247
 20
-131.4854988560174
 30
0.0
  0
SPLINE
  5
5E
330
1F
100
AcDbEntity
  8
_U+30EC_U+30A4_U+30E4_U+30FC 1
 62
   179
420
  2234388
370
     9
100
AcDbSpline
210
0.0
220
0.0
230
1.0
 70
    11
 71
     3
 72
    17
 73
    13
 74
     0
 42
0.0000000001
 43
0.0000000001
 12
1.0
 22
0.0
 32
0.0
 13
1.0
 23
0.0
 33
0.0
 40
0.0
 40
0.0
 40
0.0
 40
0.0
 40
1.0
 40
1.0
 40
1.0
 40
2.0
 40
2.0
 40
2.0
 40
3.0
 40
3.0
 40
3.0
 40
4.0
 40
4.0
 40
4.0
 40
4.0
 10
82.64888150256247
 20
-119.4850571923509
 30
0.0
 10
82.64888150256247
 20
-119.4299180256982
 30
0.0
 10
82.60407872592772
 20
-119.3851505257093
 30
0.0
 10
82.54862206067587
 20
-119.3851505257093
 30
0.0
 10
82.49348289541592
 20
-119.3851505257093
 30
0.0
 10
82.44871539655803
 20
-119.4299180256982
 30
0.0
 10
82.44871539655803
 20
-119.4850571923509
 30
0.0
 10
82.44871539655803
 20
-119.5405138590036
 30
0.0
 10
82.49348289541592
 20
-119.5852813589925
 30
0.0
 10
82.54862206067587
 20
-119.5852813589925
 30
0.0
 10
82.60407872592772
 20
-119.5852813589925
 30
0.0
 10
82.64888150256247
 20
-119.5405138590036
 30
0.0
 10
82.64888150256247
 20
-119.4850571923509
 30
0.0
  0
POLYLINE
  5
5F
330
1F
100
AcDbEntity
  8
_U+30EC_U+30A4_U+30E4_U+30FC 1
 62
   179
420
  2234388
370
     9
100
AcDb2dPolyline
 66
     1
 10
0.0
 20
0.0
 30
0.0
  0
VERTEX
  5
60
330
5F
100
AcDbEntity
  8
_U+30EC_U+30A4_U+30E4_U+30FC 1
 62
   179
420
  2234388
370
     9
100
AcDbVertex
100
AcDb2dVertex
 10
86.54873608947395
 20
-135.4852580216843
 30
0.0
  0
VERTEX
  5
61
330
5F
100
AcDbEntity
  8
_U+30EC_U+30A4_U+30E4_U+30FC 1
 62
   179
420
  2234388
370
     9
100
AcDbVertex
100
AcDb2dVertex
 10
98.54868137470257
 20
-135.4852580216843
 30
0.0
  0
SEQEND
  5
62
330
5F
100
AcDbEntity
  8
_U+30EC_U+30A4_U+30E4_U+30FC 1
 62
   179
420
  2234388
370
     9
  0
POLYLINE
  5
63
330
1F
100
AcDbEntity
  8
_U+30EC_U+30A4_U+30E4_U+30FC 1
 62
   179
420
  2234388
370
     9
100
AcDb2dPolyline
 66
     1
 10
0.0
 20
0.0
 30
0.0
  0
VERTEX
  5
64
330
63
100
AcDbEntity
  8
_U+30EC_U+30A4_U+30E4_U+30FC 1
 62
   179
420
  2234388
370
     9
100
AcDbVertex
100
AcDb2dVertex
 10
86.54873608947395
 20
-134.0252519109381
 30
0.0
  0
VERTEX
  5
65
330
63
100
AcDbEntity
  8
_U+30EC_U+30A4_U+30E4_U+30FC 1
 62
   179
420
  2234388
370
     9
100
AcDbVertex
100
AcDb2dVertex
 10
86.54873608947395
 20
-136.4850302436562
 30
0.0
  0
SEQEND
  5
66
330
63
100
AcDbEntity
  8
_U+30EC_U+30A4_U+30E4_U+30FC 1
 62
   179
420
  2234388
370
     9
  0
POLYLINE
  5
67
330
1F
100
AcDbEntity
  8
_U+30EC_U+30A4_U+30E4_U+30FC 1
 62
   179
420
  2234388
370
     9
100
AcDb2dPolyline
 66
     1
 10
0.0
 20
0.0
 30
0.0
  0
VERTEX
  5
68
330
67
100
AcDbEntity
  8
_U+30EC_U+30A4_U+30E4_U+30FC 1
 62
   179
420
  2234388
370
     9
100
AcDbVertex
100
AcDb2dVertex
 10
98.54868137470257
 20
-134.0252519109381
 30
0.0
  0
VERTEX
  5
69
330
67
100
AcDbEntity
  8
_U+30EC_U+30A4_U+30E4_U+30FC 1
 62
   179
420
  2234388
370
     9
100
AcDbVertex
100
AcDb2dVertex
 10
98.54868137470257
 20
-136.4850302436562
 30
0.0
  0
SEQEND
  5
6A
330
67
100
AcDbEntity
  8
_U+30EC_U+30A4_U+30E4_U+30FC 1
 62
   179
420
  2234388
370
     9
  0
INSERT
  5
6C
330
1F
100
AcDbEntity
  8
_U+30EC_U+30A4_U+30E4_U+30FC 1
100
AcDbBlockReference
  2
block 2
 10
0.0
 20
0.0
 30
0.0
  0
SPLINE
  5
73
330
1F
100
AcDbEntity
  8
_U+30EC_U+30A4_U+30E4_U+30FC 1
 62
   179
420
  2234388
370
    25
100
AcDbSpline
210
0.0
220
0.0
230
1.0
 70
    11
 71
     3
 72
    17
 73
    13
 74
     0
 42
0.0000000001
 43
0.0000000001
 12
1.0
 22
0.0
 32
0.0
 13
1.0
 23
0.0
 33
0.0
 40
0.0
 40
0.0
 40
0.0
 40
0.0
 40
1.0
 40
1.0
 40
1.0
 40
2.0
 40
2.0
 40
2.0
 40
3.0
 40
3.0
 40
3.0
 40
4.0
 40
4.0
 40
4.0
 40
4.0
 10
86.58387056883922
 20
-131.4854988560174
 30
0.0
 10
86.58387056883922
 20
-131.5047958004573
 30
0.0
 10
86.56799556924422
 20
-131.5206708004533
 30
0.0
 10
86.54873608947395
 20
-131.5206708004533
 30
0.0
 10
86.52943695911682
 20
-131.5206708004533
 30
0.0
 10
86.5135972372987
 20
-131.5047958004573
 30
0.0
 10
86.5135972372987
 20
-131.4854988560174
 30
0.0
 10
86.5135972372987
 20
-131.4655316338002
 30
0.0
 10
86.52943695911682
 20
-131.4496919115823
 30
0.0
 10
86.54873608947395
 20
-131.4496919115823
 30
0.0
 10
86.56799556924422
 20
-131.4496919115823
 30
0.0
 10
86.58387056883922
 20
-131.4655316338002
 30
0.0
 10
86.58387056883922
 20
-131.4854988560174
 30
0.0
  0
SPLINE
  5
74
330
1F
100
AcDbEntity
  8
_U+30EC_U+30A4_U+30E4_U+30FC 1
 62
   179
420
  2234388
370
    25
100
AcDbSpline
210
0.0
220
0.0
230
1.0
 70
    11
 71
     3
 72
    17
 73
    13
 74
     0
 42
0.0000000001
 43
0.0000000001
 12
1.0
 22
0.0
 32
0.0
 13
1.0
 23
0.0
 33
0.0
 40
0.0
 40
0.0
 40
0.0
 40
0.0
 40
1.0
 40
1.0
 40
1.0
 40
2.0
 40
2.0
 40
2.0
 40
3.0
 40
3.0
 40
3.0
 40
4.0
 40
4.0
 40
4.0
 40
4.0
 10
98.58381804047282
 20
-131.4854988560174
 30
0.0
 10
98.58381804047282
 20
-131.5047958004573
 30
0.0
 10
98.56797831865471
 20
-131.5206708004533
 30
0.0
 10
98.54868137470257
 20
-131.5206708004533
 30
0.0
 10
98.52938443075043
 20
-131.5206708004533
 30
0.0
 10
98.51354719759391
 20
-131.5047958004573
 30
0.0
 10
98.51354719759391
 20
-131.4854988560174
 30
0.0
 10
98.51354719759391
 20
-131.4655316338002
 30
0.0
 10
98.52938443075043
 20
-131.4496919115823
 30
0.0
 10
98.54868137470257
 20
-131.4496919115823
 30
0.0
 10
98.56797831865471
 20
-131.4496919115823
 30
0.0
 10
98.58381804047282
 20
-131.4655316338002
 30
0.0
 10
98.58381804047282
 20
-131.4854988560174
 30
0.0
  0
SPLINE
  5
75
330
1F
100
AcDbEntity
  8
_U+30EC_U+30A4_U+30E4_U+30FC 1
 62
   179
420
  2234388
370
     9
100
AcDbSpline
210
0.0
220
0.0
230
1.0
 70
    11
 71
     3
 72
    17
 73
    13
 74
     0
 42
0.0000000001
 43
0.0000000001
 12
1.0
 22
0.0
 32
0.0
 13
1.0
 23
0.0
 33
0.0
 40
0.0
 40
0.0
 40
0.0
 40
0.0
 40
1.0
 40
1.0
 40
1.0
 40
2.0
 40
2.0
 40
2.0
 40
3.0
 40
3.0
 40
3.0
 40
4.0
 40
4.0
 40
4.0
 40
4.0
 10
98.58381804047282
 20
-135.4852580216843
 30
0.0
 10
98.58381804047282
 20
-135.5045549661241
 30
0.0
 10
98.56797831865471
 20
-135.520394688342
 30
0.0
 10
98.54868137470257
 20
-135.520394688342
 30
0.0
 10
98.52938443075043
 20
-135.520394688342
 30
0.0
 10
98.51354719759391
 20
-135.5045549661241
 30
0.0
 10
98.51354719759391
 20
-135.4852580216843
 30
0.0
 10
98.51354719759391
 20
-135.4659610772445
 30
0.0
 10
98.52938443075043
 20
-135.4501213550266
 30
0.0
 10
98.54868137470257
 20
-135.4501213550266
 30
0.0
 10
98.56797831865471
 20
-135.4501213550266
 30
0.0
 10
98.58381804047282
 20
-135.4659610772445
 30
0.0
 10
98.58381804047282
 20
-135.4852580216843
 30
0.0
  0
POLYLINE
  5
76
330
1F
100
AcDbEntity
  8
_U+30EC_U+30A4_U+30E4_U+30FC 1
 62
   179
420
  2234388
370
     9
100
AcDb2dPolyline
 66
     1
 10
0.0
 20
0.0
 30
0.0
  0
VERTEX
  5
77
330
76
100
AcDbEntity
  8
_U+30EC_U+30A4_U+30E4_U+30FC 1
 62
   179
420
  2234388
370
     9
100
AcDbVertex
100
AcDb2dVertex
 10
82.54862206067587
 20
-119.4850571923509
 30
0.0
  0
VERTEX
  5
78
330
76
100
AcDbEntity
  8
_U+30EC_U+30A4_U+30E4_U+30FC 1
 62
   179
420
  2234388
370
     9
100
AcDbVertex
100
AcDb2dVertex
 10
82.54862206067587
 20
-131.4854988560174
 30
0.0
  0
SEQEND
  5
79
330
76
100
AcDbEntity
  8
_U+30EC_U+30A4_U+30E4_U+30FC 1
 62
   179
420
  2234388
370
     9
  0
POLYLINE
  5
7A
330
1F
100
AcDbEntity
  8
_U+30EC_U+30A4_U+30E4_U+30FC 1
 62
   179
420
  2234388
370
     9
100
AcDb2dPolyline
 66
     1
 10
0.0
 20
0.0
 30
0.0
  0
VERTEX
  5
7B
330
7A
100
AcDbEntity
  8
_U+30EC_U+30A4_U+30E4_U+30FC 1
 62
   179
420
  2234388
370
     9
100
AcDbVertex
100
AcDb2dVertex
 10
84.008663412316
 20
-119.4850571923509
 30
0.0
  0
VERTEX
  5
7C
330
7A
100
AcDbEntity
  8
_U+30EC_U+30A4_U+30E4_U+30FC 1
 62
   179
420
  2234388
370
     9
100
AcDbVertex
100
AcDb2dVertex
 10
81.54849708619118
 20
-119.4850571923509
 30
0.0
  0
SEQEND
  5
7D
330
7A
100
AcDbEntity
  8
_U+30EC_U+30A4_U+30E4_U+30FC 1
 62
   179
420
  2234388
370
     9
  0
POLYLINE
  5
7E
330
1F
100
AcDbEntity
  8
_U+30EC_U+30A4_U+30E4_U+30FC 1
 62
   179
420
  2234388
370
     9
100
AcDb2dPolyline
 66
     1
 10
0.0
 20
0.0
 30
0.0
  0
VERTEX
  5
7F
330
7E
100
AcDbEntity
  8
_U+30EC_U+30A4_U+30E4_U+30FC 1
 62
   179
420
  2234388
370
     9
100
AcDbVertex
100
AcDb2dVertex
 10
84.008663412316
 20
-131.4854988560174
 30
0.0
  0
VERTEX
  5
80
330
7E
100
AcDbEntity
  8
_U+30EC_U+30A4_U+30E4_U+30FC 1
 62
   179
420
  2234388
370
     9
100
AcDbVertex
100
AcDb2dVertex
 10
81.54849708619118
 20
-131.4854988560174
 30
0.0
  0
SEQEND
  5
81
330
7E
100
AcDbEntity
  8
_U+30EC_U+30A4_U+30E4_U+30FC 1
 62
   179
420
  2234388
370
     9
  0
INSERT
  5
83
330
1F
100
AcDbEntity
  8
_U+30EC_U+30A4_U+30E4_U+30FC 1
100
AcDbBlockReference
  2
block 3
 10
0.0
 20
0.0
 30
0.0
  0
SPLINE
  5
8A
330
1F
100
AcDbEntity
  8
_U+30EC_U+30A4_U+30E4_U+30FC 1
 62
   179
420
  2234388
370
    25
100
AcDbSpline
210
0.0
220
0.0
230
1.0
 70
    11
 71
     3
 72
    17
 73
    13
 74
     0
 42
0.0000000001
 43
0.0000000001
 12
1.0
 22
0.0
 32
0.0
 13
1.0
 23
0.0
 33
0.0
 40
0.0
 40
0.0
 40
0.0
 40
0.0
 40
1.0
 40
1.0
 40
1.0
 40
2.0
 40
2.0
 40
2.0
 40
3.0
 40
3.0
 40
3.0
 40
4.0
 40
4.0
 40
4.0
 40
4.0
 10
86.58387056883922
 20
-119.4850571923509
 30
0.0
 10
86.58387056883922
 20
-119.5046716367904
 30
0.0
 10
86.56799556924422
 20
-119.5205113590089
 30
0.0
 10
86.54873608947395
 20
-119.5205113590089
 30
0.0
 10
86.52943695911682
 20
-119.5205113590089
 30
0.0
 10
86.5135972372987
 20
-119.5046716367904
 30
0.0
 10
86.5135972372987
 20
-119.4850571923509
 30
0.0
 10
86.5135972372987
 20
-119.4657602479114
 30
0.0
 10
86.52943695911682
 20
-119.4498852479154
 30
0.0
 10
86.54873608947395
 20
-119.4498852479154
 30
0.0
 10
86.56799556924422
 20
-119.4498852479154
 30
0.0
 10
86.58387056883922
 20
-119.4657602479114
 30
0.0
 10
86.58387056883922
 20
-119.4850571923509
 30
0.0
  0
SPLINE
  5
8B
330
1F
100
AcDbEntity
  8
_U+30EC_U+30A4_U+30E4_U+30FC 1
 62
   179
420
  2234388
370
    25
100
AcDbSpline
210
0.0
220
0.0
230
1.0
 70
    11
 71
     3
 72
    17
 73
    13
 74
     0
 42
0.0000000001
 43
0.0000000001
 12
1.0
 22
0.0
 32
0.0
 13
1.0
 23
0.0
 33
0.0
 40
0.0
 40
0.0
 40
0.0
 40
0.0
 40
1.0
 40
1.0
 40
1.0
 40
2.0
 40
2.0
 40
2.0
 40
3.0
 40
3.0
 40
3.0
 40
4.0
 40
4.0
 40
4.0
 40
4.0
 10
86.58387056883922
 20
-131.4854988560174
 30
0.0
 10
86.58387056883922
 20
-131.5047958004573
 30
0.0
 10
86.56799556924422
 20
-131.5206708004533
 30
0.0
 10
86.54873608947395
 20
-131.5206708004533
 30
0.0
 10
86.52943695911682
 20
-131.5206708004533
 30
0.0
 10
86.5135972372987
 20
-131.5047958004573
 30
0.0
 10
86.5135972372987
 20
-131.4854988560174
 30
0.0
 10
86.5135972372987
 20
-131.4655316338002
 30
0.0
 10
86.52943695911682
 20
-131.4496919115823
 30
0.0
 10
86.54873608947395
 20
-131.4496919115823
 30
0.0
 10
86.56799556924422
 20
-131.4496919115823
 30
0.0
 10
86.58387056883922
 20
-131.4655316338002
 30
0.0
 10
86.58387056883922
 20
-131.4854988560174
 30
0.0
  0
SPLINE
  5
8C
330
1F
100
AcDbEntity
  8
_U+30EC_U+30A4_U+30E4_U+30FC 1
 62
   179
420
  2234388
370
     9
100
AcDbSpline
210
0.0
220
0.0
230
1.0
 70
    11
 71
     3
 72
    17
 73
    13
 74
     0
 42
0.0000000001
 43
0.0000000001
 12
1.0
 22
0.0
 32
0.0
 13
1.0
 23
0.0
 33
0.0
 40
0.0
 40
0.0
 40
0.0
 40
0.0
 40
1.0
 40
1.0
 40
1.0
 40
2.0
 40
2.0
 40
2.0
 40
3.0
 40
3.0
 40
3.0
 40
4.0
 40
4.0
 40
4.0
 40
4.0
 10
82.5841115042149
 20
-131.4854988560174
 30
0.0
 10
82.5841115042149
 20
-131.5047958004573
 30
0.0
 10
82.56827178239678
 20
-131.5206708004533
 30
0.0
 10
82.54862206067587
 20
-131.5206708004533
 30
0.0
 10
82.52897233895494
 20
-131.5206708004533
 30
0.0
 10
82.51348539490562
 20
-131.5047958004573
 30
0.0
 10
82.51348539490562
 20
-131.4854988560174
 30
0.0
 10
82.51348539490562
 20
-131.4655316338002
 30
0.0
 10
82.52897233895494
 20
-131.4496919115823
 30
0.0
 10
82.54862206067587
 20
-131.4496919115823
 30
0.0
 10
82.56827178239678
 20
-131.4496919115823
 30
0.0
 10
82.5841115042149
 20
-131.4655316338002
 30
0.0
 10
82.5841115042149
 20
-131.4854988560174
 30
0.0
  0
POLYLINE
  5
8D
330
1F
100
AcDbEntity
  8
_U+30EC_U+30A4_U+30E4_U+30FC 1
 62
   179
420
  2234388
370
     9
100
AcDb2dPolyline
 66
     1
 10
0.0
 20
0.0
 30
0.0
  0
VERTEX
  5
8E
330
8D
100
AcDbEntity
  8
_U+30EC_U+30A4_U+30E4_U+30FC 1
 62
   179
420
  2234388
370
     9
100
AcDbVertex
100
AcDb2dVertex
 10
102.5484404393269
 20
-130.6848696895508
 30
0.0
  0
VERTEX
  5
8F
330
8D
100
AcDbEntity
  8
_U+30EC_U+30A4_U+30E4_U+30FC 1
 62
   179
420
  2234388
370
     9
100
AcDbVertex
100
AcDb2dVertex
 10
102.5484404393269
 20
-125.4274930241985
 30
0.0
  0
SEQEND
  5
90
330
8D
100
AcDbEntity
  8
_U+30EC_U+30A4_U+30E4_U+30FC 1
 62
   179
420
  2234388
370
     9
  0
POLYLINE
  5
91
330
1F
100
AcDbEntity
  8
_U+30EC_U+30A4_U+30E4_U+30FC 1
 62
   179
420
  2234388
370
     9
100
AcDb2dPolyline
 66
     1
 10
0.0
 20
0.0
 30
0.0
  0
VERTEX
  5
92
330
91
100
AcDbEntity
  8
_U+30EC_U+30A4_U+30E4_U+30FC 1
 62
   179
420
  2234388
370
     9
100
AcDbVertex
100
AcDb2dVertex
 10
102.5484404393269
 20
-132.48527107799
 30
0.0
  0
VERTEX
  5
93
330
91
100
AcDbEntity
  8
_U+30EC_U+30A4_U+30E4_U+30FC 1
 62
   179
420
  2234388
370
     9
100
AcDbVertex
100
AcDb2dVertex
 10
102.5484404393269
 20
-130.6848696895508
 30
0.0
  0
SEQEND
  5
94
330
91
100
AcDbEntity
  8
_U+30EC_U+30A4_U+30E4_U+30FC 1
 62
   179
420
  2234388
370
     9
  0
POLYLINE
  5
95
330
1F
100
AcDbEntity
  8
_U+30EC_U+30A4_U+30E4_U+30FC 1
 62
   179
420
  2234388
370
     9
100
AcDb2dPolyline
 66
     1
 10
0.0
 20
0.0
 30
0.0
  0
VERTEX
  5
96
330
95
100
AcDbEntity
  8
_U+30EC_U+30A4_U+30E4_U+30FC 1
 62
   179
420
  2234388
370
     9
100
AcDbVertex
100
AcDb2dVertex
 10
101.0887518654555
 20
-131.4854988560174
 30
0.0
  0
VERTEX
  5
97
330
95
100
AcDbEntity
  8
_U+30EC_U+30A4_U+30E4_U+30FC 1
 62
   179
420
  2234388
370
     9
100
AcDbVertex
100
AcDb2dVertex
 10
103.5488829138035
 20
-131.4854988560174
 30
0.0
  0
SEQEND
  5
98
330
95
100
AcDbEntity
  8
_U+30EC_U+30A4_U+30E4_U+30FC 1
 62
   179
420
  2234388
370
     9
  0
POLYLINE
  5
99
330
1F
100
AcDbEntity
  8
_U+30EC_U+30A4_U+30E4_U+30FC 1
 62
   179
420
  2234388
370
     9
100
AcDb2dPolyline
 66
     1
 10
0.0
 20
0.0
 30
0.0
  0
VERTEX
  5
9A
330
99
100
AcDbEntity
  8
_U+30EC_U+30A4_U+30E4_U+30FC 1
 62
   179
420
  2234388
370
     9
100
AcDbVertex
100
AcDb2dVertex
 10
101.0887518654555
 20
-130.6848696895508
 30
0.0
  0
VERTEX
  5
9B
330
99
100
AcDbEntity
  8
_U+30EC_U+30A4_U+30E4_U+30FC 1
 62
   179
420
  2234388
370
     9
100
AcDbVertex
100
AcDb2dVertex
 10
103.5488829138035
 20
-130.6848696895508
 30
0.0
  0
SEQEND
  5
9C
330
99
100
AcDbEntity
  8
_U+30EC_U+30A4_U+30E4_U+30FC 1
 62
   179
420
  2234388
370
     9
  0
INSERT
  5
9E
330
1F
100
AcDbEntity
  8
_U+30EC_U+30A4_U+30E4_U+30FC 1
100
AcDbBlockReference
  2
block 4
 10
0.0
 20
0.0
 30
0.0
  0
SPLINE
  5
B0
330
1F
100
AcDbEntity
  8
_U+30EC_U+30A4_U+30E4_U+30FC 1
 62
   179
420
  2234388
370
    25
100
AcDbSpline
210
0.0
220
0.0
230
1.0
 70
    11
 71
     3
 72
    17
 73
    13
 74
     0
 42
0.0000000001
 43
0.0000000001
 12
1.0
 22
0.0
 32
0.0
 13
1.0
 23
0.0
 33
0.0
 40
0.0
 40
0.0
 40
0.0
 40
0.0
 40
1.0
 40
1.0
 40
1.0
 40
2.0
 40
2.0
 40
2.0
 40
3.0
 40
3.0
 40
3.0
 40
4.0
 40
4.0
 40
4.0
 40
4.0
 10
98.58381804047282
 20
-131.4854988560174
 30
0.0
 10
98.58381804047282
 20
-131.5047958004573
 30
0.0
 10
98.56797831865471
 20
-131.5206708004533
 30
0.0
 10
98.54868137470257
 20
-131.5206708004533
 30
0.0
 10
98.52938443075043
 20
-131.5206708004533
 30
0.0
 10
98.51354719759391
 20
-131.5047958004573
 30
0.0
 10
98.51354719759391
 20
-131.4854988560174
 30
0.0
 10
98.51354719759391
 20
-131.4655316338002
 30
0.0
 10
98.52938443075043
 20
-131.4496919115823
 30
0.0
 10
98.54868137470257
 20
-131.4496919115823
 30
0.0
 10
98.56797831865471
 20
-131.4496919115823
 30
0.0
 10
98.58381804047282
 20
-131.4655316338002
 30
0.0
 10
98.58381804047282
 20
-131.4854988560174
 30
0.0
  0
SPLINE
  5
B1
330
1F
100
AcDbEntity
  8
_U+30EC_U+30A4_U+30E4_U+30FC 1
 62
   179
420
  2234388
370
    25
100
AcDbSpline
210
0.0
220
0.0
230
1.0
 70
    11
 71
     3
 72
    17
 73
    13
 74
     0
 42
0.0000000001
 43
0.0000000001
 12
1.0
 22
0.0
 32
0.0
 13
1.0
 23
0.0
 33
0.0
 40
0.0
 40
0.0
 40
0.0
 40
0.0
 40
1.0
 40
1.0
 40
1.0
 40
2.0
 40
2.0
 40
2.0
 40
3.0
 40
3.0
 40
3.0
 40
4.0
 40
4.0
 40
4.0
 40
4.0
 10
98.58381804047282
 20
-130.6848696895508
 30
0.0
 10
98.58381804047282
 20
-130.7048721895462
 30
0.0
 10
98.56797831865471
 20
-130.7207119117641
 30
0.0
 10
98.54868137470257
 20
-130.7207119117641
 30
0.0
 10
98.52938443075043
 20
-130.7207119117641
 30
0.0
 10
98.51354719759391
 20
-130.7048721895462
 30
0.0
 10
98.51354719759391
 20
-130.6848696895508
 30
0.0
 10
98.51354719759391
 20
-130.6655727451116
 30
0.0
 10
98.52938443075043
 20
-130.6497330228931
 30
0.0
 10
98.54868137470257
 20
-130.6497330228931
 30
0.0
 10
98.56797831865471
 20
-130.6497330228931
 30
0.0
 10
98.58381804047282
 20
-130.6655727451116
 30
0.0
 10
98.58381804047282
 20
-130.6848696895508
 30
0.0
  0
SPLINE
  5
B2
330
1F
100
AcDbEntity
  8
_U+30EC_U+30A4_U+30E4_U+30FC 1
 62
   179
420
  2234388
370
     9
100
AcDbSpline
210
0.0
220
0.0
230
1.0
 70
    11
 71
     3
 72
    17
 73
    13
 74
     0
 42
0.0000000001
 43
0.0000000001
 12
1.0
 22
0.0
 32
0.0
 13
1.0
 23
0.0
 33
0.0
 40
0.0
 40
0.0
 40
0.0
 40
0.0
 40
1.0
 40
1.0
 40
1.0
 40
2.0
 40
2.0
 40
2.0
 40
3.0
 40
3.0
 40
3.0
 40
4.0
 40
4.0
 40
4.0
 40
4.0
 10
102.5839298828659
 20
-130.6848696895508
 30
0.0
 10
102.5839298828659
 20
-130.7048721895462
 30
0.0
 10
102.5684076610397
 20
-130.7207119117641
 30
0.0
 10
102.5484404393269
 20
-130.7207119117641
 30
0.0
 10
102.5291434953747
 20
-130.7207119117641
 30
0.0
 10
102.5133037735566
 20
-130.7048721895462
 30
0.0
 10
102.5133037735566
 20
-130.6848696895508
 30
0.0
 10
102.5133037735566
 20
-130.6655727451116
 30
0.0
 10
102.5291434953747
 20
-130.6497330228931
 30
0.0
 10
102.5484404393269
 20
-130.6497330228931
 30
0.0
 10
102.5684076610397
 20
-130.6497330228931
 30
0.0
 10
102.5839298828659
 20
-130.6655727451116
 30
0.0
 10
102.5839298828659
 20
-130.6848696895508
 30
0.0
  0
ENDSEC
  0
SECTION
  2
OBJECTS
  0
DICTIONARY
  5
C
330
0
100
AcDbDictionary
281
     1
  3
ACAD_GROUP
350
D
  3
ACAD_LAYOUT
350
1A
  3
ACAD_MATERIAL
350
3B
  3
ACAD_MLEADERSTYLE
350
B4
  3
ACAD_MLINESTYLE
350
17
  3
ACAD_PLOTSETTINGS
350
19
  3
ACAD_PLOTSTYLENAME
350
E
  3
ACAD_TABLESTYLE
350
B3
  3
ACAD_VISUALSTYLE
350
2A
  0
SUN
  5
3F
330
29
100
AcDbSun
 90
        1
290
     0
 63
     7
421
 16777215
 40
1.0
291
     1
 91
  2455826
 92
 54000000
292
     0
 70
     2
 71
   256
280
     1
  0
DICTIONARY
  5
D
102
{ACAD_REACTORS
330
C
102
}
330
C
100
AcDbDictionary
281
     1
  0
DICTIONARY
  5
1A
102
{ACAD_REACTORS
330
C
102
}
330
C
100
AcDbDictionary
281
     1
  3
Layout1
350
1E
  3
Layout2
350
26
  3
Model
350
22
  0
DICTIONARY
  5
3B
102
{ACAD_REACTORS
330
C
102
}
330
C
100
AcDbDictionary
281
     1
  3
ByBlock
350
3D
  3
ByLayer
350
3C
  3
Global
350
3E
  0
DICTIONARY
  5
B4
102
{ACAD_REACTORS
330
C
102
}
330
C
100
AcDbDictionary
281
     1
  0
DICTIONARY
  5
17
102
{ACAD_REACTORS
330
C
102
}
330
C
100
AcDbDictionary
281
     1
  3
Standard
350
18
  0
DICTIONARY
  5
19
102
{ACAD_REACTORS
330
C
102
}
330
C
100
AcDbDictionary
281
     1
  0
ACDBDICTIONARYWDFLT
  5
E
102
{ACAD_REACTORS
330
C
102
}
330
C
100
AcDbDictionary
281
     1
  3
Normal
350
F
100
AcDbDictionaryWithDefault
340
F
  0
DICTIONARY
  5
B3
102
{ACAD_REACTORS
330
C
102
}
330
C
100
AcDbDictionary
281
     1
  0
DICTIONARY
  5
2A
102
{ACAD_REACTORS
330
C
102
}
330
C
100
AcDbDictionary
281
     1
  3
2dWireframe
350
2F
  3
3D Hidden
350
31
  3
3dWireframe
350
30
  3
Basic
350
32
  3
Brighten
350
36
  3
ColorChange
350
3A
  3
Conceptual
350
34
  3
Dim
350
35
  3
Facepattern
350
39
  3
Flat
350
2B
  3
FlatWithEdges
350
2C
  3
Gouraud
350
2D
  3
GouraudWithEdges
350
2E
  3
Linepattern
350
38
  3
Realistic
350
33
  3
Thicken
350
37
  0
LAYOUT
  5
1E
102
{ACAD_REACTORS
330
1A
102
}
330
1A
100
AcDbPlotSettings
  1

  2
none_device
  4

  6

 40
0.0
 41
0.0
 42
0.0
 43
0.0
 44
0.0
 45
0.0
 46
0.0
 47
0.0
 48
0.0
 49
0.0
140
0.0
141
0.0
142
1.0
143
1.0
 70
   688
 72
     0
 73
     0
 74
     5
  7

 75
    16
 76
     0
 77
     2
 78
   300
147
1.0
148
0.0
149
0.0
100
AcDbLayout
  1
Layout1
 70
     1
 71
     1
 10
0.0
 20
0.0
 11
12.0
 21
9.0
 12
0.0
 22
0.0
 32
0.0
 14
1.000000000000000E+20
 24
1.000000000000000E+20
 34
1.000000000000000E+20
 15
-1.000000000000000E+20
 25
-1.000000000000000E+20
 35
-1.000000000000000E+20
146
0.0
 13
0.0
 23
0.0
 33
0.0
 16
1.0
 26
0.0
 36
0.0
 17
0.0
 27
1.0
 37
0.0
 76
     0
330
1B
  0
LAYOUT
  5
26
102
{ACAD_REACTORS
330
1A
102
}
330
1A
100
AcDbPlotSettings
  1

  2
none_device
  4

  6

 40
0.0
 41
0.0
 42
0.0
 43
0.0
 44
0.0
 45
0.0
 46
0.0
 47
0.0
 48
0.0
 49
0.0
140
0.0
141
0.0
142
1.0
143
1.0
 70
   688
 72
     0
 73
     0
 74
     5
  7

 75
    16
 76
     0
 77
     2
 78
   300
147
1.0
148
0.0
149
0.0
100
AcDbLayout
  1
Layout2
 70
     1
 71
     2
 10
0.0
 20
0.0
 11
0.0
 21
0.0
 12
0.0
 22
0.0
 32
0.0
 14
0.0
 24
0.0
 34
0.0
 15
0.0
 25
0.0
 35
0.0
146
0.0
 13
0.0
 23
0.0
 33
0.0
 16
1.0
 26
0.0
 36
0.0
 17
0.0
 27
1.0
 37
0.0
 76
     0
330
23
  0
LAYOUT
  5
22
102
{ACAD_REACTORS
330
1A
102
}
330
1A
100
AcDbPlotSettings
  1

  2
none_device
  4

  6

 40
0.0
 41
0.0
 42
0.0
 43
0.0
 44
0.0
 45
0.0
 46
0.0
 47
0.0
 48
0.0
 49
0.0
140
0.0
141
0.0
142
1.0
143
1.0
 70
  1712
 72
     0
 73
     0
 74
     0
  7

 75
     0
 76
     0
 77
     2
 78
   300
147
1.0
148
0.0
149
0.0
100
AcDbLayout
  1
Model
 70
     1
 71
     0
 10
0.0
 20
0.0
 11
12.0
 21
9.0
 12
0.0
 22
0.0
 32
0.0
 14
1.000000000000000E+20
 24
1.000000000000000E+20
 34
1.000000000000000E+20
 15
-1.000000000000000E+20
 25
-1.000000000000000E+20
 35
-1.000000000000000E+20
146
0.0
 13
0.0
 23
0.0
 33
0.0
 16
1.0
 26
0.0
 36
0.0
 17
0.0
 27
1.0
 37
0.0
 76
     0
330
1F
331
29
  0
MATERIAL
  5
3D
102
{ACAD_REACTORS
330
3B
102
}
330
3B
100
AcDbMaterial
  1
ByBlock
 72
     1
 94
      127
  0
MATERIAL
  5
3C
102
{ACAD_REACTORS
330
3B
102
}
330
3B
100
AcDbMaterial
  1
ByLayer
 72
     1
 94
      127
  0
MATERIAL
  5
3E
102
{ACAD_REACTORS
330
3B
102
}
330
3B
100
AcDbMaterial
  1
Global
 72
     1
 94
      127
  0
MLINESTYLE
  5
18
102
{ACAD_REACTORS
330
17
102
}
330
17
100
AcDbMlineStyle
  2
Standard
 70
     0
  3

 62
   256
 51
90.0
 52
90.0
 71
     2
 49
0.5
 62
   256
  6
BYLAYER
 49
-0.5
 62
   256
  6
BYLAYER
  0
ACDBPLACEHOLDER
  5
F
102
{ACAD_REACTORS
330
E
102
}
330
E
  0
VISUALSTYLE
  5
2F
102
{ACAD_REACTORS
330
2A
102
}
330
2A
100
AcDbVisualStyle
  2
2dWireframe
 70
     4
177
     2
291
     0
 71
     0
176
     1
 72
     2
176
     1
 73
     0
176
     1
 90
        0
176
     1
 40
-0.6
176
     1
 41
-30.0
176
     1
 62
     5
 63
     7
421
 16777215
176
     1
 74
     1
176
     1
 91
        4
176
     1
 64
     7
176
     1
 65
   257
176
     1
 75
     1
176
     1
175
     1
176
     1
 42
1.0
176
     1
 92
        0
176
     1
 66
   257
176
     1
 43
1.0
176
     1
 76
     1
176
     1
 77
     6
176
     1
 78
     2
176
     1
 67
     7
176
     1
 79
     5
176
     1
170
     0
176
     1
171
     0
176
     1
290
     0
176
     1
 93
        1
176
     1
 44
0.0
176
     1
173
     0
176
     1
  0
VISUALSTYLE
  5
31
102
{ACAD_REACTORS
330
2A
102
}
330
2A
100
AcDbVisualStyle
  2
3D Hidden
 70
     6
177
     2
291
     0
 71
     1
176
     1
 72
     2
176
     1
 73
     2
176
     1
 90
        0
176
     1
 40
-0.6
176
     1
 41
-30.0
176
     1
 62
     5
 63
     7
421
 16777215
176
     1
 74
     2
176
     1
 91
        2
176
     1
 64
     7
176
     1
 65
   257
176
     1
 75
     2
176
     1
175
     1
176
     1
 42
40.0
176
     1
 92
        0
176
     1
 66
   257
176
     1
 43
1.0
176
     1
 76
     1
176
     1
 77
     6
176
     1
 78
     2
176
     1
 67
     7
176
     1
 79
     3
176
     1
170
     0
176
     1
171
     0
176
     1
290
     0
176
     1
 93
        1
176
     1
 44
0.0
176
     1
173
     0
176
     1
  0
VISUALSTYLE
  5
30
102
{ACAD_REACTORS
330
2A
102
}
330
2A
100
AcDbVisualStyle
  2
3dWireframe
 70
     5
177
     2
291
     0
 71
     0
176
     1
 72
     2
176
     1
 73
     0
176
     1
 90
        0
176
     1
 40
-0.6
176
     1
 41
-30.0
176
     1
 62
     5
 63
     7
421
 16777215
176
     1
 74
     1
176
     1
 91
        4
176
     1
 64
     7
176
     1
 65
   257
176
     1
 75
     1
176
     1
175
     1
176
     1
 42
1.0
176
     1
 92
        0
176
     1
 66
   257
176
     1
 43
1.0
176
     1
 76
     1
176
     1
 77
     6
176
     1
 78
     2
176
     1
 67
     7
176
     1
 79
     5
176
     1
170
     0
176
     1
171
     0
176
     1
290
     0
176
     1
 93
        1
176
     1
 44
0.0
176
     1
173
     0
176
     1
  0
VISUALSTYLE
  5
32
102
{ACAD_REACTORS
330
2A
102
}
330
2A
100
AcDbVisualStyle
  2
Basic
 70
     7
177
     2
291
     1
 71
     1
176
     1
 72
     0
176
     1
 73
     1
176
     1
 90
        0
176
     1
 40
-0.6
176
     1
 41
-30.0
176
     1
 62
     5
 63
     7
421
 16777215
176
     1
 74
     0
176
     1
 91
        4
176
     1
 64
     7
176
     1
 65
   257
176
     1
 75
     1
176
     1
175
     1
176
     1
 42
1.0
176
     1
 92
        8
176
     1
 66
     7
176
     1
 43
1.0
176
     1
 76
     1
176
     1
 77
     6
176
     1
 78
     2
176
     1
 67
     7
176
     1
 79
     5
176
     1
170
     0
176
     1
171
     0
176
     1
290
     0
176
     1
 93
        1
176
     1
 44
0.0
176
     1
173
     0
176
     1
  0
VISUALSTYLE
  5
36
102
{ACAD_REACTORS
330
2A
102
}
330
2A
100
AcDbVisualStyle
  2
Brighten
 70
    12
177
     2
291
     1
 71
     2
176
     1
 72
     2
176
     1
 73
     0
176
     1
 90
        0
176
     1
 40
-0.6
176
     1
 41
-30.0
176
     1
 62
     5
 63
     7
421
 16777215
176
     1
 74
     1
176
     1
 91
        4
176
     1
 64
     7
176
     1
 65
   257
176
     1
 75
     1
176
     1
175
     1
176
     1
 42
1.0
176
     1
 92
        8
176
     1
 66
     7
176
     1
 43
1.0
176
     1
 76
     1
176
     1
 77
     6
176
     1
 78
     2
176
     1
 67
     7
176
     1
 79
     5
176
     1
170
     0
176
     1
171
     0
176
     1
290
     0
176
     1
 93
        1
176
     1
 44
50.0
176
     1
173
     0
176
     1
  0
VISUALSTYLE
  5
3A
102
{ACAD_REACTORS
330
2A
102
}
330
2A
100
AcDbVisualStyle
  2
ColorChange
 70
    16
177
     2
291
     1
 71
     2
176
     1
 72
     2
176
     1
 73
     3
176
     1
 90
        0
176
     1
 40
-0.6
176
     1
 41
-30.0
176
     1
 62
     5
 63
     8
421
  8421504
176
     1
 74
     1
176
     1
 91
        4
176
     1
 64
     7
176
     1
 65
   257
176
     1
 75
     1
176
     1
175
     1
176
     1
 42
1.0
176
     1
 92
        8
176
     1
 66
     8
424
  8421504
176
     1
 43
1.0
176
     1
 76
     1
176
     1
 77
     6
176
     1
 78
     2
176
     1
 67
     7
176
     1
 79
     5
176
     1
170
     0
176
     1
171
     0
176
     1
290
     0
176
     1
 93
        1
176
     1
 44
0.0
176
     1
173
     0
176
     1
  0
VISUALSTYLE
  5
34
102
{ACAD_REACTORS
330
2A
102
}
330
2A
100
AcDbVisualStyle
  2
Conceptual
 70
     9
177
     2
291
     0
 71
     3
176
     1
 72
     2
176
     1
 73
     0
176
     1
 90
        0
176
     1
 40
-0.6
176
     1
 41
-30.0
176
     1
 62
     5
 63
     7
421
 16777215
176
     1
 74
     2
176
     1
 91
        2
176
     1
 64
     7
176
     1
 65
   257
176
     1
 75
     1
176
     1
175
     1
176
     1
 42
40.0
176
     1
 92
        8
176
     1
 66
     7
176
     1
 43
1.0
176
     1
 76
     1
176
     1
 77
     6
176
     1
 78
     2
176
     1
 67
     7
176
     1
 79
     3
176
     1
170
     0
176
     1
171
     0
176
     1
290
     0
176
     1
 93
        1
176
     1
 44
0.0
176
     1
173
     0
176
     1
  0
VISUALSTYLE
  5
35
102
{ACAD_REACTORS
330
2A
102
}
330
2A
100
AcDbVisualStyle
  2
Dim
 70
    11
177
     2
291
     1
 71
     2
176
     1
 72
     2
176
     1
 73
     0
176
     1
 90
        0
176
     1
 40
-0.6
176
     1
 41
-30.0
176
     1
 62
     5
 63
     7
421
 16777215
176
     1
 74
     1
176
     1
 91
        4
176
     1
 64
     7
176
     1
 65
   257
176
     1
 75
     1
176
     1
175
     1
176
     1
 42
1.0
176
     1
 92
        8
176
     1
 66
     7
176
     1
 43
1.0
176
     1
 76
     1
176
     1
 77
     6
176
     1
 78
     2
176
     1
 67
     7
176
     1
 79
     5
176
     1
170
     0
176
     1
171
     0
176
     1
290
     0
176
     1
 93
        1
176
     1
 44
-50.0
176
     1
173
     0
176
     1
  0
VISUALSTYLE
  5
39
102
{ACAD_REACTORS
330
2A
102
}
330
2A
100
AcDbVisualStyle
  2
Facepattern
 70
    15
177
     2
291
     1
 71
     2
176
     1
 72
     2
176
     1
 73
     0
176
     1
 90
        0
176
     1
 40
-0.6
176
     1
 41
-30.0
176
     1
 62
     5
 63
     7
421
 16777215
176
     1
 74
     1
176
     1
 91
        4
176
     1
 64
     7
176
     1
 65
   257
176
     1
 75
     1
176
     1
175
     1
176
     1
 42
1.0
176
     1
 92
        8
176
     1
 66
     7
176
     1
 43
1.0
176
     1
 76
     1
176
     1
 77
     6
176
     1
 78
     2
176
     1
 67
     7
176
     1
 79
     5
176
     1
170
     0
176
     1
171
     0
176
     1
290
     0
176
     1
 93
        1
176
     1
 44
0.0
176
     1
173
     0
176
     1
  0
VISUALSTYLE
  5
2B
102
{ACAD_REACTORS
330
2A
102
}
330
2A
100
AcDbVisualStyle
  2
Flat
 70
     0
177
     2
291
     1
 71
     2
176
     1
 72
     1
176
     1
 73
     1
176
     1
 90
        2
176
     1
 40
-0.6
176
     1
 41
30.0
176
     1
 62
     5
 63
     7
421
 16777215
176
     1
 74
     0
176
     1
 91
        4
176
     1
 64
     7
176
     1
 65
   257
176
     1
 75
     1
176
     1
175
     1
176
     1
 42
1.0
176
     1
 92
        8
176
     1
 66
     7
176
     1
 43
1.0
176
     1
 76
     1
176
     1
 77
     6
176
     1
 78
     2
176
     1
 67
     7
176
     1
 79
     5
176
     1
170
     0
176
     1
171
     0
176
     1
290
     0
176
     1
 93
       13
176
     1
 44
0.0
176
     1
173
     0
176
     1
  0
VISUALSTYLE
  5
2C
102
{ACAD_REACTORS
330
2A
102
}
330
2A
100
AcDbVisualStyle
  2
FlatWithEdges
 70
     1
177
     2
291
     1
 71
     2
176
     1
 72
     1
176
     1
 73
     1
176
     1
 90
        2
176
     1
 40
-0.6
176
     1
 41
30.0
176
     1
 62
     5
 63
     7
421
 16777215
176
     1
 74
     1
176
     1
 91
        4
176
     1
 64
     7
176
     1
 65
   257
176
     1
 75
     1
176
     1
175
     1
176
     1
 42
1.0
176
     1
 92
        0
176
     1
 66
   257
176
     1
 43
1.0
176
     1
 76
     1
176
     1
 77
     6
176
     1
 78
     2
176
     1
 67
     7
176
     1
 79
     5
176
     1
170
     0
176
     1
171
     0
176
     1
290
     0
176
     1
 93
       13
176
     1
 44
0.0
176
     1
173
     0
176
     1
  0
VISUALSTYLE
  5
2D
102
{ACAD_REACTORS
330
2A
102
}
330
2A
100
AcDbVisualStyle
  2
Gouraud
 70
     2
177
     2
291
     1
 71
     2
176
     1
 72
     2
176
     1
 73
     1
176
     1
 90
        2
176
     1
 40
-0.6
176
     1
 41
30.0
176
     1
 62
     5
 63
     7
421
 16777215
176
     1
 74
     0
176
     1
 91
        4
176
     1
 64
     7
176
     1
 65
   257
176
     1
 75
     1
176
     1
175
     1
176
     1
 42
1.0
176
     1
 92
        0
176
     1
 66
     7
176
     1
 43
1.0
176
     1
 76
     1
176
     1
 77
     6
176
     1
 78
     2
176
     1
 67
     7
176
     1
 79
     5
176
     1
170
     0
176
     1
171
     0
176
     1
290
     0
176
     1
 93
       13
176
     1
 44
0.0
176
     1
173
     0
176
     1
  0
VISUALSTYLE
  5
2E
102
{ACAD_REACTORS
330
2A
102
}
330
2A
100
AcDbVisualStyle
  2
GouraudWithEdges
 70
     3
177
     2
291
     1
 71
     2
176
     1
 72
     2
176
     1
 73
     1
176
     1
 90
        2
176
     1
 40
-0.6
176
     1
 41
30.0
176
     1
 62
     5
 63
     7
421
 16777215
176
     1
 74
     1
176
     1
 91
        4
176
     1
 64
     7
176
     1
 65
   257
176
     1
 75
     1
176
     1
175
     1
176
     1
 42
1.0
176
     1
 92
        0
176
     1
 66
   257
176
     1
 43
1.0
176
     1
 76
     1
176
     1
 77
     6
176
     1
 78
     2
176
     1
 67
     7
176
     1
 79
     5
176
     1
170
     0
176
     1
171
     0
176
     1
290
     0
176
     1
 93
       13
176
     1
 44
0.0
176
     1
173
     0
176
     1
  0
VISUALSTYLE
  5
38
102
{ACAD_REACTORS
330
2A
102
}
330
2A
100
AcDbVisualStyle
  2
Linepattern
 70
    14
177
     2
291
     1
 71
     2
176
     1
 72
     2
176
     1
 73
     0
176
     1
 90
        0
176
     1
 40
-0.6
176
     1
 41
-30.0
176
     1
 62
     5
 63
     7
421
 16777215
176
     1
 74
     1
176
     1
 91
        4
176
     1
 64
     7
176
     1
 65
   257
176
     1
 75
     7
176
     1
175
     7
176
     1
 42
1.0
176
     1
 92
        8
176
     1
 66
     7
176
     1
 43
1.0
176
     1
 76
     1
176
     1
 77
     6
176
     1
 78
     2
176
     1
 67
     7
176
     1
 79
     5
176
     1
170
     0
176
     1
171
     0
176
     1
290
     0
176
     1
 93
        1
176
     1
 44
0.0
176
     1
173
     0
176
     1
  0
VISUALSTYLE
  5
33
102
{ACAD_REACTORS
330
2A
102
}
330
2A
100
AcDbVisualStyle
  2
Realistic
 70
     8
177
     2
291
     0
 71
     2
176
     1
 72
     2
176
     1
 73
     0
176
     1
 90
        0
176
     1
 40
-0.6
176
     1
 41
-30.0
176
     1
 62
     5
 63
     7
421
 16777215
176
     1
 74
     1
176
     1
 91
        0
176
     1
 64
     7
176
     1
 65
   257
176
     1
 75
     1
176
     1
175
     1
176
     1
 42
1.0
176
     1
 92
        8
176
     1
 66
     8
424
  7895160
176
     1
 43
1.0
176
     1
 76
     1
176
     1
 77
     6
176
     1
 78
     2
176
     1
 67
     7
176
     1
 79
     5
176
     1
170
     0
176
     1
171
     0
176
     1
290
     0
176
     1
 93
       13
176
     1
 44
0.0
176
     1
173
     0
176
     1
  0
VISUALSTYLE
  5
37
102
{ACAD_REACTORS
330
2A
102
}
330
2A
100
AcDbVisualStyle
  2
Thicken
 70
    13
177
     2
291
     1
 71
     2
176
     1
 72
     2
176
     1
 73
     0
176
     1
 90
        0
176
     1
 40
-0.6
176
     1
 41
-30.0
176
     1
 62
     5
 63
     7
421
 16777215
176
     1
 74
     1
176
     1
 91
        4
176
     1
 64
     7
176
     1
 65
   257
176
     1
 75
     1
176
     1
175
     1
176
     1
 42
1.0
176
     1
 92
       12
176
     1
 66
     7
176
     1
 43
1.0
176
     1
 76
     1
176
     1
 77
     6
176
     1
 78
     2
176
     1
 67
     7
176
     1
 79
     5
176
     1
170
     0
176
     1
171
     0
176
     1
290
     0
176
     1
 93
        1
176
     1
 44
0.0
176
     1
173
     0
176
     1
  0
ENDSEC
  0
EOF
