  0
SECTION
  2
HEADER
  9
$ACADVER
  1
AC1024
  9
$ACADMAINTVER
 70
     6
  9
$DWGCODEPAGE
  3
UNDEFINED
  9
$INSBASE
 10
0.0
 20
0.0
 30
0.0
  9
$EXTMIN
 10
1.000000000000000E+20
 20
1.000000000000000E+20
 30
1.000000000000000E+20
  9
$EXTMAX
 10
-1.000000000000000E+20
 20
-1.000000000000000E+20
 30
-1.000000000000000E+20
  9
$LIMMIN
 10
0.0
 20
0.0
  9
$LIMMAX
 10
12.0
 20
9.0
  9
$ORTHOMODE
 70
     0
  9
$REGENMODE
 70
     1
  9
$FILLMODE
 70
     1
  9
$QTEXTMODE
 70
     0
  9
$MIRRTEXT
 70
     1
  9
$LTSCALE
 40
1.0
  9
$ATTMODE
 70
     1
  9
$TEXTSIZE
 40
0.2
  9
$TRACEWID
 40
0.05
  9
$TEXTSTYLE
  7
Standard
  9
$CLAYER
  8
0
  9
$CELTYPE
  6
ByLayer
  9
$CECOLOR
 62
   256
  9
$CELTSCALE
 40
1.0
  9
$DISPSILH
 70
     0
  9
$DIMSCALE
 40
1.0
  9
$DIMASZ
 40
0.18
  9
$DIMEXO
 40
0.0625
  9
$DIMDLI
 40
0.38
  9
$DIMRND
 40
0.0
  9
$DIMDLE
 40
0.0
  9
$DIMEXE
 40
0.18
  9
$DIMTP
 40
0.0
  9
$DIMTM
 40
0.0
  9
$DIMTXT
 40
0.18
  9
$DIMCEN
 40
0.09
  9
$DIMTSZ
 40
0.0
  9
$DIMTOL
 70
     0
  9
$DIMLIM
 70
     0
  9
$DIMTIH
 70
     1
  9
$DIMTOH
 70
     1
  9
$DIMSE1
 70
     0
  9
$DIMSE2
 70
     0
  9
$DIMTAD
 70
     0
  9
$DIMZIN
 70
     0
  9
$DIMBLK
  1

  9
$DIMASO
 70
     1
  9
$DIMSHO
 70
     1
  9
$DIMPOST
  1

  9
$DIMAPOST
  1

  9
$DIMALT
 70
     0
  9
$DIMALTD
 70
     2
  9
$DIMALTF
 40
25.4
  9
$DIMLFAC
 40
1.0
  9
$DIMTOFL
 70
     0
  9
$DIMTVP
 40
0.0
  9
$DIMTIX
 70
     0
  9
$DIMSOXD
 70
     0
  9
$DIMSAH
 70
     0
  9
$DIMBLK1
  1

  9
$DIMBLK2
  1

  9
$DIMSTYLE
  2
Standard
  9
$DIMCLRD
 70
     0
  9
$DIMCLRE
 70
     0
  9
$DIMCLRT
 70
     0
  9
$DIMTFAC
 40
1.0
  9
$DIMGAP
 40
0.09
  9
$DIMJUST
 70
     0
  9
$DIMSD1
 70
     0
  9
$DIMSD2
 70
     0
  9
$DIMTOLJ
 70
     1
  9
$DIMTZIN
 70
     0
  9
$DIMALTZ
 70
     0
  9
$DIMALTTZ
 70
     0
  9
$DIMUPT
 70
     0
  9
$DIMDEC
 70
     4
  9
$DIMTDEC
 70
     4
  9
$DIMALTU
 70
     2
  9
$DIMALTTD
 70
     2
  9
$DIMTXSTY
  7
Standard
  9
$DIMAUNIT
 70
     0
  9
$DIMADEC
 70
     0
  9
$DIMALTRND
 40
0.0
  9
$DIMAZIN
 70
     0
  9
$DIMDSEP
 70
    46
  9
$DIMATFIT
 70
     3
  9
$DIMFRAC
 70
     0
  9
$DIMLDRBLK
  1

  9
$DIMLUNIT
 70
     2
  9
$DIMLWD
 70
    -2
  9
$DIMLWE
 70
    -2
  9
$DIMTMOVE
 70
     0
  9
$DIMFXL
 40
1.0
  9
$DIMFXLON
 70
     0
  9
$DIMJOGANG
 40
0.7853981633974483
  9
$DIMTFILL
 70
     0
  9
$DIMTFILLCLR
 70
     0
  9
$DIMARCSYM
 70
     0
  9
$DIMLTYPE
  6

  9
$DIMLTEX1
  6

  9
$DIMLTEX2
  6

  9
$DIMTXTDIRECTION
 70
     0
  9
$LUNITS
 70
     2
  9
$LUPREC
 70
     4
  9
$SKETCHINC
 40
0.1
  9
$FILLETRAD
 40
0.5
  9
$AUNITS
 70
     0
  9
$AUPREC
 70
     0
  9
$MENU
  1
.
  9
$ELEVATION
 40
0.0
  9
$PELEVATION
 40
0.0
  9
$THICKNESS
 40
0.0
  9
$LIMCHECK
 70
     0
  9
$CHAMFERA
 40
0.5
  9
$CHAMFERB
 40
0.5
  9
$CHAMFERC
 40
1.0
  9
$CHAMFERD
 40
0.0
  9
$SKPOLY
 70
     0
  9
$TDCREATE
 40
2457917.621203704
  9
$TDUCREATE
 40
2457917.246203704
  9
$TDUPDATE
 40
2457917.621203704
  9
$TDUUPDATE
 40
2457917.246203704
  9
$TDINDWG
 40
0.0000000116
  9
$TDUSRTIMER
 40
0.0000000116
  9
$USRTIMER
 70
     1
  9
$ANGBASE
 50
0.0
  9
$ANGDIR
 70
     0
  9
$PDMODE
 70
     0
  9
$PDSIZE
 40
0.0
  9
$PLINEWID
 40
0.0
  9
$SPLFRAME
 70
     0
  9
$SPLINETYPE
 70
     6
  9
$SPLINESEGS
 70
     8
  9
$HANDSEED
  5
DF
  9
$SURFTAB1
 70
     6
  9
$SURFTAB2
 70
     6
  9
$SURFTYPE
 70
     6
  9
$SURFU
 70
     6
  9
$SURFV
 70
     6
  9
$UCSBASE
  2

  9
$UCSNAME
  2

  9
$UCSORG
 10
0.0
 20
0.0
 30
0.0
  9
$UCSXDIR
 10
1.0
 20
0.0
 30
0.0
  9
$UCSYDIR
 10
0.0
 20
1.0
 30
0.0
  9
$UCSORTHOREF
  2

  9
$UCSORTHOVIEW
 70
     0
  9
$UCSORGTOP
 10
0.0
 20
0.0
 30
0.0
  9
$UCSORGBOTTOM
 10
0.0
 20
0.0
 30
0.0
  9
$UCSORGLEFT
 10
0.0
 20
0.0
 30
0.0
  9
$UCSORGRIGHT
 10
0.0
 20
0.0
 30
0.0
  9
$UCSORGFRONT
 10
0.0
 20
0.0
 30
0.0
  9
$UCSORGBACK
 10
0.0
 20
0.0
 30
0.0
  9
$PUCSBASE
  2

  9
$PUCSNAME
  2

  9
$PUCSORG
 10
0.0
 20
0.0
 30
0.0
  9
$PUCSXDIR
 10
1.0
 20
0.0
 30
0.0
  9
$PUCSYDIR
 10
0.0
 20
1.0
 30
0.0
  9
$PUCSORTHOREF
  2

  9
$PUCSORTHOVIEW
 70
     0
  9
$PUCSORGTOP
 10
0.0
 20
0.0
 30
0.0
  9
$PUCSORGBOTTOM
 10
0.0
 20
0.0
 30
0.0
  9
$PUCSORGLEFT
 10
0.0
 20
0.0
 30
0.0
  9
$PUCSORGRIGHT
 10
0.0
 20
0.0
 30
0.0
  9
$PUCSORGFRONT
 10
0.0
 20
0.0
 30
0.0
  9
$PUCSORGBACK
 10
0.0
 20
0.0
 30
0.0
  9
$USERI1
 70
     0
  9
$USERI2
 70
     0
  9
$USERI3
 70
     0
  9
$USERI4
 70
     0
  9
$USERI5
 70
     0
  9
$USERR1
 40
0.0
  9
$USERR2
 40
0.0
  9
$USERR3
 40
0.0
  9
$USERR4
 40
0.0
  9
$USERR5
 40
0.0
  9
$WORLDVIEW
 70
     1
  9
$SHADEDGE
 70
     3
  9
$SHADEDIF
 70
    70
  9
$TILEMODE
 70
     1
  9
$MAXACTVP
 70
    64
  9
$PINSBASE
 10
0.0
 20
0.0
 30
0.0
  9
$PLIMCHECK
 70
     0
  9
$PEXTMIN
 10
1.000000000000000E+20
 20
1.000000000000000E+20
 30
1.000000000000000E+20
  9
$PEXTMAX
 10
-1.000000000000000E+20
 20
-1.000000000000000E+20
 30
-1.000000000000000E+20
  9
$PLIMMIN
 10
0.0
 20
0.0
  9
$PLIMMAX
 10
12.0
 20
9.0
  9
$UNITMODE
 70
     0
  9
$VISRETAIN
 70
     1
  9
$PLINEGEN
 70
     0
  9
$PSLTSCALE
 70
     1
  9
$TREEDEPTH
 70
  3020
  9
$CMLSTYLE
  2
Standard
  9
$CMLJUST
 70
     0
  9
$CMLSCALE
 40
1.0
  9
$PROXYGRAPHICS
 70
     1
  9
$MEASUREMENT
 70
     0
  9
$CELWEIGHT
370
    -1
  9
$ENDCAPS
280
     0
  9
$JOINSTYLE
280
     0
  9
$LWDISPLAY
290
     1
  9
$INSUNITS
 70
     1
  9
$HYPERLINKBASE
  1

  9
$STYLESHEET
  1

  9
$XEDIT
290
     1
  9
$CEPSNTYPE
380
     0
  9
$PSTYLEMODE
290
     1
  9
$FINGERPRINTGUID
  2
{6ABAD40F-BCCE-B82C-B6CD-5C4CB9A9B45A}
  9
$VERSIONGUID
  2
{FAEB1C32-E019-11D5-929B-00C0DF256EC4}
  9
$EXTNAMES
290
     1
  9
$PSVPSCALE
 40
0.0
  9
$OLESTARTUP
290
     0
  9
$SORTENTS
280
   127
  9
$INDEXCTL
280
     0
  9
$HIDETEXT
280
     1
  9
$XCLIPFRAME
280
     2
  9
$HALOGAP
280
     0
  9
$OBSCOLOR
 70
   257
  9
$OBSLTYPE
280
     0
  9
$INTERSECTIONDISPLAY
280
     0
  9
$INTERSECTIONCOLOR
 70
   257
  9
$DIMASSOC
280
     2
  9
$PROJECTNAME
  1

  9
$CAMERADISPLAY
290
     0
  9
$LENSLENGTH
 40
50.0
  9
$CAMERAHEIGHT
 40
0.0
  9
$STEPSPERSEC
 40
2.0
  9
$STEPSIZE
 40
6.0
  9
$3DDWFPREC
 40
2.0
  9
$PSOLWIDTH
 40
0.25
  9
$PSOLHEIGHT
 40
4.0
  9
$LOFTANG1
 40
1.570796326794897
  9
$LOFTANG2
 40
1.570796326794897
  9
$LOFTMAG1
 40
0.0
  9
$LOFTMAG2
 40
0.0
  9
$LOFTPARAM
 70
     7
  9
$LOFTNORMALS
280
     1
  9
$LATITUDE
 40
37.795
  9
$LONGITUDE
 40
-122.394
  9
$NORTHDIRECTION
 40
0.0
  9
$TIMEZONE
 70
 -8000
  9
$LIGHTGLYPHDISPLAY
280
     1
  9
$TILEMODELIGHTSYNCH
280
     1
  9
$CMATERIAL
347
3C
  9
$SOLIDHIST
280
     1
  9
$SHOWHIST
280
     1
  9
$DWFFRAME
280
     2
  9
$DGNFRAME
280
     2
  9
$REALWORLDSCALE
290
     1
  9
$INTERFERECOLOR
 62
   256
  9
$CSHADOW
280
     0
  9
$SHADOWPLANELOCATION
 40
0.0
  0
ENDSEC
  0
SECTION
  2
CLASSES
  0
CLASS
  1
ACDBDICTIONARYWDFLT
  2
AcDbDictionaryWithDefault
  3
ObjectDBX Classes
 90
        0
 91
        4
280
     0
281
     0
  0
CLASS
  1
VISUALSTYLE
  2
AcDbVisualStyle
  3
ObjectDBX Classes
 90
     4095
 91
        4
280
     0
281
     0
  0
CLASS
  1
MATERIAL
  2
AcDbMaterial
  3
ObjectDBX Classes
 90
     1153
 91
        4
280
     0
281
     0
  0
CLASS
  1
SUN
  2
AcDbSun
  3
SCENEOE
 90
     1024
 91
        4
280
     0
281
     0
  0
ENDSEC
  0
SECTION
  2
TABLES
  0
TABLE
  2
VPORT
  5
8
330
0
100
AcDbSymbolTable
 70
     1
  0
VPORT
  5
29
330
8
100
AcDbSymbolTableRecord
100
AcDbViewportTableRecord
  2
*Active
 70
     0
 10
0.0
 20
0.0
 11
1.0
 21
1.0
 12
0.0
 22
0.0
 13
0.0
 23
0.0
 14
0.5
 24
0.5
 15
0.5
 25
0.5
 16
0.0
 26
0.0
 36
1.0
 17
91.00082462281999
 27
-128.4993055234307
 37
0.0
 40
256.9986110468615
 41
0.7081814508812795
 42
50.0
 43
0.0
 44
0.0
 50
0.0
 51
0.0
 71
     0
 72
   100
 73
     1
 74
     3
 75
     0
 76
     0
 77
     0
 78
     0
281
     0
 65
     1
110
0.0
120
0.0
130
0.0
111
1.0
121
0.0
131
0.0
112
0.0
122
1.0
132
0.0
 79
     0
146
0.0
 60
     3
 61
     5
292
     1
282
     1
141
0.0
142
0.0
 63
   250
361
3F
  0
ENDTAB
  0
TABLE
  2
LTYPE
  5
5
330
0
100
AcDbSymbolTable
 70
     1
  0
LTYPE
  5
14
330
5
100
AcDbSymbolTableRecord
100
AcDbLinetypeTableRecord
  2
ByBlock
 70
     0
  3

 72
    65
 73
     0
 40
0.0
  0
LTYPE
  5
15
330
5
100
AcDbSymbolTableRecord
100
AcDbLinetypeTableRecord
  2
ByLayer
 70
     0
  3

 72
    65
 73
     0
 40
0.0
  0
LTYPE
  5
16
330
5
100
AcDbSymbolTableRecord
100
AcDbLinetypeTableRecord
  2
Continuous
 70
     0
  3
Solid line
 72
    65
 73
     0
 40
0.0
  0
ENDTAB
  0
TABLE
  2
LAYER
  5
2
330
0
100
AcDbSymbolTable
 70
     2
  0
LAYER
  5
10
330
2
100
AcDbSymbolTableRecord
100
AcDbLayerTableRecord
  2
0
 70
     0
 62
     7
  6
Continuous
370
    -3
390
F
347
3E
  0
LAYER
  5
40
330
2
100
AcDbSymbolTableRecord
100
AcDbLayerTableRecord
  2
_U+30EC_U+30A4_U+30E4_U+30FC 1
 70
     0
 62
     7
  6
Continuous
370
    -3
390
F
347
3E
  0
ENDTAB
  0
TABLE
  2
STYLE
  5
3
330
0
100
AcDbSymbolTable
 70
     1
  0
STYLE
  5
11
330
3
100
AcDbSymbolTableRecord
100
AcDbTextStyleTableRecord
  2
Standard
 70
     0
 40
0.0
 41
1.0
 50
0.0
 71
     0
 42
0.2
  3
txt
  4

  0
ENDTAB
  0
TABLE
  2
VIEW
  5
6
330
0
100
AcDbSymbolTable
 70
     0
  0
ENDTAB
  0
TABLE
  2
UCS
  5
7
330
0
100
AcDbSymbolTable
 70
     0
  0
ENDTAB
  0
TABLE
  2
APPID
  5
9
330
0
100
AcDbSymbolTable
 70
     1
  0
APPID
  5
12
330
9
100
AcDbSymbolTableRecord
100
AcDbRegAppTableRecord
  2
ACAD
 70
     0
  0
ENDTAB
  0
TABLE
  2
DIMSTYLE
  5
A
330
0
100
AcDbSymbolTable
 70
     1
100
AcDbDimStyleTable
  0
DIMSTYLE
105
27
330
A
100
AcDbSymbolTableRecord
100
AcDbDimStyleTableRecord
  2
Standard
 70
     0
178
     0
340
11
  0
ENDTAB
  0
TABLE
  2
BLOCK_RECORD
  5
1
330
0
100
AcDbSymbolTable
 70
     7
  0
BLOCK_RECORD
  5
1F
330
1
100
AcDbSymbolTableRecord
100
AcDbBlockTableRecord
  2
*Model_Space
340
22
 70
     0
280
     1
281
     0
  0
BLOCK_RECORD
  5
1B
330
1
100
AcDbSymbolTableRecord
100
AcDbBlockTableRecord
  2
*Paper_Space
340
1E
 70
     0
280
     1
281
     0
  0
BLOCK_RECORD
  5
23
330
1
100
AcDbSymbolTableRecord
100
AcDbBlockTableRecord
  2
*Paper_Space0
340
26
 70
     0
280
     1
281
     0
  0
BLOCK_RECORD
  5
41
330
1
100
AcDbSymbolTableRecord
100
AcDbBlockTableRecord
  2
block 2
340
0
102
{BLKREFS
331
42
102
}
 70
     0
280
     1
281
     0
  0
BLOCK_RECORD
  5
5E
330
1
100
AcDbSymbolTableRecord
100
AcDbBlockTableRecord
  2
block 3
340
0
102
{BLKREFS
331
5F
102
}
 70
     0
280
     1
281
     0
  0
BLOCK_RECORD
  5
77
330
1
100
AcDbSymbolTableRecord
100
AcDbBlockTableRecord
  2
block 4
340
0
102
{BLKREFS
331
78
102
}
 70
     0
280
     1
281
     0
  0
BLOCK_RECORD
  5
8E
330
1
100
AcDbSymbolTableRecord
100
AcDbBlockTableRecord
  2
block 5
340
0
102
{BLKREFS
331
8F
102
}
 70
     0
280
     1
281
     0
  0
BLOCK_RECORD
  5
97
330
1
100
AcDbSymbolTableRecord
100
AcDbBlockTableRecord
  2
block 6
340
0
102
{BLKREFS
331
98
102
}
 70
     0
280
     1
281
     0
  0
BLOCK_RECORD
  5
C1
330
1
100
AcDbSymbolTableRecord
100
AcDbBlockTableRecord
  2
block 7
340
0
102
{BLKREFS
331
C2
102
}
 70
     0
280
     1
281
     0
  0
ENDTAB
  0
ENDSEC
  0
SECTION
  2
BLOCKS
  0
BLOCK
  5
20
330
1F
100
AcDbEntity
  8
0
100
AcDbBlockBegin
  2
*Model_Space
 70
     0
 10
0.0
 20
0.0
 30
0.0
  3
*Model_Space
  1

  0
ENDBLK
  5
21
330
1F
100
AcDbEntity
  8
0
100
AcDbBlockEnd
  0
BLOCK
  5
1C
330
1B
100
AcDbEntity
 67
     1
  8
0
100
AcDbBlockBegin
  2
*Paper_Space
 70
     0
 10
0.0
 20
0.0
 30
0.0
  3
*Paper_Space
  1

  0
ENDBLK
  5
1D
330
1B
100
AcDbEntity
 67
     1
  8
0
100
AcDbBlockEnd
  0
BLOCK
  5
24
330
23
100
AcDbEntity
  8
0
100
AcDbBlockBegin
  2
*Paper_Space0
 70
     0
 10
0.0
 20
0.0
 30
0.0
  3
*Paper_Space0
  1

  0
ENDBLK
  5
25
330
23
100
AcDbEntity
  8
0
100
AcDbBlockEnd
  0
BLOCK
  5
43
330
41
100
AcDbEntity
  8
0
100
AcDbBlockBegin
  2
block 2
 70
     0
 10
0.0
 20
0.0
 30
0.0
  3
block 2
  1

  0
SPLINE
  5
45
330
41
100
AcDbEntity
  8
_U+30EC_U+30A4_U+30E4_U+30FC 1
 62
     7
420
 16777215
370
    25
100
AcDbSpline
210
0.0
220
0.0
230
1.0
 70
    11
 71
     3
 72
    41
 73
    37
 74
     0
 42
0.0000000001
 43
0.0000000001
 12
1.0
 22
0.0
 32
0.0
 13
1.0
 23
0.0
 33
0.0
 40
0.0
 40
0.0
 40
0.0
 40
0.0
 40
1.0
 40
1.0
 40
1.0
 40
2.0
 40
2.0
 40
2.0
 40
3.0
 40
3.0
 40
3.0
 40
4.0
 40
4.0
 40
4.0
 40
5.0
 40
5.0
 40
5.0
 40
6.0
 40
6.0
 40
6.0
 40
7.0
 40
7.0
 40
7.0
 40
8.0
 40
8.0
 40
8.0
 40
9.0
 40
9.0
 40
9.0
 40
10.0
 40
10.0
 40
10.0
 40
11.0
 40
11.0
 40
11.0
 40
12.0
 40
12.0
 40
12.0
 40
12.0
 10
82.30919178900646
 20
-131.7945321892736
 30
0.0
 10
82.30919178900646
 20
-131.7945321892736
 30
0.0
 10
82.30919178900646
 20
-116.3946180264569
 30
0.0
 10
82.30919178900646
 20
-116.3946180264569
 30
0.0
 10
82.30919178900646
 20
-116.3946180264569
 30
0.0
 10
81.10925553527831
 20
-116.3946180264569
 30
0.0
 10
81.10925553527831
 20
-116.3946180264569
 30
0.0
 10
81.10925553527831
 20
-116.3946180264569
 30
0.0
 10
81.10925553527831
 20
-131.7945321892736
 30
0.0
 10
81.10925553527831
 20
-131.7945321892736
 30
0.0
 10
81.10925553527831
 20
-131.7945321892736
 30
0.0
 10
81.12371942416364
 20
-132.413621911341
 30
0.0
 10
81.12371942416364
 20
-132.413621911341
 30
0.0
 10
81.12371942416364
 20
-134.605042188571
 30
0.0
 10
82.89967121838652
 20
-136.3809960770159
 30
0.0
 10
85.09144421802529
 20
-136.3809960770159
 30
0.0
 10
85.09144421802529
 20
-136.3809960770159
 30
0.0
 10
85.10901255091042
 20
-136.3947896881236
 30
0.0
 10
85.10901255091042
 20
-136.3947896881236
 30
0.0
 10
85.10901255091042
 20
-136.3947896881236
 30
0.0
 10
101.1094246427059
 20
-136.3947896881236
 30
0.0
 10
101.1094246427059
 20
-136.3947896881236
 30
0.0
 10
101.1094246427059
 20
-136.3947896881236
 30
0.0
 10
101.1094246427059
 20
-135.1944985773122
 30
0.0
 10
101.1094246427059
 20
-135.1944985773122
 30
0.0
 10
101.1094246427059
 20
-135.1944985773122
 30
0.0
 10
85.10901255091042
 20
-135.1944985773122
 30
0.0
 10
85.10901255091042
 20
-135.1944985773122
 30
0.0
 10
85.10901255091042
 20
-135.1944985773122
 30
0.0
 10
85.11314005080511
 20
-135.1907238550913
 30
0.0
 10
85.11314005080511
 20
-135.1907238550913
 30
0.0
 10
83.56631536804568
 20
-135.1907238550913
 30
0.0
 10
82.31229623337171
 20
-133.9370574665157
 30
0.0
 10
82.31229623337171
 20
-132.3901974669025
 30
0.0
 10
82.31229623337171
 20
-132.3901974669025
 30
0.0
 10
82.30919178900646
 20
-131.7945321892736
 30
0.0
 10
82.30919178900646
 20
-131.7945321892736
 30
0.0
  0
HATCH
  5
46
330
41
100
AcDbEntity
  8
_U+30EC_U+30A4_U+30E4_U+30FC 1
 62
   253
420
 11711154
100
AcDbHatch
 10
0.0
 20
0.0
 30
0.0
210
0.0
220
0.0
230
1.0
  2
SOLID
 70
     1
 71
     0
 91
        1
 92
        1
 93
        1
 72
     4
 94
        3
 73
     0
 74
     1
 95
       41
 96
       37
 40
0.0
 40
0.0
 40
0.0
 40
0.0
 40
1.0
 40
1.0
 40
1.0
 40
2.0
 40
2.0
 40
2.0
 40
3.0
 40
3.0
 40
3.0
 40
4.0
 40
4.0
 40
4.0
 40
5.0
 40
5.0
 40
5.0
 40
6.0
 40
6.0
 40
6.0
 40
7.0
 40
7.0
 40
7.0
 40
8.0
 40
8.0
 40
8.0
 40
9.0
 40
9.0
 40
9.0
 40
10.0
 40
10.0
 40
10.0
 40
11.0
 40
11.0
 40
11.0
 40
12.0
 40
12.0
 40
12.0
 40
12.0
 10
82.30919178900646
 20
-131.7945321892736
 10
82.30919178900646
 20
-131.7945321892736
 10
82.30919178900646
 20
-116.3946180264569
 10
82.30919178900646
 20
-116.3946180264569
 10
82.30919178900646
 20
-116.3946180264569
 10
81.10925553527831
 20
-116.3946180264569
 10
81.10925553527831
 20
-116.3946180264569
 10
81.10925553527831
 20
-116.3946180264569
 10
81.10925553527831
 20
-131.7945321892736
 10
81.10925553527831
 20
-131.7945321892736
 10
81.10925553527831
 20
-131.7945321892736
 10
81.12371942416364
 20
-132.413621911341
 10
81.12371942416364
 20
-132.413621911341
 10
81.12371942416364
 20
-134.605042188571
 10
82.89967121838652
 20
-136.3809960770159
 10
85.09144421802529
 20
-136.3809960770159
 10
85.09144421802529
 20
-136.3809960770159
 10
85.10901255091042
 20
-136.3947896881236
 10
85.10901255091042
 20
-136.3947896881236
 10
85.10901255091042
 20
-136.3947896881236
 10
101.1094246427059
 20
-136.3947896881236
 10
101.1094246427059
 20
-136.3947896881236
 10
101.1094246427059
 20
-136.3947896881236
 10
101.1094246427059
 20
-135.1944985773122
 10
101.1094246427059
 20
-135.1944985773122
 10
101.1094246427059
 20
-135.1944985773122
 10
85.10901255091042
 20
-135.1944985773122
 10
85.10901255091042
 20
-135.1944985773122
 10
85.10901255091042
 20
-135.1944985773122
 10
85.11314005080511
 20
-135.1907238550913
 10
85.11314005080511
 20
-135.1907238550913
 10
83.56631536804568
 20
-135.1907238550913
 10
82.31229623337171
 20
-133.9370574665157
 10
82.31229623337171
 20
-132.3901974669025
 10
82.31229623337171
 20
-132.3901974669025
 10
82.30919178900646
 20
-131.7945321892736
 10
82.30919178900646
 20
-131.7945321892736
 97
        0
 97
        0
 75
     2
 76
     1
 98
        0
  0
POLYLINE
  5
47
330
41
100
AcDbEntity
  8
_U+30EC_U+30A4_U+30E4_U+30FC 1
 62
     7
420
 16777215
370
     9
100
AcDb2dPolyline
 66
     1
 10
0.0
 20
0.0
 30
0.0
  0
VERTEX
  5
48
330
47
100
AcDbEntity
  8
_U+30EC_U+30A4_U+30E4_U+30FC 1
 62
     7
420
 16777215
370
     9
100
AcDbVertex
100
AcDb2dVertex
 10
81.19056876198935
 20
-140.5633530204147
 30
0.0
  0
VERTEX
  5
49
330
47
100
AcDbEntity
  8
_U+30EC_U+30A4_U+30E4_U+30FC 1
 62
     7
420
 16777215
370
     9
100
AcDbVertex
100
AcDb2dVertex
 10
81.19056876198935
 20
-138.8876585763891
 30
0.0
  0
SEQEND
  5
4A
330
47
100
AcDbEntity
  8
_U+30EC_U+30A4_U+30E4_U+30FC 1
 62
     7
420
 16777215
370
     9
  0
POLYLINE
  5
4B
330
41
100
AcDbEntity
  8
_U+30EC_U+30A4_U+30E4_U+30FC 1
 62
     7
420
 16777215
370
     9
100
AcDb2dPolyline
 66
     1
 10
0.0
 20
0.0
 30
0.0
  0
VERTEX
  5
4C
330
4B
100
AcDbEntity
  8
_U+30EC_U+30A4_U+30E4_U+30FC 1
 62
     7
420
 16777215
370
     9
100
AcDbVertex
100
AcDb2dVertex
 10
85.28815310189572
 20
-140.5633530204147
 30
0.0
  0
VERTEX
  5
4D
330
4B
100
AcDbEntity
  8
_U+30EC_U+30A4_U+30E4_U+30FC 1
 62
     7
420
 16777215
370
     9
100
AcDbVertex
100
AcDb2dVertex
 10
85.28815310189572
 20
-138.8876585763891
 30
0.0
  0
SEQEND
  5
4E
330
4B
100
AcDbEntity
  8
_U+30EC_U+30A4_U+30E4_U+30FC 1
 62
     7
420
 16777215
370
     9
  0
POLYLINE
  5
4F
330
41
100
AcDbEntity
  8
_U+30EC_U+30A4_U+30E4_U+30FC 1
 62
     7
420
 16777215
370
     9
100
AcDb2dPolyline
 66
     1
 10
0.0
 20
0.0
 30
0.0
  0
VERTEX
  5
50
330
4F
100
AcDbEntity
  8
_U+30EC_U+30A4_U+30E4_U+30FC 1
 62
     7
420
 16777215
370
     9
100
AcDbVertex
100
AcDb2dVertex
 10
81.21847348349968
 20
-139.7189441317371
 30
0.0
  0
VERTEX
  5
51
330
4F
100
AcDbEntity
  8
_U+30EC_U+30A4_U+30E4_U+30FC 1
 62
     7
420
 16777215
370
     9
100
AcDbVertex
100
AcDb2dVertex
 10
85.21858532589276
 20
-139.7189441317371
 30
0.0
  0
SEQEND
  5
52
330
4F
100
AcDbEntity
  8
_U+30EC_U+30A4_U+30E4_U+30FC 1
 62
     7
420
 16777215
370
     9
  0
POLYLINE
  5
53
330
41
100
AcDbEntity
  8
_U+30EC_U+30A4_U+30E4_U+30FC 1
 62
     7
420
 16777215
370
     9
100
AcDb2dPolyline
 66
     1
 10
0.0
 20
0.0
 30
0.0
  0
VERTEX
  5
54
330
53
100
AcDbEntity
  8
_U+30EC_U+30A4_U+30E4_U+30FC 1
 62
     7
420
 16777215
370
     9
100
AcDbVertex
100
AcDb2dVertex
 10
85.21858532589276
 20
-139.7189441317371
 30
0.0
  0
VERTEX
  5
55
330
53
100
AcDbEntity
  8
_U+30EC_U+30A4_U+30E4_U+30FC 1
 62
     7
420
 16777215
370
     9
100
AcDbVertex
100
AcDb2dVertex
 10
101.2182944191398
 20
-139.7189441317371
 30
0.0
  0
SEQEND
  5
56
330
53
100
AcDbEntity
  8
_U+30EC_U+30A4_U+30E4_U+30FC 1
 62
     7
420
 16777215
370
     9
  0
SPLINE
  5
57
330
41
100
AcDbEntity
  8
_U+30EC_U+30A4_U+30E4_U+30FC 1
 62
     7
420
 16777215
370
     9
100
AcDbSpline
210
0.0
220
0.0
230
1.0
 70
    11
 71
     3
 72
    17
 73
    13
 74
     0
 42
0.0000000001
 43
0.0000000001
 12
1.0
 22
0.0
 32
0.0
 13
1.0
 23
0.0
 33
0.0
 40
0.0
 40
0.0
 40
0.0
 40
0.0
 40
1.0
 40
1.0
 40
1.0
 40
2.0
 40
2.0
 40
2.0
 40
3.0
 40
3.0
 40
3.0
 40
4.0
 40
4.0
 40
4.0
 40
4.0
 10
81.31873292538629
 20
-139.7189441317371
 30
0.0
 10
81.31873292538629
 20
-139.7740832983895
 30
0.0
 10
81.27393014875152
 20
-139.8188507983787
 30
0.0
 10
81.21847348349968
 20
-139.8188507983787
 30
0.0
 10
81.16333431823972
 20
-139.8188507983787
 30
0.0
 10
81.11856681938184
 20
-139.7740832983895
 30
0.0
 10
81.11856681938184
 20
-139.7189441317371
 30
0.0
 10
81.11856681938184
 20
-139.6638402428615
 30
0.0
 10
81.16333431823972
 20
-139.6190374650954
 30
0.0
 10
81.21847348349968
 20
-139.6190374650954
 30
0.0
 10
81.27393014875152
 20
-139.6190374650954
 30
0.0
 10
81.31873292538629
 20
-139.6638402428615
 30
0.0
 10
81.31873292538629
 20
-139.7189441317371
 30
0.0
  0
POLYLINE
  5
58
330
41
100
AcDbEntity
  8
_U+30EC_U+30A4_U+30E4_U+30FC 1
 62
     7
420
 16777215
370
     9
100
AcDb2dPolyline
 66
     1
 10
0.0
 20
0.0
 30
0.0
  0
VERTEX
  5
59
330
58
100
AcDbEntity
  8
_U+30EC_U+30A4_U+30E4_U+30FC 1
 62
     7
420
 16777215
370
     9
100
AcDbVertex
100
AcDb2dVertex
 10
101.2331110858025
 20
-140.5633530204147
 30
0.0
  0
VERTEX
  5
5A
330
58
100
AcDbEntity
  8
_U+30EC_U+30A4_U+30E4_U+30FC 1
 62
     7
420
 16777215
370
     9
100
AcDbVertex
100
AcDb2dVertex
 10
101.2331110858025
 20
-138.8876585763891
 30
0.0
  0
SEQEND
  5
5B
330
58
100
AcDbEntity
  8
_U+30EC_U+30A4_U+30E4_U+30FC 1
 62
     7
420
 16777215
370
     9
  0
SPLINE
  5
5C
330
41
100
AcDbEntity
  8
_U+30EC_U+30A4_U+30E4_U+30FC 1
 62
     7
420
 16777215
370
     9
100
AcDbSpline
210
0.0
220
0.0
230
1.0
 70
    11
 71
     3
 72
    17
 73
    13
 74
     0
 42
0.0000000001
 43
0.0000000001
 12
1.0
 22
0.0
 32
0.0
 13
1.0
 23
0.0
 33
0.0
 40
0.0
 40
0.0
 40
0.0
 40
0.0
 40
1.0
 40
1.0
 40
1.0
 40
2.0
 40
2.0
 40
2.0
 40
3.0
 40
3.0
 40
3.0
 40
4.0
 40
4.0
 40
4.0
 40
4.0
 10
101.3609199140675
 20
-139.7189441317371
 30
0.0
 10
101.3609199140675
 20
-139.7740832983895
 30
0.0
 10
101.3161171374327
 20
-139.8188507983787
 30
0.0
 10
101.2610132499497
 20
-139.8188507983787
 30
0.0
 10
101.2058740846897
 20
-139.8188507983787
 30
0.0
 10
101.1611065858318
 20
-139.7740832983895
 30
0.0
 10
101.1611065858318
 20
-139.7189441317371
 30
0.0
 10
101.1611065858318
 20
-139.6638402428615
 30
0.0
 10
101.2058740846897
 20
-139.6190374650954
 30
0.0
 10
101.2610132499497
 20
-139.6190374650954
 30
0.0
 10
101.3161171374327
 20
-139.6190374650954
 30
0.0
 10
101.3609199140675
 20
-139.6638402428615
 30
0.0
 10
101.3609199140675
 20
-139.7189441317371
 30
0.0
  0
SPLINE
  5
5D
330
41
100
AcDbEntity
  8
_U+30EC_U+30A4_U+30E4_U+30FC 1
 62
     7
420
 16777215
370
     9
100
AcDbSpline
210
0.0
220
0.0
230
1.0
 70
    11
 71
     3
 72
    17
 73
    13
 74
     0
 42
0.0000000001
 43
0.0000000001
 12
1.0
 22
0.0
 32
0.0
 13
1.0
 23
0.0
 33
0.0
 40
0.0
 40
0.0
 40
0.0
 40
0.0
 40
1.0
 40
1.0
 40
1.0
 40
2.0
 40
2.0
 40
2.0
 40
3.0
 40
3.0
 40
3.0
 40
4.0
 40
4.0
 40
4.0
 40
4.0
 10
85.39324559921458
 20
-139.7189441317371
 30
0.0
 10
85.39324559921458
 20
-139.7740832983895
 30
0.0
 10
85.34844282257983
 20
-139.8188507983787
 30
0.0
 10
85.29298615732797
 20
-139.8188507983787
 30
0.0
 10
85.23784699206803
 20
-139.8188507983787
 30
0.0
 10
85.19307949321013
 20
-139.7740832983895
 30
0.0
 10
85.19307949321013
 20
-139.7189441317371
 30
0.0
 10
85.19307949321013
 20
-139.6638402428615
 30
0.0
 10
85.23784699206803
 20
-139.6190374650954
 30
0.0
 10
85.29298615732797
 20
-139.6190374650954
 30
0.0
 10
85.34844282257983
 20
-139.6190374650954
 30
0.0
 10
85.39324559921458
 20
-139.6638402428615
 30
0.0
 10
85.39324559921458
 20
-139.7189441317371
 30
0.0
  0
INSERT
  5
5F
330
41
100
AcDbEntity
  8
_U+30EC_U+30A4_U+30E4_U+30FC 1
100
AcDbBlockReference
  2
block 3
 10
0.0
 20
0.0
 30
0.0
  0
INSERT
  5
78
330
41
100
AcDbEntity
  8
_U+30EC_U+30A4_U+30E4_U+30FC 1
100
AcDbBlockReference
  2
block 4
 10
0.0
 20
0.0
 30
0.0
  0
POLYLINE
  5
80
330
41
100
AcDbEntity
  8
_U+30EC_U+30A4_U+30E4_U+30FC 1
 62
     7
420
 16777215
370
     9
100
AcDb2dPolyline
 66
     1
 10
0.0
 20
0.0
 30
0.0
  0
VERTEX
  5
81
330
80
100
AcDbEntity
  8
_U+30EC_U+30A4_U+30E4_U+30FC 1
 62
     7
420
 16777215
370
     9
100
AcDbVertex
100
AcDb2dVertex
 10
77.34031691577302
 20
-116.4473230264438
 30
0.0
  0
VERTEX
  5
82
330
80
100
AcDbEntity
  8
_U+30EC_U+30A4_U+30E4_U+30FC 1
 62
     7
420
 16777215
370
     9
100
AcDbVertex
100
AcDb2dVertex
 10
79.01601131746695
 20
-116.4473230264438
 30
0.0
  0
SEQEND
  5
83
330
80
100
AcDbEntity
  8
_U+30EC_U+30A4_U+30E4_U+30FC 1
 62
     7
420
 16777215
370
     9
  0
POLYLINE
  5
84
330
41
100
AcDbEntity
  8
_U+30EC_U+30A4_U+30E4_U+30FC 1
 62
     7
420
 16777215
370
     9
100
AcDb2dPolyline
 66
     1
 10
0.0
 20
0.0
 30
0.0
  0
VERTEX
  5
85
330
84
100
AcDbEntity
  8
_U+30EC_U+30A4_U+30E4_U+30FC 1
 62
     7
420
 16777215
370
     9
100
AcDbVertex
100
AcDb2dVertex
 10
78.16094856150363
 20
-116.4473230264438
 30
0.0
  0
VERTEX
  5
86
330
84
100
AcDbEntity
  8
_U+30EC_U+30A4_U+30E4_U+30FC 1
 62
     7
420
 16777215
370
     9
100
AcDbVertex
100
AcDb2dVertex
 10
78.16094856150363
 20
-136.4474946881105
 30
0.0
  0
SEQEND
  5
87
330
84
100
AcDbEntity
  8
_U+30EC_U+30A4_U+30E4_U+30FC 1
 62
     7
420
 16777215
370
     9
  0
POLYLINE
  5
88
330
41
100
AcDbEntity
  8
_U+30EC_U+30A4_U+30E4_U+30FC 1
 62
     7
420
 16777215
370
     9
100
AcDb2dPolyline
 66
     1
 10
0.0
 20
0.0
 30
0.0
  0
VERTEX
  5
89
330
88
100
AcDbEntity
  8
_U+30EC_U+30A4_U+30E4_U+30FC 1
 62
     7
420
 16777215
370
     9
100
AcDbVertex
100
AcDb2dVertex
 10
77.34031691577302
 20
-136.4578310769968
 30
0.0
  0
VERTEX
  5
8A
330
88
100
AcDbEntity
  8
_U+30EC_U+30A4_U+30E4_U+30FC 1
 62
     7
420
 16777215
370
     9
100
AcDbVertex
100
AcDb2dVertex
 10
79.01601131746695
 20
-136.4578310769968
 30
0.0
  0
SEQEND
  5
8B
330
88
100
AcDbEntity
  8
_U+30EC_U+30A4_U+30E4_U+30FC 1
 62
     7
420
 16777215
370
     9
  0
SPLINE
  5
8C
330
41
100
AcDbEntity
  8
_U+30EC_U+30A4_U+30E4_U+30FC 1
 62
     7
420
 16777215
370
     9
100
AcDbSpline
210
0.0
220
0.0
230
1.0
 70
    11
 71
     3
 72
    17
 73
    13
 74
     0
 42
0.0000000001
 43
0.0000000001
 12
1.0
 22
0.0
 32
0.0
 13
1.0
 23
0.0
 33
0.0
 40
0.0
 40
0.0
 40
0.0
 40
0.0
 40
1.0
 40
1.0
 40
1.0
 40
2.0
 40
2.0
 40
2.0
 40
3.0
 40
3.0
 40
3.0
 40
4.0
 40
4.0
 40
4.0
 40
4.0
 10
78.24293609155043
 20
-116.5038380264295
 30
0.0
 10
78.24293609155043
 20
-116.5589419153047
 30
0.0
 10
78.19816661610967
 20
-116.6037446930714
 30
0.0
 10
78.14302745084973
 20
-116.6037446930714
 30
0.0
 10
78.08792356336666
 20
-116.6037446930714
 30
0.0
 10
78.04312078673189
 20
-116.5589419153047
 30
0.0
 10
78.04312078673189
 20
-116.5038380264295
 30
0.0
 10
78.04312078673189
 20
-116.4486988597767
 30
0.0
 10
78.08792356336666
 20
-116.4039313597878
 30
0.0
 10
78.14302745084973
 20
-116.4039313597878
 30
0.0
 10
78.19816661610967
 20
-116.4039313597878
 30
0.0
 10
78.24293609155043
 20
-116.4486988597767
 30
0.0
 10
78.24293609155043
 20
-116.5038380264295
 30
0.0
  0
SPLINE
  5
8D
330
41
100
AcDbEntity
  8
_U+30EC_U+30A4_U+30E4_U+30FC 1
 62
     7
420
 16777215
370
     9
100
AcDbSpline
210
0.0
220
0.0
230
1.0
 70
    11
 71
     3
 72
    17
 73
    13
 74
     0
 42
0.0000000001
 43
0.0000000001
 12
1.0
 22
0.0
 32
0.0
 13
1.0
 23
0.0
 33
0.0
 40
0.0
 40
0.0
 40
0.0
 40
0.0
 40
1.0
 40
1.0
 40
1.0
 40
2.0
 40
2.0
 40
2.0
 40
3.0
 40
3.0
 40
3.0
 40
4.0
 40
4.0
 40
4.0
 40
4.0
 10
78.24293609155043
 20
-136.4474946881105
 30
0.0
 10
78.24293609155043
 20
-136.5025985769854
 30
0.0
 10
78.19816661610967
 20
-136.5474013547521
 30
0.0
 10
78.14302745084973
 20
-136.5474013547521
 30
0.0
 10
78.08792356336666
 20
-136.5474013547521
 30
0.0
 10
78.04312078673189
 20
-136.5025985769854
 30
0.0
 10
78.04312078673189
 20
-136.4474946881105
 30
0.0
 10
78.04312078673189
 20
-136.3923555214574
 30
0.0
 10
78.08792356336666
 20
-136.3475880214689
 30
0.0
 10
78.14302745084973
 20
-136.3475880214689
 30
0.0
 10
78.19816661610967
 20
-136.3475880214689
 30
0.0
 10
78.24293609155043
 20
-136.3923555214574
 30
0.0
 10
78.24293609155043
 20
-136.4474946881105
 30
0.0
  0
INSERT
  5
8F
330
41
100
AcDbEntity
  8
_U+30EC_U+30A4_U+30E4_U+30FC 1
100
AcDbBlockReference
  2
block 5
 10
0.0
 20
0.0
 30
0.0
  0
INSERT
  5
98
330
41
100
AcDbEntity
  8
_U+30EC_U+30A4_U+30E4_U+30FC 1
100
AcDbBlockReference
  2
block 6
 10
0.0
 20
0.0
 30
0.0
  0
POLYLINE
  5
B3
330
41
100
AcDbEntity
  8
_U+30EC_U+30A4_U+30E4_U+30FC 1
 62
     7
420
 16777215
370
     9
100
AcDb2dPolyline
 66
     1
 10
0.0
 20
0.0
 30
0.0
  0
VERTEX
  5
B4
330
B3
100
AcDbEntity
  8
_U+30EC_U+30A4_U+30E4_U+30FC 1
 62
     7
420
 16777215
370
     9
100
AcDbVertex
100
AcDb2dVertex
 10
102.343794055659
 20
-135.1211207995532
 30
0.0
  0
VERTEX
  5
B5
330
B3
100
AcDbEntity
  8
_U+30EC_U+30A4_U+30E4_U+30FC 1
 62
     7
420
 16777215
370
     9
100
AcDbVertex
100
AcDb2dVertex
 10
104.0194884573529
 20
-135.1211207995532
 30
0.0
  0
SEQEND
  5
B6
330
B3
100
AcDbEntity
  8
_U+30EC_U+30A4_U+30E4_U+30FC 1
 62
     7
420
 16777215
370
     9
  0
POLYLINE
  5
B7
330
41
100
AcDbEntity
  8
_U+30EC_U+30A4_U+30E4_U+30FC 1
 62
     7
420
 16777215
370
     9
100
AcDb2dPolyline
 66
     1
 10
0.0
 20
0.0
 30
0.0
  0
VERTEX
  5
B8
330
B7
100
AcDbEntity
  8
_U+30EC_U+30A4_U+30E4_U+30FC 1
 62
     7
420
 16777215
370
     9
100
AcDbVertex
100
AcDb2dVertex
 10
103.1217043135906
 20
-133.5753191332727
 30
0.0
  0
VERTEX
  5
B9
330
B7
100
AcDbEntity
  8
_U+30EC_U+30A4_U+30E4_U+30FC 1
 62
     7
420
 16777215
370
     9
100
AcDbVertex
100
AcDb2dVertex
 10
103.1217043135906
 20
-137.2605416323512
 30
0.0
  0
SEQEND
  5
BA
330
B7
100
AcDbEntity
  8
_U+30EC_U+30A4_U+30E4_U+30FC 1
 62
     7
420
 16777215
370
     9
  0
POLYLINE
  5
BB
330
41
100
AcDbEntity
  8
_U+30EC_U+30A4_U+30E4_U+30FC 1
 62
     7
420
 16777215
370
     9
100
AcDb2dPolyline
 66
     1
 10
0.0
 20
0.0
 30
0.0
  0
VERTEX
  5
BC
330
BB
100
AcDbEntity
  8
_U+30EC_U+30A4_U+30E4_U+30FC 1
 62
     7
420
 16777215
370
     9
100
AcDbVertex
100
AcDb2dVertex
 10
102.343794055659
 20
-136.3214119103639
 30
0.0
  0
VERTEX
  5
BD
330
BB
100
AcDbEntity
  8
_U+30EC_U+30A4_U+30E4_U+30FC 1
 62
     7
420
 16777215
370
     9
100
AcDbVertex
100
AcDb2dVertex
 10
104.0194884573529
 20
-136.3214119103639
 30
0.0
  0
SEQEND
  5
BE
330
BB
100
AcDbEntity
  8
_U+30EC_U+30A4_U+30E4_U+30FC 1
 62
     7
420
 16777215
370
     9
  0
SPLINE
  5
BF
330
41
100
AcDbEntity
  8
_U+30EC_U+30A4_U+30E4_U+30FC 1
 62
     7
420
 16777215
370
     9
100
AcDbSpline
210
0.0
220
0.0
230
1.0
 70
    11
 71
     3
 72
    17
 73
    13
 74
     0
 42
0.0000000001
 43
0.0000000001
 12
1.0
 22
0.0
 32
0.0
 13
1.0
 23
0.0
 33
0.0
 40
0.0
 40
0.0
 40
0.0
 40
0.0
 40
1.0
 40
1.0
 40
1.0
 40
2.0
 40
2.0
 40
2.0
 40
3.0
 40
3.0
 40
3.0
 40
4.0
 40
4.0
 40
4.0
 40
4.0
 10
103.1906018118329
 20
-136.3441307992476
 30
0.0
 10
103.1906018118329
 20
-136.3992699659
 30
0.0
 10
103.1457990351981
 20
-136.4440374658892
 30
0.0
 10
103.0903423699463
 20
-136.4440374658892
 30
0.0
 10
103.0352384824632
 20
-136.4440374658892
 30
0.0
 10
102.9904357058284
 20
-136.3992699659
 30
0.0
 10
102.9904357058284
 20
-136.3441307992476
 30
0.0
 10
102.9904357058284
 20
-136.289026910372
 30
0.0
 10
103.0352384824632
 20
-136.2442241326059
 30
0.0
 10
103.0903423699463
 20
-136.2442241326059
 30
0.0
 10
103.1457990351981
 20
-136.2442241326059
 30
0.0
 10
103.1906018118329
 20
-136.289026910372
 30
0.0
 10
103.1906018118329
 20
-136.3441307992476
 30
0.0
  0
SPLINE
  5
C0
330
41
100
AcDbEntity
  8
_U+30EC_U+30A4_U+30E4_U+30FC 1
 62
     7
420
 16777215
370
     9
100
AcDbSpline
210
0.0
220
0.0
230
1.0
 70
    11
 71
     3
 72
    17
 73
    13
 74
     0
 42
0.0000000001
 43
0.0000000001
 12
1.0
 22
0.0
 32
0.0
 13
1.0
 23
0.0
 33
0.0
 40
0.0
 40
0.0
 40
0.0
 40
0.0
 40
1.0
 40
1.0
 40
1.0
 40
2.0
 40
2.0
 40
2.0
 40
3.0
 40
3.0
 40
3.0
 40
4.0
 40
4.0
 40
4.0
 40
4.0
 10
103.1906018118329
 20
-135.1445452439917
 30
0.0
 10
103.1906018118329
 20
-135.1996844106448
 30
0.0
 10
103.1457990351981
 20
-135.2444519106334
 30
0.0
 10
103.0903423699463
 20
-135.2444519106334
 30
0.0
 10
103.0352384824632
 20
-135.2444519106334
 30
0.0
 10
102.9904357058284
 20
-135.1996844106448
 30
0.0
 10
102.9904357058284
 20
-135.1445452439917
 30
0.0
 10
102.9904357058284
 20
-135.0890885773391
 30
0.0
 10
103.0352384824632
 20
-135.0442857995723
 30
0.0
 10
103.0903423699463
 20
-135.0442857995723
 30
0.0
 10
103.1457990351981
 20
-135.0442857995723
 30
0.0
 10
103.1906018118329
 20
-135.0890885773391
 30
0.0
 10
103.1906018118329
 20
-135.1445452439917
 30
0.0
  0
INSERT
  5
C2
330
41
100
AcDbEntity
  8
_U+30EC_U+30A4_U+30E4_U+30FC 1
100
AcDbBlockReference
  2
block 7
 10
0.0
 20
0.0
 30
0.0
  0
POLYLINE
  5
D1
330
41
100
AcDbEntity
  8
_U+30EC_U+30A4_U+30E4_U+30FC 1
 62
   179
420
  2234388
370
     9
100
AcDb2dPolyline
 66
     1
 10
0.0
 20
0.0
 30
0.0
  0
VERTEX
  5
D2
330
D1
100
AcDbEntity
  8
_U+30EC_U+30A4_U+30E4_U+30FC 1
 62
   179
420
  2234388
370
     9
100
AcDbVertex
100
AcDb2dVertex
 10
82.31709401102708
 20
-135.0294691329096
 30
0.0
  0
VERTEX
  5
D3
330
D1
100
AcDbEntity
  8
_U+30EC_U+30A4_U+30E4_U+30FC 1
 62
   179
420
  2234388
370
     9
100
AcDbVertex
100
AcDb2dVertex
 10
83.1835514889219
 20
-134.5296182997011
 30
0.0
  0
SEQEND
  5
D4
330
D1
100
AcDbEntity
  8
_U+30EC_U+30A4_U+30E4_U+30FC 1
 62
   179
420
  2234388
370
     9
  0
POLYLINE
  5
D5
330
41
100
AcDbEntity
  8
_U+30EC_U+30A4_U+30E4_U+30FC 1
 62
   179
420
  2234388
370
     9
100
AcDb2dPolyline
 66
     1
 10
0.0
 20
0.0
 30
0.0
  0
VERTEX
  5
D6
330
D5
100
AcDbEntity
  8
_U+30EC_U+30A4_U+30E4_U+30FC 1
 62
   179
420
  2234388
370
     9
100
AcDbVertex
100
AcDb2dVertex
 10
82.31709401102708
 20
-135.0294691329096
 30
0.0
  0
VERTEX
  5
D7
330
D5
100
AcDbEntity
  8
_U+30EC_U+30A4_U+30E4_U+30FC 1
 62
   179
420
  2234388
370
     9
100
AcDbVertex
100
AcDb2dVertex
 10
87.33041888312651
 20
-130.0161794119406
 30
0.0
  0
SEQEND
  5
D8
330
D5
100
AcDbEntity
  8
_U+30EC_U+30A4_U+30E4_U+30FC 1
 62
   179
420
  2234388
370
     9
  0
POLYLINE
  5
D9
330
41
100
AcDbEntity
  8
_U+30EC_U+30A4_U+30E4_U+30FC 1
 62
   179
420
  2234388
370
     9
100
AcDb2dPolyline
 66
     1
 10
0.0
 20
0.0
 30
0.0
  0
VERTEX
  5
DA
330
D9
100
AcDbEntity
  8
_U+30EC_U+30A4_U+30E4_U+30FC 1
 62
   179
420
  2234388
370
     9
100
AcDbVertex
100
AcDb2dVertex
 10
82.31709401102708
 20
-135.0294691329096
 30
0.0
  0
VERTEX
  5
DB
330
D9
100
AcDbEntity
  8
_U+30EC_U+30A4_U+30E4_U+30FC 1
 62
   179
420
  2234388
370
     9
100
AcDbVertex
100
AcDb2dVertex
 10
82.81768566492259
 20
-134.1633996886817
 30
0.0
  0
SEQEND
  5
DC
330
D9
100
AcDbEntity
  8
_U+30EC_U+30A4_U+30E4_U+30FC 1
 62
   179
420
  2234388
370
     9
  0
ENDBLK
  5
44
330
41
100
AcDbEntity
  8
0
100
AcDbBlockEnd
  0
BLOCK
  5
60
330
5E
100
AcDbEntity
  8
0
100
AcDbBlockBegin
  2
block 3
 70
     0
 10
0.0
 20
0.0
 30
0.0
  3
block 3
  1

  0
POLYLINE
  5
62
330
5E
100
AcDbEntity
  8
_U+30EC_U+30A4_U+30E4_U+30FC 1
370
     0
100
AcDb2dPolyline
 66
     1
 10
0.0
 20
0.0
 30
0.0
  0
VERTEX
  5
63
330
62
100
AcDbEntity
  8
_U+30EC_U+30A4_U+30E4_U+30FC 1
370
     0
100
AcDbVertex
100
AcDb2dVertex
 10
83.5365030715638
 20
-138.3250623569118
 30
0.0
  0
VERTEX
  5
64
330
62
100
AcDbEntity
  8
_U+30EC_U+30A4_U+30E4_U+30FC 1
370
     0
100
AcDbVertex
100
AcDb2dVertex
 10
83.5365030715638
 20
-138.6719834722765
 30
0.0
  0
VERTEX
  5
65
330
62
100
AcDbEntity
  8
_U+30EC_U+30A4_U+30E4_U+30FC 1
370
     0
100
AcDbVertex
100
AcDb2dVertex
 10
83.34564478168096
 20
-138.6719834722765
 30
0.0
  0
VERTEX
  5
66
330
62
100
AcDbEntity
  8
_U+30EC_U+30A4_U+30E4_U+30FC 1
370
     0
100
AcDbVertex
100
AcDb2dVertex
 10
83.34564478168096
 20
-138.3250623569118
 30
0.0
  0
VERTEX
  5
67
330
62
100
AcDbEntity
  8
_U+30EC_U+30A4_U+30E4_U+30FC 1
370
     0
100
AcDbVertex
100
AcDb2dVertex
 10
82.77169187383834
 20
-138.3250623569118
 30
0.0
  0
VERTEX
  5
68
330
62
100
AcDbEntity
  8
_U+30EC_U+30A4_U+30E4_U+30FC 1
370
     0
100
AcDbVertex
100
AcDb2dVertex
 10
82.77169187383834
 20
-138.100786640822
 30
0.0
  0
VERTEX
  5
69
330
62
100
AcDbEntity
  8
_U+30EC_U+30A4_U+30E4_U+30FC 1
370
     0
100
AcDbVertex
100
AcDb2dVertex
 10
83.36631535459246
 20
-137.1275471662389
 30
0.0
  0
VERTEX
  5
6A
330
62
100
AcDbEntity
  8
_U+30EC_U+30A4_U+30E4_U+30FC 1
370
     0
100
AcDbVertex
100
AcDb2dVertex
 10
83.5365030715638
 20
-137.1275471662389
 30
0.0
  0
VERTEX
  5
6B
330
62
100
AcDbEntity
  8
_U+30EC_U+30A4_U+30E4_U+30FC 1
370
     0
100
AcDbVertex
100
AcDb2dVertex
 10
83.5365030715638
 20
-138.1262803474129
 30
0.0
  0
VERTEX
  5
6C
330
62
100
AcDbEntity
  8
_U+30EC_U+30A4_U+30E4_U+30FC 1
370
     0
100
AcDbVertex
100
AcDb2dVertex
 10
83.71805960363646
 20
-138.1262803474129
 30
0.0
  0
VERTEX
  5
6D
330
62
100
AcDbEntity
  8
_U+30EC_U+30A4_U+30E4_U+30FC 1
370
     0
100
AcDbVertex
100
AcDb2dVertex
 10
83.71805960363646
 20
-138.3250623569118
 30
0.0
  0
VERTEX
  5
6E
330
62
100
AcDbEntity
  8
_U+30EC_U+30A4_U+30E4_U+30FC 1
370
     0
100
AcDbVertex
100
AcDb2dVertex
 10
83.5365030715638
 20
-138.3250623569118
 30
0.0
  0
SEQEND
  5
6F
330
62
100
AcDbEntity
  8
_U+30EC_U+30A4_U+30E4_U+30FC 1
370
     0
  0
POLYLINE
  5
70
330
5E
100
AcDbEntity
  8
_U+30EC_U+30A4_U+30E4_U+30FC 1
370
     0
100
AcDb2dPolyline
 66
     1
 10
0.0
 20
0.0
 30
0.0
  0
VERTEX
  5
71
330
70
100
AcDbEntity
  8
_U+30EC_U+30A4_U+30E4_U+30FC 1
370
     0
100
AcDbVertex
100
AcDb2dVertex
 10
83.34564478168096
 20
-137.4703341670213
 30
0.0
  0
VERTEX
  5
72
330
70
100
AcDbEntity
  8
_U+30EC_U+30A4_U+30E4_U+30FC 1
370
     0
100
AcDbVertex
100
AcDb2dVertex
 10
82.94601370539198
 20
-138.1262803474129
 30
0.0
  0
VERTEX
  5
73
330
70
100
AcDbEntity
  8
_U+30EC_U+30A4_U+30E4_U+30FC 1
370
     0
100
AcDbVertex
100
AcDb2dVertex
 10
83.34564478168096
 20
-138.1262803474129
 30
0.0
  0
VERTEX
  5
74
330
70
100
AcDbEntity
  8
_U+30EC_U+30A4_U+30E4_U+30FC 1
370
     0
100
AcDbVertex
100
AcDb2dVertex
 10
83.34564478168096
 20
-137.4703341670213
 30
0.0
  0
SEQEND
  5
75
330
70
100
AcDbEntity
  8
_U+30EC_U+30A4_U+30E4_U+30FC 1
370
     0
  0
HATCH
  5
76
330
5E
100
AcDbEntity
  8
_U+30EC_U+30A4_U+30E4_U+30FC 1
 62
   179
420
  2234388
100
AcDbHatch
 10
0.0
 20
0.0
 30
0.0
210
0.0
220
0.0
230
1.0
  2
SOLID
 70
     1
 71
     0
 91
        2
 92
        1
 93
       11
 72
     1
 10
83.5365030715638
 20
-138.3250623569118
 11
83.5365030715638
 21
-138.6719834722765
 72
     1
 10
83.5365030715638
 20
-138.6719834722765
 11
83.34564478168096
 21
-138.6719834722765
 72
     1
 10
83.34564478168096
 20
-138.6719834722765
 11
83.34564478168096
 21
-138.3250623569118
 72
     1
 10
83.34564478168096
 20
-138.3250623569118
 11
82.77169187383834
 21
-138.3250623569118
 72
     1
 10
82.77169187383834
 20
-138.3250623569118
 11
82.77169187383834
 21
-138.100786640822
 72
     1
 10
82.77169187383834
 20
-138.100786640822
 11
83.36631535459246
 21
-137.1275471662389
 72
     1
 10
83.36631535459246
 20
-137.1275471662389
 11
83.5365030715638
 21
-137.1275471662389
 72
     1
 10
83.5365030715638
 20
-137.1275471662389
 11
83.5365030715638
 21
-138.1262803474129
 72
     1
 10
83.5365030715638
 20
-138.1262803474129
 11
83.71805960363646
 21
-138.1262803474129
 72
     1
 10
83.71805960363646
 20
-138.1262803474129
 11
83.71805960363646
 21
-138.3250623569118
 72
     1
 10
83.71805960363646
 20
-138.3250623569118
 11
83.5365030715638
 21
-138.3250623569118
 97
        0
 92
        1
 93
        3
 72
     1
 10
83.34564478168096
 20
-137.4703341670213
 11
82.94601370539198
 21
-138.1262803474129
 72
     1
 10
82.94601370539198
 20
-138.1262803474129
 11
83.34564478168096
 21
-138.1262803474129
 72
     1
 10
83.34564478168096
 20
-138.1262803474129
 11
83.34564478168096
 21
-137.4703341670213
 97
        0
 75
     2
 76
     1
 98
        0
  0
ENDBLK
  5
61
330
5E
100
AcDbEntity
  8
0
100
AcDbBlockEnd
  0
BLOCK
  5
79
330
77
100
AcDbEntity
  8
0
100
AcDbBlockBegin
  2
block 4
 70
     0
 10
0.0
 20
0.0
 30
0.0
  3
block 4
  1

  0
SPLINE
  5
7B
330
77
100
AcDbEntity
  8
_U+30EC_U+30A4_U+30E4_U+30FC 1
370
     0
100
AcDbSpline
210
0.0
220
0.0
230
1.0
 70
    11
 71
     3
 72
    26
 73
    22
 74
     0
 42
0.0000000001
 43
0.0000000001
 12
1.0
 22
0.0
 32
0.0
 13
1.0
 23
0.0
 33
0.0
 40
0.0
 40
0.0
 40
0.0
 40
0.0
 40
1.0
 40
1.0
 40
1.0
 40
2.0
 40
2.0
 40
2.0
 40
3.0
 40
3.0
 40
3.0
 40
4.0
 40
4.0
 40
4.0
 40
5.0
 40
5.0
 40
5.0
 40
6.0
 40
6.0
 40
6.0
 40
7.0
 40
7.0
 40
7.0
 40
7.0
 10
91.93444008118306
 20
-138.6719834722765
 30
0.0
 10
91.93444008118306
 20
-138.6719834722765
 30
0.0
 10
91.93444008118306
 20
-137.5678303692539
 30
0.0
 10
91.93444008118306
 20
-137.5678303692539
 30
0.0
 10
91.93444008118306
 20
-137.5678303692539
 30
0.0
 10
91.64574107951913
 20
-137.5678303692539
 30
0.0
 10
91.64574107951913
 20
-137.5678303692539
 30
0.0
 10
91.64574107951913
 20
-137.5678303692539
 30
0.0
 10
91.64574107951913
 20
-137.4196912633881
 30
0.0
 10
91.64574107951913
 20
-137.4196912633881
 30
0.0
 10
91.93650713847421
 20
-137.4048773528016
 30
0.0
 10
91.97715926520016
 20
-137.2419243363493
 30
0.0
 10
92.00334199088806
 20
-137.1275471662389
 30
0.0
 10
92.00334199088806
 20
-137.1275471662389
 30
0.0
 10
92.1308105238423
 20
-137.1275471662389
 30
0.0
 10
92.1308105238423
 20
-137.1275471662389
 30
0.0
 10
92.1308105238423
 20
-137.1275471662389
 30
0.0
 10
92.1308105238423
 20
-138.6719834722765
 30
0.0
 10
92.1308105238423
 20
-138.6719834722765
 30
0.0
 10
92.1308105238423
 20
-138.6719834722765
 30
0.0
 10
91.93444008118306
 20
-138.6719834722765
 30
0.0
 10
91.93444008118306
 20
-138.6719834722765
 30
0.0
  0
HATCH
  5
7C
330
77
100
AcDbEntity
  8
_U+30EC_U+30A4_U+30E4_U+30FC 1
 62
   179
420
  2234388
100
AcDbHatch
 10
0.0
 20
0.0
 30
0.0
210
0.0
220
0.0
230
1.0
  2
SOLID
 70
     1
 71
     0
 91
        1
 92
        1
 93
        1
 72
     4
 94
        3
 73
     0
 74
     1
 95
       26
 96
       22
 40
0.0
 40
0.0
 40
0.0
 40
0.0
 40
1.0
 40
1.0
 40
1.0
 40
2.0
 40
2.0
 40
2.0
 40
3.0
 40
3.0
 40
3.0
 40
4.0
 40
4.0
 40
4.0
 40
5.0
 40
5.0
 40
5.0
 40
6.0
 40
6.0
 40
6.0
 40
7.0
 40
7.0
 40
7.0
 40
7.0
 10
91.93444008118306
 20
-138.6719834722765
 10
91.93444008118306
 20
-138.6719834722765
 10
91.93444008118306
 20
-137.5678303692539
 10
91.93444008118306
 20
-137.5678303692539
 10
91.93444008118306
 20
-137.5678303692539
 10
91.64574107951913
 20
-137.5678303692539
 10
91.64574107951913
 20
-137.5678303692539
 10
91.64574107951913
 20
-137.5678303692539
 10
91.64574107951913
 20
-137.4196912633881
 10
91.64574107951913
 20
-137.4196912633881
 10
91.93650713847421
 20
-137.4048773528016
 10
91.97715926520016
 20
-137.2419243363493
 10
92.00334199088806
 20
-137.1275471662389
 10
92.00334199088806
 20
-137.1275471662389
 10
92.1308105238423
 20
-137.1275471662389
 10
92.1308105238423
 20
-137.1275471662389
 10
92.1308105238423
 20
-137.1275471662389
 10
92.1308105238423
 20
-138.6719834722765
 10
92.1308105238423
 20
-138.6719834722765
 10
92.1308105238423
 20
-138.6719834722765
 10
91.93444008118306
 20
-138.6719834722765
 10
91.93444008118306
 20
-138.6719834722765
 97
        0
 97
        0
 75
     2
 76
     1
 98
        0
  0
SPLINE
  5
7D
330
77
100
AcDbEntity
  8
_U+30EC_U+30A4_U+30E4_U+30FC 1
370
     0
100
AcDbSpline
210
0.0
220
0.0
230
1.0
 70
    11
 71
     3
 72
    32
 73
    28
 74
     0
 42
0.0000000001
 43
0.0000000001
 12
1.0
 22
0.0
 32
0.0
 13
1.0
 23
0.0
 33
0.0
 40
0.0
 40
0.0
 40
0.0
 40
0.0
 40
1.0
 40
1.0
 40
1.0
 40
2.0
 40
2.0
 40
2.0
 40
3.0
 40
3.0
 40
3.0
 40
4.0
 40
4.0
 40
4.0
 40
5.0
 40
5.0
 40
5.0
 40
6.0
 40
6.0
 40
6.0
 40
7.0
 40
7.0
 40
7.0
 40
8.0
 40
8.0
 40
8.0
 40
9.0
 40
9.0
 40
9.0
 40
9.0
 10
93.01137692987216
 20
-138.7226263759096
 30
0.0
 10
92.56006942130443
 20
-138.7226263759096
 30
0.0
 10
92.55249021123689
 20
-138.1686550218814
 30
0.0
 10
92.55249021123689
 20
-137.9547145922474
 30
0.0
 10
92.55249021123689
 20
-137.7242377042842
 30
0.0
 10
92.56902666956609
 20
-137.0769042626058
 30
0.0
 10
93.0451388656276
 20
-137.0769042626058
 30
0.0
 10
93.1967230669786
 20
-137.0769042626058
 30
0.0
 10
93.41169702525819
 20
-137.1468397009563
 30
0.0
 10
93.44476994191659
 20
-137.4789469057344
 30
0.0
 10
93.44476994191659
 20
-137.4789469057344
 30
0.0
 10
93.25804576661605
 20
-137.4789469057344
 30
0.0
 10
93.25804576661605
 20
-137.4789469057344
 30
0.0
 10
93.24839949925735
 20
-137.4217583206793
 30
0.0
 10
93.22083873537535
 20
-137.2736192148136
 30
0.0
 10
93.04307180833646
 20
-137.2736192148136
 30
0.0
 10
92.78744572333092
 20
-137.2736192148136
 30
0.0
 10
92.75230574938138
 20
-137.6015923050093
 30
0.0
 10
92.74128144382857
 20
-137.8065754863817
 30
0.0
 10
92.82258569728047
 20
-137.7283718188665
 30
0.0
 10
92.88184133962676
 20
-137.6691161765202
 30
0.0
 10
93.0410047510453
 20
-137.6691161765202
 30
0.0
 10
93.19879012426975
 20
-137.6691161765202
 30
0.0
 10
93.46337345753693
 20
-137.7772921747571
 30
0.0
 10
93.46337345753693
 20
-138.183468932468
 30
0.0
 10
93.46337345753693
 20
-138.5028292839507
 30
0.0
 10
93.28905162598329
 20
-138.7226263759096
 30
0.0
 10
93.01137692987216
 20
-138.7226263759096
 30
0.0
  0
SPLINE
  5
7E
330
77
100
AcDbEntity
  8
_U+30EC_U+30A4_U+30E4_U+30FC 1
370
     0
100
AcDbSpline
210
0.0
220
0.0
230
1.0
 70
    11
 71
     3
 72
    17
 73
    13
 74
     0
 42
0.0000000001
 43
0.0000000001
 12
1.0
 22
0.0
 32
0.0
 13
1.0
 23
0.0
 33
0.0
 40
0.0
 40
0.0
 40
0.0
 40
0.0
 40
1.0
 40
1.0
 40
1.0
 40
2.0
 40
2.0
 40
2.0
 40
3.0
 40
3.0
 40
3.0
 40
4.0
 40
4.0
 40
4.0
 40
4.0
 10
93.02653535000726
 20
-137.8637640714368
 30
0.0
 10
92.79709199068962
 20
-137.8637640714368
 30
0.0
 10
92.76333005493417
 20
-138.0752929342312
 30
0.0
 10
92.76333005493417
 20
-138.1917371616326
 30
0.0
 10
92.76333005493417
 20
-138.3674370313804
 30
0.0
 10
92.84670136567722
 20
-138.5303900478327
 30
0.0
 10
93.00793183438691
 20
-138.5303900478327
 30
0.0
 10
93.11335175623556
 20
-138.5303900478327
 30
0.0
 10
93.2670030148777
 20
-138.4711344054864
 30
0.0
 10
93.2670030148777
 20
-138.1855359897592
 30
0.0
 10
93.2670030148777
 20
-137.9612602736694
 30
0.0
 10
93.14504663469985
 20
-137.8637640714368
 30
0.0
 10
93.02653535000726
 20
-137.8637640714368
 30
0.0
  0
HATCH
  5
7F
330
77
100
AcDbEntity
  8
_U+30EC_U+30A4_U+30E4_U+30FC 1
 62
   179
420
  2234388
100
AcDbHatch
 10
0.0
 20
0.0
 30
0.0
210
0.0
220
0.0
230
1.0
  2
SOLID
 70
     1
 71
     0
 91
        2
 92
        1
 93
        1
 72
     4
 94
        3
 73
     0
 74
     1
 95
       32
 96
       28
 40
0.0
 40
0.0
 40
0.0
 40
0.0
 40
1.0
 40
1.0
 40
1.0
 40
2.0
 40
2.0
 40
2.0
 40
3.0
 40
3.0
 40
3.0
 40
4.0
 40
4.0
 40
4.0
 40
5.0
 40
5.0
 40
5.0
 40
6.0
 40
6.0
 40
6.0
 40
7.0
 40
7.0
 40
7.0
 40
8.0
 40
8.0
 40
8.0
 40
9.0
 40
9.0
 40
9.0
 40
9.0
 10
93.01137692987216
 20
-138.7226263759096
 10
92.56006942130443
 20
-138.7226263759096
 10
92.55249021123689
 20
-138.1686550218814
 10
92.55249021123689
 20
-137.9547145922474
 10
92.55249021123689
 20
-137.7242377042842
 10
92.56902666956609
 20
-137.0769042626058
 10
93.0451388656276
 20
-137.0769042626058
 10
93.1967230669786
 20
-137.0769042626058
 10
93.41169702525819
 20
-137.1468397009563
 10
93.44476994191659
 20
-137.4789469057344
 10
93.44476994191659
 20
-137.4789469057344
 10
93.25804576661605
 20
-137.4789469057344
 10
93.25804576661605
 20
-137.4789469057344
 10
93.24839949925735
 20
-137.4217583206793
 10
93.22083873537535
 20
-137.2736192148136
 10
93.04307180833646
 20
-137.2736192148136
 10
92.78744572333092
 20
-137.2736192148136
 10
92.75230574938138
 20
-137.6015923050093
 10
92.74128144382857
 20
-137.8065754863817
 10
92.82258569728047
 20
-137.7283718188665
 10
92.88184133962676
 20
-137.6691161765202
 10
93.0410047510453
 20
-137.6691161765202
 10
93.19879012426975
 20
-137.6691161765202
 10
93.46337345753693
 20
-137.7772921747571
 10
93.46337345753693
 20
-138.183468932468
 10
93.46337345753693
 20
-138.5028292839507
 10
93.28905162598329
 20
-138.7226263759096
 10
93.01137692987216
 20
-138.7226263759096
 97
        0
 97
        0
 92
        1
 93
        1
 72
     4
 94
        3
 73
     0
 74
     1
 95
       17
 96
       13
 40
0.0
 40
0.0
 40
0.0
 40
0.0
 40
1.0
 40
1.0
 40
1.0
 40
2.0
 40
2.0
 40
2.0
 40
3.0
 40
3.0
 40
3.0
 40
4.0
 40
4.0
 40
4.0
 40
4.0
 10
93.02653535000726
 20
-137.8637640714368
 10
92.79709199068962
 20
-137.8637640714368
 10
92.76333005493417
 20
-138.0752929342312
 10
92.76333005493417
 20
-138.1917371616326
 10
92.76333005493417
 20
-138.3674370313804
 10
92.84670136567722
 20
-138.5303900478327
 10
93.00793183438691
 20
-138.5303900478327
 10
93.11335175623556
 20
-138.5303900478327
 10
93.2670030148777
 20
-138.4711344054864
 10
93.2670030148777
 20
-138.1855359897592
 10
93.2670030148777
 20
-137.9612602736694
 10
93.14504663469985
 20
-137.8637640714368
 10
93.02653535000726
 20
-137.8637640714368
 97
        0
 97
        0
 75
     2
 76
     1
 98
        0
  0
ENDBLK
  5
7A
330
77
100
AcDbEntity
  8
0
100
AcDbBlockEnd
  0
BLOCK
  5
90
330
8E
100
AcDbEntity
  8
0
100
AcDbBlockBegin
  2
block 5
 70
     0
 10
0.0
 20
0.0
 30
0.0
  3
block 5
  1

  0
SPLINE
  5
92
330
8E
100
AcDbEntity
  8
_U+30EC_U+30A4_U+30E4_U+30FC 1
370
     0
100
AcDbSpline
210
0.0
220
0.0
230
1.0
 70
    11
 71
     3
 72
    44
 73
    40
 74
     0
 42
0.0000000001
 43
0.0000000001
 12
1.0
 22
0.0
 32
0.0
 13
1.0
 23
0.0
 33
0.0
 40
0.0
 40
0.0
 40
0.0
 40
0.0
 40
1.0
 40
1.0
 40
1.0
 40
2.0
 40
2.0
 40
2.0
 40
3.0
 40
3.0
 40
3.0
 40
4.0
 40
4.0
 40
4.0
 40
5.0
 40
5.0
 40
5.0
 40
6.0
 40
6.0
 40
6.0
 40
7.0
 40
7.0
 40
7.0
 40
8.0
 40
8.0
 40
8.0
 40
9.0
 40
9.0
 40
9.0
 40
10.0
 40
10.0
 40
10.0
 40
11.0
 40
11.0
 40
11.0
 40
12.0
 40
12.0
 40
12.0
 40
13.0
 40
13.0
 40
13.0
 40
13.0
 10
76.99185517823467
 20
-127.2876654412684
 30
0.0
 10
77.1506740801047
 20
-127.4785237311512
 30
0.0
 10
77.22474363303756
 20
-127.5598279846031
 30
0.0
 10
77.36840411477249
 20
-127.6025471686202
 30
0.0
 10
77.36840411477249
 20
-127.6025471686202
 30
0.0
 10
77.36840411477249
 20
-126.9211072816378
 30
0.0
 10
77.36840411477249
 20
-126.9211072816378
 30
0.0
 10
77.36840411477249
 20
-126.9211072816378
 30
0.0
 10
77.57373180569337
 20
-126.9211072816378
 30
0.0
 10
77.57373180569337
 20
-126.9211072816378
 30
0.0
 10
77.57373180569337
 20
-126.9211072816378
 30
0.0
 10
77.57373180569337
 20
-127.820966222385
 30
0.0
 10
77.57373180569337
 20
-127.820966222385
 30
0.0
 10
77.21613089432444
 20
-127.793405458503
 30
0.0
 10
77.13792722680927
 20
-127.7358723638994
 30
0.0
 10
76.83958195778663
 20
-127.3989420254419
 30
0.0
 10
76.64079994828772
 20
-127.1746663093522
 30
0.0
 10
76.5729315672283
 20
-127.117477724297
 30
0.0
 10
76.43547225736683
 20
-127.117477724297
 30
0.0
 10
76.31696097267424
 20
-127.117477724297
 30
0.0
 10
76.18604734423474
 20
-127.1805229716771
 30
0.0
 10
76.18604734423474
 20
-127.3524332363911
 30
0.0
 10
76.18604734423474
 20
-127.5801540479661
 30
0.0
 10
76.41652423219796
 20
-127.5877332580336
 30
0.0
 10
76.5329684595994
 20
-127.5915228630674
 30
0.0
 10
76.5329684595994
 20
-127.5915228630674
 30
0.0
 10
76.5329684595994
 20
-127.7875487961781
 30
0.0
 10
76.5329684595994
 20
-127.7875487961781
 30
0.0
 10
76.40584443619368
 20
-127.7803140956591
 30
0.0
 10
76.29387883292306
 20
-127.7710123378489
 30
0.0
 10
76.17536754823047
 20
-127.7007323899498
 30
0.0
 10
76.0144815890693
 20
-127.6042697163628
 30
0.0
 10
75.98071965331386
 20
-127.4413166999105
 30
0.0
 10
75.98071965331386
 20
-127.3396863830956
 30
0.0
 10
75.98071965331386
 20
-127.097151660934
 30
0.0
 10
76.16468775222619
 20
-126.9155951288614
 30
0.0
 10
76.43753931465798
 20
-126.9155951288614
 30
0.0
 10
76.66629365487857
 20
-126.9155951288614
 30
0.0
 10
76.76551240485377
 20
-127.0172254456763
 30
0.0
 10
76.99185517823467
 20
-127.2876654412684
 30
0.0
  0
HATCH
  5
93
330
8E
100
AcDbEntity
  8
_U+30EC_U+30A4_U+30E4_U+30FC 1
 62
   179
420
  2234388
100
AcDbHatch
 10
0.0
 20
0.0
 30
0.0
210
0.0
220
0.0
230
1.0
  2
SOLID
 70
     1
 71
     0
 91
        1
 92
        1
 93
        1
 72
     4
 94
        3
 73
     0
 74
     1
 95
       44
 96
       40
 40
0.0
 40
0.0
 40
0.0
 40
0.0
 40
1.0
 40
1.0
 40
1.0
 40
2.0
 40
2.0
 40
2.0
 40
3.0
 40
3.0
 40
3.0
 40
4.0
 40
4.0
 40
4.0
 40
5.0
 40
5.0
 40
5.0
 40
6.0
 40
6.0
 40
6.0
 40
7.0
 40
7.0
 40
7.0
 40
8.0
 40
8.0
 40
8.0
 40
9.0
 40
9.0
 40
9.0
 40
10.0
 40
10.0
 40
10.0
 40
11.0
 40
11.0
 40
11.0
 40
12.0
 40
12.0
 40
12.0
 40
13.0
 40
13.0
 40
13.0
 40
13.0
 10
76.99185517823467
 20
-127.2876654412684
 10
77.1506740801047
 20
-127.4785237311512
 10
77.22474363303756
 20
-127.5598279846031
 10
77.36840411477249
 20
-127.6025471686202
 10
77.36840411477249
 20
-127.6025471686202
 10
77.36840411477249
 20
-126.9211072816378
 10
77.36840411477249
 20
-126.9211072816378
 10
77.36840411477249
 20
-126.9211072816378
 10
77.57373180569337
 20
-126.9211072816378
 10
77.57373180569337
 20
-126.9211072816378
 10
77.57373180569337
 20
-126.9211072816378
 10
77.57373180569337
 20
-127.820966222385
 10
77.57373180569337
 20
-127.820966222385
 10
77.21613089432444
 20
-127.793405458503
 10
77.13792722680927
 20
-127.7358723638994
 10
76.83958195778663
 20
-127.3989420254419
 10
76.64079994828772
 20
-127.1746663093522
 10
76.5729315672283
 20
-127.117477724297
 10
76.43547225736683
 20
-127.117477724297
 10
76.31696097267424
 20
-127.117477724297
 10
76.18604734423474
 20
-127.1805229716771
 10
76.18604734423474
 20
-127.3524332363911
 10
76.18604734423474
 20
-127.5801540479661
 10
76.41652423219796
 20
-127.5877332580336
 10
76.5329684595994
 20
-127.5915228630674
 10
76.5329684595994
 20
-127.5915228630674
 10
76.5329684595994
 20
-127.7875487961781
 10
76.5329684595994
 20
-127.7875487961781
 10
76.40584443619368
 20
-127.7803140956591
 10
76.29387883292306
 20
-127.7710123378489
 10
76.17536754823047
 20
-127.7007323899498
 10
76.0144815890693
 20
-127.6042697163628
 10
75.98071965331386
 20
-127.4413166999105
 10
75.98071965331386
 20
-127.3396863830956
 10
75.98071965331386
 20
-127.097151660934
 10
76.16468775222619
 20
-126.9155951288614
 10
76.43753931465798
 20
-126.9155951288614
 10
76.66629365487857
 20
-126.9155951288614
 10
76.76551240485377
 20
-127.0172254456763
 10
76.99185517823467
 20
-127.2876654412684
 97
        0
 97
        0
 75
     2
 76
     1
 98
        0
  0
SPLINE
  5
94
330
8E
100
AcDbEntity
  8
_U+30EC_U+30A4_U+30E4_U+30FC 1
370
     0
100
AcDbSpline
210
0.0
220
0.0
230
1.0
 70
    11
 71
     3
 72
    29
 73
    25
 74
     0
 42
0.0000000001
 43
0.0000000001
 12
1.0
 22
0.0
 32
0.0
 13
1.0
 23
0.0
 33
0.0
 40
0.0
 40
0.0
 40
0.0
 40
0.0
 40
1.0
 40
1.0
 40
1.0
 40
2.0
 40
2.0
 40
2.0
 40
3.0
 40
3.0
 40
3.0
 40
4.0
 40
4.0
 40
4.0
 40
5.0
 40
5.0
 40
5.0
 40
6.0
 40
6.0
 40
6.0
 40
7.0
 40
7.0
 40
7.0
 40
8.0
 40
8.0
 40
8.0
 40
8.0
 10
77.39596487865448
 20
-125.9902424815233
 30
0.0
 10
77.60542668415768
 20
-126.0846380978191
 30
0.0
 10
77.62437470932655
 20
-126.2365668087186
 30
0.0
 10
77.62437470932655
 20
-126.338541635082
 30
0.0
 10
77.62437470932655
 20
-126.4791015308802
 30
0.0
 10
77.57786592027567
 20
-126.6031249683492
 30
0.0
 10
77.39596487865448
 20
-126.6864962790923
 30
0.0
 10
77.20131698373787
 20
-126.7774467999029
 30
0.0
 10
76.96429441435268
 20
-126.7939832582321
 30
0.0
 10
76.80168590744888
 20
-126.7939832582321
 30
0.0
 10
76.65768091616545
 20
-126.7939832582321
 30
0.0
 10
76.40584443619368
 20
-126.7791693476455
 30
0.0
 10
76.20706242669476
 20
-126.6864962790923
 30
0.0
 10
76.00414630261355
 20
-126.5921006627964
 30
0.0
 10
75.98071965331386
 20
-126.4515407669982
 30
0.0
 10
75.98071965331386
 20
-126.338541635082
 30
0.0
 10
75.98071965331386
 20
-126.1997042870265
 30
0.0
 10
76.02516138507357
 20
-126.0736137922663
 30
0.0
 10
76.20706242669476
 20
-125.9902424815233
 30
0.0
 10
76.39964326432023
 20
-125.903426075295
 30
0.0
 10
76.6280530949923
 20
-125.883100011932
 30
0.0
 10
76.80168590744888
 20
-125.883100011932
 30
0.0
 10
76.9729071530658
 20
-125.883100011932
 30
0.0
 10
77.20338404102903
 20
-125.9013590180038
 30
0.0
 10
77.39596487865448
 20
-125.9902424815233
 30
0.0
  0
SPLINE
  5
95
330
8E
100
AcDbEntity
  8
_U+30EC_U+30A4_U+30E4_U+30FC 1
370
     0
100
AcDbSpline
210
0.0
220
0.0
230
1.0
 70
    11
 71
     3
 72
    17
 73
    13
 74
     0
 42
0.0000000001
 43
0.0000000001
 12
1.0
 22
0.0
 32
0.0
 13
1.0
 23
0.0
 33
0.0
 40
0.0
 40
0.0
 40
0.0
 40
0.0
 40
1.0
 40
1.0
 40
1.0
 40
2.0
 40
2.0
 40
2.0
 40
3.0
 40
3.0
 40
3.0
 40
4.0
 40
4.0
 40
4.0
 40
4.0
 10
76.17330049093931
 20
-126.338541635082
 30
0.0
 10
76.17330049093931
 20
-126.5569606888469
 30
0.0
 10
76.45683184937538
 20
-126.5976128155728
 30
0.0
 10
76.80168590744888
 20
-126.5976128155728
 30
0.0
 10
77.12104625893154
 20
-126.5976128155728
 30
0.0
 10
77.42972681440993
 20
-126.566262446657
 30
0.0
 10
77.42972681440993
 20
-126.338541635082
 30
0.0
 10
77.42972681440993
 20
-126.1218451290598
 30
0.0
 10
77.14860702281355
 20
-126.0791259450427
 30
0.0
 10
76.80168590744888
 20
-126.0791259450427
 30
0.0
 10
76.4819810464177
 20
-126.0791259450427
 30
0.0
 10
76.17330049093931
 20
-126.1125433712496
 30
0.0
 10
76.17330049093931
 20
-126.338541635082
 30
0.0
  0
HATCH
  5
96
330
8E
100
AcDbEntity
  8
_U+30EC_U+30A4_U+30E4_U+30FC 1
 62
   179
420
  2234388
100
AcDbHatch
 10
0.0
 20
0.0
 30
0.0
210
0.0
220
0.0
230
1.0
  2
SOLID
 70
     1
 71
     0
 91
        2
 92
        1
 93
        1
 72
     4
 94
        3
 73
     0
 74
     1
 95
       29
 96
       25
 40
0.0
 40
0.0
 40
0.0
 40
0.0
 40
1.0
 40
1.0
 40
1.0
 40
2.0
 40
2.0
 40
2.0
 40
3.0
 40
3.0
 40
3.0
 40
4.0
 40
4.0
 40
4.0
 40
5.0
 40
5.0
 40
5.0
 40
6.0
 40
6.0
 40
6.0
 40
7.0
 40
7.0
 40
7.0
 40
8.0
 40
8.0
 40
8.0
 40
8.0
 10
77.39596487865448
 20
-125.9902424815233
 10
77.60542668415768
 20
-126.0846380978191
 10
77.62437470932655
 20
-126.2365668087186
 10
77.62437470932655
 20
-126.338541635082
 10
77.62437470932655
 20
-126.4791015308802
 10
77.57786592027567
 20
-126.6031249683492
 10
77.39596487865448
 20
-126.6864962790923
 10
77.20131698373787
 20
-126.7774467999029
 10
76.96429441435268
 20
-126.7939832582321
 10
76.80168590744888
 20
-126.7939832582321
 10
76.65768091616545
 20
-126.7939832582321
 10
76.40584443619368
 20
-126.7791693476455
 10
76.20706242669476
 20
-126.6864962790923
 10
76.00414630261355
 20
-126.5921006627964
 10
75.98071965331386
 20
-126.4515407669982
 10
75.98071965331386
 20
-126.338541635082
 10
75.98071965331386
 20
-126.1997042870265
 10
76.02516138507357
 20
-126.0736137922663
 10
76.20706242669476
 20
-125.9902424815233
 10
76.39964326432023
 20
-125.903426075295
 10
76.6280530949923
 20
-125.883100011932
 10
76.80168590744888
 20
-125.883100011932
 10
76.9729071530658
 20
-125.883100011932
 10
77.20338404102903
 20
-125.9013590180038
 10
77.39596487865448
 20
-125.9902424815233
 97
        0
 97
        0
 92
        1
 93
        1
 72
     4
 94
        3
 73
     0
 74
     1
 95
       17
 96
       13
 40
0.0
 40
0.0
 40
0.0
 40
0.0
 40
1.0
 40
1.0
 40
1.0
 40
2.0
 40
2.0
 40
2.0
 40
3.0
 40
3.0
 40
3.0
 40
4.0
 40
4.0
 40
4.0
 40
4.0
 10
76.17330049093931
 20
-126.338541635082
 10
76.17330049093931
 20
-126.5569606888469
 10
76.45683184937538
 20
-126.5976128155728
 10
76.80168590744888
 20
-126.5976128155728
 10
77.12104625893154
 20
-126.5976128155728
 10
77.42972681440993
 20
-126.566262446657
 10
77.42972681440993
 20
-126.338541635082
 10
77.42972681440993
 20
-126.1218451290598
 10
77.14860702281355
 20
-126.0791259450427
 10
76.80168590744888
 20
-126.0791259450427
 10
76.4819810464177
 20
-126.0791259450427
 10
76.17330049093931
 20
-126.1125433712496
 10
76.17330049093931
 20
-126.338541635082
 97
        0
 97
        0
 75
     2
 76
     1
 98
        0
  0
ENDBLK
  5
91
330
8E
100
AcDbEntity
  8
0
100
AcDbBlockEnd
  0
BLOCK
  5
99
330
97
100
AcDbEntity
  8
0
100
AcDbBlockBegin
  2
block 6
 70
     0
 10
0.0
 20
0.0
 30
0.0
  3
block 6
  1

  0
POLYLINE
  5
9B
330
97
100
AcDbEntity
  8
_U+30EC_U+30A4_U+30E4_U+30FC 1
370
     0
100
AcDb2dPolyline
 66
     1
 10
0.0
 20
0.0
 30
0.0
  0
VERTEX
  5
9C
330
9B
100
AcDbEntity
  8
_U+30EC_U+30A4_U+30E4_U+30FC 1
370
     0
100
AcDbVertex
100
AcDb2dVertex
 10
88.20943058775667
 20
-128.737017111913
 30
0.0
  0
VERTEX
  5
9D
330
9B
100
AcDbEntity
  8
_U+30EC_U+30A4_U+30E4_U+30FC 1
370
     0
100
AcDbVertex
100
AcDb2dVertex
 10
88.20943058775667
 20
-129.0839382272776
 30
0.0
  0
VERTEX
  5
9E
330
9B
100
AcDbEntity
  8
_U+30EC_U+30A4_U+30E4_U+30FC 1
370
     0
100
AcDbVertex
100
AcDb2dVertex
 10
88.01857229787383
 20
-129.0839382272776
 30
0.0
  0
VERTEX
  5
9F
330
9B
100
AcDbEntity
  8
_U+30EC_U+30A4_U+30E4_U+30FC 1
370
     0
100
AcDbVertex
100
AcDb2dVertex
 10
88.01857229787383
 20
-128.737017111913
 30
0.0
  0
VERTEX
  5
A0
330
9B
100
AcDbEntity
  8
_U+30EC_U+30A4_U+30E4_U+30FC 1
370
     0
100
AcDbVertex
100
AcDb2dVertex
 10
87.4446193900312
 20
-128.737017111913
 30
0.0
  0
VERTEX
  5
A1
330
9B
100
AcDbEntity
  8
_U+30EC_U+30A4_U+30E4_U+30FC 1
370
     0
100
AcDbVertex
100
AcDb2dVertex
 10
87.4446193900312
 20
-128.5127413958232
 30
0.0
  0
VERTEX
  5
A2
330
9B
100
AcDbEntity
  8
_U+30EC_U+30A4_U+30E4_U+30FC 1
370
     0
100
AcDbVertex
100
AcDb2dVertex
 10
88.03924287078533
 20
-127.5395019212401
 30
0.0
  0
VERTEX
  5
A3
330
9B
100
AcDbEntity
  8
_U+30EC_U+30A4_U+30E4_U+30FC 1
370
     0
100
AcDbVertex
100
AcDb2dVertex
 10
88.20943058775667
 20
-127.5395019212401
 30
0.0
  0
VERTEX
  5
A4
330
9B
100
AcDbEntity
  8
_U+30EC_U+30A4_U+30E4_U+30FC 1
370
     0
100
AcDbVertex
100
AcDb2dVertex
 10
88.20943058775667
 20
-128.5382351024141
 30
0.0
  0
VERTEX
  5
A5
330
9B
100
AcDbEntity
  8
_U+30EC_U+30A4_U+30E4_U+30FC 1
370
     0
100
AcDbVertex
100
AcDb2dVertex
 10
88.39098711982935
 20
-128.5382351024141
 30
0.0
  0
VERTEX
  5
A6
330
9B
100
AcDbEntity
  8
_U+30EC_U+30A4_U+30E4_U+30FC 1
370
     0
100
AcDbVertex
100
AcDb2dVertex
 10
88.39098711982935
 20
-128.737017111913
 30
0.0
  0
VERTEX
  5
A7
330
9B
100
AcDbEntity
  8
_U+30EC_U+30A4_U+30E4_U+30FC 1
370
     0
100
AcDbVertex
100
AcDb2dVertex
 10
88.20943058775667
 20
-128.737017111913
 30
0.0
  0
SEQEND
  5
A8
330
9B
100
AcDbEntity
  8
_U+30EC_U+30A4_U+30E4_U+30FC 1
370
     0
  0
POLYLINE
  5
A9
330
97
100
AcDbEntity
  8
_U+30EC_U+30A4_U+30E4_U+30FC 1
370
     0
100
AcDb2dPolyline
 66
     1
 10
0.0
 20
0.0
 30
0.0
  0
VERTEX
  5
AA
330
A9
100
AcDbEntity
  8
_U+30EC_U+30A4_U+30E4_U+30FC 1
370
     0
100
AcDbVertex
100
AcDb2dVertex
 10
88.01857229787383
 20
-127.8822889220225
 30
0.0
  0
VERTEX
  5
AB
330
A9
100
AcDbEntity
  8
_U+30EC_U+30A4_U+30E4_U+30FC 1
370
     0
100
AcDbVertex
100
AcDb2dVertex
 10
87.61894122158485
 20
-128.5382351024141
 30
0.0
  0
VERTEX
  5
AC
330
A9
100
AcDbEntity
  8
_U+30EC_U+30A4_U+30E4_U+30FC 1
370
     0
100
AcDbVertex
100
AcDb2dVertex
 10
88.01857229787383
 20
-128.5382351024141
 30
0.0
  0
VERTEX
  5
AD
330
A9
100
AcDbEntity
  8
_U+30EC_U+30A4_U+30E4_U+30FC 1
370
     0
100
AcDbVertex
100
AcDb2dVertex
 10
88.01857229787383
 20
-127.8822889220225
 30
0.0
  0
SEQEND
  5
AE
330
A9
100
AcDbEntity
  8
_U+30EC_U+30A4_U+30E4_U+30FC 1
370
     0
  0
HATCH
  5
AF
330
97
100
AcDbEntity
  8
_U+30EC_U+30A4_U+30E4_U+30FC 1
 62
   179
420
  2234388
100
AcDbHatch
 10
0.0
 20
0.0
 30
0.0
210
0.0
220
0.0
230
1.0
  2
SOLID
 70
     1
 71
     0
 91
        2
 92
        1
 93
       11
 72
     1
 10
88.20943058775667
 20
-128.737017111913
 11
88.20943058775667
 21
-129.0839382272776
 72
     1
 10
88.20943058775667
 20
-129.0839382272776
 11
88.01857229787383
 21
-129.0839382272776
 72
     1
 10
88.01857229787383
 20
-129.0839382272776
 11
88.01857229787383
 21
-128.737017111913
 72
     1
 10
88.01857229787383
 20
-128.737017111913
 11
87.4446193900312
 21
-128.737017111913
 72
     1
 10
87.4446193900312
 20
-128.737017111913
 11
87.4446193900312
 21
-128.5127413958232
 72
     1
 10
87.4446193900312
 20
-128.5127413958232
 11
88.03924287078533
 21
-127.5395019212401
 72
     1
 10
88.03924287078533
 20
-127.5395019212401
 11
88.20943058775667
 21
-127.5395019212401
 72
     1
 10
88.20943058775667
 20
-127.5395019212401
 11
88.20943058775667
 21
-128.5382351024141
 72
     1
 10
88.20943058775667
 20
-128.5382351024141
 11
88.39098711982935
 21
-128.5382351024141
 72
     1
 10
88.39098711982935
 20
-128.5382351024141
 11
88.39098711982935
 21
-128.737017111913
 72
     1
 10
88.39098711982935
 20
-128.737017111913
 11
88.20943058775667
 21
-128.737017111913
 97
        0
 92
        1
 93
        3
 72
     1
 10
88.01857229787383
 20
-127.8822889220225
 11
87.61894122158485
 21
-128.5382351024141
 72
     1
 10
87.61894122158485
 20
-128.5382351024141
 11
88.01857229787383
 21
-128.5382351024141
 72
     1
 10
88.01857229787383
 20
-128.5382351024141
 11
88.01857229787383
 21
-127.8822889220225
 97
        0
 75
     2
 76
     1
 98
        0
  0
SPLINE
  5
B0
330
97
100
AcDbEntity
  8
_U+30EC_U+30A4_U+30E4_U+30FC 1
370
     0
100
AcDbSpline
210
0.0
220
0.0
230
1.0
 70
    11
 71
     3
 72
    44
 73
    40
 74
     0
 42
0.0000000001
 43
0.0000000001
 12
1.0
 22
0.0
 32
0.0
 13
1.0
 23
0.0
 33
0.0
 40
0.0
 40
0.0
 40
0.0
 40
0.0
 40
1.0
 40
1.0
 40
1.0
 40
2.0
 40
2.0
 40
2.0
 40
3.0
 40
3.0
 40
3.0
 40
4.0
 40
4.0
 40
4.0
 40
5.0
 40
5.0
 40
5.0
 40
6.0
 40
6.0
 40
6.0
 40
7.0
 40
7.0
 40
7.0
 40
8.0
 40
8.0
 40
8.0
 40
9.0
 40
9.0
 40
9.0
 40
10.0
 40
10.0
 40
10.0
 40
11.0
 40
11.0
 40
11.0
 40
12.0
 40
12.0
 40
12.0
 40
13.0
 40
13.0
 40
13.0
 40
13.0
 10
89.39936656836197
 20
-129.0839382272776
 30
0.0
 10
89.379040504999
 20
-129.0394964955179
 30
0.0
 10
89.36078149892717
 20
-128.9867865345936
 30
0.0
 10
89.35871444163602
 20
-128.7559651370819
 30
0.0
 10
89.35492483660225
 20
-128.5127413958232
 30
0.0
 10
89.3032484043235
 20
-128.4428059574726
 30
0.0
 10
89.1475300883902
 20
-128.4428059574726
 30
0.0
 10
89.1475300883902
 20
-128.4428059574726
 30
0.0
 10
88.79027368656979
 20
-128.4428059574726
 30
0.0
 10
88.79027368656979
 20
-128.4428059574726
 30
0.0
 10
88.79027368656979
 20
-128.4428059574726
 30
0.0
 10
88.79027368656979
 20
-129.0839382272776
 30
0.0
 10
88.79027368656979
 20
-129.0839382272776
 30
0.0
 10
88.79027368656979
 20
-129.0839382272776
 30
0.0
 10
88.58460148610038
 20
-129.0839382272776
 30
0.0
 10
88.58460148610038
 20
-129.0839382272776
 30
0.0
 10
88.58460148610038
 20
-129.0839382272776
 30
0.0
 10
88.58460148610038
 20
-127.5395019212401
 30
0.0
 10
88.58460148610038
 20
-127.5395019212401
 30
0.0
 10
88.58460148610038
 20
-127.5395019212401
 30
0.0
 10
89.17543536182073
 20
-127.5395019212401
 30
0.0
 10
89.17543536182073
 20
-127.5395019212401
 30
0.0
 10
89.44380830012169
 20
-127.5395019212401
 30
0.0
 10
89.59022485824481
 20
-127.7110676764056
 30
0.0
 10
89.59022485824481
 20
-127.9670382709596
 30
0.0
 10
89.59022485824481
 20
-128.0176811745928
 30
0.0
 10
89.58264564817726
 20
-128.1003634662388
 30
0.0
 10
89.54406057874246
 20
-128.1806341910451
 30
0.0
 10
89.4920396369152
 20
-128.2843315651511
 30
0.0
 10
89.43450654231151
 20
-128.30327959032
 30
0.0
 10
89.38110756229014
 20
-128.3201605581978
 30
0.0
 10
89.50134139472536
 20
-128.3625352326663
 30
0.0
 10
89.56059703707166
 20
-128.4111110790084
 30
0.0
 10
89.56438664210543
 20
-128.7263373159087
 30
0.0
 10
89.5681762471392
 20
-128.9971218210493
 30
0.0
 10
89.59952661605499
 20
-129.0288166995136
 30
0.0
 10
89.65878225840127
 20
-129.0839382272776
 30
0.0
 10
89.65878225840127
 20
-129.0839382272776
 30
0.0
 10
89.39936656836197
 20
-129.0839382272776
 30
0.0
 10
89.39936656836197
 20
-129.0839382272776
 30
0.0
  0
SPLINE
  5
B1
330
97
100
AcDbEntity
  8
_U+30EC_U+30A4_U+30E4_U+30FC 1
370
     0
100
AcDbSpline
210
0.0
220
0.0
230
1.0
 70
    11
 71
     3
 72
    20
 73
    16
 74
     0
 42
0.0000000001
 43
0.0000000001
 12
1.0
 22
0.0
 32
0.0
 13
1.0
 23
0.0
 33
0.0
 40
0.0
 40
0.0
 40
0.0
 40
0.0
 40
1.0
 40
1.0
 40
1.0
 40
2.0
 40
2.0
 40
2.0
 40
3.0
 40
3.0
 40
3.0
 40
4.0
 40
4.0
 40
4.0
 40
5.0
 40
5.0
 40
5.0
 40
5.0
 10
89.1792249668545
 20
-127.7510307840345
 30
0.0
 10
89.1792249668545
 20
-127.7510307840345
 30
0.0
 10
88.79027368656979
 20
-127.7510307840345
 30
0.0
 10
88.79027368656979
 20
-127.7510307840345
 30
0.0
 10
88.79027368656979
 20
-127.7510307840345
 30
0.0
 10
88.79027368656979
 20
-128.2312770946783
 30
0.0
 10
88.79027368656979
 20
-128.2312770946783
 30
0.0
 10
88.79027368656979
 20
-128.2312770946783
 30
0.0
 10
89.17715790956335
 20
-128.2312770946783
 30
0.0
 10
89.17715790956335
 20
-128.2312770946783
 30
0.0
 10
89.26431882534017
 20
-128.2312770946783
 30
0.0
 10
89.38283011003277
 20
-128.1551404844543
 30
0.0
 10
89.38283011003277
 20
-127.9839192388374
 30
0.0
 10
89.38283011003277
 20
-127.9057155713222
 30
0.0
 10
89.35320228885962
 20
-127.7510307840345
 30
0.0
 10
89.1792249668545
 20
-127.7510307840345
 30
0.0
  0
HATCH
  5
B2
330
97
100
AcDbEntity
  8
_U+30EC_U+30A4_U+30E4_U+30FC 1
 62
   179
420
  2234388
100
AcDbHatch
 10
0.0
 20
0.0
 30
0.0
210
0.0
220
0.0
230
1.0
  2
SOLID
 70
     1
 71
     0
 91
        2
 92
        1
 93
        1
 72
     4
 94
        3
 73
     0
 74
     1
 95
       44
 96
       40
 40
0.0
 40
0.0
 40
0.0
 40
0.0
 40
1.0
 40
1.0
 40
1.0
 40
2.0
 40
2.0
 40
2.0
 40
3.0
 40
3.0
 40
3.0
 40
4.0
 40
4.0
 40
4.0
 40
5.0
 40
5.0
 40
5.0
 40
6.0
 40
6.0
 40
6.0
 40
7.0
 40
7.0
 40
7.0
 40
8.0
 40
8.0
 40
8.0
 40
9.0
 40
9.0
 40
9.0
 40
10.0
 40
10.0
 40
10.0
 40
11.0
 40
11.0
 40
11.0
 40
12.0
 40
12.0
 40
12.0
 40
13.0
 40
13.0
 40
13.0
 40
13.0
 10
89.39936656836197
 20
-129.0839382272776
 10
89.379040504999
 20
-129.0394964955179
 10
89.36078149892717
 20
-128.9867865345936
 10
89.35871444163602
 20
-128.7559651370819
 10
89.35492483660225
 20
-128.5127413958232
 10
89.3032484043235
 20
-128.4428059574726
 10
89.1475300883902
 20
-128.4428059574726
 10
89.1475300883902
 20
-128.4428059574726
 10
88.79027368656979
 20
-128.4428059574726
 10
88.79027368656979
 20
-128.4428059574726
 10
88.79027368656979
 20
-128.4428059574726
 10
88.79027368656979
 20
-129.0839382272776
 10
88.79027368656979
 20
-129.0839382272776
 10
88.79027368656979
 20
-129.0839382272776
 10
88.58460148610038
 20
-129.0839382272776
 10
88.58460148610038
 20
-129.0839382272776
 10
88.58460148610038
 20
-129.0839382272776
 10
88.58460148610038
 20
-127.5395019212401
 10
88.58460148610038
 20
-127.5395019212401
 10
88.58460148610038
 20
-127.5395019212401
 10
89.17543536182073
 20
-127.5395019212401
 10
89.17543536182073
 20
-127.5395019212401
 10
89.44380830012169
 20
-127.5395019212401
 10
89.59022485824481
 20
-127.7110676764056
 10
89.59022485824481
 20
-127.9670382709596
 10
89.59022485824481
 20
-128.0176811745928
 10
89.58264564817726
 20
-128.1003634662388
 10
89.54406057874246
 20
-128.1806341910451
 10
89.4920396369152
 20
-128.2843315651511
 10
89.43450654231151
 20
-128.30327959032
 10
89.38110756229014
 20
-128.3201605581978
 10
89.50134139472536
 20
-128.3625352326663
 10
89.56059703707166
 20
-128.4111110790084
 10
89.56438664210543
 20
-128.7263373159087
 10
89.5681762471392
 20
-128.9971218210493
 10
89.59952661605499
 20
-129.0288166995136
 10
89.65878225840127
 20
-129.0839382272776
 10
89.65878225840127
 20
-129.0839382272776
 10
89.39936656836197
 20
-129.0839382272776
 10
89.39936656836197
 20
-129.0839382272776
 97
        0
 97
        0
 92
        1
 93
        1
 72
     4
 94
        3
 73
     0
 74
     1
 95
       20
 96
       16
 40
0.0
 40
0.0
 40
0.0
 40
0.0
 40
1.0
 40
1.0
 40
1.0
 40
2.0
 40
2.0
 40
2.0
 40
3.0
 40
3.0
 40
3.0
 40
4.0
 40
4.0
 40
4.0
 40
5.0
 40
5.0
 40
5.0
 40
5.0
 10
89.1792249668545
 20
-127.7510307840345
 10
89.1792249668545
 20
-127.7510307840345
 10
88.79027368656979
 20
-127.7510307840345
 10
88.79027368656979
 20
-127.7510307840345
 10
88.79027368656979
 20
-127.7510307840345
 10
88.79027368656979
 20
-128.2312770946783
 10
88.79027368656979
 20
-128.2312770946783
 10
88.79027368656979
 20
-128.2312770946783
 10
89.17715790956335
 20
-128.2312770946783
 10
89.17715790956335
 20
-128.2312770946783
 10
89.26431882534017
 20
-128.2312770946783
 10
89.38283011003277
 20
-128.1551404844543
 10
89.38283011003277
 20
-127.9839192388374
 10
89.38283011003277
 20
-127.9057155713222
 10
89.35320228885962
 20
-127.7510307840345
 10
89.1792249668545
 20
-127.7510307840345
 97
        0
 97
        0
 75
     2
 76
     1
 98
        0
  0
ENDBLK
  5
9A
330
97
100
AcDbEntity
  8
0
100
AcDbBlockEnd
  0
BLOCK
  5
C3
330
C1
100
AcDbEntity
  8
0
100
AcDbBlockBegin
  2
block 7
 70
     0
 10
0.0
 20
0.0
 30
0.0
  3
block 7
  1

  0
SPLINE
  5
C5
330
C1
100
AcDbEntity
  8
_U+30EC_U+30A4_U+30E4_U+30FC 1
370
     0
100
AcDbSpline
210
0.0
220
0.0
230
1.0
 70
    11
 71
     3
 72
    26
 73
    22
 74
     0
 42
0.0000000001
 43
0.0000000001
 12
1.0
 22
0.0
 32
0.0
 13
1.0
 23
0.0
 33
0.0
 40
0.0
 40
0.0
 40
0.0
 40
0.0
 40
1.0
 40
1.0
 40
1.0
 40
2.0
 40
2.0
 40
2.0
 40
3.0
 40
3.0
 40
3.0
 40
4.0
 40
4.0
 40
4.0
 40
5.0
 40
5.0
 40
5.0
 40
6.0
 40
6.0
 40
6.0
 40
7.0
 40
7.0
 40
7.0
 40
7.0
 10
105.9215277512974
 20
-136.6335204736541
 30
0.0
 10
105.9215277512974
 20
-136.6335204736541
 30
0.0
 10
104.8173746482748
 20
-136.6335204736541
 30
0.0
 10
104.8173746482748
 20
-136.6335204736541
 30
0.0
 10
104.8173746482748
 20
-136.6335204736541
 30
0.0
 10
104.8173746482748
 20
-136.9225639848666
 30
0.0
 10
104.8173746482748
 20
-136.9225639848666
 30
0.0
 10
104.8173746482748
 20
-136.9225639848666
 30
0.0
 10
104.6692355424091
 20
-136.9225639848666
 30
0.0
 10
104.6692355424091
 20
-136.9225639848666
 30
0.0
 10
104.6544216318225
 20
-136.6317979259115
 30
0.0
 10
104.4914686153702
 20
-136.5911457991855
 30
0.0
 10
104.3770914452599
 20
-136.5649630734977
 30
0.0
 10
104.3770914452599
 20
-136.5649630734977
 30
0.0
 10
104.3770914452599
 20
-136.4374945405434
 30
0.0
 10
104.3770914452599
 20
-136.4374945405434
 30
0.0
 10
104.3770914452599
 20
-136.4374945405434
 30
0.0
 10
105.9215277512974
 20
-136.4374945405434
 30
0.0
 10
105.9215277512974
 20
-136.4374945405434
 30
0.0
 10
105.9215277512974
 20
-136.4374945405434
 30
0.0
 10
105.9215277512974
 20
-136.6335204736541
 30
0.0
 10
105.9215277512974
 20
-136.6335204736541
 30
0.0
  0
HATCH
  5
C6
330
C1
100
AcDbEntity
  8
_U+30EC_U+30A4_U+30E4_U+30FC 1
 62
   179
420
  2234388
100
AcDbHatch
 10
0.0
 20
0.0
 30
0.0
210
0.0
220
0.0
230
1.0
  2
SOLID
 70
     1
 71
     0
 91
        1
 92
        1
 93
        1
 72
     4
 94
        3
 73
     0
 74
     1
 95
       26
 96
       22
 40
0.0
 40
0.0
 40
0.0
 40
0.0
 40
1.0
 40
1.0
 40
1.0
 40
2.0
 40
2.0
 40
2.0
 40
3.0
 40
3.0
 40
3.0
 40
4.0
 40
4.0
 40
4.0
 40
5.0
 40
5.0
 40
5.0
 40
6.0
 40
6.0
 40
6.0
 40
7.0
 40
7.0
 40
7.0
 40
7.0
 10
105.9215277512974
 20
-136.6335204736541
 10
105.9215277512974
 20
-136.6335204736541
 10
104.8173746482748
 20
-136.6335204736541
 10
104.8173746482748
 20
-136.6335204736541
 10
104.8173746482748
 20
-136.6335204736541
 10
104.8173746482748
 20
-136.9225639848666
 10
104.8173746482748
 20
-136.9225639848666
 10
104.8173746482748
 20
-136.9225639848666
 10
104.6692355424091
 20
-136.9225639848666
 10
104.6692355424091
 20
-136.9225639848666
 10
104.6544216318225
 20
-136.6317979259115
 10
104.4914686153702
 20
-136.5911457991855
 10
104.3770914452599
 20
-136.5649630734977
 10
104.3770914452599
 20
-136.5649630734977
 10
104.3770914452599
 20
-136.4374945405434
 10
104.3770914452599
 20
-136.4374945405434
 10
104.3770914452599
 20
-136.4374945405434
 10
105.9215277512974
 20
-136.4374945405434
 10
105.9215277512974
 20
-136.4374945405434
 10
105.9215277512974
 20
-136.4374945405434
 10
105.9215277512974
 20
-136.6335204736541
 10
105.9215277512974
 20
-136.6335204736541
 97
        0
 97
        0
 75
     2
 76
     1
 98
        0
  0
POLYLINE
  5
C7
330
C1
100
AcDbEntity
  8
_U+30EC_U+30A4_U+30E4_U+30FC 1
370
     0
100
AcDb2dPolyline
 66
     1
 10
0.0
 20
0.0
 30
0.0
  0
VERTEX
  5
C8
330
C7
100
AcDbEntity
  8
_U+30EC_U+30A4_U+30E4_U+30FC 1
370
     0
100
AcDbVertex
100
AcDb2dVertex
 10
105.9215277512974
 20
-135.9455349052497
 30
0.0
  0
VERTEX
  5
C9
330
C7
100
AcDbEntity
  8
_U+30EC_U+30A4_U+30E4_U+30FC 1
370
     0
100
AcDbVertex
100
AcDb2dVertex
 10
105.6696912713256
 20
-135.9455349052497
 30
0.0
  0
VERTEX
  5
CA
330
C7
100
AcDbEntity
  8
_U+30EC_U+30A4_U+30E4_U+30FC 1
370
     0
100
AcDbVertex
100
AcDb2dVertex
 10
105.6696912713256
 20
-135.7250487941938
 30
0.0
  0
VERTEX
  5
CB
330
C7
100
AcDbEntity
  8
_U+30EC_U+30A4_U+30E4_U+30FC 1
370
     0
100
AcDbVertex
100
AcDb2dVertex
 10
105.9215277512974
 20
-135.7250487941938
 30
0.0
  0
VERTEX
  5
CC
330
C7
100
AcDbEntity
  8
_U+30EC_U+30A4_U+30E4_U+30FC 1
370
     0
100
AcDbVertex
100
AcDb2dVertex
 10
105.9215277512974
 20
-135.9455349052497
 30
0.0
  0
SEQEND
  5
CD
330
C7
100
AcDbEntity
  8
_U+30EC_U+30A4_U+30E4_U+30FC 1
370
     0
  0
HATCH
  5
CE
330
C1
100
AcDbEntity
  8
_U+30EC_U+30A4_U+30E4_U+30FC 1
 62
   179
420
  2234388
100
AcDbHatch
 10
0.0
 20
0.0
 30
0.0
210
0.0
220
0.0
230
1.0
  2
SOLID
 70
     1
 71
     0
 91
        1
 92
        1
 93
        4
 72
     1
 10
105.9215277512974
 20
-135.9455349052497
 11
105.6696912713256
 21
-135.9455349052497
 72
     1
 10
105.6696912713256
 20
-135.9455349052497
 11
105.6696912713256
 21
-135.7250487941938
 72
     1
 10
105.6696912713256
 20
-135.7250487941938
 11
105.9215277512974
 21
-135.7250487941938
 72
     1
 10
105.9215277512974
 20
-135.7250487941938
 11
105.9215277512974
 21
-135.9455349052497
 97
        0
 75
     2
 76
     1
 98
        0
  0
SPLINE
  5
CF
330
C1
100
AcDbEntity
  8
_U+30EC_U+30A4_U+30E4_U+30FC 1
370
     0
100
AcDbSpline
210
0.0
220
0.0
230
1.0
 70
    11
 71
     3
 72
    44
 73
    40
 74
     0
 42
0.0000000001
 43
0.0000000001
 12
1.0
 22
0.0
 32
0.0
 13
1.0
 23
0.0
 33
0.0
 40
0.0
 40
0.0
 40
0.0
 40
0.0
 40
1.0
 40
1.0
 40
1.0
 40
2.0
 40
2.0
 40
2.0
 40
3.0
 40
3.0
 40
3.0
 40
4.0
 40
4.0
 40
4.0
 40
5.0
 40
5.0
 40
5.0
 40
6.0
 40
6.0
 40
6.0
 40
7.0
 40
7.0
 40
7.0
 40
8.0
 40
8.0
 40
8.0
 40
9.0
 40
9.0
 40
9.0
 40
10.0
 40
10.0
 40
10.0
 40
11.0
 40
11.0
 40
11.0
 40
12.0
 40
12.0
 40
12.0
 40
13.0
 40
13.0
 40
13.0
 40
13.0
 10
105.3396511238387
 20
-134.9984781563546
 30
0.0
 10
105.4984700257087
 20
-135.1893364462374
 30
0.0
 10
105.5725395786416
 20
-135.2706406996893
 30
0.0
 10
105.7162000603765
 20
-135.3133598837064
 30
0.0
 10
105.7162000603765
 20
-135.3133598837064
 30
0.0
 10
105.7162000603765
 20
-134.631919996724
 30
0.0
 10
105.7162000603765
 20
-134.631919996724
 30
0.0
 10
105.7162000603765
 20
-134.631919996724
 30
0.0
 10
105.9215277512974
 20
-134.631919996724
 30
0.0
 10
105.9215277512974
 20
-134.631919996724
 30
0.0
 10
105.9215277512974
 20
-134.631919996724
 30
0.0
 10
105.9215277512974
 20
-135.5317789374712
 30
0.0
 10
105.9215277512974
 20
-135.5317789374712
 30
0.0
 10
105.5639268399285
 20
-135.5042181735892
 30
0.0
 10
105.4857231724133
 20
-135.4466850789856
 30
0.0
 10
105.1873779033907
 20
-135.1097547405281
 30
0.0
 10
104.9885958938917
 20
-134.8854790244384
 30
0.0
 10
104.9207275128323
 20
-134.8282904393832
 30
0.0
 10
104.7832682029709
 20
-134.8282904393832
 30
0.0
 10
104.6647569182783
 20
-134.8282904393832
 30
0.0
 10
104.5338432898388
 20
-134.8913356867633
 30
0.0
 10
104.5338432898388
 20
-135.0632459514773
 30
0.0
 10
104.5338432898388
 20
-135.2909667630523
 30
0.0
 10
104.764320177802
 20
-135.2985459731198
 30
0.0
 10
104.8807644052034
 20
-135.3023355781536
 30
0.0
 10
104.8807644052034
 20
-135.3023355781536
 30
0.0
 10
104.8807644052034
 20
-135.4983615112643
 30
0.0
 10
104.8807644052034
 20
-135.4983615112643
 30
0.0
 10
104.7536403817977
 20
-135.4911268107453
 30
0.0
 10
104.6416747785271
 20
-135.4818250529351
 30
0.0
 10
104.5231634938345
 20
-135.411545105036
 30
0.0
 10
104.3622775346733
 20
-135.315082431449
 30
0.0
 10
104.3285155989179
 20
-135.1521294149967
 30
0.0
 10
104.3285155989179
 20
-135.0504990981818
 30
0.0
 10
104.3285155989179
 20
-134.8079643760202
 30
0.0
 10
104.5124836978302
 20
-134.6264078439476
 30
0.0
 10
104.785335260262
 20
-134.6264078439476
 30
0.0
 10
105.0140896004826
 20
-134.6264078439476
 30
0.0
 10
105.1133083504578
 20
-134.7280381607625
 30
0.0
 10
105.3396511238387
 20
-134.9984781563546
 30
0.0
  0
HATCH
  5
D0
330
C1
100
AcDbEntity
  8
_U+30EC_U+30A4_U+30E4_U+30FC 1
 62
   179
420
  2234388
100
AcDbHatch
 10
0.0
 20
0.0
 30
0.0
210
0.0
220
0.0
230
1.0
  2
SOLID
 70
     1
 71
     0
 91
        1
 92
        1
 93
        1
 72
     4
 94
        3
 73
     0
 74
     1
 95
       44
 96
       40
 40
0.0
 40
0.0
 40
0.0
 40
0.0
 40
1.0
 40
1.0
 40
1.0
 40
2.0
 40
2.0
 40
2.0
 40
3.0
 40
3.0
 40
3.0
 40
4.0
 40
4.0
 40
4.0
 40
5.0
 40
5.0
 40
5.0
 40
6.0
 40
6.0
 40
6.0
 40
7.0
 40
7.0
 40
7.0
 40
8.0
 40
8.0
 40
8.0
 40
9.0
 40
9.0
 40
9.0
 40
10.0
 40
10.0
 40
10.0
 40
11.0
 40
11.0
 40
11.0
 40
12.0
 40
12.0
 40
12.0
 40
13.0
 40
13.0
 40
13.0
 40
13.0
 10
105.3396511238387
 20
-134.9984781563546
 10
105.4984700257087
 20
-135.1893364462374
 10
105.5725395786416
 20
-135.2706406996893
 10
105.7162000603765
 20
-135.3133598837064
 10
105.7162000603765
 20
-135.3133598837064
 10
105.7162000603765
 20
-134.631919996724
 10
105.7162000603765
 20
-134.631919996724
 10
105.7162000603765
 20
-134.631919996724
 10
105.9215277512974
 20
-134.631919996724
 10
105.9215277512974
 20
-134.631919996724
 10
105.9215277512974
 20
-134.631919996724
 10
105.9215277512974
 20
-135.5317789374712
 10
105.9215277512974
 20
-135.5317789374712
 10
105.5639268399285
 20
-135.5042181735892
 10
105.4857231724133
 20
-135.4466850789856
 10
105.1873779033907
 20
-135.1097547405281
 10
104.9885958938917
 20
-134.8854790244384
 10
104.9207275128323
 20
-134.8282904393832
 10
104.7832682029709
 20
-134.8282904393832
 10
104.6647569182783
 20
-134.8282904393832
 10
104.5338432898388
 20
-134.8913356867633
 10
104.5338432898388
 20
-135.0632459514773
 10
104.5338432898388
 20
-135.2909667630523
 10
104.764320177802
 20
-135.2985459731198
 10
104.8807644052034
 20
-135.3023355781536
 10
104.8807644052034
 20
-135.3023355781536
 10
104.8807644052034
 20
-135.4983615112643
 10
104.8807644052034
 20
-135.4983615112643
 10
104.7536403817977
 20
-135.4911268107453
 10
104.6416747785271
 20
-135.4818250529351
 10
104.5231634938345
 20
-135.411545105036
 10
104.3622775346733
 20
-135.315082431449
 10
104.3285155989179
 20
-135.1521294149967
 10
104.3285155989179
 20
-135.0504990981818
 10
104.3285155989179
 20
-134.8079643760202
 10
104.5124836978302
 20
-134.6264078439476
 10
104.785335260262
 20
-134.6264078439476
 10
105.0140896004826
 20
-134.6264078439476
 10
105.1133083504578
 20
-134.7280381607625
 10
105.3396511238387
 20
-134.9984781563546
 97
        0
 97
        0
 75
     2
 76
     1
 98
        0
  0
ENDBLK
  5
C4
330
C1
100
AcDbEntity
  8
0
100
AcDbBlockEnd
  0
ENDSEC
  0
SECTION
  2
ENTITIES
  0
INSERT
  5
42
330
1F
100
AcDbEntity
  8
_U+30EC_U+30A4_U+30E4_U+30FC 1
100
AcDbBlockReference
  2
block 2
 10
0.0
 20
0.0
 30
0.0
  0
ENDSEC
  0
SECTION
  2
OBJECTS
  0
DICTIONARY
  5
C
330
0
100
AcDbDictionary
281
     1
  3
ACAD_GROUP
350
D
  3
ACAD_LAYOUT
350
1A
  3
ACAD_MATERIAL
350
3B
  3
ACAD_MLEADERSTYLE
350
DE
  3
ACAD_MLINESTYLE
350
17
  3
ACAD_PLOTSETTINGS
350
19
  3
ACAD_PLOTSTYLENAME
350
E
  3
ACAD_TABLESTYLE
350
DD
  3
ACAD_VISUALSTYLE
350
2A
  0
SUN
  5
3F
330
29
100
AcDbSun
 90
        1
290
     0
 63
     7
421
 16777215
 40
1.0
291
     1
 91
  2455826
 92
 54000000
292
     0
 70
     2
 71
   256
280
     1
  0
DICTIONARY
  5
D
102
{ACAD_REACTORS
330
C
102
}
330
C
100
AcDbDictionary
281
     1
  0
DICTIONARY
  5
1A
102
{ACAD_REACTORS
330
C
102
}
330
C
100
AcDbDictionary
281
     1
  3
Layout1
350
1E
  3
Layout2
350
26
  3
Model
350
22
  0
DICTIONARY
  5
3B
102
{ACAD_REACTORS
330
C
102
}
330
C
100
AcDbDictionary
281
     1
  3
ByBlock
350
3D
  3
ByLayer
350
3C
  3
Global
350
3E
  0
DICTIONARY
  5
DE
102
{ACAD_REACTORS
330
C
102
}
330
C
100
AcDbDictionary
281
     1
  0
DICTIONARY
  5
17
102
{ACAD_REACTORS
330
C
102
}
330
C
100
AcDbDictionary
281
     1
  3
Standard
350
18
  0
DICTIONARY
  5
19
102
{ACAD_REACTORS
330
C
102
}
330
C
100
AcDbDictionary
281
     1
  0
ACDBDICTIONARYWDFLT
  5
E
102
{ACAD_REACTORS
330
C
102
}
330
C
100
AcDbDictionary
281
     1
  3
Normal
350
F
100
AcDbDictionaryWithDefault
340
F
  0
DICTIONARY
  5
DD
102
{ACAD_REACTORS
330
C
102
}
330
C
100
AcDbDictionary
281
     1
  0
DICTIONARY
  5
2A
102
{ACAD_REACTORS
330
C
102
}
330
C
100
AcDbDictionary
281
     1
  3
2dWireframe
350
2F
  3
3D Hidden
350
31
  3
3dWireframe
350
30
  3
Basic
350
32
  3
Brighten
350
36
  3
ColorChange
350
3A
  3
Conceptual
350
34
  3
Dim
350
35
  3
Facepattern
350
39
  3
Flat
350
2B
  3
FlatWithEdges
350
2C
  3
Gouraud
350
2D
  3
GouraudWithEdges
350
2E
  3
Linepattern
350
38
  3
Realistic
350
33
  3
Thicken
350
37
  0
LAYOUT
  5
1E
102
{ACAD_REACTORS
330
1A
102
}
330
1A
100
AcDbPlotSettings
  1

  2
none_device
  4

  6

 40
0.0
 41
0.0
 42
0.0
 43
0.0
 44
0.0
 45
0.0
 46
0.0
 47
0.0
 48
0.0
 49
0.0
140
0.0
141
0.0
142
1.0
143
1.0
 70
   688
 72
     0
 73
     0
 74
     5
  7

 75
    16
 76
     0
 77
     2
 78
   300
147
1.0
148
0.0
149
0.0
100
AcDbLayout
  1
Layout1
 70
     1
 71
     1
 10
0.0
 20
0.0
 11
12.0
 21
9.0
 12
0.0
 22
0.0
 32
0.0
 14
1.000000000000000E+20
 24
1.000000000000000E+20
 34
1.000000000000000E+20
 15
-1.000000000000000E+20
 25
-1.000000000000000E+20
 35
-1.000000000000000E+20
146
0.0
 13
0.0
 23
0.0
 33
0.0
 16
1.0
 26
0.0
 36
0.0
 17
0.0
 27
1.0
 37
0.0
 76
     0
330
1B
  0
LAYOUT
  5
26
102
{ACAD_REACTORS
330
1A
102
}
330
1A
100
AcDbPlotSettings
  1

  2
none_device
  4

  6

 40
0.0
 41
0.0
 42
0.0
 43
0.0
 44
0.0
 45
0.0
 46
0.0
 47
0.0
 48
0.0
 49
0.0
140
0.0
141
0.0
142
1.0
143
1.0
 70
   688
 72
     0
 73
     0
 74
     5
  7

 75
    16
 76
     0
 77
     2
 78
   300
147
1.0
148
0.0
149
0.0
100
AcDbLayout
  1
Layout2
 70
     1
 71
     2
 10
0.0
 20
0.0
 11
0.0
 21
0.0
 12
0.0
 22
0.0
 32
0.0
 14
0.0
 24
0.0
 34
0.0
 15
0.0
 25
0.0
 35
0.0
146
0.0
 13
0.0
 23
0.0
 33
0.0
 16
1.0
 26
0.0
 36
0.0
 17
0.0
 27
1.0
 37
0.0
 76
     0
330
23
  0
LAYOUT
  5
22
102
{ACAD_REACTORS
330
1A
102
}
330
1A
100
AcDbPlotSettings
  1

  2
none_device
  4

  6

 40
0.0
 41
0.0
 42
0.0
 43
0.0
 44
0.0
 45
0.0
 46
0.0
 47
0.0
 48
0.0
 49
0.0
140
0.0
141
0.0
142
1.0
143
1.0
 70
  1712
 72
     0
 73
     0
 74
     0
  7

 75
     0
 76
     0
 77
     2
 78
   300
147
1.0
148
0.0
149
0.0
100
AcDbLayout
  1
Model
 70
     1
 71
     0
 10
0.0
 20
0.0
 11
12.0
 21
9.0
 12
0.0
 22
0.0
 32
0.0
 14
1.000000000000000E+20
 24
1.000000000000000E+20
 34
1.000000000000000E+20
 15
-1.000000000000000E+20
 25
-1.000000000000000E+20
 35
-1.000000000000000E+20
146
0.0
 13
0.0
 23
0.0
 33
0.0
 16
1.0
 26
0.0
 36
0.0
 17
0.0
 27
1.0
 37
0.0
 76
     0
330
1F
331
29
  0
MATERIAL
  5
3D
102
{ACAD_REACTORS
330
3B
102
}
330
3B
100
AcDbMaterial
  1
ByBlock
 72
     1
 94
      127
  0
MATERIAL
  5
3C
102
{ACAD_REACTORS
330
3B
102
}
330
3B
100
AcDbMaterial
  1
ByLayer
 72
     1
 94
      127
  0
MATERIAL
  5
3E
102
{ACAD_REACTORS
330
3B
102
}
330
3B
100
AcDbMaterial
  1
Global
 72
     1
 94
      127
  0
MLINESTYLE
  5
18
102
{ACAD_REACTORS
330
17
102
}
330
17
100
AcDbMlineStyle
  2
Standard
 70
     0
  3

 62
   256
 51
90.0
 52
90.0
 71
     2
 49
0.5
 62
   256
  6
BYLAYER
 49
-0.5
 62
   256
  6
BYLAYER
  0
ACDBPLACEHOLDER
  5
F
102
{ACAD_REACTORS
330
E
102
}
330
E
  0
VISUALSTYLE
  5
2F
102
{ACAD_REACTORS
330
2A
102
}
330
2A
100
AcDbVisualStyle
  2
2dWireframe
 70
     4
177
     2
291
     0
 71
     0
176
     1
 72
     2
176
     1
 73
     0
176
     1
 90
        0
176
     1
 40
-0.6
176
     1
 41
-30.0
176
     1
 62
     5
 63
     7
421
 16777215
176
     1
 74
     1
176
     1
 91
        4
176
     1
 64
     7
176
     1
 65
   257
176
     1
 75
     1
176
     1
175
     1
176
     1
 42
1.0
176
     1
 92
        0
176
     1
 66
   257
176
     1
 43
1.0
176
     1
 76
     1
176
     1
 77
     6
176
     1
 78
     2
176
     1
 67
     7
176
     1
 79
     5
176
     1
170
     0
176
     1
171
     0
176
     1
290
     0
176
     1
 93
        1
176
     1
 44
0.0
176
     1
173
     0
176
     1
  0
VISUALSTYLE
  5
31
102
{ACAD_REACTORS
330
2A
102
}
330
2A
100
AcDbVisualStyle
  2
3D Hidden
 70
     6
177
     2
291
     0
 71
     1
176
     1
 72
     2
176
     1
 73
     2
176
     1
 90
        0
176
     1
 40
-0.6
176
     1
 41
-30.0
176
     1
 62
     5
 63
     7
421
 16777215
176
     1
 74
     2
176
     1
 91
        2
176
     1
 64
     7
176
     1
 65
   257
176
     1
 75
     2
176
     1
175
     1
176
     1
 42
40.0
176
     1
 92
        0
176
     1
 66
   257
176
     1
 43
1.0
176
     1
 76
     1
176
     1
 77
     6
176
     1
 78
     2
176
     1
 67
     7
176
     1
 79
     3
176
     1
170
     0
176
     1
171
     0
176
     1
290
     0
176
     1
 93
        1
176
     1
 44
0.0
176
     1
173
     0
176
     1
  0
VISUALSTYLE
  5
30
102
{ACAD_REACTORS
330
2A
102
}
330
2A
100
AcDbVisualStyle
  2
3dWireframe
 70
     5
177
     2
291
     0
 71
     0
176
     1
 72
     2
176
     1
 73
     0
176
     1
 90
        0
176
     1
 40
-0.6
176
     1
 41
-30.0
176
     1
 62
     5
 63
     7
421
 16777215
176
     1
 74
     1
176
     1
 91
        4
176
     1
 64
     7
176
     1
 65
   257
176
     1
 75
     1
176
     1
175
     1
176
     1
 42
1.0
176
     1
 92
        0
176
     1
 66
   257
176
     1
 43
1.0
176
     1
 76
     1
176
     1
 77
     6
176
     1
 78
     2
176
     1
 67
     7
176
     1
 79
     5
176
     1
170
     0
176
     1
171
     0
176
     1
290
     0
176
     1
 93
        1
176
     1
 44
0.0
176
     1
173
     0
176
     1
  0
VISUALSTYLE
  5
32
102
{ACAD_REACTORS
330
2A
102
}
330
2A
100
AcDbVisualStyle
  2
Basic
 70
     7
177
     2
291
     1
 71
     1
176
     1
 72
     0
176
     1
 73
     1
176
     1
 90
        0
176
     1
 40
-0.6
176
     1
 41
-30.0
176
     1
 62
     5
 63
     7
421
 16777215
176
     1
 74
     0
176
     1
 91
        4
176
     1
 64
     7
176
     1
 65
   257
176
     1
 75
     1
176
     1
175
     1
176
     1
 42
1.0
176
     1
 92
        8
176
     1
 66
     7
176
     1
 43
1.0
176
     1
 76
     1
176
     1
 77
     6
176
     1
 78
     2
176
     1
 67
     7
176
     1
 79
     5
176
     1
170
     0
176
     1
171
     0
176
     1
290
     0
176
     1
 93
        1
176
     1
 44
0.0
176
     1
173
     0
176
     1
  0
VISUALSTYLE
  5
36
102
{ACAD_REACTORS
330
2A
102
}
330
2A
100
AcDbVisualStyle
  2
Brighten
 70
    12
177
     2
291
     1
 71
     2
176
     1
 72
     2
176
     1
 73
     0
176
     1
 90
        0
176
     1
 40
-0.6
176
     1
 41
-30.0
176
     1
 62
     5
 63
     7
421
 16777215
176
     1
 74
     1
176
     1
 91
        4
176
     1
 64
     7
176
     1
 65
   257
176
     1
 75
     1
176
     1
175
     1
176
     1
 42
1.0
176
     1
 92
        8
176
     1
 66
     7
176
     1
 43
1.0
176
     1
 76
     1
176
     1
 77
     6
176
     1
 78
     2
176
     1
 67
     7
176
     1
 79
     5
176
     1
170
     0
176
     1
171
     0
176
     1
290
     0
176
     1
 93
        1
176
     1
 44
50.0
176
     1
173
     0
176
     1
  0
VISUALSTYLE
  5
3A
102
{ACAD_REACTORS
330
2A
102
}
330
2A
100
AcDbVisualStyle
  2
ColorChange
 70
    16
177
     2
291
     1
 71
     2
176
     1
 72
     2
176
     1
 73
     3
176
     1
 90
        0
176
     1
 40
-0.6
176
     1
 41
-30.0
176
     1
 62
     5
 63
     8
421
  8421504
176
     1
 74
     1
176
     1
 91
        4
176
     1
 64
     7
176
     1
 65
   257
176
     1
 75
     1
176
     1
175
     1
176
     1
 42
1.0
176
     1
 92
        8
176
     1
 66
     8
424
  8421504
176
     1
 43
1.0
176
     1
 76
     1
176
     1
 77
     6
176
     1
 78
     2
176
     1
 67
     7
176
     1
 79
     5
176
     1
170
     0
176
     1
171
     0
176
     1
290
     0
176
     1
 93
        1
176
     1
 44
0.0
176
     1
173
     0
176
     1
  0
VISUALSTYLE
  5
34
102
{ACAD_REACTORS
330
2A
102
}
330
2A
100
AcDbVisualStyle
  2
Conceptual
 70
     9
177
     2
291
     0
 71
     3
176
     1
 72
     2
176
     1
 73
     0
176
     1
 90
        0
176
     1
 40
-0.6
176
     1
 41
-30.0
176
     1
 62
     5
 63
     7
421
 16777215
176
     1
 74
     2
176
     1
 91
        2
176
     1
 64
     7
176
     1
 65
   257
176
     1
 75
     1
176
     1
175
     1
176
     1
 42
40.0
176
     1
 92
        8
176
     1
 66
     7
176
     1
 43
1.0
176
     1
 76
     1
176
     1
 77
     6
176
     1
 78
     2
176
     1
 67
     7
176
     1
 79
     3
176
     1
170
     0
176
     1
171
     0
176
     1
290
     0
176
     1
 93
        1
176
     1
 44
0.0
176
     1
173
     0
176
     1
  0
VISUALSTYLE
  5
35
102
{ACAD_REACTORS
330
2A
102
}
330
2A
100
AcDbVisualStyle
  2
Dim
 70
    11
177
     2
291
     1
 71
     2
176
     1
 72
     2
176
     1
 73
     0
176
     1
 90
        0
176
     1
 40
-0.6
176
     1
 41
-30.0
176
     1
 62
     5
 63
     7
421
 16777215
176
     1
 74
     1
176
     1
 91
        4
176
     1
 64
     7
176
     1
 65
   257
176
     1
 75
     1
176
     1
175
     1
176
     1
 42
1.0
176
     1
 92
        8
176
     1
 66
     7
176
     1
 43
1.0
176
     1
 76
     1
176
     1
 77
     6
176
     1
 78
     2
176
     1
 67
     7
176
     1
 79
     5
176
     1
170
     0
176
     1
171
     0
176
     1
290
     0
176
     1
 93
        1
176
     1
 44
-50.0
176
     1
173
     0
176
     1
  0
VISUALSTYLE
  5
39
102
{ACAD_REACTORS
330
2A
102
}
330
2A
100
AcDbVisualStyle
  2
Facepattern
 70
    15
177
     2
291
     1
 71
     2
176
     1
 72
     2
176
     1
 73
     0
176
     1
 90
        0
176
     1
 40
-0.6
176
     1
 41
-30.0
176
     1
 62
     5
 63
     7
421
 16777215
176
     1
 74
     1
176
     1
 91
        4
176
     1
 64
     7
176
     1
 65
   257
176
     1
 75
     1
176
     1
175
     1
176
     1
 42
1.0
176
     1
 92
        8
176
     1
 66
     7
176
     1
 43
1.0
176
     1
 76
     1
176
     1
 77
     6
176
     1
 78
     2
176
     1
 67
     7
176
     1
 79
     5
176
     1
170
     0
176
     1
171
     0
176
     1
290
     0
176
     1
 93
        1
176
     1
 44
0.0
176
     1
173
     0
176
     1
  0
VISUALSTYLE
  5
2B
102
{ACAD_REACTORS
330
2A
102
}
330
2A
100
AcDbVisualStyle
  2
Flat
 70
     0
177
     2
291
     1
 71
     2
176
     1
 72
     1
176
     1
 73
     1
176
     1
 90
        2
176
     1
 40
-0.6
176
     1
 41
30.0
176
     1
 62
     5
 63
     7
421
 16777215
176
     1
 74
     0
176
     1
 91
        4
176
     1
 64
     7
176
     1
 65
   257
176
     1
 75
     1
176
     1
175
     1
176
     1
 42
1.0
176
     1
 92
        8
176
     1
 66
     7
176
     1
 43
1.0
176
     1
 76
     1
176
     1
 77
     6
176
     1
 78
     2
176
     1
 67
     7
176
     1
 79
     5
176
     1
170
     0
176
     1
171
     0
176
     1
290
     0
176
     1
 93
       13
176
     1
 44
0.0
176
     1
173
     0
176
     1
  0
VISUALSTYLE
  5
2C
102
{ACAD_REACTORS
330
2A
102
}
330
2A
100
AcDbVisualStyle
  2
FlatWithEdges
 70
     1
177
     2
291
     1
 71
     2
176
     1
 72
     1
176
     1
 73
     1
176
     1
 90
        2
176
     1
 40
-0.6
176
     1
 41
30.0
176
     1
 62
     5
 63
     7
421
 16777215
176
     1
 74
     1
176
     1
 91
        4
176
     1
 64
     7
176
     1
 65
   257
176
     1
 75
     1
176
     1
175
     1
176
     1
 42
1.0
176
     1
 92
        0
176
     1
 66
   257
176
     1
 43
1.0
176
     1
 76
     1
176
     1
 77
     6
176
     1
 78
     2
176
     1
 67
     7
176
     1
 79
     5
176
     1
170
     0
176
     1
171
     0
176
     1
290
     0
176
     1
 93
       13
176
     1
 44
0.0
176
     1
173
     0
176
     1
  0
VISUALSTYLE
  5
2D
102
{ACAD_REACTORS
330
2A
102
}
330
2A
100
AcDbVisualStyle
  2
Gouraud
 70
     2
177
     2
291
     1
 71
     2
176
     1
 72
     2
176
     1
 73
     1
176
     1
 90
        2
176
     1
 40
-0.6
176
     1
 41
30.0
176
     1
 62
     5
 63
     7
421
 16777215
176
     1
 74
     0
176
     1
 91
        4
176
     1
 64
     7
176
     1
 65
   257
176
     1
 75
     1
176
     1
175
     1
176
     1
 42
1.0
176
     1
 92
        0
176
     1
 66
     7
176
     1
 43
1.0
176
     1
 76
     1
176
     1
 77
     6
176
     1
 78
     2
176
     1
 67
     7
176
     1
 79
     5
176
     1
170
     0
176
     1
171
     0
176
     1
290
     0
176
     1
 93
       13
176
     1
 44
0.0
176
     1
173
     0
176
     1
  0
VISUALSTYLE
  5
2E
102
{ACAD_REACTORS
330
2A
102
}
330
2A
100
AcDbVisualStyle
  2
GouraudWithEdges
 70
     3
177
     2
291
     1
 71
     2
176
     1
 72
     2
176
     1
 73
     1
176
     1
 90
        2
176
     1
 40
-0.6
176
     1
 41
30.0
176
     1
 62
     5
 63
     7
421
 16777215
176
     1
 74
     1
176
     1
 91
        4
176
     1
 64
     7
176
     1
 65
   257
176
     1
 75
     1
176
     1
175
     1
176
     1
 42
1.0
176
     1
 92
        0
176
     1
 66
   257
176
     1
 43
1.0
176
     1
 76
     1
176
     1
 77
     6
176
     1
 78
     2
176
     1
 67
     7
176
     1
 79
     5
176
     1
170
     0
176
     1
171
     0
176
     1
290
     0
176
     1
 93
       13
176
     1
 44
0.0
176
     1
173
     0
176
     1
  0
VISUALSTYLE
  5
38
102
{ACAD_REACTORS
330
2A
102
}
330
2A
100
AcDbVisualStyle
  2
Linepattern
 70
    14
177
     2
291
     1
 71
     2
176
     1
 72
     2
176
     1
 73
     0
176
     1
 90
        0
176
     1
 40
-0.6
176
     1
 41
-30.0
176
     1
 62
     5
 63
     7
421
 16777215
176
     1
 74
     1
176
     1
 91
        4
176
     1
 64
     7
176
     1
 65
   257
176
     1
 75
     7
176
     1
175
     7
176
     1
 42
1.0
176
     1
 92
        8
176
     1
 66
     7
176
     1
 43
1.0
176
     1
 76
     1
176
     1
 77
     6
176
     1
 78
     2
176
     1
 67
     7
176
     1
 79
     5
176
     1
170
     0
176
     1
171
     0
176
     1
290
     0
176
     1
 93
        1
176
     1
 44
0.0
176
     1
173
     0
176
     1
  0
VISUALSTYLE
  5
33
102
{ACAD_REACTORS
330
2A
102
}
330
2A
100
AcDbVisualStyle
  2
Realistic
 70
     8
177
     2
291
     0
 71
     2
176
     1
 72
     2
176
     1
 73
     0
176
     1
 90
        0
176
     1
 40
-0.6
176
     1
 41
-30.0
176
     1
 62
     5
 63
     7
421
 16777215
176
     1
 74
     1
176
     1
 91
        0
176
     1
 64
     7
176
     1
 65
   257
176
     1
 75
     1
176
     1
175
     1
176
     1
 42
1.0
176
     1
 92
        8
176
     1
 66
     8
424
  7895160
176
     1
 43
1.0
176
     1
 76
     1
176
     1
 77
     6
176
     1
 78
     2
176
     1
 67
     7
176
     1
 79
     5
176
     1
170
     0
176
     1
171
     0
176
     1
290
     0
176
     1
 93
       13
176
     1
 44
0.0
176
     1
173
     0
176
     1
  0
VISUALSTYLE
  5
37
102
{ACAD_REACTORS
330
2A
102
}
330
2A
100
AcDbVisualStyle
  2
Thicken
 70
    13
177
     2
291
     1
 71
     2
176
     1
 72
     2
176
     1
 73
     0
176
     1
 90
        0
176
     1
 40
-0.6
176
     1
 41
-30.0
176
     1
 62
     5
 63
     7
421
 16777215
176
     1
 74
     1
176
     1
 91
        4
176
     1
 64
     7
176
     1
 65
   257
176
     1
 75
     1
176
     1
175
     1
176
     1
 42
1.0
176
     1
 92
       12
176
     1
 66
     7
176
     1
 43
1.0
176
     1
 76
     1
176
     1
 77
     6
176
     1
 78
     2
176
     1
 67
     7
176
     1
 79
     5
176
     1
170
     0
176
     1
171
     0
176
     1
290
     0
176
     1
 93
        1
176
     1
 44
0.0
176
     1
173
     0
176
     1
  0
ENDSEC
  0
EOF
