  0
SECTION
  2
HEADER
  9
$ACADVER
  1
AC1024
  9
$ACADMAINTVER
 70
     6
  9
$DWGCODEPAGE
  3
UNDEFINED
  9
$INSBASE
 10
0.0
 20
0.0
 30
0.0
  9
$EXTMIN
 10
1.000000000000000E+20
 20
1.000000000000000E+20
 30
1.000000000000000E+20
  9
$EXTMAX
 10
-1.000000000000000E+20
 20
-1.000000000000000E+20
 30
-1.000000000000000E+20
  9
$LIMMIN
 10
0.0
 20
0.0
  9
$LIMMAX
 10
12.0
 20
9.0
  9
$ORTHOMODE
 70
     0
  9
$REGENMODE
 70
     1
  9
$FILLMODE
 70
     1
  9
$QTEXTMODE
 70
     0
  9
$MIRRTEXT
 70
     1
  9
$LTSCALE
 40
1.0
  9
$ATTMODE
 70
     1
  9
$TEXTSIZE
 40
0.2
  9
$TRACEWID
 40
0.05
  9
$TEXTSTYLE
  7
Standard
  9
$CLAYER
  8
0
  9
$CELTYPE
  6
ByLayer
  9
$CECOLOR
 62
   256
  9
$CELTSCALE
 40
1.0
  9
$DISPSILH
 70
     0
  9
$DIMSCALE
 40
1.0
  9
$DIMASZ
 40
0.18
  9
$DIMEXO
 40
0.0625
  9
$DIMDLI
 40
0.38
  9
$DIMRND
 40
0.0
  9
$DIMDLE
 40
0.0
  9
$DIMEXE
 40
0.18
  9
$DIMTP
 40
0.0
  9
$DIMTM
 40
0.0
  9
$DIMTXT
 40
0.18
  9
$DIMCEN
 40
0.09
  9
$DIMTSZ
 40
0.0
  9
$DIMTOL
 70
     0
  9
$DIMLIM
 70
     0
  9
$DIMTIH
 70
     1
  9
$DIMTOH
 70
     1
  9
$DIMSE1
 70
     0
  9
$DIMSE2
 70
     0
  9
$DIMTAD
 70
     0
  9
$DIMZIN
 70
     0
  9
$DIMBLK
  1

  9
$DIMASO
 70
     1
  9
$DIMSHO
 70
     1
  9
$DIMPOST
  1

  9
$DIMAPOST
  1

  9
$DIMALT
 70
     0
  9
$DIMALTD
 70
     2
  9
$DIMALTF
 40
25.4
  9
$DIMLFAC
 40
1.0
  9
$DIMTOFL
 70
     0
  9
$DIMTVP
 40
0.0
  9
$DIMTIX
 70
     0
  9
$DIMSOXD
 70
     0
  9
$DIMSAH
 70
     0
  9
$DIMBLK1
  1

  9
$DIMBLK2
  1

  9
$DIMSTYLE
  2
Standard
  9
$DIMCLRD
 70
     0
  9
$DIMCLRE
 70
     0
  9
$DIMCLRT
 70
     0
  9
$DIMTFAC
 40
1.0
  9
$DIMGAP
 40
0.09
  9
$DIMJUST
 70
     0
  9
$DIMSD1
 70
     0
  9
$DIMSD2
 70
     0
  9
$DIMTOLJ
 70
     1
  9
$DIMTZIN
 70
     0
  9
$DIMALTZ
 70
     0
  9
$DIMALTTZ
 70
     0
  9
$DIMUPT
 70
     0
  9
$DIMDEC
 70
     4
  9
$DIMTDEC
 70
     4
  9
$DIMALTU
 70
     2
  9
$DIMALTTD
 70
     2
  9
$DIMTXSTY
  7
Standard
  9
$DIMAUNIT
 70
     0
  9
$DIMADEC
 70
     0
  9
$DIMALTRND
 40
0.0
  9
$DIMAZIN
 70
     0
  9
$DIMDSEP
 70
    46
  9
$DIMATFIT
 70
     3
  9
$DIMFRAC
 70
     0
  9
$DIMLDRBLK
  1

  9
$DIMLUNIT
 70
     2
  9
$DIMLWD
 70
    -2
  9
$DIMLWE
 70
    -2
  9
$DIMTMOVE
 70
     0
  9
$DIMFXL
 40
1.0
  9
$DIMFXLON
 70
     0
  9
$DIMJOGANG
 40
0.7853981633974483
  9
$DIMTFILL
 70
     0
  9
$DIMTFILLCLR
 70
     0
  9
$DIMARCSYM
 70
     0
  9
$DIMLTYPE
  6

  9
$DIMLTEX1
  6

  9
$DIMLTEX2
  6

  9
$DIMTXTDIRECTION
 70
     0
  9
$LUNITS
 70
     2
  9
$LUPREC
 70
     4
  9
$SKETCHINC
 40
0.1
  9
$FILLETRAD
 40
0.5
  9
$AUNITS
 70
     0
  9
$AUPREC
 70
     0
  9
$MENU
  1
.
  9
$ELEVATION
 40
0.0
  9
$PELEVATION
 40
0.0
  9
$THICKNESS
 40
0.0
  9
$LIMCHECK
 70
     0
  9
$CHAMFERA
 40
0.5
  9
$CHAMFERB
 40
0.5
  9
$CHAMFERC
 40
1.0
  9
$CHAMFERD
 40
0.0
  9
$SKPOLY
 70
     0
  9
$TDCREATE
 40
2457917.62119213
  9
$TDUCREATE
 40
2457917.24619213
  9
$TDUPDATE
 40
2457917.62119213
  9
$TDUUPDATE
 40
2457917.24619213
  9
$TDINDWG
 40
0.0000000116
  9
$TDUSRTIMER
 40
0.0000000116
  9
$USRTIMER
 70
     1
  9
$ANGBASE
 50
0.0
  9
$ANGDIR
 70
     0
  9
$PDMODE
 70
     0
  9
$PDSIZE
 40
0.0
  9
$PLINEWID
 40
0.0
  9
$SPLFRAME
 70
     0
  9
$SPLINETYPE
 70
     6
  9
$SPLINESEGS
 70
     8
  9
$HANDSEED
  5
D1
  9
$SURFTAB1
 70
     6
  9
$SURFTAB2
 70
     6
  9
$SURFTYPE
 70
     6
  9
$SURFU
 70
     6
  9
$SURFV
 70
     6
  9
$UCSBASE
  2

  9
$UCSNAME
  2

  9
$UCSORG
 10
0.0
 20
0.0
 30
0.0
  9
$UCSXDIR
 10
1.0
 20
0.0
 30
0.0
  9
$UCSYDIR
 10
0.0
 20
1.0
 30
0.0
  9
$UCSORTHOREF
  2

  9
$UCSORTHOVIEW
 70
     0
  9
$UCSORGTOP
 10
0.0
 20
0.0
 30
0.0
  9
$UCSORGBOTTOM
 10
0.0
 20
0.0
 30
0.0
  9
$UCSORGLEFT
 10
0.0
 20
0.0
 30
0.0
  9
$UCSORGRIGHT
 10
0.0
 20
0.0
 30
0.0
  9
$UCSORGFRONT
 10
0.0
 20
0.0
 30
0.0
  9
$UCSORGBACK
 10
0.0
 20
0.0
 30
0.0
  9
$PUCSBASE
  2

  9
$PUCSNAME
  2

  9
$PUCSORG
 10
0.0
 20
0.0
 30
0.0
  9
$PUCSXDIR
 10
1.0
 20
0.0
 30
0.0
  9
$PUCSYDIR
 10
0.0
 20
1.0
 30
0.0
  9
$PUCSORTHOREF
  2

  9
$PUCSORTHOVIEW
 70
     0
  9
$PUCSORGTOP
 10
0.0
 20
0.0
 30
0.0
  9
$PUCSORGBOTTOM
 10
0.0
 20
0.0
 30
0.0
  9
$PUCSORGLEFT
 10
0.0
 20
0.0
 30
0.0
  9
$PUCSORGRIGHT
 10
0.0
 20
0.0
 30
0.0
  9
$PUCSORGFRONT
 10
0.0
 20
0.0
 30
0.0
  9
$PUCSORGBACK
 10
0.0
 20
0.0
 30
0.0
  9
$USERI1
 70
     0
  9
$USERI2
 70
     0
  9
$USERI3
 70
     0
  9
$USERI4
 70
     0
  9
$USERI5
 70
     0
  9
$USERR1
 40
0.0
  9
$USERR2
 40
0.0
  9
$USERR3
 40
0.0
  9
$USERR4
 40
0.0
  9
$USERR5
 40
0.0
  9
$WORLDVIEW
 70
     1
  9
$SHADEDGE
 70
     3
  9
$SHADEDIF
 70
    70
  9
$TILEMODE
 70
     1
  9
$MAXACTVP
 70
    64
  9
$PINSBASE
 10
0.0
 20
0.0
 30
0.0
  9
$PLIMCHECK
 70
     0
  9
$PEXTMIN
 10
1.000000000000000E+20
 20
1.000000000000000E+20
 30
1.000000000000000E+20
  9
$PEXTMAX
 10
-1.000000000000000E+20
 20
-1.000000000000000E+20
 30
-1.000000000000000E+20
  9
$PLIMMIN
 10
0.0
 20
0.0
  9
$PLIMMAX
 10
12.0
 20
9.0
  9
$UNITMODE
 70
     0
  9
$VISRETAIN
 70
     1
  9
$PLINEGEN
 70
     0
  9
$PSLTSCALE
 70
     1
  9
$TREEDEPTH
 70
  3020
  9
$CMLSTYLE
  2
Standard
  9
$CMLJUST
 70
     0
  9
$CMLSCALE
 40
1.0
  9
$PROXYGRAPHICS
 70
     1
  9
$MEASUREMENT
 70
     0
  9
$CELWEIGHT
370
    -1
  9
$ENDCAPS
280
     0
  9
$JOINSTYLE
280
     0
  9
$LWDISPLAY
290
     1
  9
$INSUNITS
 70
     1
  9
$HYPERLINKBASE
  1

  9
$STYLESHEET
  1

  9
$XEDIT
290
     1
  9
$CEPSNTYPE
380
     0
  9
$PSTYLEMODE
290
     1
  9
$FINGERPRINTGUID
  2
{972EE454-34E5-C23C-910F-AB222490CE19}
  9
$VERSIONGUID
  2
{FAEB1C32-E019-11D5-929B-00C0DF256EC4}
  9
$EXTNAMES
290
     1
  9
$PSVPSCALE
 40
0.0
  9
$OLESTARTUP
290
     0
  9
$SORTENTS
280
   127
  9
$INDEXCTL
280
     0
  9
$HIDETEXT
280
     1
  9
$XCLIPFRAME
280
     2
  9
$HALOGAP
280
     0
  9
$OBSCOLOR
 70
   257
  9
$OBSLTYPE
280
     0
  9
$INTERSECTIONDISPLAY
280
     0
  9
$INTERSECTIONCOLOR
 70
   257
  9
$DIMASSOC
280
     2
  9
$PROJECTNAME
  1

  9
$CAMERADISPLAY
290
     0
  9
$LENSLENGTH
 40
50.0
  9
$CAMERAHEIGHT
 40
0.0
  9
$STEPSPERSEC
 40
2.0
  9
$STEPSIZE
 40
6.0
  9
$3DDWFPREC
 40
2.0
  9
$PSOLWIDTH
 40
0.25
  9
$PSOLHEIGHT
 40
4.0
  9
$LOFTANG1
 40
1.570796326794897
  9
$LOFTANG2
 40
1.570796326794897
  9
$LOFTMAG1
 40
0.0
  9
$LOFTMAG2
 40
0.0
  9
$LOFTPARAM
 70
     7
  9
$LOFTNORMALS
280
     1
  9
$LATITUDE
 40
37.795
  9
$LONGITUDE
 40
-122.394
  9
$NORTHDIRECTION
 40
0.0
  9
$TIMEZONE
 70
 -8000
  9
$LIGHTGLYPHDISPLAY
280
     1
  9
$TILEMODELIGHTSYNCH
280
     1
  9
$CMATERIAL
347
3C
  9
$SOLIDHIST
280
     1
  9
$SHOWHIST
280
     1
  9
$DWFFRAME
280
     2
  9
$DGNFRAME
280
     2
  9
$REALWORLDSCALE
290
     1
  9
$INTERFERECOLOR
 62
   256
  9
$CSHADOW
280
     0
  9
$SHADOWPLANELOCATION
 40
0.0
  0
ENDSEC
  0
SECTION
  2
CLASSES
  0
CLASS
  1
ACDBDICTIONARYWDFLT
  2
AcDbDictionaryWithDefault
  3
ObjectDBX Classes
 90
        0
 91
        4
280
     0
281
     0
  0
CLASS
  1
VISUALSTYLE
  2
AcDbVisualStyle
  3
ObjectDBX Classes
 90
     4095
 91
        4
280
     0
281
     0
  0
CLASS
  1
MATERIAL
  2
AcDbMaterial
  3
ObjectDBX Classes
 90
     1153
 91
        4
280
     0
281
     0
  0
CLASS
  1
SUN
  2
AcDbSun
  3
SCENEOE
 90
     1024
 91
        4
280
     0
281
     0
  0
ENDSEC
  0
SECTION
  2
TABLES
  0
TABLE
  2
VPORT
  5
8
330
0
100
AcDbSymbolTable
 70
     1
  0
VPORT
  5
29
330
8
100
AcDbSymbolTableRecord
100
AcDbViewportTableRecord
  2
*Active
 70
     0
 10
0.0
 20
0.0
 11
1.0
 21
1.0
 12
0.0
 22
0.0
 13
0.0
 23
0.0
 14
0.5
 24
0.5
 15
0.5
 25
0.5
 16
0.0
 26
0.0
 36
1.0
 17
91.00082462281999
 27
-128.4993055234307
 37
0.0
 40
256.9986110468615
 41
0.7081814508812795
 42
50.0
 43
0.0
 44
0.0
 50
0.0
 51
0.0
 71
     0
 72
   100
 73
     1
 74
     3
 75
     0
 76
     0
 77
     0
 78
     0
281
     0
 65
     1
110
0.0
120
0.0
130
0.0
111
1.0
121
0.0
131
0.0
112
0.0
122
1.0
132
0.0
 79
     0
146
0.0
 60
     3
 61
     5
292
     1
282
     1
141
0.0
142
0.0
 63
   250
361
3F
  0
ENDTAB
  0
TABLE
  2
LTYPE
  5
5
330
0
100
AcDbSymbolTable
 70
     1
  0
LTYPE
  5
14
330
5
100
AcDbSymbolTableRecord
100
AcDbLinetypeTableRecord
  2
ByBlock
 70
     0
  3

 72
    65
 73
     0
 40
0.0
  0
LTYPE
  5
15
330
5
100
AcDbSymbolTableRecord
100
AcDbLinetypeTableRecord
  2
ByLayer
 70
     0
  3

 72
    65
 73
     0
 40
0.0
  0
LTYPE
  5
16
330
5
100
AcDbSymbolTableRecord
100
AcDbLinetypeTableRecord
  2
Continuous
 70
     0
  3
Solid line
 72
    65
 73
     0
 40
0.0
  0
ENDTAB
  0
TABLE
  2
LAYER
  5
2
330
0
100
AcDbSymbolTable
 70
     2
  0
LAYER
  5
10
330
2
100
AcDbSymbolTableRecord
100
AcDbLayerTableRecord
  2
0
 70
     0
 62
     7
  6
Continuous
370
    -3
390
F
347
3E
  0
LAYER
  5
40
330
2
100
AcDbSymbolTableRecord
100
AcDbLayerTableRecord
  2
_U+30EC_U+30A4_U+30E4_U+30FC 1
 70
     0
 62
     7
  6
Continuous
370
    -3
390
F
347
3E
  0
ENDTAB
  0
TABLE
  2
STYLE
  5
3
330
0
100
AcDbSymbolTable
 70
     1
  0
STYLE
  5
11
330
3
100
AcDbSymbolTableRecord
100
AcDbTextStyleTableRecord
  2
Standard
 70
     0
 40
0.0
 41
1.0
 50
0.0
 71
     0
 42
0.2
  3
txt
  4

  0
ENDTAB
  0
TABLE
  2
VIEW
  5
6
330
0
100
AcDbSymbolTable
 70
     0
  0
ENDTAB
  0
TABLE
  2
UCS
  5
7
330
0
100
AcDbSymbolTable
 70
     0
  0
ENDTAB
  0
TABLE
  2
APPID
  5
9
330
0
100
AcDbSymbolTable
 70
     1
  0
APPID
  5
12
330
9
100
AcDbSymbolTableRecord
100
AcDbRegAppTableRecord
  2
ACAD
 70
     0
  0
ENDTAB
  0
TABLE
  2
DIMSTYLE
  5
A
330
0
100
AcDbSymbolTable
 70
     1
100
AcDbDimStyleTable
  0
DIMSTYLE
105
27
330
A
100
AcDbSymbolTableRecord
100
AcDbDimStyleTableRecord
  2
Standard
 70
     0
178
     0
340
11
  0
ENDTAB
  0
TABLE
  2
BLOCK_RECORD
  5
1
330
0
100
AcDbSymbolTable
 70
     7
  0
BLOCK_RECORD
  5
1F
330
1
100
AcDbSymbolTableRecord
100
AcDbBlockTableRecord
  2
*Model_Space
340
22
 70
     0
280
     1
281
     0
  0
BLOCK_RECORD
  5
1B
330
1
100
AcDbSymbolTableRecord
100
AcDbBlockTableRecord
  2
*Paper_Space
340
1E
 70
     0
280
     1
281
     0
  0
BLOCK_RECORD
  5
23
330
1
100
AcDbSymbolTableRecord
100
AcDbBlockTableRecord
  2
*Paper_Space0
340
26
 70
     0
280
     1
281
     0
  0
BLOCK_RECORD
  5
41
330
1
100
AcDbSymbolTableRecord
100
AcDbBlockTableRecord
  2
block 2
340
0
102
{BLKREFS
331
42
102
}
 70
     0
280
     1
281
     0
  0
BLOCK_RECORD
  5
76
330
1
100
AcDbSymbolTableRecord
100
AcDbBlockTableRecord
  2
block 3
340
0
102
{BLKREFS
331
77
102
}
 70
     0
280
     1
281
     0
  0
BLOCK_RECORD
  5
86
330
1
100
AcDbSymbolTableRecord
100
AcDbBlockTableRecord
  2
block 4
340
0
102
{BLKREFS
331
87
102
}
 70
     0
280
     1
281
     0
  0
BLOCK_RECORD
  5
98
330
1
100
AcDbSymbolTableRecord
100
AcDbBlockTableRecord
  2
block 5
340
0
102
{BLKREFS
331
99
102
}
 70
     0
280
     1
281
     0
  0
BLOCK_RECORD
  5
A0
330
1
100
AcDbSymbolTableRecord
100
AcDbBlockTableRecord
  2
block 6
340
0
102
{BLKREFS
331
A1
102
}
 70
     0
280
     1
281
     0
  0
BLOCK_RECORD
  5
B3
330
1
100
AcDbSymbolTableRecord
100
AcDbBlockTableRecord
  2
block 7
340
0
102
{BLKREFS
331
B4
102
}
 70
     0
280
     1
281
     0
  0
ENDTAB
  0
ENDSEC
  0
SECTION
  2
BLOCKS
  0
BLOCK
  5
20
330
1F
100
AcDbEntity
  8
0
100
AcDbBlockBegin
  2
*Model_Space
 70
     0
 10
0.0
 20
0.0
 30
0.0
  3
*Model_Space
  1

  0
ENDBLK
  5
21
330
1F
100
AcDbEntity
  8
0
100
AcDbBlockEnd
  0
BLOCK
  5
1C
330
1B
100
AcDbEntity
 67
     1
  8
0
100
AcDbBlockBegin
  2
*Paper_Space
 70
     0
 10
0.0
 20
0.0
 30
0.0
  3
*Paper_Space
  1

  0
ENDBLK
  5
1D
330
1B
100
AcDbEntity
 67
     1
  8
0
100
AcDbBlockEnd
  0
BLOCK
  5
24
330
23
100
AcDbEntity
  8
0
100
AcDbBlockBegin
  2
*Paper_Space0
 70
     0
 10
0.0
 20
0.0
 30
0.0
  3
*Paper_Space0
  1

  0
ENDBLK
  5
25
330
23
100
AcDbEntity
  8
0
100
AcDbBlockEnd
  0
BLOCK
  5
43
330
41
100
AcDbEntity
  8
0
100
AcDbBlockBegin
  2
block 2
 70
     0
 10
0.0
 20
0.0
 30
0.0
  3
block 2
  1

  0
SPLINE
  5
45
330
41
100
AcDbEntity
  8
_U+30EC_U+30A4_U+30E4_U+30FC 1
 62
   179
420
  2234388
370
    25
100
AcDbSpline
210
0.0
220
0.0
230
1.0
 70
    11
 71
     3
 72
    41
 73
    37
 74
     0
 42
0.0000000001
 43
0.0000000001
 12
1.0
 22
0.0
 32
0.0
 13
1.0
 23
0.0
 33
0.0
 40
0.0
 40
0.0
 40
0.0
 40
0.0
 40
1.0
 40
1.0
 40
1.0
 40
2.0
 40
2.0
 40
2.0
 40
3.0
 40
3.0
 40
3.0
 40
4.0
 40
4.0
 40
4.0
 40
5.0
 40
5.0
 40
5.0
 40
6.0
 40
6.0
 40
6.0
 40
7.0
 40
7.0
 40
7.0
 40
8.0
 40
8.0
 40
8.0
 40
9.0
 40
9.0
 40
9.0
 40
10.0
 40
10.0
 40
10.0
 40
11.0
 40
11.0
 40
11.0
 40
12.0
 40
12.0
 40
12.0
 40
12.0
 10
97.78904500519361
 20
-131.8369008003741
 30
0.0
 10
97.78904500519361
 20
-131.8369008003741
 30
0.0
 10
85.88914530878534
 20
-131.8369008003741
 30
0.0
 10
85.88914530878534
 20
-131.8369008003741
 30
0.0
 10
85.67987753634644
 20
-131.8369008003741
 30
0.0
 10
85.47851198592815
 20
-131.8613835781459
 30
0.0
 10
85.29005810184712
 20
-131.7986596892729
 30
0.0
 10
84.72487497881878
 20
-131.6102410782086
 30
0.0
 10
84.21863886783407
 20
-131.1044988561127
 30
0.0
 10
84.02915980068198
 20
-130.5401955229206
 30
0.0
 10
83.96541285786385
 20
-130.3503658007459
 30
0.0
 10
83.98901369059509
 20
-130.1474480230185
 30
0.0
 10
83.98901369059509
 20
-129.9365927452933
 30
0.0
 10
83.98901369059509
 20
-129.9365927452933
 30
0.0
 10
83.98901369059509
 20
-118.0372571927128
 30
0.0
 10
83.98901369059509
 20
-118.0372571927128
 30
0.0
 10
83.98901369059509
 20
-118.0372571927128
 30
0.0
 10
82.78907538787472
 20
-118.0372571927128
 30
0.0
 10
82.78907538787472
 20
-118.0372571927128
 30
0.0
 10
82.78907538787472
 20
-118.0372571927128
 30
0.0
 10
82.78907538787472
 20
-129.9365927452933
 30
0.0
 10
82.78907538787472
 20
-129.9365927452933
 30
0.0
 10
82.78907538787472
 20
-130.1412391341314
 30
0.0
 10
82.78907538787472
 20
-130.5346569118109
 30
0.0
 10
82.78907538787472
 20
-130.5346569118109
 30
0.0
 10
83.03041065949553
 20
-131.7652516337251
 30
0.0
 10
84.06016896655754
 20
-132.795680244579
 30
0.0
 10
85.29073053423296
 20
-133.0371919111855
 30
0.0
 10
85.29073053423296
 20
-133.0371919111855
 30
0.0
 10
85.6845342028943
 20
-133.0364863556299
 30
0.0
 10
85.88914530878534
 20
-133.0364863556299
 30
0.0
 10
85.88914530878534
 20
-133.0364863556299
 30
0.0
 10
97.78904500519361
 20
-133.0364863556299
 30
0.0
 10
97.78904500519361
 20
-133.0364863556299
 30
0.0
 10
97.78904500519361
 20
-133.0364863556299
 30
0.0
 10
97.78904500519361
 20
-131.8369008003741
 30
0.0
 10
97.78904500519361
 20
-131.8369008003741
 30
0.0
  0
HATCH
  5
46
330
41
100
AcDbEntity
  8
_U+30EC_U+30A4_U+30E4_U+30FC 1
 62
   253
420
 11711154
100
AcDbHatch
 10
0.0
 20
0.0
 30
0.0
210
0.0
220
0.0
230
1.0
  2
SOLID
 70
     1
 71
     0
 91
        1
 92
        1
 93
        1
 72
     4
 94
        3
 73
     0
 74
     1
 95
       41
 96
       37
 40
0.0
 40
0.0
 40
0.0
 40
0.0
 40
1.0
 40
1.0
 40
1.0
 40
2.0
 40
2.0
 40
2.0
 40
3.0
 40
3.0
 40
3.0
 40
4.0
 40
4.0
 40
4.0
 40
5.0
 40
5.0
 40
5.0
 40
6.0
 40
6.0
 40
6.0
 40
7.0
 40
7.0
 40
7.0
 40
8.0
 40
8.0
 40
8.0
 40
9.0
 40
9.0
 40
9.0
 40
10.0
 40
10.0
 40
10.0
 40
11.0
 40
11.0
 40
11.0
 40
12.0
 40
12.0
 40
12.0
 40
12.0
 10
97.78904500519361
 20
-131.8369008003741
 10
97.78904500519361
 20
-131.8369008003741
 10
85.88914530878534
 20
-131.8369008003741
 10
85.88914530878534
 20
-131.8369008003741
 10
85.67987753634644
 20
-131.8369008003741
 10
85.47851198592815
 20
-131.8613835781459
 10
85.29005810184712
 20
-131.7986596892729
 10
84.72487497881878
 20
-131.6102410782086
 10
84.21863886783407
 20
-131.1044988561127
 10
84.02915980068198
 20
-130.5401955229206
 10
83.96541285786385
 20
-130.3503658007459
 10
83.98901369059509
 20
-130.1474480230185
 10
83.98901369059509
 20
-129.9365927452933
 10
83.98901369059509
 20
-129.9365927452933
 10
83.98901369059509
 20
-118.0372571927128
 10
83.98901369059509
 20
-118.0372571927128
 10
83.98901369059509
 20
-118.0372571927128
 10
82.78907538787472
 20
-118.0372571927128
 10
82.78907538787472
 20
-118.0372571927128
 10
82.78907538787472
 20
-118.0372571927128
 10
82.78907538787472
 20
-129.9365927452933
 10
82.78907538787472
 20
-129.9365927452933
 10
82.78907538787472
 20
-130.1412391341314
 10
82.78907538787472
 20
-130.5346569118109
 10
82.78907538787472
 20
-130.5346569118109
 10
83.03041065949553
 20
-131.7652516337251
 10
84.06016896655754
 20
-132.795680244579
 10
85.29073053423296
 20
-133.0371919111855
 10
85.29073053423296
 20
-133.0371919111855
 10
85.6845342028943
 20
-133.0364863556299
 10
85.88914530878534
 20
-133.0364863556299
 10
85.88914530878534
 20
-133.0364863556299
 10
97.78904500519361
 20
-133.0364863556299
 10
97.78904500519361
 20
-133.0364863556299
 10
97.78904500519361
 20
-133.0364863556299
 10
97.78904500519361
 20
-131.8369008003741
 10
97.78904500519361
 20
-131.8369008003741
 97
        0
 97
        0
 75
     2
 76
     1
 98
        0
  0
POLYLINE
  5
47
330
41
100
AcDbEntity
  8
_U+30EC_U+30A4_U+30E4_U+30FC 1
 62
     7
420
 16777215
370
     9
100
AcDb2dPolyline
 66
     1
 10
0.0
 20
0.0
 30
0.0
  0
VERTEX
  5
48
330
47
100
AcDbEntity
  8
_U+30EC_U+30A4_U+30E4_U+30FC 1
 62
     7
420
 16777215
370
     9
100
AcDbVertex
100
AcDb2dVertex
 10
79.65799630108855
 20
-117.9476516371797
 30
0.0
  0
VERTEX
  5
49
330
47
100
AcDbEntity
  8
_U+30EC_U+30A4_U+30E4_U+30FC 1
 62
     7
420
 16777215
370
     9
100
AcDbVertex
100
AcDb2dVertex
 10
81.33369070278246
 20
-117.9476516371797
 30
0.0
  0
SEQEND
  5
4A
330
47
100
AcDbEntity
  8
_U+30EC_U+30A4_U+30E4_U+30FC 1
 62
     7
420
 16777215
370
     9
  0
POLYLINE
  5
4B
330
41
100
AcDbEntity
  8
_U+30EC_U+30A4_U+30E4_U+30FC 1
 62
     7
420
 16777215
370
     9
100
AcDb2dPolyline
 66
     1
 10
0.0
 20
0.0
 30
0.0
  0
VERTEX
  5
4C
330
4B
100
AcDbEntity
  8
_U+30EC_U+30A4_U+30E4_U+30FC 1
 62
     7
420
 16777215
370
     9
100
AcDbVertex
100
AcDb2dVertex
 10
80.47880433570354
 20
-117.9476516371797
 30
0.0
  0
VERTEX
  5
4D
330
4B
100
AcDbEntity
  8
_U+30EC_U+30A4_U+30E4_U+30FC 1
 62
     7
420
 16777215
370
     9
100
AcDbVertex
100
AcDb2dVertex
 10
80.47880433570354
 20
-132.9476216334295
 30
0.0
  0
SEQEND
  5
4E
330
4B
100
AcDbEntity
  8
_U+30EC_U+30A4_U+30E4_U+30FC 1
 62
     7
420
 16777215
370
     9
  0
POLYLINE
  5
4F
330
41
100
AcDbEntity
  8
_U+30EC_U+30A4_U+30E4_U+30FC 1
 62
     7
420
 16777215
370
     9
100
AcDb2dPolyline
 66
     1
 10
0.0
 20
0.0
 30
0.0
  0
VERTEX
  5
50
330
4F
100
AcDbEntity
  8
_U+30EC_U+30A4_U+30E4_U+30FC 1
 62
     7
420
 16777215
370
     9
100
AcDbVertex
100
AcDb2dVertex
 10
79.65799630108855
 20
-132.9476216334295
 30
0.0
  0
VERTEX
  5
51
330
4F
100
AcDbEntity
  8
_U+30EC_U+30A4_U+30E4_U+30FC 1
 62
     7
420
 16777215
370
     9
100
AcDbVertex
100
AcDb2dVertex
 10
81.33369070278246
 20
-132.9476216334295
 30
0.0
  0
SEQEND
  5
52
330
4F
100
AcDbEntity
  8
_U+30EC_U+30A4_U+30E4_U+30FC 1
 62
     7
420
 16777215
370
     9
  0
POLYLINE
  5
53
330
41
100
AcDbEntity
  8
_U+30EC_U+30A4_U+30E4_U+30FC 1
 62
     7
420
 16777215
370
     9
100
AcDb2dPolyline
 66
     1
 10
0.0
 20
0.0
 30
0.0
  0
VERTEX
  5
54
330
53
100
AcDbEntity
  8
_U+30EC_U+30A4_U+30E4_U+30FC 1
 62
     7
420
 16777215
370
     9
100
AcDbVertex
100
AcDb2dVertex
 10
99.84715050824252
 20
-131.8369008003741
 30
0.0
  0
VERTEX
  5
55
330
53
100
AcDbEntity
  8
_U+30EC_U+30A4_U+30E4_U+30FC 1
 62
     7
420
 16777215
370
     9
100
AcDbVertex
100
AcDb2dVertex
 10
101.5228449099365
 20
-131.8369008003741
 30
0.0
  0
SEQEND
  5
56
330
53
100
AcDbEntity
  8
_U+30EC_U+30A4_U+30E4_U+30FC 1
 62
     7
420
 16777215
370
     9
  0
POLYLINE
  5
57
330
41
100
AcDbEntity
  8
_U+30EC_U+30A4_U+30E4_U+30FC 1
 62
     7
420
 16777215
370
     9
100
AcDb2dPolyline
 66
     1
 10
0.0
 20
0.0
 30
0.0
  0
VERTEX
  5
58
330
57
100
AcDbEntity
  8
_U+30EC_U+30A4_U+30E4_U+30FC 1
 62
     7
420
 16777215
370
     9
100
AcDbVertex
100
AcDb2dVertex
 10
100.6250254883973
 20
-130.2910991340942
 30
0.0
  0
VERTEX
  5
59
330
57
100
AcDbEntity
  8
_U+30EC_U+30A4_U+30E4_U+30FC 1
 62
     7
420
 16777215
370
     9
100
AcDbVertex
100
AcDb2dVertex
 10
100.6250254883973
 20
-133.9763216331727
 30
0.0
  0
SEQEND
  5
5A
330
57
100
AcDbEntity
  8
_U+30EC_U+30A4_U+30E4_U+30FC 1
 62
     7
420
 16777215
370
     9
  0
POLYLINE
  5
5B
330
41
100
AcDbEntity
  8
_U+30EC_U+30A4_U+30E4_U+30FC 1
 62
     7
420
 16777215
370
     9
100
AcDb2dPolyline
 66
     1
 10
0.0
 20
0.0
 30
0.0
  0
VERTEX
  5
5C
330
5B
100
AcDbEntity
  8
_U+30EC_U+30A4_U+30E4_U+30FC 1
 62
     7
420
 16777215
370
     9
100
AcDbVertex
100
AcDb2dVertex
 10
99.84715050824252
 20
-133.0371919111855
 30
0.0
  0
VERTEX
  5
5D
330
5B
100
AcDbEntity
  8
_U+30EC_U+30A4_U+30E4_U+30FC 1
 62
     7
420
 16777215
370
     9
100
AcDbVertex
100
AcDb2dVertex
 10
101.5228449099365
 20
-133.0371919111855
 30
0.0
  0
SEQEND
  5
5E
330
5B
100
AcDbEntity
  8
_U+30EC_U+30A4_U+30E4_U+30FC 1
 62
     7
420
 16777215
370
     9
  0
POLYLINE
  5
5F
330
41
100
AcDbEntity
  8
_U+30EC_U+30A4_U+30E4_U+30FC 1
 62
     7
420
 16777215
370
     9
100
AcDb2dPolyline
 66
     1
 10
0.0
 20
0.0
 30
0.0
  0
VERTEX
  5
60
330
5F
100
AcDbEntity
  8
_U+30EC_U+30A4_U+30E4_U+30FC 1
 62
     7
420
 16777215
370
     9
100
AcDbVertex
100
AcDb2dVertex
 10
82.78907538787472
 20
-138.6816363542188
 30
0.0
  0
VERTEX
  5
61
330
5F
100
AcDbEntity
  8
_U+30EC_U+30A4_U+30E4_U+30FC 1
 62
     7
420
 16777215
370
     9
100
AcDbVertex
100
AcDb2dVertex
 10
82.78907538787472
 20
-137.0059419101933
 30
0.0
  0
SEQEND
  5
62
330
5F
100
AcDbEntity
  8
_U+30EC_U+30A4_U+30E4_U+30FC 1
 62
     7
420
 16777215
370
     9
  0
POLYLINE
  5
63
330
41
100
AcDbEntity
  8
_U+30EC_U+30A4_U+30E4_U+30FC 1
 62
     7
420
 16777215
370
     9
100
AcDb2dPolyline
 66
     1
 10
0.0
 20
0.0
 30
0.0
  0
VERTEX
  5
64
330
63
100
AcDbEntity
  8
_U+30EC_U+30A4_U+30E4_U+30FC 1
 62
     7
420
 16777215
370
     9
100
AcDbVertex
100
AcDb2dVertex
 10
85.28935254630956
 20
-138.6816363542188
 30
0.0
  0
VERTEX
  5
65
330
63
100
AcDbEntity
  8
_U+30EC_U+30A4_U+30E4_U+30FC 1
 62
     7
420
 16777215
370
     9
100
AcDbVertex
100
AcDb2dVertex
 10
85.28935254630956
 20
-137.0059419101933
 30
0.0
  0
SEQEND
  5
66
330
63
100
AcDbEntity
  8
_U+30EC_U+30A4_U+30E4_U+30FC 1
 62
     7
420
 16777215
370
     9
  0
POLYLINE
  5
67
330
41
100
AcDbEntity
  8
_U+30EC_U+30A4_U+30E4_U+30FC 1
 62
     7
420
 16777215
370
     9
100
AcDb2dPolyline
 66
     1
 10
0.0
 20
0.0
 30
0.0
  0
VERTEX
  5
68
330
67
100
AcDbEntity
  8
_U+30EC_U+30A4_U+30E4_U+30FC 1
 62
     7
420
 16777215
370
     9
100
AcDbVertex
100
AcDb2dVertex
 10
97.78904500519361
 20
-138.6816363542188
 30
0.0
  0
VERTEX
  5
69
330
67
100
AcDbEntity
  8
_U+30EC_U+30A4_U+30E4_U+30FC 1
 62
     7
420
 16777215
370
     9
100
AcDbVertex
100
AcDb2dVertex
 10
97.78904500519361
 20
-137.0059419101933
 30
0.0
  0
SEQEND
  5
6A
330
67
100
AcDbEntity
  8
_U+30EC_U+30A4_U+30E4_U+30FC 1
 62
     7
420
 16777215
370
     9
  0
POLYLINE
  5
6B
330
41
100
AcDbEntity
  8
_U+30EC_U+30A4_U+30E4_U+30FC 1
 62
     7
420
 16777215
370
     9
100
AcDb2dPolyline
 66
     1
 10
0.0
 20
0.0
 30
0.0
  0
VERTEX
  5
6C
330
6B
100
AcDbEntity
  8
_U+30EC_U+30A4_U+30E4_U+30FC 1
 62
     7
420
 16777215
370
     9
100
AcDbVertex
100
AcDb2dVertex
 10
82.81698010938504
 20
-137.8372274655406
 30
0.0
  0
VERTEX
  5
6D
330
6B
100
AcDbEntity
  8
_U+30EC_U+30A4_U+30E4_U+30FC 1
 62
     7
420
 16777215
370
     9
100
AcDbVertex
100
AcDb2dVertex
 10
97.81726722669583
 20
-137.8372274655406
 30
0.0
  0
SEQEND
  5
6E
330
6B
100
AcDbEntity
  8
_U+30EC_U+30A4_U+30E4_U+30FC 1
 62
     7
420
 16777215
370
     9
  0
SPLINE
  5
6F
330
41
100
AcDbEntity
  8
_U+30EC_U+30A4_U+30E4_U+30FC 1
 62
     7
420
 16777215
370
     9
100
AcDbSpline
210
0.0
220
0.0
230
1.0
 70
    11
 71
     3
 72
    17
 73
    13
 74
     0
 42
0.0000000001
 43
0.0000000001
 12
1.0
 22
0.0
 32
0.0
 13
1.0
 23
0.0
 33
0.0
 40
0.0
 40
0.0
 40
0.0
 40
0.0
 40
1.0
 40
1.0
 40
1.0
 40
2.0
 40
2.0
 40
2.0
 40
3.0
 40
3.0
 40
3.0
 40
4.0
 40
4.0
 40
4.0
 40
4.0
 10
80.56078988916747
 20
-118.0041666371656
 30
0.0
 10
80.56078988916747
 20
-118.0593058038184
 30
0.0
 10
80.51602239030959
 20
-118.1040733038073
 30
0.0
 10
80.46070683616524
 20
-118.1040733038073
 30
0.0
 10
80.40560294868217
 20
-118.1040733038073
 30
0.0
 10
80.3608001720474
 20
-118.0593058038184
 30
0.0
 10
80.3608001720474
 20
-118.0041666371656
 30
0.0
 10
80.3608001720474
 20
-117.948709970513
 30
0.0
 10
80.40560294868217
 20
-117.9039071927462
 30
0.0
 10
80.46070683616524
 20
-117.9039071927462
 30
0.0
 10
80.51602239030959
 20
-117.9039071927462
 30
0.0
 10
80.56078988916747
 20
-117.948709970513
 30
0.0
 10
80.56078988916747
 20
-118.0041666371656
 30
0.0
  0
SPLINE
  5
70
330
41
100
AcDbEntity
  8
_U+30EC_U+30A4_U+30E4_U+30FC 1
 62
     7
420
 16777215
370
     9
100
AcDbSpline
210
0.0
220
0.0
230
1.0
 70
    11
 71
     3
 72
    17
 73
    13
 74
     0
 42
0.0000000001
 43
0.0000000001
 12
1.0
 22
0.0
 32
0.0
 13
1.0
 23
0.0
 33
0.0
 40
0.0
 40
0.0
 40
0.0
 40
0.0
 40
1.0
 40
1.0
 40
1.0
 40
2.0
 40
2.0
 40
2.0
 40
3.0
 40
3.0
 40
3.0
 40
4.0
 40
4.0
 40
4.0
 40
4.0
 10
80.56078988916747
 20
-132.9372852445432
 30
0.0
 10
80.56078988916747
 20
-132.9923891334188
 30
0.0
 10
80.51602239030959
 20
-133.0371919111855
 30
0.0
 10
80.46070683616524
 20
-133.0371919111855
 30
0.0
 10
80.40560294868217
 20
-133.0371919111855
 30
0.0
 10
80.3608001720474
 20
-132.9923891334188
 30
0.0
 10
80.3608001720474
 20
-132.9372852445432
 30
0.0
 10
80.3608001720474
 20
-132.8821460778908
 30
0.0
 10
80.40560294868217
 20
-132.8373785779015
 30
0.0
 10
80.46070683616524
 20
-132.8373785779015
 30
0.0
 10
80.51602239030959
 20
-132.8373785779015
 30
0.0
 10
80.56078988916747
 20
-132.8821460778908
 30
0.0
 10
80.56078988916747
 20
-132.9372852445432
 30
0.0
  0
SPLINE
  5
71
330
41
100
AcDbEntity
  8
_U+30EC_U+30A4_U+30E4_U+30FC 1
 62
     7
420
 16777215
370
     9
100
AcDbSpline
210
0.0
220
0.0
230
1.0
 70
    11
 71
     3
 72
    17
 73
    13
 74
     0
 42
0.0000000001
 43
0.0000000001
 12
1.0
 22
0.0
 32
0.0
 13
1.0
 23
0.0
 33
0.0
 40
0.0
 40
0.0
 40
0.0
 40
0.0
 40
1.0
 40
1.0
 40
1.0
 40
2.0
 40
2.0
 40
2.0
 40
3.0
 40
3.0
 40
3.0
 40
4.0
 40
4.0
 40
4.0
 40
4.0
 10
82.91706316238727
 20
-137.8372274655406
 30
0.0
 10
82.91706316238727
 20
-137.8923666321936
 30
0.0
 10
82.87229566352937
 20
-137.9371341321822
 30
0.0
 10
82.81698010938504
 20
-137.9371341321822
 30
0.0
 10
82.76187622190197
 20
-137.9371341321822
 30
0.0
 10
82.7170734452672
 20
-137.8923666321936
 30
0.0
 10
82.7170734452672
 20
-137.8372274655406
 30
0.0
 10
82.7170734452672
 20
-137.7817707988879
 30
0.0
 10
82.76187622190197
 20
-137.7369680211212
 30
0.0
 10
82.81698010938504
 20
-137.7369680211212
 30
0.0
 10
82.87229566352937
 20
-137.7369680211212
 30
0.0
 10
82.91706316238727
 20
-137.7817707988879
 30
0.0
 10
82.91706316238727
 20
-137.8372274655406
 30
0.0
  0
SPLINE
  5
72
330
41
100
AcDbEntity
  8
_U+30EC_U+30A4_U+30E4_U+30FC 1
 62
     7
420
 16777215
370
     9
100
AcDbSpline
210
0.0
220
0.0
230
1.0
 70
    11
 71
     3
 72
    17
 73
    13
 74
     0
 42
0.0000000001
 43
0.0000000001
 12
1.0
 22
0.0
 32
0.0
 13
1.0
 23
0.0
 33
0.0
 40
0.0
 40
0.0
 40
0.0
 40
0.0
 40
1.0
 40
1.0
 40
1.0
 40
2.0
 40
2.0
 40
2.0
 40
3.0
 40
3.0
 40
3.0
 40
4.0
 40
4.0
 40
4.0
 40
4.0
 10
85.42735920945539
 20
-137.8372274655406
 30
0.0
 10
85.42735920945539
 20
-137.8923666321936
 30
0.0
 10
85.38255643282062
 20
-137.9371341321822
 30
0.0
 10
85.32727615645317
 20
-137.9371341321822
 30
0.0
 10
85.27213699119321
 20
-137.9371341321822
 30
0.0
 10
85.22736949233533
 20
-137.8923666321936
 30
0.0
 10
85.22736949233533
 20
-137.8372274655406
 30
0.0
 10
85.22736949233533
 20
-137.7817707988879
 30
0.0
 10
85.27213699119321
 20
-137.7369680211212
 30
0.0
 10
85.32727615645317
 20
-137.7369680211212
 30
0.0
 10
85.38255643282062
 20
-137.7369680211212
 30
0.0
 10
85.42735920945539
 20
-137.7817707988879
 30
0.0
 10
85.42735920945539
 20
-137.8372274655406
 30
0.0
  0
SPLINE
  5
73
330
41
100
AcDbEntity
  8
_U+30EC_U+30A4_U+30E4_U+30FC 1
 62
     7
420
 16777215
370
     9
100
AcDbSpline
210
0.0
220
0.0
230
1.0
 70
    11
 71
     3
 72
    17
 73
    13
 74
     0
 42
0.0000000001
 43
0.0000000001
 12
1.0
 22
0.0
 32
0.0
 13
1.0
 23
0.0
 33
0.0
 40
0.0
 40
0.0
 40
0.0
 40
0.0
 40
1.0
 40
1.0
 40
1.0
 40
2.0
 40
2.0
 40
2.0
 40
3.0
 40
3.0
 40
3.0
 40
4.0
 40
4.0
 40
4.0
 40
4.0
 10
97.89374944696682
 20
-137.8372274655406
 30
0.0
 10
97.89374944696682
 20
-137.8923666321936
 30
0.0
 10
97.84898194810894
 20
-137.9371341321822
 30
0.0
 10
97.793842782849
 20
-137.9371341321822
 30
0.0
 10
97.73873889536593
 20
-137.9371341321822
 30
0.0
 10
97.69393611873116
 20
-137.8923666321936
 30
0.0
 10
97.69393611873116
 20
-137.8372274655406
 30
0.0
 10
97.69393611873116
 20
-137.7817707988879
 30
0.0
 10
97.73873889536593
 20
-137.7369680211212
 30
0.0
 10
97.793842782849
 20
-137.7369680211212
 30
0.0
 10
97.84898194810894
 20
-137.7369680211212
 30
0.0
 10
97.89374944696682
 20
-137.7817707988879
 30
0.0
 10
97.89374944696682
 20
-137.8372274655406
 30
0.0
  0
SPLINE
  5
74
330
41
100
AcDbEntity
  8
_U+30EC_U+30A4_U+30E4_U+30FC 1
 62
     7
420
 16777215
370
     9
100
AcDbSpline
210
0.0
220
0.0
230
1.0
 70
    11
 71
     3
 72
    17
 73
    13
 74
     0
 42
0.0000000001
 43
0.0000000001
 12
1.0
 22
0.0
 32
0.0
 13
1.0
 23
0.0
 33
0.0
 40
0.0
 40
0.0
 40
0.0
 40
0.0
 40
1.0
 40
1.0
 40
1.0
 40
2.0
 40
2.0
 40
2.0
 40
3.0
 40
3.0
 40
3.0
 40
4.0
 40
4.0
 40
4.0
 40
4.0
 10
100.6939229866396
 20
-133.0599108000684
 30
0.0
 10
100.6939229866396
 20
-133.1150499667215
 30
0.0
 10
100.6491554877817
 20
-133.1598174667101
 30
0.0
 10
100.5940163225217
 20
-133.1598174667101
 30
0.0
 10
100.5389124350387
 20
-133.1598174667101
 30
0.0
 10
100.4941096584039
 20
-133.1150499667215
 30
0.0
 10
100.4941096584039
 20
-133.0599108000684
 30
0.0
 10
100.4941096584039
 20
-133.0048069111935
 30
0.0
 10
100.5389124350387
 20
-132.9600041334268
 30
0.0
 10
100.5940163225217
 20
-132.9600041334268
 30
0.0
 10
100.6491554877817
 20
-132.9600041334268
 30
0.0
 10
100.6939229866396
 20
-133.0048069111935
 30
0.0
 10
100.6939229866396
 20
-133.0599108000684
 30
0.0
  0
SPLINE
  5
75
330
41
100
AcDbEntity
  8
_U+30EC_U+30A4_U+30E4_U+30FC 1
 62
     7
420
 16777215
370
     9
100
AcDbSpline
210
0.0
220
0.0
230
1.0
 70
    11
 71
     3
 72
    17
 73
    13
 74
     0
 42
0.0000000001
 43
0.0000000001
 12
1.0
 22
0.0
 32
0.0
 13
1.0
 23
0.0
 33
0.0
 40
0.0
 40
0.0
 40
0.0
 40
0.0
 40
1.0
 40
1.0
 40
1.0
 40
2.0
 40
2.0
 40
2.0
 40
3.0
 40
3.0
 40
3.0
 40
4.0
 40
4.0
 40
4.0
 40
4.0
 10
100.6939229866396
 20
-131.8603252448126
 30
0.0
 10
100.6939229866396
 20
-131.9154644114657
 30
0.0
 10
100.6491554877817
 20
-131.9602319114543
 30
0.0
 10
100.5940163225217
 20
-131.9602319114543
 30
0.0
 10
100.5389124350387
 20
-131.9602319114543
 30
0.0
 10
100.4941096584039
 20
-131.9154644114657
 30
0.0
 10
100.4941096584039
 20
-131.8603252448126
 30
0.0
 10
100.4941096584039
 20
-131.8048685781599
 30
0.0
 10
100.5389124350387
 20
-131.7601010781714
 30
0.0
 10
100.5940163225217
 20
-131.7601010781714
 30
0.0
 10
100.6491554877817
 20
-131.7601010781714
 30
0.0
 10
100.6939229866396
 20
-131.8048685781599
 30
0.0
 10
100.6939229866396
 20
-131.8603252448126
 30
0.0
  0
INSERT
  5
77
330
41
100
AcDbEntity
  8
_U+30EC_U+30A4_U+30E4_U+30FC 1
100
AcDbBlockReference
  2
block 3
 10
0.0
 20
0.0
 30
0.0
  0
INSERT
  5
87
330
41
100
AcDbEntity
  8
_U+30EC_U+30A4_U+30E4_U+30FC 1
100
AcDbBlockReference
  2
block 4
 10
0.0
 20
0.0
 30
0.0
  0
INSERT
  5
99
330
41
100
AcDbEntity
  8
_U+30EC_U+30A4_U+30E4_U+30FC 1
100
AcDbBlockReference
  2
block 5
 10
0.0
 20
0.0
 30
0.0
  0
INSERT
  5
A1
330
41
100
AcDbEntity
  8
_U+30EC_U+30A4_U+30E4_U+30FC 1
100
AcDbBlockReference
  2
block 6
 10
0.0
 20
0.0
 30
0.0
  0
INSERT
  5
B4
330
41
100
AcDbEntity
  8
_U+30EC_U+30A4_U+30E4_U+30FC 1
100
AcDbBlockReference
  2
block 7
 10
0.0
 20
0.0
 30
0.0
  0
POLYLINE
  5
C3
330
41
100
AcDbEntity
  8
_U+30EC_U+30A4_U+30E4_U+30FC 1
 62
   179
420
  2234388
370
     9
100
AcDb2dPolyline
 66
     1
 10
0.0
 20
0.0
 30
0.0
  0
VERTEX
  5
C4
330
C3
100
AcDbEntity
  8
_U+30EC_U+30A4_U+30E4_U+30FC 1
 62
   179
420
  2234388
370
     9
100
AcDbVertex
100
AcDb2dVertex
 10
83.63934036618265
 20
-132.1624794114037
 30
0.0
  0
VERTEX
  5
C5
330
C3
100
AcDbEntity
  8
_U+30EC_U+30A4_U+30E4_U+30FC 1
 62
   179
420
  2234388
370
     9
100
AcDbVertex
100
AcDb2dVertex
 10
86.95626278156092
 20
-128.8452041344553
 30
0.0
  0
SEQEND
  5
C6
330
C3
100
AcDbEntity
  8
_U+30EC_U+30A4_U+30E4_U+30FC 1
 62
   179
420
  2234388
370
     9
  0
POLYLINE
  5
C7
330
41
100
AcDbEntity
  8
_U+30EC_U+30A4_U+30E4_U+30FC 1
 62
   179
420
  2234388
370
     9
100
AcDb2dPolyline
 66
     1
 10
0.0
 20
0.0
 30
0.0
  0
VERTEX
  5
C8
330
C7
100
AcDbEntity
  8
_U+30EC_U+30A4_U+30E4_U+30FC 1
 62
   179
420
  2234388
370
     9
100
AcDbVertex
100
AcDb2dVertex
 10
83.63934036618265
 20
-132.1624794114037
 30
0.0
  0
VERTEX
  5
C9
330
C7
100
AcDbEntity
  8
_U+30EC_U+30A4_U+30E4_U+30FC 1
 62
   179
420
  2234388
370
     9
100
AcDbVertex
100
AcDb2dVertex
 10
84.13922646454061
 20
-131.2963746893983
 30
0.0
  0
SEQEND
  5
CA
330
C7
100
AcDbEntity
  8
_U+30EC_U+30A4_U+30E4_U+30FC 1
 62
   179
420
  2234388
370
     9
  0
POLYLINE
  5
CB
330
41
100
AcDbEntity
  8
_U+30EC_U+30A4_U+30E4_U+30FC 1
 62
   179
420
  2234388
370
     9
100
AcDb2dPolyline
 66
     1
 10
0.0
 20
0.0
 30
0.0
  0
VERTEX
  5
CC
330
CB
100
AcDbEntity
  8
_U+30EC_U+30A4_U+30E4_U+30FC 1
 62
   179
420
  2234388
370
     9
100
AcDbVertex
100
AcDb2dVertex
 10
83.63934036618265
 20
-132.1624794114037
 30
0.0
  0
VERTEX
  5
CD
330
CB
100
AcDbEntity
  8
_U+30EC_U+30A4_U+30E4_U+30FC 1
 62
   179
420
  2234388
370
     9
100
AcDbVertex
100
AcDb2dVertex
 10
84.50526867742433
 20
-131.66224052264
 30
0.0
  0
SEQEND
  5
CE
330
CB
100
AcDbEntity
  8
_U+30EC_U+30A4_U+30E4_U+30FC 1
 62
   179
420
  2234388
370
     9
  0
ENDBLK
  5
44
330
41
100
AcDbEntity
  8
0
100
AcDbBlockEnd
  0
BLOCK
  5
78
330
76
100
AcDbEntity
  8
0
100
AcDbBlockBegin
  2
block 3
 70
     0
 10
0.0
 20
0.0
 30
0.0
  3
block 3
  1

  0
SPLINE
  5
7A
330
76
100
AcDbEntity
  8
_U+30EC_U+30A4_U+30E4_U+30FC 1
370
     0
100
AcDbSpline
210
0.0
220
0.0
230
1.0
 70
    11
 71
     3
 72
    44
 73
    40
 74
     0
 42
0.0000000001
 43
0.0000000001
 12
1.0
 22
0.0
 32
0.0
 13
1.0
 23
0.0
 33
0.0
 40
0.0
 40
0.0
 40
0.0
 40
0.0
 40
1.0
 40
1.0
 40
1.0
 40
2.0
 40
2.0
 40
2.0
 40
3.0
 40
3.0
 40
3.0
 40
4.0
 40
4.0
 40
4.0
 40
5.0
 40
5.0
 40
5.0
 40
6.0
 40
6.0
 40
6.0
 40
7.0
 40
7.0
 40
7.0
 40
8.0
 40
8.0
 40
8.0
 40
9.0
 40
9.0
 40
9.0
 40
10.0
 40
10.0
 40
10.0
 40
11.0
 40
11.0
 40
11.0
 40
12.0
 40
12.0
 40
12.0
 40
13.0
 40
13.0
 40
13.0
 40
13.0
 10
83.37992348175919
 20
-136.2087402003228
 30
0.0
 10
83.18906519187635
 20
-136.3675591021928
 30
0.0
 10
83.10776093842445
 20
-136.4416286551257
 30
0.0
 10
83.06504175440736
 20
-136.5852891368606
 30
0.0
 10
83.06504175440736
 20
-136.5852891368606
 30
0.0
 10
83.74648164138978
 20
-136.5852891368606
 30
0.0
 10
83.74648164138978
 20
-136.5852891368606
 30
0.0
 10
83.74648164138978
 20
-136.5852891368606
 30
0.0
 10
83.74648164138978
 20
-136.7906168277815
 30
0.0
 10
83.74648164138978
 20
-136.7906168277815
 30
0.0
 10
83.74648164138978
 20
-136.7906168277815
 30
0.0
 10
82.84662270064251
 20
-136.7906168277815
 30
0.0
 10
82.84662270064251
 20
-136.7906168277815
 30
0.0
 10
82.87418346452452
 20
-136.4330159164126
 30
0.0
 10
82.93171655912819
 20
-136.3548122488974
 30
0.0
 10
83.26864689758563
 20
-136.0564669798748
 30
0.0
 10
83.49292261367539
 20
-135.8576849703759
 30
0.0
 10
83.55011119873053
 20
-135.7898165893164
 30
0.0
 10
83.55011119873053
 20
-135.652357279455
 30
0.0
 10
83.55011119873053
 20
-135.5338459947624
 30
0.0
 10
83.48706595135046
 20
-135.4029323663229
 30
0.0
 10
83.31515568663649
 20
-135.4029323663229
 30
0.0
 10
83.08743487506148
 20
-135.4029323663229
 30
0.0
 10
83.07985566499393
 20
-135.6334092542861
 30
0.0
 10
83.07606605996016
 20
-135.7498534816876
 30
0.0
 10
83.07606605996016
 20
-135.7498534816876
 30
0.0
 10
82.88004012684944
 20
-135.7498534816876
 30
0.0
 10
82.88004012684944
 20
-135.7498534816876
 30
0.0
 10
82.88727482736846
 20
-135.6227294582818
 30
0.0
 10
82.89657658517864
 20
-135.5107638550112
 30
0.0
 10
82.96685653307773
 20
-135.3922525703186
 30
0.0
 10
83.06331920666473
 20
-135.2313666111575
 30
0.0
 10
83.22627222311705
 20
-135.197604675402
 30
0.0
 10
83.32790253993191
 20
-135.197604675402
 30
0.0
 10
83.5704372620935
 20
-135.197604675402
 30
0.0
 10
83.75199379416617
 20
-135.3815727743143
 30
0.0
 10
83.75199379416617
 20
-135.6544243367461
 30
0.0
 10
83.75199379416617
 20
-135.8831786769667
 30
0.0
 10
83.6503634773513
 20
-135.9823974269419
 30
0.0
 10
83.37992348175919
 20
-136.2087402003228
 30
0.0
  0
HATCH
  5
7B
330
76
100
AcDbEntity
  8
_U+30EC_U+30A4_U+30E4_U+30FC 1
 62
   179
420
  2234388
100
AcDbHatch
 10
0.0
 20
0.0
 30
0.0
210
0.0
220
0.0
230
1.0
  2
SOLID
 70
     1
 71
     0
 91
        1
 92
        1
 93
        1
 72
     4
 94
        3
 73
     0
 74
     1
 95
       44
 96
       40
 40
0.0
 40
0.0
 40
0.0
 40
0.0
 40
1.0
 40
1.0
 40
1.0
 40
2.0
 40
2.0
 40
2.0
 40
3.0
 40
3.0
 40
3.0
 40
4.0
 40
4.0
 40
4.0
 40
5.0
 40
5.0
 40
5.0
 40
6.0
 40
6.0
 40
6.0
 40
7.0
 40
7.0
 40
7.0
 40
8.0
 40
8.0
 40
8.0
 40
9.0
 40
9.0
 40
9.0
 40
10.0
 40
10.0
 40
10.0
 40
11.0
 40
11.0
 40
11.0
 40
12.0
 40
12.0
 40
12.0
 40
13.0
 40
13.0
 40
13.0
 40
13.0
 10
83.37992348175919
 20
-136.2087402003228
 10
83.18906519187635
 20
-136.3675591021928
 10
83.10776093842445
 20
-136.4416286551257
 10
83.06504175440736
 20
-136.5852891368606
 10
83.06504175440736
 20
-136.5852891368606
 10
83.74648164138978
 20
-136.5852891368606
 10
83.74648164138978
 20
-136.5852891368606
 10
83.74648164138978
 20
-136.5852891368606
 10
83.74648164138978
 20
-136.7906168277815
 10
83.74648164138978
 20
-136.7906168277815
 10
83.74648164138978
 20
-136.7906168277815
 10
82.84662270064251
 20
-136.7906168277815
 10
82.84662270064251
 20
-136.7906168277815
 10
82.87418346452452
 20
-136.4330159164126
 10
82.93171655912819
 20
-136.3548122488974
 10
83.26864689758563
 20
-136.0564669798748
 10
83.49292261367539
 20
-135.8576849703759
 10
83.55011119873053
 20
-135.7898165893164
 10
83.55011119873053
 20
-135.652357279455
 10
83.55011119873053
 20
-135.5338459947624
 10
83.48706595135046
 20
-135.4029323663229
 10
83.31515568663649
 20
-135.4029323663229
 10
83.08743487506148
 20
-135.4029323663229
 10
83.07985566499393
 20
-135.6334092542861
 10
83.07606605996016
 20
-135.7498534816876
 10
83.07606605996016
 20
-135.7498534816876
 10
82.88004012684944
 20
-135.7498534816876
 10
82.88004012684944
 20
-135.7498534816876
 10
82.88727482736846
 20
-135.6227294582818
 10
82.89657658517864
 20
-135.5107638550112
 10
82.96685653307773
 20
-135.3922525703186
 10
83.06331920666473
 20
-135.2313666111575
 10
83.22627222311705
 20
-135.197604675402
 10
83.32790253993191
 20
-135.197604675402
 10
83.5704372620935
 20
-135.197604675402
 10
83.75199379416617
 20
-135.3815727743143
 10
83.75199379416617
 20
-135.6544243367461
 10
83.75199379416617
 20
-135.8831786769667
 10
83.6503634773513
 20
-135.9823974269419
 10
83.37992348175919
 20
-136.2087402003228
 97
        0
 97
        0
 75
     2
 76
     1
 98
        0
  0
POLYLINE
  5
7C
330
76
100
AcDbEntity
  8
_U+30EC_U+30A4_U+30E4_U+30FC 1
370
     0
100
AcDb2dPolyline
 66
     1
 10
0.0
 20
0.0
 30
0.0
  0
VERTEX
  5
7D
330
7C
100
AcDbEntity
  8
_U+30EC_U+30A4_U+30E4_U+30FC 1
370
     0
100
AcDbVertex
100
AcDb2dVertex
 10
83.94388561269459
 20
-136.7906168277815
 30
0.0
  0
VERTEX
  5
7E
330
7C
100
AcDbEntity
  8
_U+30EC_U+30A4_U+30E4_U+30FC 1
370
     0
100
AcDbVertex
100
AcDb2dVertex
 10
83.94388561269459
 20
-136.5387803478098
 30
0.0
  0
VERTEX
  5
7F
330
7C
100
AcDbEntity
  8
_U+30EC_U+30A4_U+30E4_U+30FC 1
370
     0
100
AcDbVertex
100
AcDb2dVertex
 10
84.16437172375058
 20
-136.5387803478098
 30
0.0
  0
VERTEX
  5
80
330
7C
100
AcDbEntity
  8
_U+30EC_U+30A4_U+30E4_U+30FC 1
370
     0
100
AcDbVertex
100
AcDb2dVertex
 10
84.16437172375058
 20
-136.7906168277815
 30
0.0
  0
VERTEX
  5
81
330
7C
100
AcDbEntity
  8
_U+30EC_U+30A4_U+30E4_U+30FC 1
370
     0
100
AcDbVertex
100
AcDb2dVertex
 10
83.94388561269459
 20
-136.7906168277815
 30
0.0
  0
SEQEND
  5
82
330
7C
100
AcDbEntity
  8
_U+30EC_U+30A4_U+30E4_U+30FC 1
370
     0
  0
HATCH
  5
83
330
76
100
AcDbEntity
  8
_U+30EC_U+30A4_U+30E4_U+30FC 1
 62
   179
420
  2234388
100
AcDbHatch
 10
0.0
 20
0.0
 30
0.0
210
0.0
220
0.0
230
1.0
  2
SOLID
 70
     1
 71
     0
 91
        1
 92
        1
 93
        4
 72
     1
 10
83.94388561269459
 20
-136.7906168277815
 11
83.94388561269459
 21
-136.5387803478098
 72
     1
 10
83.94388561269459
 20
-136.5387803478098
 11
84.16437172375058
 21
-136.5387803478098
 72
     1
 10
84.16437172375058
 20
-136.5387803478098
 11
84.16437172375058
 21
-136.7906168277815
 72
     1
 10
84.16437172375058
 20
-136.7906168277815
 11
83.94388561269459
 21
-136.7906168277815
 97
        0
 75
     2
 76
     1
 98
        0
  0
SPLINE
  5
84
330
76
100
AcDbEntity
  8
_U+30EC_U+30A4_U+30E4_U+30FC 1
370
     0
100
AcDbSpline
210
0.0
220
0.0
230
1.0
 70
    11
 71
     3
 72
    53
 73
    49
 74
     0
 42
0.0000000001
 43
0.0000000001
 12
1.0
 22
0.0
 32
0.0
 13
1.0
 23
0.0
 33
0.0
 40
0.0
 40
0.0
 40
0.0
 40
0.0
 40
1.0
 40
1.0
 40
1.0
 40
2.0
 40
2.0
 40
2.0
 40
3.0
 40
3.0
 40
3.0
 40
4.0
 40
4.0
 40
4.0
 40
5.0
 40
5.0
 40
5.0
 40
6.0
 40
6.0
 40
6.0
 40
7.0
 40
7.0
 40
7.0
 40
8.0
 40
8.0
 40
8.0
 40
9.0
 40
9.0
 40
9.0
 40
10.0
 40
10.0
 40
10.0
 40
11.0
 40
11.0
 40
11.0
 40
12.0
 40
12.0
 40
12.0
 40
13.0
 40
13.0
 40
13.0
 40
14.0
 40
14.0
 40
14.0
 40
15.0
 40
15.0
 40
15.0
 40
16.0
 40
16.0
 40
16.0
 40
16.0
 10
84.79275714026015
 20
-136.8412597314147
 30
0.0
 10
84.72419974010367
 20
-136.8412597314147
 30
0.0
 10
84.63531627658423
 20
-136.824378763537
 30
0.0
 10
84.54643281306478
 20
-136.7609890066084
 30
0.0
 10
84.39450410216527
 20
-136.6510904606289
 30
0.0
 10
84.37590058654492
 20
-136.5198323226409
 30
0.0
 10
84.35936412821572
 20
-136.4120008339526
 30
0.0
 10
84.35936412821572
 20
-136.4120008339526
 30
0.0
 10
84.5536675135838
 20
-136.4120008339526
 30
0.0
 10
84.5536675135838
 20
-136.4120008339526
 30
0.0
 10
84.60189885037731
 20
-136.6107828434515
 30
0.0
 10
84.71317543455088
 20
-136.6404106646246
 30
0.0
 10
84.79447968800277
 20
-136.6404106646246
 30
0.0
 10
84.91678057772914
 20
-136.6404106646246
 30
0.0
 10
85.05010577300831
 20
-136.5408474051009
 30
0.0
 10
85.05010577300831
 20
-136.3083034598465
 30
0.0
 10
85.05010577300831
 20
-136.0523328652925
 30
0.0
 10
84.8926649093324
 20
-135.9823974269419
 30
0.0
 10
84.78724498748375
 20
-135.9823974269419
 30
0.0
 10
84.75933971405323
 20
-135.9823974269419
 30
0.0
 10
84.63531627658423
 20
-135.9823974269419
 30
0.0
 10
84.55745711861758
 20
-136.1115885076388
 30
0.0
 10
84.55745711861758
 20
-136.1115885076388
 30
0.0
 10
84.40380585997544
 20
-136.0926404824699
 30
0.0
 10
84.40380585997544
 20
-136.0926404824699
 30
0.0
 10
84.40380585997544
 20
-136.0926404824699
 30
0.0
 10
84.50957029137261
 20
-135.246180521744
 30
0.0
 10
84.50957029137261
 20
-135.246180521744
 30
0.0
 10
84.50957029137261
 20
-135.246180521744
 30
0.0
 10
85.19101017835503
 20
-135.246180521744
 30
0.0
 10
85.19101017835503
 20
-135.246180521744
 30
0.0
 10
85.19101017835503
 20
-135.246180521744
 30
0.0
 10
85.19101017835503
 20
-135.4408284166606
 30
0.0
 10
85.19101017835503
 20
-135.4408284166606
 30
0.0
 10
85.19101017835503
 20
-135.4408284166606
 30
0.0
 10
84.65185273491343
 20
-135.4408284166606
 30
0.0
 10
84.65185273491343
 20
-135.4408284166606
 30
0.0
 10
84.65185273491343
 20
-135.4408284166606
 30
0.0
 10
84.59466414985829
 20
-135.8638861422493
 30
0.0
 10
84.59466414985829
 20
-135.8638861422493
 30
0.0
 10
84.64840763942819
 20
-135.8301242064939
 30
0.0
 10
84.7204101350699
 20
-135.7898165893164
 30
0.0
 10
84.82410750917592
 20
-135.7898165893164
 30
0.0
 10
85.04631616797454
 20
-135.7898165893164
 30
0.0
 10
85.25371091618658
 20
-135.9761962550685
 30
0.0
 10
85.25371091618658
 20
-136.2893554346777
 30
0.0
 10
85.25371091618658
 20
-136.6066487288692
 30
0.0
 10
85.05734047352733
 20
-136.8412597314147
 30
0.0
 10
84.79275714026015
 20
-136.8412597314147
 30
0.0
  0
HATCH
  5
85
330
76
100
AcDbEntity
  8
_U+30EC_U+30A4_U+30E4_U+30FC 1
 62
   179
420
  2234388
100
AcDbHatch
 10
0.0
 20
0.0
 30
0.0
210
0.0
220
0.0
230
1.0
  2
SOLID
 70
     1
 71
     0
 91
        1
 92
        1
 93
        1
 72
     4
 94
        3
 73
     0
 74
     1
 95
       53
 96
       49
 40
0.0
 40
0.0
 40
0.0
 40
0.0
 40
1.0
 40
1.0
 40
1.0
 40
2.0
 40
2.0
 40
2.0
 40
3.0
 40
3.0
 40
3.0
 40
4.0
 40
4.0
 40
4.0
 40
5.0
 40
5.0
 40
5.0
 40
6.0
 40
6.0
 40
6.0
 40
7.0
 40
7.0
 40
7.0
 40
8.0
 40
8.0
 40
8.0
 40
9.0
 40
9.0
 40
9.0
 40
10.0
 40
10.0
 40
10.0
 40
11.0
 40
11.0
 40
11.0
 40
12.0
 40
12.0
 40
12.0
 40
13.0
 40
13.0
 40
13.0
 40
14.0
 40
14.0
 40
14.0
 40
15.0
 40
15.0
 40
15.0
 40
16.0
 40
16.0
 40
16.0
 40
16.0
 10
84.79275714026015
 20
-136.8412597314147
 10
84.72419974010367
 20
-136.8412597314147
 10
84.63531627658423
 20
-136.824378763537
 10
84.54643281306478
 20
-136.7609890066084
 10
84.39450410216527
 20
-136.6510904606289
 10
84.37590058654492
 20
-136.5198323226409
 10
84.35936412821572
 20
-136.4120008339526
 10
84.35936412821572
 20
-136.4120008339526
 10
84.5536675135838
 20
-136.4120008339526
 10
84.5536675135838
 20
-136.4120008339526
 10
84.60189885037731
 20
-136.6107828434515
 10
84.71317543455088
 20
-136.6404106646246
 10
84.79447968800277
 20
-136.6404106646246
 10
84.91678057772914
 20
-136.6404106646246
 10
85.05010577300831
 20
-136.5408474051009
 10
85.05010577300831
 20
-136.3083034598465
 10
85.05010577300831
 20
-136.0523328652925
 10
84.8926649093324
 20
-135.9823974269419
 10
84.78724498748375
 20
-135.9823974269419
 10
84.75933971405323
 20
-135.9823974269419
 10
84.63531627658423
 20
-135.9823974269419
 10
84.55745711861758
 20
-136.1115885076388
 10
84.55745711861758
 20
-136.1115885076388
 10
84.40380585997544
 20
-136.0926404824699
 10
84.40380585997544
 20
-136.0926404824699
 10
84.40380585997544
 20
-136.0926404824699
 10
84.50957029137261
 20
-135.246180521744
 10
84.50957029137261
 20
-135.246180521744
 10
84.50957029137261
 20
-135.246180521744
 10
85.19101017835503
 20
-135.246180521744
 10
85.19101017835503
 20
-135.246180521744
 10
85.19101017835503
 20
-135.246180521744
 10
85.19101017835503
 20
-135.4408284166606
 10
85.19101017835503
 20
-135.4408284166606
 10
85.19101017835503
 20
-135.4408284166606
 10
84.65185273491343
 20
-135.4408284166606
 10
84.65185273491343
 20
-135.4408284166606
 10
84.65185273491343
 20
-135.4408284166606
 10
84.59466414985829
 20
-135.8638861422493
 10
84.59466414985829
 20
-135.8638861422493
 10
84.64840763942819
 20
-135.8301242064939
 10
84.7204101350699
 20
-135.7898165893164
 10
84.82410750917592
 20
-135.7898165893164
 10
85.04631616797454
 20
-135.7898165893164
 10
85.25371091618658
 20
-135.9761962550685
 10
85.25371091618658
 20
-136.2893554346777
 10
85.25371091618658
 20
-136.6066487288692
 10
85.05734047352733
 20
-136.8412597314147
 10
84.79275714026015
 20
-136.8412597314147
 97
        0
 97
        0
 75
     2
 76
     1
 98
        0
  0
ENDBLK
  5
79
330
76
100
AcDbEntity
  8
0
100
AcDbBlockEnd
  0
BLOCK
  5
88
330
86
100
AcDbEntity
  8
0
100
AcDbBlockBegin
  2
block 4
 70
     0
 10
0.0
 20
0.0
 30
0.0
  3
block 4
  1

  0
SPLINE
  5
8A
330
86
100
AcDbEntity
  8
_U+30EC_U+30A4_U+30E4_U+30FC 1
370
     0
100
AcDbSpline
210
0.0
220
0.0
230
1.0
 70
    11
 71
     3
 72
    26
 73
    22
 74
     0
 42
0.0000000001
 43
0.0000000001
 12
1.0
 22
0.0
 32
0.0
 13
1.0
 23
0.0
 33
0.0
 40
0.0
 40
0.0
 40
0.0
 40
0.0
 40
1.0
 40
1.0
 40
1.0
 40
2.0
 40
2.0
 40
2.0
 40
3.0
 40
3.0
 40
3.0
 40
4.0
 40
4.0
 40
4.0
 40
5.0
 40
5.0
 40
5.0
 40
6.0
 40
6.0
 40
6.0
 40
7.0
 40
7.0
 40
7.0
 40
7.0
 10
89.58919132959923
 20
-136.7906168277815
 30
0.0
 10
89.58919132959923
 20
-136.7906168277815
 30
0.0
 10
89.58919132959923
 20
-135.6864637247589
 30
0.0
 10
89.58919132959923
 20
-135.6864637247589
 30
0.0
 10
89.58919132959923
 20
-135.6864637247589
 30
0.0
 10
89.30014781838678
 20
-135.6864637247589
 30
0.0
 10
89.30014781838678
 20
-135.6864637247589
 30
0.0
 10
89.30014781838678
 20
-135.6864637247589
 30
0.0
 10
89.30014781838678
 20
-135.5383246188932
 30
0.0
 10
89.30014781838678
 20
-135.5383246188932
 30
0.0
 10
89.59091387734186
 20
-135.5235107083066
 30
0.0
 10
89.6315660040678
 20
-135.3605576918543
 30
0.0
 10
89.65774872975571
 20
-135.246180521744
 30
0.0
 10
89.65774872975571
 20
-135.246180521744
 30
0.0
 10
89.78521726270995
 20
-135.246180521744
 30
0.0
 10
89.78521726270995
 20
-135.246180521744
 30
0.0
 10
89.78521726270995
 20
-135.246180521744
 30
0.0
 10
89.78521726270995
 20
-136.7906168277815
 30
0.0
 10
89.78521726270995
 20
-136.7906168277815
 30
0.0
 10
89.78521726270995
 20
-136.7906168277815
 30
0.0
 10
89.58919132959923
 20
-136.7906168277815
 30
0.0
 10
89.58919132959923
 20
-136.7906168277815
 30
0.0
  0
HATCH
  5
8B
330
86
100
AcDbEntity
  8
_U+30EC_U+30A4_U+30E4_U+30FC 1
 62
   179
420
  2234388
100
AcDbHatch
 10
0.0
 20
0.0
 30
0.0
210
0.0
220
0.0
230
1.0
  2
SOLID
 70
     1
 71
     0
 91
        1
 92
        1
 93
        1
 72
     4
 94
        3
 73
     0
 74
     1
 95
       26
 96
       22
 40
0.0
 40
0.0
 40
0.0
 40
0.0
 40
1.0
 40
1.0
 40
1.0
 40
2.0
 40
2.0
 40
2.0
 40
3.0
 40
3.0
 40
3.0
 40
4.0
 40
4.0
 40
4.0
 40
5.0
 40
5.0
 40
5.0
 40
6.0
 40
6.0
 40
6.0
 40
7.0
 40
7.0
 40
7.0
 40
7.0
 10
89.58919132959923
 20
-136.7906168277815
 10
89.58919132959923
 20
-136.7906168277815
 10
89.58919132959923
 20
-135.6864637247589
 10
89.58919132959923
 20
-135.6864637247589
 10
89.58919132959923
 20
-135.6864637247589
 10
89.30014781838678
 20
-135.6864637247589
 10
89.30014781838678
 20
-135.6864637247589
 10
89.30014781838678
 20
-135.6864637247589
 10
89.30014781838678
 20
-135.5383246188932
 10
89.30014781838678
 20
-135.5383246188932
 10
89.59091387734186
 20
-135.5235107083066
 10
89.6315660040678
 20
-135.3605576918543
 10
89.65774872975571
 20
-135.246180521744
 10
89.65774872975571
 20
-135.246180521744
 10
89.78521726270995
 20
-135.246180521744
 10
89.78521726270995
 20
-135.246180521744
 10
89.78521726270995
 20
-135.246180521744
 10
89.78521726270995
 20
-136.7906168277815
 10
89.78521726270995
 20
-136.7906168277815
 10
89.78521726270995
 20
-136.7906168277815
 10
89.58919132959923
 20
-136.7906168277815
 10
89.58919132959923
 20
-136.7906168277815
 97
        0
 97
        0
 75
     2
 76
     1
 98
        0
  0
SPLINE
  5
8C
330
86
100
AcDbEntity
  8
_U+30EC_U+30A4_U+30E4_U+30FC 1
370
     0
100
AcDbSpline
210
0.0
220
0.0
230
1.0
 70
    11
 71
     3
 72
    44
 73
    40
 74
     0
 42
0.0000000001
 43
0.0000000001
 12
1.0
 22
0.0
 32
0.0
 13
1.0
 23
0.0
 33
0.0
 40
0.0
 40
0.0
 40
0.0
 40
0.0
 40
1.0
 40
1.0
 40
1.0
 40
2.0
 40
2.0
 40
2.0
 40
3.0
 40
3.0
 40
3.0
 40
4.0
 40
4.0
 40
4.0
 40
5.0
 40
5.0
 40
5.0
 40
6.0
 40
6.0
 40
6.0
 40
7.0
 40
7.0
 40
7.0
 40
8.0
 40
8.0
 40
8.0
 40
9.0
 40
9.0
 40
9.0
 40
10.0
 40
10.0
 40
10.0
 40
11.0
 40
11.0
 40
11.0
 40
12.0
 40
12.0
 40
12.0
 40
13.0
 40
13.0
 40
13.0
 40
13.0
 10
90.74398733625497
 20
-136.2087402003228
 30
0.0
 10
90.55312904637213
 20
-136.3675591021928
 30
0.0
 10
90.47182479292024
 20
-136.4416286551257
 30
0.0
 10
90.42910560890314
 20
-136.5852891368606
 30
0.0
 10
90.42910560890314
 20
-136.5852891368606
 30
0.0
 10
91.11054549588556
 20
-136.5852891368606
 30
0.0
 10
91.11054549588556
 20
-136.5852891368606
 30
0.0
 10
91.11054549588556
 20
-136.5852891368606
 30
0.0
 10
91.11054549588556
 20
-136.7906168277815
 30
0.0
 10
91.11054549588556
 20
-136.7906168277815
 30
0.0
 10
91.11054549588556
 20
-136.7906168277815
 30
0.0
 10
90.21068655513831
 20
-136.7906168277815
 30
0.0
 10
90.21068655513831
 20
-136.7906168277815
 30
0.0
 10
90.2382473190203
 20
-136.4330159164126
 30
0.0
 10
90.29578041362397
 20
-136.3548122488974
 30
0.0
 10
90.63271075208141
 20
-136.0564669798748
 30
0.0
 10
90.85698646817117
 20
-135.8576849703759
 30
0.0
 10
90.91417505322632
 20
-135.7898165893164
 30
0.0
 10
90.91417505322632
 20
-135.652357279455
 30
0.0
 10
90.91417505322632
 20
-135.5338459947624
 30
0.0
 10
90.85112980584626
 20
-135.4029323663229
 30
0.0
 10
90.67921954113228
 20
-135.4029323663229
 30
0.0
 10
90.45149872955727
 20
-135.4029323663229
 30
0.0
 10
90.44391951948973
 20
-135.6334092542861
 30
0.0
 10
90.44012991445594
 20
-135.7498534816876
 30
0.0
 10
90.44012991445594
 20
-135.7498534816876
 30
0.0
 10
90.24410398134523
 20
-135.7498534816876
 30
0.0
 10
90.24410398134523
 20
-135.7498534816876
 30
0.0
 10
90.25133868186425
 20
-135.6227294582818
 30
0.0
 10
90.26064043967443
 20
-135.5107638550112
 30
0.0
 10
90.33092038757353
 20
-135.3922525703186
 30
0.0
 10
90.42738306116053
 20
-135.2313666111575
 30
0.0
 10
90.59033607761283
 20
-135.197604675402
 30
0.0
 10
90.69196639442771
 20
-135.197604675402
 30
0.0
 10
90.93450111658929
 20
-135.197604675402
 30
0.0
 10
91.11605764866196
 20
-135.3815727743143
 30
0.0
 10
91.11605764866196
 20
-135.6544243367461
 30
0.0
 10
91.11605764866196
 20
-135.8831786769667
 30
0.0
 10
91.01442733184709
 20
-135.9823974269419
 30
0.0
 10
90.74398733625497
 20
-136.2087402003228
 30
0.0
  0
HATCH
  5
8D
330
86
100
AcDbEntity
  8
_U+30EC_U+30A4_U+30E4_U+30FC 1
 62
   179
420
  2234388
100
AcDbHatch
 10
0.0
 20
0.0
 30
0.0
210
0.0
220
0.0
230
1.0
  2
SOLID
 70
     1
 71
     0
 91
        1
 92
        1
 93
        1
 72
     4
 94
        3
 73
     0
 74
     1
 95
       44
 96
       40
 40
0.0
 40
0.0
 40
0.0
 40
0.0
 40
1.0
 40
1.0
 40
1.0
 40
2.0
 40
2.0
 40
2.0
 40
3.0
 40
3.0
 40
3.0
 40
4.0
 40
4.0
 40
4.0
 40
5.0
 40
5.0
 40
5.0
 40
6.0
 40
6.0
 40
6.0
 40
7.0
 40
7.0
 40
7.0
 40
8.0
 40
8.0
 40
8.0
 40
9.0
 40
9.0
 40
9.0
 40
10.0
 40
10.0
 40
10.0
 40
11.0
 40
11.0
 40
11.0
 40
12.0
 40
12.0
 40
12.0
 40
13.0
 40
13.0
 40
13.0
 40
13.0
 10
90.74398733625497
 20
-136.2087402003228
 10
90.55312904637213
 20
-136.3675591021928
 10
90.47182479292024
 20
-136.4416286551257
 10
90.42910560890314
 20
-136.5852891368606
 10
90.42910560890314
 20
-136.5852891368606
 10
91.11054549588556
 20
-136.5852891368606
 10
91.11054549588556
 20
-136.5852891368606
 10
91.11054549588556
 20
-136.5852891368606
 10
91.11054549588556
 20
-136.7906168277815
 10
91.11054549588556
 20
-136.7906168277815
 10
91.11054549588556
 20
-136.7906168277815
 10
90.21068655513831
 20
-136.7906168277815
 10
90.21068655513831
 20
-136.7906168277815
 10
90.2382473190203
 20
-136.4330159164126
 10
90.29578041362397
 20
-136.3548122488974
 10
90.63271075208141
 20
-136.0564669798748
 10
90.85698646817117
 20
-135.8576849703759
 10
90.91417505322632
 20
-135.7898165893164
 10
90.91417505322632
 20
-135.652357279455
 10
90.91417505322632
 20
-135.5338459947624
 10
90.85112980584626
 20
-135.4029323663229
 10
90.67921954113228
 20
-135.4029323663229
 10
90.45149872955727
 20
-135.4029323663229
 10
90.44391951948973
 20
-135.6334092542861
 10
90.44012991445594
 20
-135.7498534816876
 10
90.44012991445594
 20
-135.7498534816876
 10
90.24410398134523
 20
-135.7498534816876
 10
90.24410398134523
 20
-135.7498534816876
 10
90.25133868186425
 20
-135.6227294582818
 10
90.26064043967443
 20
-135.5107638550112
 10
90.33092038757353
 20
-135.3922525703186
 10
90.42738306116053
 20
-135.2313666111575
 10
90.59033607761283
 20
-135.197604675402
 10
90.69196639442771
 20
-135.197604675402
 10
90.93450111658929
 20
-135.197604675402
 10
91.11605764866196
 20
-135.3815727743143
 10
91.11605764866196
 20
-135.6544243367461
 10
91.11605764866196
 20
-135.8831786769667
 10
91.01442733184709
 20
-135.9823974269419
 10
90.74398733625497
 20
-136.2087402003228
 97
        0
 97
        0
 75
     2
 76
     1
 98
        0
  0
POLYLINE
  5
8E
330
86
100
AcDbEntity
  8
_U+30EC_U+30A4_U+30E4_U+30FC 1
370
     0
100
AcDb2dPolyline
 66
     1
 10
0.0
 20
0.0
 30
0.0
  0
VERTEX
  5
8F
330
8E
100
AcDbEntity
  8
_U+30EC_U+30A4_U+30E4_U+30FC 1
370
     0
100
AcDbVertex
100
AcDb2dVertex
 10
91.30794946719038
 20
-136.7906168277815
 30
0.0
  0
VERTEX
  5
90
330
8E
100
AcDbEntity
  8
_U+30EC_U+30A4_U+30E4_U+30FC 1
370
     0
100
AcDbVertex
100
AcDb2dVertex
 10
91.30794946719038
 20
-136.5387803478098
 30
0.0
  0
VERTEX
  5
91
330
8E
100
AcDbEntity
  8
_U+30EC_U+30A4_U+30E4_U+30FC 1
370
     0
100
AcDbVertex
100
AcDb2dVertex
 10
91.5282633234721
 20
-136.5387803478098
 30
0.0
  0
VERTEX
  5
92
330
8E
100
AcDbEntity
  8
_U+30EC_U+30A4_U+30E4_U+30FC 1
370
     0
100
AcDbVertex
100
AcDb2dVertex
 10
91.5282633234721
 20
-136.7906168277815
 30
0.0
  0
VERTEX
  5
93
330
8E
100
AcDbEntity
  8
_U+30EC_U+30A4_U+30E4_U+30FC 1
370
     0
100
AcDbVertex
100
AcDb2dVertex
 10
91.30794946719038
 20
-136.7906168277815
 30
0.0
  0
SEQEND
  5
94
330
8E
100
AcDbEntity
  8
_U+30EC_U+30A4_U+30E4_U+30FC 1
370
     0
  0
HATCH
  5
95
330
86
100
AcDbEntity
  8
_U+30EC_U+30A4_U+30E4_U+30FC 1
 62
   179
420
  2234388
100
AcDbHatch
 10
0.0
 20
0.0
 30
0.0
210
0.0
220
0.0
230
1.0
  2
SOLID
 70
     1
 71
     0
 91
        1
 92
        1
 93
        4
 72
     1
 10
91.30794946719038
 20
-136.7906168277815
 11
91.30794946719038
 21
-136.5387803478098
 72
     1
 10
91.30794946719038
 20
-136.5387803478098
 11
91.5282633234721
 21
-136.5387803478098
 72
     1
 10
91.5282633234721
 20
-136.5387803478098
 11
91.5282633234721
 21
-136.7906168277815
 72
     1
 10
91.5282633234721
 20
-136.7906168277815
 11
91.30794946719038
 21
-136.7906168277815
 97
        0
 75
     2
 76
     1
 98
        0
  0
SPLINE
  5
96
330
86
100
AcDbEntity
  8
_U+30EC_U+30A4_U+30E4_U+30FC 1
370
     0
100
AcDbSpline
210
0.0
220
0.0
230
1.0
 70
    11
 71
     3
 72
    53
 73
    49
 74
     0
 42
0.0000000001
 43
0.0000000001
 12
1.0
 22
0.0
 32
0.0
 13
1.0
 23
0.0
 33
0.0
 40
0.0
 40
0.0
 40
0.0
 40
0.0
 40
1.0
 40
1.0
 40
1.0
 40
2.0
 40
2.0
 40
2.0
 40
3.0
 40
3.0
 40
3.0
 40
4.0
 40
4.0
 40
4.0
 40
5.0
 40
5.0
 40
5.0
 40
6.0
 40
6.0
 40
6.0
 40
7.0
 40
7.0
 40
7.0
 40
8.0
 40
8.0
 40
8.0
 40
9.0
 40
9.0
 40
9.0
 40
10.0
 40
10.0
 40
10.0
 40
11.0
 40
11.0
 40
11.0
 40
12.0
 40
12.0
 40
12.0
 40
13.0
 40
13.0
 40
13.0
 40
14.0
 40
14.0
 40
14.0
 40
15.0
 40
15.0
 40
15.0
 40
16.0
 40
16.0
 40
16.0
 40
16.0
 10
92.15664873998168
 20
-136.8412597314147
 30
0.0
 10
92.0880913398252
 20
-136.8412597314147
 30
0.0
 10
91.99920787630576
 20
-136.824378763537
 30
0.0
 10
91.91032441278631
 20
-136.7609890066084
 30
0.0
 10
91.7583957018868
 20
-136.6510904606289
 30
0.0
 10
91.73979218626644
 20
-136.5198323226409
 30
0.0
 10
91.72325572793724
 20
-136.4120008339526
 30
0.0
 10
91.72325572793724
 20
-136.4120008339526
 30
0.0
 10
91.91755911330533
 20
-136.4120008339526
 30
0.0
 10
91.91755911330533
 20
-136.4120008339526
 30
0.0
 10
91.96579045009884
 20
-136.6107828434515
 30
0.0
 10
92.0770670342724
 20
-136.6404106646246
 30
0.0
 10
92.15837128772431
 20
-136.6404106646246
 30
0.0
 10
92.28067217745067
 20
-136.6404106646246
 30
0.0
 10
92.41399737272984
 20
-136.5408474051009
 30
0.0
 10
92.41399737272984
 20
-136.3083034598465
 30
0.0
 10
92.41399737272984
 20
-136.0523328652925
 30
0.0
 10
92.25655650905392
 20
-135.9823974269419
 30
0.0
 10
92.15113658720527
 20
-135.9823974269419
 30
0.0
 10
92.12323131377475
 20
-135.9823974269419
 30
0.0
 10
91.99920787630576
 20
-135.9823974269419
 30
0.0
 10
91.92134871833912
 20
-136.1115885076388
 30
0.0
 10
91.92134871833912
 20
-136.1115885076388
 30
0.0
 10
91.76769745969698
 20
-136.0926404824699
 30
0.0
 10
91.76769745969698
 20
-136.0926404824699
 30
0.0
 10
91.76769745969698
 20
-136.0926404824699
 30
0.0
 10
91.87346189109414
 20
-135.246180521744
 30
0.0
 10
91.87346189109414
 20
-135.246180521744
 30
0.0
 10
91.87346189109414
 20
-135.246180521744
 30
0.0
 10
92.55490177807656
 20
-135.246180521744
 30
0.0
 10
92.55490177807656
 20
-135.246180521744
 30
0.0
 10
92.55490177807656
 20
-135.246180521744
 30
0.0
 10
92.55490177807656
 20
-135.4408284166606
 30
0.0
 10
92.55490177807656
 20
-135.4408284166606
 30
0.0
 10
92.55490177807656
 20
-135.4408284166606
 30
0.0
 10
92.01574433463496
 20
-135.4408284166606
 30
0.0
 10
92.01574433463496
 20
-135.4408284166606
 30
0.0
 10
92.01574433463496
 20
-135.4408284166606
 30
0.0
 10
91.95855574957982
 20
-135.8638861422493
 30
0.0
 10
91.95855574957982
 20
-135.8638861422493
 30
0.0
 10
92.01229923914971
 20
-135.8301242064939
 30
0.0
 10
92.08430173479142
 20
-135.7898165893164
 30
0.0
 10
92.18799910889744
 20
-135.7898165893164
 30
0.0
 10
92.41020776769606
 20
-135.7898165893164
 30
0.0
 10
92.6176025159081
 20
-135.9761962550685
 30
0.0
 10
92.6176025159081
 20
-136.2893554346777
 30
0.0
 10
92.6176025159081
 20
-136.6066487288692
 30
0.0
 10
92.42123207324886
 20
-136.8412597314147
 30
0.0
 10
92.15664873998168
 20
-136.8412597314147
 30
0.0
  0
HATCH
  5
97
330
86
100
AcDbEntity
  8
_U+30EC_U+30A4_U+30E4_U+30FC 1
 62
   179
420
  2234388
100
AcDbHatch
 10
0.0
 20
0.0
 30
0.0
210
0.0
220
0.0
230
1.0
  2
SOLID
 70
     1
 71
     0
 91
        1
 92
        1
 93
        1
 72
     4
 94
        3
 73
     0
 74
     1
 95
       53
 96
       49
 40
0.0
 40
0.0
 40
0.0
 40
0.0
 40
1.0
 40
1.0
 40
1.0
 40
2.0
 40
2.0
 40
2.0
 40
3.0
 40
3.0
 40
3.0
 40
4.0
 40
4.0
 40
4.0
 40
5.0
 40
5.0
 40
5.0
 40
6.0
 40
6.0
 40
6.0
 40
7.0
 40
7.0
 40
7.0
 40
8.0
 40
8.0
 40
8.0
 40
9.0
 40
9.0
 40
9.0
 40
10.0
 40
10.0
 40
10.0
 40
11.0
 40
11.0
 40
11.0
 40
12.0
 40
12.0
 40
12.0
 40
13.0
 40
13.0
 40
13.0
 40
14.0
 40
14.0
 40
14.0
 40
15.0
 40
15.0
 40
15.0
 40
16.0
 40
16.0
 40
16.0
 40
16.0
 10
92.15664873998168
 20
-136.8412597314147
 10
92.0880913398252
 20
-136.8412597314147
 10
91.99920787630576
 20
-136.824378763537
 10
91.91032441278631
 20
-136.7609890066084
 10
91.7583957018868
 20
-136.6510904606289
 10
91.73979218626644
 20
-136.5198323226409
 10
91.72325572793724
 20
-136.4120008339526
 10
91.72325572793724
 20
-136.4120008339526
 10
91.91755911330533
 20
-136.4120008339526
 10
91.91755911330533
 20
-136.4120008339526
 10
91.96579045009884
 20
-136.6107828434515
 10
92.0770670342724
 20
-136.6404106646246
 10
92.15837128772431
 20
-136.6404106646246
 10
92.28067217745067
 20
-136.6404106646246
 10
92.41399737272984
 20
-136.5408474051009
 10
92.41399737272984
 20
-136.3083034598465
 10
92.41399737272984
 20
-136.0523328652925
 10
92.25655650905392
 20
-135.9823974269419
 10
92.15113658720527
 20
-135.9823974269419
 10
92.12323131377475
 20
-135.9823974269419
 10
91.99920787630576
 20
-135.9823974269419
 10
91.92134871833912
 20
-136.1115885076388
 10
91.92134871833912
 20
-136.1115885076388
 10
91.76769745969698
 20
-136.0926404824699
 10
91.76769745969698
 20
-136.0926404824699
 10
91.76769745969698
 20
-136.0926404824699
 10
91.87346189109414
 20
-135.246180521744
 10
91.87346189109414
 20
-135.246180521744
 10
91.87346189109414
 20
-135.246180521744
 10
92.55490177807656
 20
-135.246180521744
 10
92.55490177807656
 20
-135.246180521744
 10
92.55490177807656
 20
-135.246180521744
 10
92.55490177807656
 20
-135.4408284166606
 10
92.55490177807656
 20
-135.4408284166606
 10
92.55490177807656
 20
-135.4408284166606
 10
92.01574433463496
 20
-135.4408284166606
 10
92.01574433463496
 20
-135.4408284166606
 10
92.01574433463496
 20
-135.4408284166606
 10
91.95855574957982
 20
-135.8638861422493
 10
91.95855574957982
 20
-135.8638861422493
 10
92.01229923914971
 20
-135.8301242064939
 10
92.08430173479142
 20
-135.7898165893164
 10
92.18799910889744
 20
-135.7898165893164
 10
92.41020776769606
 20
-135.7898165893164
 10
92.6176025159081
 20
-135.9761962550685
 10
92.6176025159081
 20
-136.2893554346777
 10
92.6176025159081
 20
-136.6066487288692
 10
92.42123207324886
 20
-136.8412597314147
 10
92.15664873998168
 20
-136.8412597314147
 97
        0
 97
        0
 75
     2
 76
     1
 98
        0
  0
ENDBLK
  5
89
330
86
100
AcDbEntity
  8
0
100
AcDbBlockEnd
  0
BLOCK
  5
9A
330
98
100
AcDbEntity
  8
0
100
AcDbBlockBegin
  2
block 5
 70
     0
 10
0.0
 20
0.0
 30
0.0
  3
block 5
  1

  0
SPLINE
  5
9C
330
98
100
AcDbEntity
  8
_U+30EC_U+30A4_U+30E4_U+30FC 1
370
     0
100
AcDbSpline
210
0.0
220
0.0
230
1.0
 70
    11
 71
     3
 72
    26
 73
    22
 74
     0
 42
0.0000000001
 43
0.0000000001
 12
1.0
 22
0.0
 32
0.0
 13
1.0
 23
0.0
 33
0.0
 40
0.0
 40
0.0
 40
0.0
 40
0.0
 40
1.0
 40
1.0
 40
1.0
 40
2.0
 40
2.0
 40
2.0
 40
3.0
 40
3.0
 40
3.0
 40
4.0
 40
4.0
 40
4.0
 40
5.0
 40
5.0
 40
5.0
 40
6.0
 40
6.0
 40
6.0
 40
7.0
 40
7.0
 40
7.0
 40
7.0
 10
79.89159204816947
 20
-126.0267604936669
 30
0.0
 10
79.89159204816947
 20
-126.0267604936669
 30
0.0
 10
78.78743894514689
 20
-126.0267604936669
 30
0.0
 10
78.78743894514689
 20
-126.0267604936669
 30
0.0
 10
78.78743894514689
 20
-126.0267604936669
 30
0.0
 10
78.78743894514689
 20
-126.3158040048794
 30
0.0
 10
78.78743894514689
 20
-126.3158040048794
 30
0.0
 10
78.78743894514689
 20
-126.3158040048794
 30
0.0
 10
78.63929983928115
 20
-126.3158040048794
 30
0.0
 10
78.63929983928115
 20
-126.3158040048794
 30
0.0
 10
78.62448592869458
 20
-126.0250379459243
 30
0.0
 10
78.46153291224226
 20
-125.9843858191984
 30
0.0
 10
78.34715574213196
 20
-125.9582030935104
 30
0.0
 10
78.34715574213196
 20
-125.9582030935104
 30
0.0
 10
78.34715574213196
 20
-125.8307345605562
 30
0.0
 10
78.34715574213196
 20
-125.8307345605562
 30
0.0
 10
78.34715574213196
 20
-125.8307345605562
 30
0.0
 10
79.89159204816947
 20
-125.8307345605562
 30
0.0
 10
79.89159204816947
 20
-125.8307345605562
 30
0.0
 10
79.89159204816947
 20
-125.8307345605562
 30
0.0
 10
79.89159204816947
 20
-126.0267604936669
 30
0.0
 10
79.89159204816947
 20
-126.0267604936669
 30
0.0
  0
HATCH
  5
9D
330
98
100
AcDbEntity
  8
_U+30EC_U+30A4_U+30E4_U+30FC 1
 62
   179
420
  2234388
100
AcDbHatch
 10
0.0
 20
0.0
 30
0.0
210
0.0
220
0.0
230
1.0
  2
SOLID
 70
     1
 71
     0
 91
        1
 92
        1
 93
        1
 72
     4
 94
        3
 73
     0
 74
     1
 95
       26
 96
       22
 40
0.0
 40
0.0
 40
0.0
 40
0.0
 40
1.0
 40
1.0
 40
1.0
 40
2.0
 40
2.0
 40
2.0
 40
3.0
 40
3.0
 40
3.0
 40
4.0
 40
4.0
 40
4.0
 40
5.0
 40
5.0
 40
5.0
 40
6.0
 40
6.0
 40
6.0
 40
7.0
 40
7.0
 40
7.0
 40
7.0
 10
79.89159204816947
 20
-126.0267604936669
 10
79.89159204816947
 20
-126.0267604936669
 10
78.78743894514689
 20
-126.0267604936669
 10
78.78743894514689
 20
-126.0267604936669
 10
78.78743894514689
 20
-126.0267604936669
 10
78.78743894514689
 20
-126.3158040048794
 10
78.78743894514689
 20
-126.3158040048794
 10
78.78743894514689
 20
-126.3158040048794
 10
78.63929983928115
 20
-126.3158040048794
 10
78.63929983928115
 20
-126.3158040048794
 10
78.62448592869458
 20
-126.0250379459243
 10
78.46153291224226
 20
-125.9843858191984
 10
78.34715574213196
 20
-125.9582030935104
 10
78.34715574213196
 20
-125.9582030935104
 10
78.34715574213196
 20
-125.8307345605562
 10
78.34715574213196
 20
-125.8307345605562
 10
78.34715574213196
 20
-125.8307345605562
 10
79.89159204816947
 20
-125.8307345605562
 10
79.89159204816947
 20
-125.8307345605562
 10
79.89159204816947
 20
-125.8307345605562
 10
79.89159204816947
 20
-126.0267604936669
 10
79.89159204816947
 20
-126.0267604936669
 97
        0
 97
        0
 75
     2
 76
     1
 98
        0
  0
SPLINE
  5
9E
330
98
100
AcDbEntity
  8
_U+30EC_U+30A4_U+30E4_U+30FC 1
370
     0
100
AcDbSpline
210
0.0
220
0.0
230
1.0
 70
    11
 71
     3
 72
    53
 73
    49
 74
     0
 42
0.0000000001
 43
0.0000000001
 12
1.0
 22
0.0
 32
0.0
 13
1.0
 23
0.0
 33
0.0
 40
0.0
 40
0.0
 40
0.0
 40
0.0
 40
1.0
 40
1.0
 40
1.0
 40
2.0
 40
2.0
 40
2.0
 40
3.0
 40
3.0
 40
3.0
 40
4.0
 40
4.0
 40
4.0
 40
5.0
 40
5.0
 40
5.0
 40
6.0
 40
6.0
 40
6.0
 40
7.0
 40
7.0
 40
7.0
 40
8.0
 40
8.0
 40
8.0
 40
9.0
 40
9.0
 40
9.0
 40
10.0
 40
10.0
 40
10.0
 40
11.0
 40
11.0
 40
11.0
 40
12.0
 40
12.0
 40
12.0
 40
13.0
 40
13.0
 40
13.0
 40
14.0
 40
14.0
 40
14.0
 40
15.0
 40
15.0
 40
15.0
 40
16.0
 40
16.0
 40
16.0
 40
16.0
 10
79.94223495180263
 20
-124.9701497083408
 30
0.0
 10
79.94223495180263
 20
-125.0387071084973
 30
0.0
 10
79.92535398392492
 20
-125.1275905720167
 30
0.0
 10
79.86196422699632
 20
-125.2164740355362
 30
0.0
 10
79.75206568101684
 20
-125.3684027464357
 30
0.0
 10
79.62080754302883
 20
-125.387006262056
 30
0.0
 10
79.51297605434051
 20
-125.4035427203852
 30
0.0
 10
79.51297605434051
 20
-125.4035427203852
 30
0.0
 10
79.51297605434051
 20
-125.2092393350171
 30
0.0
 10
79.51297605434051
 20
-125.2092393350171
 30
0.0
 10
79.71175806383943
 20
-125.1610079982236
 30
0.0
 10
79.74138588501258
 20
-125.0497314140501
 30
0.0
 10
79.74138588501258
 20
-124.9684271605982
 30
0.0
 10
79.74138588501258
 20
-124.8461262708718
 30
0.0
 10
79.64182262548886
 20
-124.7128010755926
 30
0.0
 10
79.4092786802345
 20
-124.7128010755926
 30
0.0
 10
79.15330808568042
 20
-124.7128010755926
 30
0.0
 10
79.08337264732985
 20
-124.8702419392686
 30
0.0
 10
79.08337264732985
 20
-124.9756618611172
 30
0.0
 10
79.08337264732985
 20
-125.0035671345477
 30
0.0
 10
79.08337264732985
 20
-125.1275905720167
 30
0.0
 10
79.21256372802672
 20
-125.2054497299834
 30
0.0
 10
79.21256372802672
 20
-125.2054497299834
 30
0.0
 10
79.19361570285785
 20
-125.3591009886255
 30
0.0
 10
79.19361570285785
 20
-125.3591009886255
 30
0.0
 10
79.19361570285785
 20
-125.3591009886255
 30
0.0
 10
78.34715574213196
 20
-125.2533365572283
 30
0.0
 10
78.34715574213196
 20
-125.2533365572283
 30
0.0
 10
78.34715574213196
 20
-125.2533365572283
 30
0.0
 10
78.34715574213196
 20
-124.5718966702459
 30
0.0
 10
78.34715574213196
 20
-124.5718966702459
 30
0.0
 10
78.34715574213196
 20
-124.5718966702459
 30
0.0
 10
78.54180363704857
 20
-124.5718966702459
 30
0.0
 10
78.54180363704857
 20
-124.5718966702459
 30
0.0
 10
78.54180363704857
 20
-124.5718966702459
 30
0.0
 10
78.54180363704857
 20
-125.1110541136875
 30
0.0
 10
78.54180363704857
 20
-125.1110541136875
 30
0.0
 10
78.54180363704857
 20
-125.1110541136875
 30
0.0
 10
78.96486136263727
 20
-125.1682426987427
 30
0.0
 10
78.96486136263727
 20
-125.1682426987427
 30
0.0
 10
78.93109942688181
 20
-125.1144992091728
 30
0.0
 10
78.8907918097044
 20
-125.0424967135311
 30
0.0
 10
78.8907918097044
 20
-124.938799339425
 30
0.0
 10
78.8907918097044
 20
-124.7165906806264
 30
0.0
 10
79.07717147545641
 20
-124.5091959324144
 30
0.0
 10
79.39033065506561
 20
-124.5091959324144
 30
0.0
 10
79.70762394925713
 20
-124.5091959324144
 30
0.0
 10
79.94223495180263
 20
-124.7055663750736
 30
0.0
 10
79.94223495180263
 20
-124.9701497083408
 30
0.0
  0
HATCH
  5
9F
330
98
100
AcDbEntity
  8
_U+30EC_U+30A4_U+30E4_U+30FC 1
 62
   179
420
  2234388
100
AcDbHatch
 10
0.0
 20
0.0
 30
0.0
210
0.0
220
0.0
230
1.0
  2
SOLID
 70
     1
 71
     0
 91
        1
 92
        1
 93
        1
 72
     4
 94
        3
 73
     0
 74
     1
 95
       53
 96
       49
 40
0.0
 40
0.0
 40
0.0
 40
0.0
 40
1.0
 40
1.0
 40
1.0
 40
2.0
 40
2.0
 40
2.0
 40
3.0
 40
3.0
 40
3.0
 40
4.0
 40
4.0
 40
4.0
 40
5.0
 40
5.0
 40
5.0
 40
6.0
 40
6.0
 40
6.0
 40
7.0
 40
7.0
 40
7.0
 40
8.0
 40
8.0
 40
8.0
 40
9.0
 40
9.0
 40
9.0
 40
10.0
 40
10.0
 40
10.0
 40
11.0
 40
11.0
 40
11.0
 40
12.0
 40
12.0
 40
12.0
 40
13.0
 40
13.0
 40
13.0
 40
14.0
 40
14.0
 40
14.0
 40
15.0
 40
15.0
 40
15.0
 40
16.0
 40
16.0
 40
16.0
 40
16.0
 10
79.94223495180263
 20
-124.9701497083408
 10
79.94223495180263
 20
-125.0387071084973
 10
79.92535398392492
 20
-125.1275905720167
 10
79.86196422699632
 20
-125.2164740355362
 10
79.75206568101684
 20
-125.3684027464357
 10
79.62080754302883
 20
-125.387006262056
 10
79.51297605434051
 20
-125.4035427203852
 10
79.51297605434051
 20
-125.4035427203852
 10
79.51297605434051
 20
-125.2092393350171
 10
79.51297605434051
 20
-125.2092393350171
 10
79.71175806383943
 20
-125.1610079982236
 10
79.74138588501258
 20
-125.0497314140501
 10
79.74138588501258
 20
-124.9684271605982
 10
79.74138588501258
 20
-124.8461262708718
 10
79.64182262548886
 20
-124.7128010755926
 10
79.4092786802345
 20
-124.7128010755926
 10
79.15330808568042
 20
-124.7128010755926
 10
79.08337264732985
 20
-124.8702419392686
 10
79.08337264732985
 20
-124.9756618611172
 10
79.08337264732985
 20
-125.0035671345477
 10
79.08337264732985
 20
-125.1275905720167
 10
79.21256372802672
 20
-125.2054497299834
 10
79.21256372802672
 20
-125.2054497299834
 10
79.19361570285785
 20
-125.3591009886255
 10
79.19361570285785
 20
-125.3591009886255
 10
79.19361570285785
 20
-125.3591009886255
 10
78.34715574213196
 20
-125.2533365572283
 10
78.34715574213196
 20
-125.2533365572283
 10
78.34715574213196
 20
-125.2533365572283
 10
78.34715574213196
 20
-124.5718966702459
 10
78.34715574213196
 20
-124.5718966702459
 10
78.34715574213196
 20
-124.5718966702459
 10
78.54180363704857
 20
-124.5718966702459
 10
78.54180363704857
 20
-124.5718966702459
 10
78.54180363704857
 20
-124.5718966702459
 10
78.54180363704857
 20
-125.1110541136875
 10
78.54180363704857
 20
-125.1110541136875
 10
78.54180363704857
 20
-125.1110541136875
 10
78.96486136263727
 20
-125.1682426987427
 10
78.96486136263727
 20
-125.1682426987427
 10
78.93109942688181
 20
-125.1144992091728
 10
78.8907918097044
 20
-125.0424967135311
 10
78.8907918097044
 20
-124.938799339425
 10
78.8907918097044
 20
-124.7165906806264
 10
79.07717147545641
 20
-124.5091959324144
 10
79.39033065506561
 20
-124.5091959324144
 10
79.70762394925713
 20
-124.5091959324144
 10
79.94223495180263
 20
-124.7055663750736
 10
79.94223495180263
 20
-124.9701497083408
 97
        0
 97
        0
 75
     2
 76
     1
 98
        0
  0
ENDBLK
  5
9B
330
98
100
AcDbEntity
  8
0
100
AcDbBlockEnd
  0
BLOCK
  5
A2
330
A0
100
AcDbEntity
  8
0
100
AcDbBlockBegin
  2
block 6
 70
     0
 10
0.0
 20
0.0
 30
0.0
  3
block 6
  1

  0
SPLINE
  5
A4
330
A0
100
AcDbEntity
  8
_U+30EC_U+30A4_U+30E4_U+30FC 1
370
     0
100
AcDbSpline
210
0.0
220
0.0
230
1.0
 70
    11
 71
     3
 72
    44
 73
    40
 74
     0
 42
0.0000000001
 43
0.0000000001
 12
1.0
 22
0.0
 32
0.0
 13
1.0
 23
0.0
 33
0.0
 40
0.0
 40
0.0
 40
0.0
 40
0.0
 40
1.0
 40
1.0
 40
1.0
 40
2.0
 40
2.0
 40
2.0
 40
3.0
 40
3.0
 40
3.0
 40
4.0
 40
4.0
 40
4.0
 40
5.0
 40
5.0
 40
5.0
 40
6.0
 40
6.0
 40
6.0
 40
7.0
 40
7.0
 40
7.0
 40
8.0
 40
8.0
 40
8.0
 40
9.0
 40
9.0
 40
9.0
 40
10.0
 40
10.0
 40
10.0
 40
11.0
 40
11.0
 40
11.0
 40
12.0
 40
12.0
 40
12.0
 40
13.0
 40
13.0
 40
13.0
 40
13.0
 10
88.15069170973317
 20
-127.6445773335403
 30
0.0
 10
87.95983341985033
 20
-127.8033962354103
 30
0.0
 10
87.87852916639842
 20
-127.8774657883431
 30
0.0
 10
87.83580998238133
 20
-128.0211262700781
 30
0.0
 10
87.83580998238133
 20
-128.0211262700781
 30
0.0
 10
88.51724986936375
 20
-128.0211262700781
 30
0.0
 10
88.51724986936375
 20
-128.0211262700781
 30
0.0
 10
88.51724986936375
 20
-128.0211262700781
 30
0.0
 10
88.51724986936375
 20
-128.226453960999
 30
0.0
 10
88.51724986936375
 20
-128.226453960999
 30
0.0
 10
88.51724986936375
 20
-128.226453960999
 30
0.0
 10
87.61739092861649
 20
-128.226453960999
 30
0.0
 10
87.61739092861649
 20
-128.226453960999
 30
0.0
 10
87.6449516924985
 20
-127.86885304963
 30
0.0
 10
87.70248478710216
 20
-127.7906493821149
 30
0.0
 10
88.0394151255596
 20
-127.4923041130922
 30
0.0
 10
88.26369084164936
 20
-127.2935221035933
 30
0.0
 10
88.32087942670451
 20
-127.2256537225339
 30
0.0
 10
88.32087942670451
 20
-127.0881944126724
 30
0.0
 10
88.32087942670451
 20
-126.9696831279798
 30
0.0
 10
88.25783417932443
 20
-126.8387694995403
 30
0.0
 10
88.08592391461046
 20
-126.8387694995403
 30
0.0
 10
87.85820310303545
 20
-126.8387694995403
 30
0.0
 10
87.8506238929679
 20
-127.0692463875035
 30
0.0
 10
87.84683428793413
 20
-127.185690614905
 30
0.0
 10
87.84683428793413
 20
-127.185690614905
 30
0.0
 10
87.65080835482341
 20
-127.185690614905
 30
0.0
 10
87.65080835482341
 20
-127.185690614905
 30
0.0
 10
87.65804305534243
 20
-127.0585665914993
 30
0.0
 10
87.66734481315261
 20
-126.9466009882286
 30
0.0
 10
87.7376247610517
 20
-126.828089703536
 30
0.0
 10
87.8340874346387
 20
-126.6672037443749
 30
0.0
 10
87.99704045109102
 20
-126.6334418086194
 30
0.0
 10
88.09867076790589
 20
-126.6334418086194
 30
0.0
 10
88.34120549006748
 20
-126.6334418086194
 30
0.0
 10
88.52276202214014
 20
-126.8174099075318
 30
0.0
 10
88.52276202214014
 20
-127.0902614699636
 30
0.0
 10
88.52276202214014
 20
-127.3190158101841
 30
0.0
 10
88.42113170532528
 20
-127.4182345601593
 30
0.0
 10
88.15069170973317
 20
-127.6445773335403
 30
0.0
  0
HATCH
  5
A5
330
A0
100
AcDbEntity
  8
_U+30EC_U+30A4_U+30E4_U+30FC 1
 62
   179
420
  2234388
100
AcDbHatch
 10
0.0
 20
0.0
 30
0.0
210
0.0
220
0.0
230
1.0
  2
SOLID
 70
     1
 71
     0
 91
        1
 92
        1
 93
        1
 72
     4
 94
        3
 73
     0
 74
     1
 95
       44
 96
       40
 40
0.0
 40
0.0
 40
0.0
 40
0.0
 40
1.0
 40
1.0
 40
1.0
 40
2.0
 40
2.0
 40
2.0
 40
3.0
 40
3.0
 40
3.0
 40
4.0
 40
4.0
 40
4.0
 40
5.0
 40
5.0
 40
5.0
 40
6.0
 40
6.0
 40
6.0
 40
7.0
 40
7.0
 40
7.0
 40
8.0
 40
8.0
 40
8.0
 40
9.0
 40
9.0
 40
9.0
 40
10.0
 40
10.0
 40
10.0
 40
11.0
 40
11.0
 40
11.0
 40
12.0
 40
12.0
 40
12.0
 40
13.0
 40
13.0
 40
13.0
 40
13.0
 10
88.15069170973317
 20
-127.6445773335403
 10
87.95983341985033
 20
-127.8033962354103
 10
87.87852916639842
 20
-127.8774657883431
 10
87.83580998238133
 20
-128.0211262700781
 10
87.83580998238133
 20
-128.0211262700781
 10
88.51724986936375
 20
-128.0211262700781
 10
88.51724986936375
 20
-128.0211262700781
 10
88.51724986936375
 20
-128.0211262700781
 10
88.51724986936375
 20
-128.226453960999
 10
88.51724986936375
 20
-128.226453960999
 10
88.51724986936375
 20
-128.226453960999
 10
87.61739092861649
 20
-128.226453960999
 10
87.61739092861649
 20
-128.226453960999
 10
87.6449516924985
 20
-127.86885304963
 10
87.70248478710216
 20
-127.7906493821149
 10
88.0394151255596
 20
-127.4923041130922
 10
88.26369084164936
 20
-127.2935221035933
 10
88.32087942670451
 20
-127.2256537225339
 10
88.32087942670451
 20
-127.0881944126724
 10
88.32087942670451
 20
-126.9696831279798
 10
88.25783417932443
 20
-126.8387694995403
 10
88.08592391461046
 20
-126.8387694995403
 10
87.85820310303545
 20
-126.8387694995403
 10
87.8506238929679
 20
-127.0692463875035
 10
87.84683428793413
 20
-127.185690614905
 10
87.84683428793413
 20
-127.185690614905
 10
87.65080835482341
 20
-127.185690614905
 10
87.65080835482341
 20
-127.185690614905
 10
87.65804305534243
 20
-127.0585665914993
 10
87.66734481315261
 20
-126.9466009882286
 10
87.7376247610517
 20
-126.828089703536
 10
87.8340874346387
 20
-126.6672037443749
 10
87.99704045109102
 20
-126.6334418086194
 10
88.09867076790589
 20
-126.6334418086194
 10
88.34120549006748
 20
-126.6334418086194
 10
88.52276202214014
 20
-126.8174099075318
 10
88.52276202214014
 20
-127.0902614699636
 10
88.52276202214014
 20
-127.3190158101841
 10
88.42113170532528
 20
-127.4182345601593
 10
88.15069170973317
 20
-127.6445773335403
 97
        0
 97
        0
 75
     2
 76
     1
 98
        0
  0
POLYLINE
  5
A6
330
A0
100
AcDbEntity
  8
_U+30EC_U+30A4_U+30E4_U+30FC 1
370
     0
100
AcDb2dPolyline
 66
     1
 10
0.0
 20
0.0
 30
0.0
  0
VERTEX
  5
A7
330
A6
100
AcDbEntity
  8
_U+30EC_U+30A4_U+30E4_U+30FC 1
370
     0
100
AcDbVertex
100
AcDb2dVertex
 10
88.71465384066856
 20
-128.226453960999
 30
0.0
  0
VERTEX
  5
A8
330
A6
100
AcDbEntity
  8
_U+30EC_U+30A4_U+30E4_U+30FC 1
370
     0
100
AcDbVertex
100
AcDb2dVertex
 10
88.71465384066856
 20
-127.9746174810272
 30
0.0
  0
VERTEX
  5
A9
330
A6
100
AcDbEntity
  8
_U+30EC_U+30A4_U+30E4_U+30FC 1
370
     0
100
AcDbVertex
100
AcDb2dVertex
 10
88.93513995172455
 20
-127.9746174810272
 30
0.0
  0
VERTEX
  5
AA
330
A6
100
AcDbEntity
  8
_U+30EC_U+30A4_U+30E4_U+30FC 1
370
     0
100
AcDbVertex
100
AcDb2dVertex
 10
88.93513995172455
 20
-128.226453960999
 30
0.0
  0
VERTEX
  5
AB
330
A6
100
AcDbEntity
  8
_U+30EC_U+30A4_U+30E4_U+30FC 1
370
     0
100
AcDbVertex
100
AcDb2dVertex
 10
88.71465384066856
 20
-128.226453960999
 30
0.0
  0
SEQEND
  5
AC
330
A6
100
AcDbEntity
  8
_U+30EC_U+30A4_U+30E4_U+30FC 1
370
     0
  0
HATCH
  5
AD
330
A0
100
AcDbEntity
  8
_U+30EC_U+30A4_U+30E4_U+30FC 1
 62
   179
420
  2234388
100
AcDbHatch
 10
0.0
 20
0.0
 30
0.0
210
0.0
220
0.0
230
1.0
  2
SOLID
 70
     1
 71
     0
 91
        1
 92
        1
 93
        4
 72
     1
 10
88.71465384066856
 20
-128.226453960999
 11
88.71465384066856
 21
-127.9746174810272
 72
     1
 10
88.71465384066856
 20
-127.9746174810272
 11
88.93513995172455
 21
-127.9746174810272
 72
     1
 10
88.93513995172455
 20
-127.9746174810272
 11
88.93513995172455
 21
-128.226453960999
 72
     1
 10
88.93513995172455
 20
-128.226453960999
 11
88.71465384066856
 21
-128.226453960999
 97
        0
 75
     2
 76
     1
 98
        0
  0
SPLINE
  5
AE
330
A0
100
AcDbEntity
  8
_U+30EC_U+30A4_U+30E4_U+30FC 1
370
     0
100
AcDbSpline
210
0.0
220
0.0
230
1.0
 70
    11
 71
     3
 72
    53
 73
    49
 74
     0
 42
0.0000000001
 43
0.0000000001
 12
1.0
 22
0.0
 32
0.0
 13
1.0
 23
0.0
 33
0.0
 40
0.0
 40
0.0
 40
0.0
 40
0.0
 40
1.0
 40
1.0
 40
1.0
 40
2.0
 40
2.0
 40
2.0
 40
3.0
 40
3.0
 40
3.0
 40
4.0
 40
4.0
 40
4.0
 40
5.0
 40
5.0
 40
5.0
 40
6.0
 40
6.0
 40
6.0
 40
7.0
 40
7.0
 40
7.0
 40
8.0
 40
8.0
 40
8.0
 40
9.0
 40
9.0
 40
9.0
 40
10.0
 40
10.0
 40
10.0
 40
11.0
 40
11.0
 40
11.0
 40
12.0
 40
12.0
 40
12.0
 40
13.0
 40
13.0
 40
13.0
 40
14.0
 40
14.0
 40
14.0
 40
15.0
 40
15.0
 40
15.0
 40
16.0
 40
16.0
 40
16.0
 40
16.0
 10
89.56352536823412
 20
-128.2770968646321
 30
0.0
 10
89.49496796807765
 20
-128.2770968646321
 30
0.0
 10
89.40608450455821
 20
-128.2602158967544
 30
0.0
 10
89.31720104103876
 20
-128.1968261398258
 30
0.0
 10
89.16527233013925
 20
-128.0869275938463
 30
0.0
 10
89.14666881451889
 20
-127.9556694558583
 30
0.0
 10
89.13013235618969
 20
-127.84783796717
 30
0.0
 10
89.13013235618969
 20
-127.84783796717
 30
0.0
 10
89.32443574155778
 20
-127.84783796717
 30
0.0
 10
89.32443574155778
 20
-127.84783796717
 30
0.0
 10
89.37266707835128
 20
-128.0466199766689
 30
0.0
 10
89.48394366252485
 20
-128.0762477978421
 30
0.0
 10
89.56524791597674
 20
-128.0762477978421
 30
0.0
 10
89.68754880570312
 20
-128.0762477978421
 30
0.0
 10
89.82087400098229
 20
-127.9766845383183
 30
0.0
 10
89.82087400098229
 20
-127.744140593064
 30
0.0
 10
89.82087400098229
 20
-127.4881699985099
 30
0.0
 10
89.66343313730637
 20
-127.4182345601593
 30
0.0
 10
89.55801321545772
 20
-127.4182345601593
 30
0.0
 10
89.5301079420272
 20
-127.4182345601593
 30
0.0
 10
89.40608450455821
 20
-127.4182345601593
 30
0.0
 10
89.32822534659157
 20
-127.5474256408562
 30
0.0
 10
89.32822534659157
 20
-127.5474256408562
 30
0.0
 10
89.17457408794941
 20
-127.5284776156873
 30
0.0
 10
89.17457408794941
 20
-127.5284776156873
 30
0.0
 10
89.17457408794941
 20
-127.5284776156873
 30
0.0
 10
89.28033851934659
 20
-126.6820176549614
 30
0.0
 10
89.28033851934659
 20
-126.6820176549614
 30
0.0
 10
89.28033851934659
 20
-126.6820176549614
 30
0.0
 10
89.961778406329
 20
-126.6820176549614
 30
0.0
 10
89.961778406329
 20
-126.6820176549614
 30
0.0
 10
89.961778406329
 20
-126.6820176549614
 30
0.0
 10
89.961778406329
 20
-126.8766655498781
 30
0.0
 10
89.961778406329
 20
-126.8766655498781
 30
0.0
 10
89.961778406329
 20
-126.8766655498781
 30
0.0
 10
89.42262096288741
 20
-126.8766655498781
 30
0.0
 10
89.42262096288741
 20
-126.8766655498781
 30
0.0
 10
89.42262096288741
 20
-126.8766655498781
 30
0.0
 10
89.36543237783226
 20
-127.2997232754667
 30
0.0
 10
89.36543237783226
 20
-127.2997232754667
 30
0.0
 10
89.41917586740216
 20
-127.2659613397113
 30
0.0
 10
89.49117836304387
 20
-127.2256537225339
 30
0.0
 10
89.59487573714989
 20
-127.2256537225339
 30
0.0
 10
89.81708439594851
 20
-127.2256537225339
 30
0.0
 10
90.02447914416055
 20
-127.4120333882859
 30
0.0
 10
90.02447914416055
 20
-127.7251925678951
 30
0.0
 10
90.02447914416055
 20
-128.0424858620866
 30
0.0
 10
89.82810870150131
 20
-128.2770968646321
 30
0.0
 10
89.56352536823412
 20
-128.2770968646321
 30
0.0
  0
HATCH
  5
AF
330
A0
100
AcDbEntity
  8
_U+30EC_U+30A4_U+30E4_U+30FC 1
 62
   179
420
  2234388
100
AcDbHatch
 10
0.0
 20
0.0
 30
0.0
210
0.0
220
0.0
230
1.0
  2
SOLID
 70
     1
 71
     0
 91
        1
 92
        1
 93
        1
 72
     4
 94
        3
 73
     0
 74
     1
 95
       53
 96
       49
 40
0.0
 40
0.0
 40
0.0
 40
0.0
 40
1.0
 40
1.0
 40
1.0
 40
2.0
 40
2.0
 40
2.0
 40
3.0
 40
3.0
 40
3.0
 40
4.0
 40
4.0
 40
4.0
 40
5.0
 40
5.0
 40
5.0
 40
6.0
 40
6.0
 40
6.0
 40
7.0
 40
7.0
 40
7.0
 40
8.0
 40
8.0
 40
8.0
 40
9.0
 40
9.0
 40
9.0
 40
10.0
 40
10.0
 40
10.0
 40
11.0
 40
11.0
 40
11.0
 40
12.0
 40
12.0
 40
12.0
 40
13.0
 40
13.0
 40
13.0
 40
14.0
 40
14.0
 40
14.0
 40
15.0
 40
15.0
 40
15.0
 40
16.0
 40
16.0
 40
16.0
 40
16.0
 10
89.56352536823412
 20
-128.2770968646321
 10
89.49496796807765
 20
-128.2770968646321
 10
89.40608450455821
 20
-128.2602158967544
 10
89.31720104103876
 20
-128.1968261398258
 10
89.16527233013925
 20
-128.0869275938463
 10
89.14666881451889
 20
-127.9556694558583
 10
89.13013235618969
 20
-127.84783796717
 10
89.13013235618969
 20
-127.84783796717
 10
89.32443574155778
 20
-127.84783796717
 10
89.32443574155778
 20
-127.84783796717
 10
89.37266707835128
 20
-128.0466199766689
 10
89.48394366252485
 20
-128.0762477978421
 10
89.56524791597674
 20
-128.0762477978421
 10
89.68754880570312
 20
-128.0762477978421
 10
89.82087400098229
 20
-127.9766845383183
 10
89.82087400098229
 20
-127.744140593064
 10
89.82087400098229
 20
-127.4881699985099
 10
89.66343313730637
 20
-127.4182345601593
 10
89.55801321545772
 20
-127.4182345601593
 10
89.5301079420272
 20
-127.4182345601593
 10
89.40608450455821
 20
-127.4182345601593
 10
89.32822534659157
 20
-127.5474256408562
 10
89.32822534659157
 20
-127.5474256408562
 10
89.17457408794941
 20
-127.5284776156873
 10
89.17457408794941
 20
-127.5284776156873
 10
89.17457408794941
 20
-127.5284776156873
 10
89.28033851934659
 20
-126.6820176549614
 10
89.28033851934659
 20
-126.6820176549614
 10
89.28033851934659
 20
-126.6820176549614
 10
89.961778406329
 20
-126.6820176549614
 10
89.961778406329
 20
-126.6820176549614
 10
89.961778406329
 20
-126.6820176549614
 10
89.961778406329
 20
-126.8766655498781
 10
89.961778406329
 20
-126.8766655498781
 10
89.961778406329
 20
-126.8766655498781
 10
89.42262096288741
 20
-126.8766655498781
 10
89.42262096288741
 20
-126.8766655498781
 10
89.42262096288741
 20
-126.8766655498781
 10
89.36543237783226
 20
-127.2997232754667
 10
89.36543237783226
 20
-127.2997232754667
 10
89.41917586740216
 20
-127.2659613397113
 10
89.49117836304387
 20
-127.2256537225339
 10
89.59487573714989
 20
-127.2256537225339
 10
89.81708439594851
 20
-127.2256537225339
 10
90.02447914416055
 20
-127.4120333882859
 10
90.02447914416055
 20
-127.7251925678951
 10
90.02447914416055
 20
-128.0424858620866
 10
89.82810870150131
 20
-128.2770968646321
 10
89.56352536823412
 20
-128.2770968646321
 97
        0
 97
        0
 75
     2
 76
     1
 98
        0
  0
SPLINE
  5
B0
330
A0
100
AcDbEntity
  8
_U+30EC_U+30A4_U+30E4_U+30FC 1
370
     0
100
AcDbSpline
210
0.0
220
0.0
230
1.0
 70
    11
 71
     3
 72
    44
 73
    40
 74
     0
 42
0.0000000001
 43
0.0000000001
 12
1.0
 22
0.0
 32
0.0
 13
1.0
 23
0.0
 33
0.0
 40
0.0
 40
0.0
 40
0.0
 40
0.0
 40
1.0
 40
1.0
 40
1.0
 40
2.0
 40
2.0
 40
2.0
 40
3.0
 40
3.0
 40
3.0
 40
4.0
 40
4.0
 40
4.0
 40
5.0
 40
5.0
 40
5.0
 40
6.0
 40
6.0
 40
6.0
 40
7.0
 40
7.0
 40
7.0
 40
8.0
 40
8.0
 40
8.0
 40
9.0
 40
9.0
 40
9.0
 40
10.0
 40
10.0
 40
10.0
 40
11.0
 40
11.0
 40
11.0
 40
12.0
 40
12.0
 40
12.0
 40
13.0
 40
13.0
 40
13.0
 40
13.0
 10
91.06076386612371
 20
-128.226453960999
 30
0.0
 10
91.04043780276074
 20
-128.1820122292392
 30
0.0
 10
91.0221787966889
 20
-128.1293022683149
 30
0.0
 10
91.02011173939775
 20
-127.8984808708032
 30
0.0
 10
91.01632213436397
 20
-127.6552571295445
 30
0.0
 10
90.96464570208524
 20
-127.585321691194
 30
0.0
 10
90.80892738615194
 20
-127.585321691194
 30
0.0
 10
90.80892738615194
 20
-127.585321691194
 30
0.0
 10
90.45167098433153
 20
-127.585321691194
 30
0.0
 10
90.45167098433153
 20
-127.585321691194
 30
0.0
 10
90.45167098433153
 20
-127.585321691194
 30
0.0
 10
90.45167098433153
 20
-128.226453960999
 30
0.0
 10
90.45167098433153
 20
-128.226453960999
 30
0.0
 10
90.45167098433153
 20
-128.226453960999
 30
0.0
 10
90.24599878386212
 20
-128.226453960999
 30
0.0
 10
90.24599878386212
 20
-128.226453960999
 30
0.0
 10
90.24599878386212
 20
-128.226453960999
 30
0.0
 10
90.24599878386212
 20
-126.6820176549614
 30
0.0
 10
90.24599878386212
 20
-126.6820176549614
 30
0.0
 10
90.24599878386212
 20
-126.6820176549614
 30
0.0
 10
90.83683265958246
 20
-126.6820176549614
 30
0.0
 10
90.83683265958246
 20
-126.6820176549614
 30
0.0
 10
91.10520559788343
 20
-126.6820176549614
 30
0.0
 10
91.25162215600655
 20
-126.8535834101269
 30
0.0
 10
91.25162215600655
 20
-127.1095540046809
 30
0.0
 10
91.25162215600655
 20
-127.1601969083141
 30
0.0
 10
91.244042945939
 20
-127.2428791999601
 30
0.0
 10
91.2054578765042
 20
-127.3231499247664
 30
0.0
 10
91.15343693467692
 20
-127.4268472988725
 30
0.0
 10
91.09590384007325
 20
-127.4457953240413
 30
0.0
 10
91.04250486005188
 20
-127.4626762919191
 30
0.0
 10
91.1627386924871
 20
-127.5050509663876
 30
0.0
 10
91.2219943348334
 20
-127.5536268127297
 30
0.0
 10
91.22578393986717
 20
-127.86885304963
 30
0.0
 10
91.22957354490094
 20
-128.1396375547706
 30
0.0
 10
91.26092391381671
 20
-128.1713324332349
 30
0.0
 10
91.32017955616301
 20
-128.226453960999
 30
0.0
 10
91.32017955616301
 20
-128.226453960999
 30
0.0
 10
91.06076386612371
 20
-128.226453960999
 30
0.0
 10
91.06076386612371
 20
-128.226453960999
 30
0.0
  0
SPLINE
  5
B1
330
A0
100
AcDbEntity
  8
_U+30EC_U+30A4_U+30E4_U+30FC 1
370
     0
100
AcDbSpline
210
0.0
220
0.0
230
1.0
 70
    11
 71
     3
 72
    20
 73
    16
 74
     0
 42
0.0000000001
 43
0.0000000001
 12
1.0
 22
0.0
 32
0.0
 13
1.0
 23
0.0
 33
0.0
 40
0.0
 40
0.0
 40
0.0
 40
0.0
 40
1.0
 40
1.0
 40
1.0
 40
2.0
 40
2.0
 40
2.0
 40
3.0
 40
3.0
 40
3.0
 40
4.0
 40
4.0
 40
4.0
 40
5.0
 40
5.0
 40
5.0
 40
5.0
 10
90.84062226461624
 20
-126.8935465177558
 30
0.0
 10
90.84062226461624
 20
-126.8935465177558
 30
0.0
 10
90.45167098433153
 20
-126.8935465177558
 30
0.0
 10
90.45167098433153
 20
-126.8935465177558
 30
0.0
 10
90.45167098433153
 20
-126.8935465177558
 30
0.0
 10
90.45167098433153
 20
-127.3737928283996
 30
0.0
 10
90.45167098433153
 20
-127.3737928283996
 30
0.0
 10
90.45167098433153
 20
-127.3737928283996
 30
0.0
 10
90.83855520732509
 20
-127.3737928283996
 30
0.0
 10
90.83855520732509
 20
-127.3737928283996
 30
0.0
 10
90.9257161231019
 20
-127.3737928283996
 30
0.0
 10
91.04422740779451
 20
-127.2976562181756
 30
0.0
 10
91.04422740779451
 20
-127.1264349725587
 30
0.0
 10
91.04422740779451
 20
-127.0482313050435
 30
0.0
 10
91.01459958662136
 20
-126.8935465177558
 30
0.0
 10
90.84062226461624
 20
-126.8935465177558
 30
0.0
  0
HATCH
  5
B2
330
A0
100
AcDbEntity
  8
_U+30EC_U+30A4_U+30E4_U+30FC 1
 62
   179
420
  2234388
100
AcDbHatch
 10
0.0
 20
0.0
 30
0.0
210
0.0
220
0.0
230
1.0
  2
SOLID
 70
     1
 71
     0
 91
        2
 92
        1
 93
        1
 72
     4
 94
        3
 73
     0
 74
     1
 95
       44
 96
       40
 40
0.0
 40
0.0
 40
0.0
 40
0.0
 40
1.0
 40
1.0
 40
1.0
 40
2.0
 40
2.0
 40
2.0
 40
3.0
 40
3.0
 40
3.0
 40
4.0
 40
4.0
 40
4.0
 40
5.0
 40
5.0
 40
5.0
 40
6.0
 40
6.0
 40
6.0
 40
7.0
 40
7.0
 40
7.0
 40
8.0
 40
8.0
 40
8.0
 40
9.0
 40
9.0
 40
9.0
 40
10.0
 40
10.0
 40
10.0
 40
11.0
 40
11.0
 40
11.0
 40
12.0
 40
12.0
 40
12.0
 40
13.0
 40
13.0
 40
13.0
 40
13.0
 10
91.06076386612371
 20
-128.226453960999
 10
91.04043780276074
 20
-128.1820122292392
 10
91.0221787966889
 20
-128.1293022683149
 10
91.02011173939775
 20
-127.8984808708032
 10
91.01632213436397
 20
-127.6552571295445
 10
90.96464570208524
 20
-127.585321691194
 10
90.80892738615194
 20
-127.585321691194
 10
90.80892738615194
 20
-127.585321691194
 10
90.45167098433153
 20
-127.585321691194
 10
90.45167098433153
 20
-127.585321691194
 10
90.45167098433153
 20
-127.585321691194
 10
90.45167098433153
 20
-128.226453960999
 10
90.45167098433153
 20
-128.226453960999
 10
90.45167098433153
 20
-128.226453960999
 10
90.24599878386212
 20
-128.226453960999
 10
90.24599878386212
 20
-128.226453960999
 10
90.24599878386212
 20
-128.226453960999
 10
90.24599878386212
 20
-126.6820176549614
 10
90.24599878386212
 20
-126.6820176549614
 10
90.24599878386212
 20
-126.6820176549614
 10
90.83683265958246
 20
-126.6820176549614
 10
90.83683265958246
 20
-126.6820176549614
 10
91.10520559788343
 20
-126.6820176549614
 10
91.25162215600655
 20
-126.8535834101269
 10
91.25162215600655
 20
-127.1095540046809
 10
91.25162215600655
 20
-127.1601969083141
 10
91.244042945939
 20
-127.2428791999601
 10
91.2054578765042
 20
-127.3231499247664
 10
91.15343693467692
 20
-127.4268472988725
 10
91.09590384007325
 20
-127.4457953240413
 10
91.04250486005188
 20
-127.4626762919191
 10
91.1627386924871
 20
-127.5050509663876
 10
91.2219943348334
 20
-127.5536268127297
 10
91.22578393986717
 20
-127.86885304963
 10
91.22957354490094
 20
-128.1396375547706
 10
91.26092391381671
 20
-128.1713324332349
 10
91.32017955616301
 20
-128.226453960999
 10
91.32017955616301
 20
-128.226453960999
 10
91.06076386612371
 20
-128.226453960999
 10
91.06076386612371
 20
-128.226453960999
 97
        0
 97
        0
 92
        1
 93
        1
 72
     4
 94
        3
 73
     0
 74
     1
 95
       20
 96
       16
 40
0.0
 40
0.0
 40
0.0
 40
0.0
 40
1.0
 40
1.0
 40
1.0
 40
2.0
 40
2.0
 40
2.0
 40
3.0
 40
3.0
 40
3.0
 40
4.0
 40
4.0
 40
4.0
 40
5.0
 40
5.0
 40
5.0
 40
5.0
 10
90.84062226461624
 20
-126.8935465177558
 10
90.84062226461624
 20
-126.8935465177558
 10
90.45167098433153
 20
-126.8935465177558
 10
90.45167098433153
 20
-126.8935465177558
 10
90.45167098433153
 20
-126.8935465177558
 10
90.45167098433153
 20
-127.3737928283996
 10
90.45167098433153
 20
-127.3737928283996
 10
90.45167098433153
 20
-127.3737928283996
 10
90.83855520732509
 20
-127.3737928283996
 10
90.83855520732509
 20
-127.3737928283996
 10
90.9257161231019
 20
-127.3737928283996
 10
91.04422740779451
 20
-127.2976562181756
 10
91.04422740779451
 20
-127.1264349725587
 10
91.04422740779451
 20
-127.0482313050435
 10
91.01459958662136
 20
-126.8935465177558
 10
90.84062226461624
 20
-126.8935465177558
 97
        0
 97
        0
 75
     2
 76
     1
 98
        0
  0
ENDBLK
  5
A3
330
A0
100
AcDbEntity
  8
0
100
AcDbBlockEnd
  0
BLOCK
  5
B5
330
B3
100
AcDbEntity
  8
0
100
AcDbBlockBegin
  2
block 7
 70
     0
 10
0.0
 20
0.0
 30
0.0
  3
block 7
  1

  0
SPLINE
  5
B7
330
B3
100
AcDbEntity
  8
_U+30EC_U+30A4_U+30E4_U+30FC 1
370
     0
100
AcDbSpline
210
0.0
220
0.0
230
1.0
 70
    11
 71
     3
 72
    26
 73
    22
 74
     0
 42
0.0000000001
 43
0.0000000001
 12
1.0
 22
0.0
 32
0.0
 13
1.0
 23
0.0
 33
0.0
 40
0.0
 40
0.0
 40
0.0
 40
0.0
 40
1.0
 40
1.0
 40
1.0
 40
2.0
 40
2.0
 40
2.0
 40
3.0
 40
3.0
 40
3.0
 40
4.0
 40
4.0
 40
4.0
 40
5.0
 40
5.0
 40
5.0
 40
6.0
 40
6.0
 40
6.0
 40
7.0
 40
7.0
 40
7.0
 40
7.0
 10
103.4248670531369
 20
-133.349655457114
 30
0.0
 10
103.4248670531369
 20
-133.349655457114
 30
0.0
 10
102.3207139501143
 20
-133.349655457114
 30
0.0
 10
102.3207139501143
 20
-133.349655457114
 30
0.0
 10
102.3207139501143
 20
-133.349655457114
 30
0.0
 10
102.3207139501143
 20
-133.6386989683265
 30
0.0
 10
102.3207139501143
 20
-133.6386989683265
 30
0.0
 10
102.3207139501143
 20
-133.6386989683265
 30
0.0
 10
102.1725748442485
 20
-133.6386989683265
 30
0.0
 10
102.1725748442485
 20
-133.6386989683265
 30
0.0
 10
102.1577609336619
 20
-133.3479329093714
 30
0.0
 10
101.9948079172096
 20
-133.3072807826454
 30
0.0
 10
101.8804307470993
 20
-133.2810980569575
 30
0.0
 10
101.8804307470993
 20
-133.2810980569575
 30
0.0
 10
101.8804307470993
 20
-133.1536295240033
 30
0.0
 10
101.8804307470993
 20
-133.1536295240033
 30
0.0
 10
101.8804307470993
 20
-133.1536295240033
 30
0.0
 10
103.4248670531369
 20
-133.1536295240033
 30
0.0
 10
103.4248670531369
 20
-133.1536295240033
 30
0.0
 10
103.4248670531369
 20
-133.1536295240033
 30
0.0
 10
103.4248670531369
 20
-133.349655457114
 30
0.0
 10
103.4248670531369
 20
-133.349655457114
 30
0.0
  0
HATCH
  5
B8
330
B3
100
AcDbEntity
  8
_U+30EC_U+30A4_U+30E4_U+30FC 1
 62
   179
420
  2234388
100
AcDbHatch
 10
0.0
 20
0.0
 30
0.0
210
0.0
220
0.0
230
1.0
  2
SOLID
 70
     1
 71
     0
 91
        1
 92
        1
 93
        1
 72
     4
 94
        3
 73
     0
 74
     1
 95
       26
 96
       22
 40
0.0
 40
0.0
 40
0.0
 40
0.0
 40
1.0
 40
1.0
 40
1.0
 40
2.0
 40
2.0
 40
2.0
 40
3.0
 40
3.0
 40
3.0
 40
4.0
 40
4.0
 40
4.0
 40
5.0
 40
5.0
 40
5.0
 40
6.0
 40
6.0
 40
6.0
 40
7.0
 40
7.0
 40
7.0
 40
7.0
 10
103.4248670531369
 20
-133.349655457114
 10
103.4248670531369
 20
-133.349655457114
 10
102.3207139501143
 20
-133.349655457114
 10
102.3207139501143
 20
-133.349655457114
 10
102.3207139501143
 20
-133.349655457114
 10
102.3207139501143
 20
-133.6386989683265
 10
102.3207139501143
 20
-133.6386989683265
 10
102.3207139501143
 20
-133.6386989683265
 10
102.1725748442485
 20
-133.6386989683265
 10
102.1725748442485
 20
-133.6386989683265
 10
102.1577609336619
 20
-133.3479329093714
 10
101.9948079172096
 20
-133.3072807826454
 10
101.8804307470993
 20
-133.2810980569575
 10
101.8804307470993
 20
-133.2810980569575
 10
101.8804307470993
 20
-133.1536295240033
 10
101.8804307470993
 20
-133.1536295240033
 10
101.8804307470993
 20
-133.1536295240033
 10
103.4248670531369
 20
-133.1536295240033
 10
103.4248670531369
 20
-133.1536295240033
 10
103.4248670531369
 20
-133.1536295240033
 10
103.4248670531369
 20
-133.349655457114
 10
103.4248670531369
 20
-133.349655457114
 97
        0
 97
        0
 75
     2
 76
     1
 98
        0
  0
POLYLINE
  5
B9
330
B3
100
AcDbEntity
  8
_U+30EC_U+30A4_U+30E4_U+30FC 1
370
     0
100
AcDb2dPolyline
 66
     1
 10
0.0
 20
0.0
 30
0.0
  0
VERTEX
  5
BA
330
B9
100
AcDbEntity
  8
_U+30EC_U+30A4_U+30E4_U+30FC 1
370
     0
100
AcDbVertex
100
AcDb2dVertex
 10
103.4248670531369
 20
-132.6616698887096
 30
0.0
  0
VERTEX
  5
BB
330
B9
100
AcDbEntity
  8
_U+30EC_U+30A4_U+30E4_U+30FC 1
370
     0
100
AcDbVertex
100
AcDb2dVertex
 10
103.1730305731651
 20
-132.6616698887096
 30
0.0
  0
VERTEX
  5
BC
330
B9
100
AcDbEntity
  8
_U+30EC_U+30A4_U+30E4_U+30FC 1
370
     0
100
AcDbVertex
100
AcDb2dVertex
 10
103.1730305731651
 20
-132.4411837776536
 30
0.0
  0
VERTEX
  5
BD
330
B9
100
AcDbEntity
  8
_U+30EC_U+30A4_U+30E4_U+30FC 1
370
     0
100
AcDbVertex
100
AcDb2dVertex
 10
103.4248670531369
 20
-132.4411837776536
 30
0.0
  0
VERTEX
  5
BE
330
B9
100
AcDbEntity
  8
_U+30EC_U+30A4_U+30E4_U+30FC 1
370
     0
100
AcDbVertex
100
AcDb2dVertex
 10
103.4248670531369
 20
-132.6616698887096
 30
0.0
  0
SEQEND
  5
BF
330
B9
100
AcDbEntity
  8
_U+30EC_U+30A4_U+30E4_U+30FC 1
370
     0
  0
HATCH
  5
C0
330
B3
100
AcDbEntity
  8
_U+30EC_U+30A4_U+30E4_U+30FC 1
 62
   179
420
  2234388
100
AcDbHatch
 10
0.0
 20
0.0
 30
0.0
210
0.0
220
0.0
230
1.0
  2
SOLID
 70
     1
 71
     0
 91
        1
 92
        1
 93
        4
 72
     1
 10
103.4248670531369
 20
-132.6616698887096
 11
103.1730305731651
 21
-132.6616698887096
 72
     1
 10
103.1730305731651
 20
-132.6616698887096
 11
103.1730305731651
 21
-132.4411837776536
 72
     1
 10
103.1730305731651
 20
-132.4411837776536
 11
103.4248670531369
 21
-132.4411837776536
 72
     1
 10
103.4248670531369
 20
-132.4411837776536
 11
103.4248670531369
 21
-132.6616698887096
 97
        0
 75
     2
 76
     1
 98
        0
  0
SPLINE
  5
C1
330
B3
100
AcDbEntity
  8
_U+30EC_U+30A4_U+30E4_U+30FC 1
370
     0
100
AcDbSpline
210
0.0
220
0.0
230
1.0
 70
    11
 71
     3
 72
    44
 73
    40
 74
     0
 42
0.0000000001
 43
0.0000000001
 12
1.0
 22
0.0
 32
0.0
 13
1.0
 23
0.0
 33
0.0
 40
0.0
 40
0.0
 40
0.0
 40
0.0
 40
1.0
 40
1.0
 40
1.0
 40
2.0
 40
2.0
 40
2.0
 40
3.0
 40
3.0
 40
3.0
 40
4.0
 40
4.0
 40
4.0
 40
5.0
 40
5.0
 40
5.0
 40
6.0
 40
6.0
 40
6.0
 40
7.0
 40
7.0
 40
7.0
 40
8.0
 40
8.0
 40
8.0
 40
9.0
 40
9.0
 40
9.0
 40
10.0
 40
10.0
 40
10.0
 40
11.0
 40
11.0
 40
11.0
 40
12.0
 40
12.0
 40
12.0
 40
13.0
 40
13.0
 40
13.0
 40
13.0
 10
102.8429904256782
 20
-131.7146131398144
 30
0.0
 10
103.0018093275482
 20
-131.9054714296973
 30
0.0
 10
103.075878880481
 20
-131.9867756831491
 30
0.0
 10
103.219539362216
 20
-132.0294948671662
 30
0.0
 10
103.219539362216
 20
-132.0294948671662
 30
0.0
 10
103.219539362216
 20
-131.3480549801838
 30
0.0
 10
103.219539362216
 20
-131.3480549801838
 30
0.0
 10
103.219539362216
 20
-131.3480549801838
 30
0.0
 10
103.4248670531369
 20
-131.3480549801838
 30
0.0
 10
103.4248670531369
 20
-131.3480549801838
 30
0.0
 10
103.4248670531369
 20
-131.3480549801838
 30
0.0
 10
103.4248670531369
 20
-132.2479139209311
 30
0.0
 10
103.4248670531369
 20
-132.2479139209311
 30
0.0
 10
103.0672661417679
 20
-132.2203531570491
 30
0.0
 10
102.9890624742527
 20
-132.1628200624454
 30
0.0
 10
102.6907172052301
 20
-131.825889723988
 30
0.0
 10
102.4919351957312
 20
-131.6016140078982
 30
0.0
 10
102.4240668146718
 20
-131.5444254228431
 30
0.0
 10
102.2866075048103
 20
-131.5444254228431
 30
0.0
 10
102.1680962201177
 20
-131.5444254228431
 30
0.0
 10
102.0371825916782
 20
-131.6074706702231
 30
0.0
 10
102.0371825916782
 20
-131.7793809349371
 30
0.0
 10
102.0371825916782
 20
-132.0071017465121
 30
0.0
 10
102.2676594796414
 20
-132.0146809565797
 30
0.0
 10
102.3841037070429
 20
-132.0184705616134
 30
0.0
 10
102.3841037070429
 20
-132.0184705616134
 30
0.0
 10
102.3841037070429
 20
-132.2144964947242
 30
0.0
 10
102.3841037070429
 20
-132.2144964947242
 30
0.0
 10
102.2569796836372
 20
-132.2072617942051
 30
0.0
 10
102.1450140803665
 20
-132.197960036395
 30
0.0
 10
102.0265027956739
 20
-132.1276800884959
 30
0.0
 10
101.8656168365128
 20
-132.0312174149089
 30
0.0
 10
101.8318549007573
 20
-131.8682643984565
 30
0.0
 10
101.8318549007573
 20
-131.7666340816417
 30
0.0
 10
101.8318549007573
 20
-131.5240993594801
 30
0.0
 10
102.0158229996697
 20
-131.3425428274074
 30
0.0
 10
102.2886745621014
 20
-131.3425428274074
 30
0.0
 10
102.517428902322
 20
-131.3425428274074
 30
0.0
 10
102.6166476522972
 20
-131.4441731442223
 30
0.0
 10
102.8429904256782
 20
-131.7146131398144
 30
0.0
  0
HATCH
  5
C2
330
B3
100
AcDbEntity
  8
_U+30EC_U+30A4_U+30E4_U+30FC 1
 62
   179
420
  2234388
100
AcDbHatch
 10
0.0
 20
0.0
 30
0.0
210
0.0
220
0.0
230
1.0
  2
SOLID
 70
     1
 71
     0
 91
        1
 92
        1
 93
        1
 72
     4
 94
        3
 73
     0
 74
     1
 95
       44
 96
       40
 40
0.0
 40
0.0
 40
0.0
 40
0.0
 40
1.0
 40
1.0
 40
1.0
 40
2.0
 40
2.0
 40
2.0
 40
3.0
 40
3.0
 40
3.0
 40
4.0
 40
4.0
 40
4.0
 40
5.0
 40
5.0
 40
5.0
 40
6.0
 40
6.0
 40
6.0
 40
7.0
 40
7.0
 40
7.0
 40
8.0
 40
8.0
 40
8.0
 40
9.0
 40
9.0
 40
9.0
 40
10.0
 40
10.0
 40
10.0
 40
11.0
 40
11.0
 40
11.0
 40
12.0
 40
12.0
 40
12.0
 40
13.0
 40
13.0
 40
13.0
 40
13.0
 10
102.8429904256782
 20
-131.7146131398144
 10
103.0018093275482
 20
-131.9054714296973
 10
103.075878880481
 20
-131.9867756831491
 10
103.219539362216
 20
-132.0294948671662
 10
103.219539362216
 20
-132.0294948671662
 10
103.219539362216
 20
-131.3480549801838
 10
103.219539362216
 20
-131.3480549801838
 10
103.219539362216
 20
-131.3480549801838
 10
103.4248670531369
 20
-131.3480549801838
 10
103.4248670531369
 20
-131.3480549801838
 10
103.4248670531369
 20
-131.3480549801838
 10
103.4248670531369
 20
-132.2479139209311
 10
103.4248670531369
 20
-132.2479139209311
 10
103.0672661417679
 20
-132.2203531570491
 10
102.9890624742527
 20
-132.1628200624454
 10
102.6907172052301
 20
-131.825889723988
 10
102.4919351957312
 20
-131.6016140078982
 10
102.4240668146718
 20
-131.5444254228431
 10
102.2866075048103
 20
-131.5444254228431
 10
102.1680962201177
 20
-131.5444254228431
 10
102.0371825916782
 20
-131.6074706702231
 10
102.0371825916782
 20
-131.7793809349371
 10
102.0371825916782
 20
-132.0071017465121
 10
102.2676594796414
 20
-132.0146809565797
 10
102.3841037070429
 20
-132.0184705616134
 10
102.3841037070429
 20
-132.0184705616134
 10
102.3841037070429
 20
-132.2144964947242
 10
102.3841037070429
 20
-132.2144964947242
 10
102.2569796836372
 20
-132.2072617942051
 10
102.1450140803665
 20
-132.197960036395
 10
102.0265027956739
 20
-132.1276800884959
 10
101.8656168365128
 20
-132.0312174149089
 10
101.8318549007573
 20
-131.8682643984565
 10
101.8318549007573
 20
-131.7666340816417
 10
101.8318549007573
 20
-131.5240993594801
 10
102.0158229996697
 20
-131.3425428274074
 10
102.2886745621014
 20
-131.3425428274074
 10
102.517428902322
 20
-131.3425428274074
 10
102.6166476522972
 20
-131.4441731442223
 10
102.8429904256782
 20
-131.7146131398144
 97
        0
 97
        0
 75
     2
 76
     1
 98
        0
  0
ENDBLK
  5
B6
330
B3
100
AcDbEntity
  8
0
100
AcDbBlockEnd
  0
ENDSEC
  0
SECTION
  2
ENTITIES
  0
INSERT
  5
42
330
1F
100
AcDbEntity
  8
_U+30EC_U+30A4_U+30E4_U+30FC 1
100
AcDbBlockReference
  2
block 2
 10
0.0
 20
0.0
 30
0.0
  0
ENDSEC
  0
SECTION
  2
OBJECTS
  0
DICTIONARY
  5
C
330
0
100
AcDbDictionary
281
     1
  3
ACAD_GROUP
350
D
  3
ACAD_LAYOUT
350
1A
  3
ACAD_MATERIAL
350
3B
  3
ACAD_MLEADERSTYLE
350
D0
  3
ACAD_MLINESTYLE
350
17
  3
ACAD_PLOTSETTINGS
350
19
  3
ACAD_PLOTSTYLENAME
350
E
  3
ACAD_TABLESTYLE
350
CF
  3
ACAD_VISUALSTYLE
350
2A
  0
SUN
  5
3F
330
29
100
AcDbSun
 90
        1
290
     0
 63
     7
421
 16777215
 40
1.0
291
     1
 91
  2455826
 92
 54000000
292
     0
 70
     2
 71
   256
280
     1
  0
DICTIONARY
  5
D
102
{ACAD_REACTORS
330
C
102
}
330
C
100
AcDbDictionary
281
     1
  0
DICTIONARY
  5
1A
102
{ACAD_REACTORS
330
C
102
}
330
C
100
AcDbDictionary
281
     1
  3
Layout1
350
1E
  3
Layout2
350
26
  3
Model
350
22
  0
DICTIONARY
  5
3B
102
{ACAD_REACTORS
330
C
102
}
330
C
100
AcDbDictionary
281
     1
  3
ByBlock
350
3D
  3
ByLayer
350
3C
  3
Global
350
3E
  0
DICTIONARY
  5
D0
102
{ACAD_REACTORS
330
C
102
}
330
C
100
AcDbDictionary
281
     1
  0
DICTIONARY
  5
17
102
{ACAD_REACTORS
330
C
102
}
330
C
100
AcDbDictionary
281
     1
  3
Standard
350
18
  0
DICTIONARY
  5
19
102
{ACAD_REACTORS
330
C
102
}
330
C
100
AcDbDictionary
281
     1
  0
ACDBDICTIONARYWDFLT
  5
E
102
{ACAD_REACTORS
330
C
102
}
330
C
100
AcDbDictionary
281
     1
  3
Normal
350
F
100
AcDbDictionaryWithDefault
340
F
  0
DICTIONARY
  5
CF
102
{ACAD_REACTORS
330
C
102
}
330
C
100
AcDbDictionary
281
     1
  0
DICTIONARY
  5
2A
102
{ACAD_REACTORS
330
C
102
}
330
C
100
AcDbDictionary
281
     1
  3
2dWireframe
350
2F
  3
3D Hidden
350
31
  3
3dWireframe
350
30
  3
Basic
350
32
  3
Brighten
350
36
  3
ColorChange
350
3A
  3
Conceptual
350
34
  3
Dim
350
35
  3
Facepattern
350
39
  3
Flat
350
2B
  3
FlatWithEdges
350
2C
  3
Gouraud
350
2D
  3
GouraudWithEdges
350
2E
  3
Linepattern
350
38
  3
Realistic
350
33
  3
Thicken
350
37
  0
LAYOUT
  5
1E
102
{ACAD_REACTORS
330
1A
102
}
330
1A
100
AcDbPlotSettings
  1

  2
none_device
  4

  6

 40
0.0
 41
0.0
 42
0.0
 43
0.0
 44
0.0
 45
0.0
 46
0.0
 47
0.0
 48
0.0
 49
0.0
140
0.0
141
0.0
142
1.0
143
1.0
 70
   688
 72
     0
 73
     0
 74
     5
  7

 75
    16
 76
     0
 77
     2
 78
   300
147
1.0
148
0.0
149
0.0
100
AcDbLayout
  1
Layout1
 70
     1
 71
     1
 10
0.0
 20
0.0
 11
12.0
 21
9.0
 12
0.0
 22
0.0
 32
0.0
 14
1.000000000000000E+20
 24
1.000000000000000E+20
 34
1.000000000000000E+20
 15
-1.000000000000000E+20
 25
-1.000000000000000E+20
 35
-1.000000000000000E+20
146
0.0
 13
0.0
 23
0.0
 33
0.0
 16
1.0
 26
0.0
 36
0.0
 17
0.0
 27
1.0
 37
0.0
 76
     0
330
1B
  0
LAYOUT
  5
26
102
{ACAD_REACTORS
330
1A
102
}
330
1A
100
AcDbPlotSettings
  1

  2
none_device
  4

  6

 40
0.0
 41
0.0
 42
0.0
 43
0.0
 44
0.0
 45
0.0
 46
0.0
 47
0.0
 48
0.0
 49
0.0
140
0.0
141
0.0
142
1.0
143
1.0
 70
   688
 72
     0
 73
     0
 74
     5
  7

 75
    16
 76
     0
 77
     2
 78
   300
147
1.0
148
0.0
149
0.0
100
AcDbLayout
  1
Layout2
 70
     1
 71
     2
 10
0.0
 20
0.0
 11
0.0
 21
0.0
 12
0.0
 22
0.0
 32
0.0
 14
0.0
 24
0.0
 34
0.0
 15
0.0
 25
0.0
 35
0.0
146
0.0
 13
0.0
 23
0.0
 33
0.0
 16
1.0
 26
0.0
 36
0.0
 17
0.0
 27
1.0
 37
0.0
 76
     0
330
23
  0
LAYOUT
  5
22
102
{ACAD_REACTORS
330
1A
102
}
330
1A
100
AcDbPlotSettings
  1

  2
none_device
  4

  6

 40
0.0
 41
0.0
 42
0.0
 43
0.0
 44
0.0
 45
0.0
 46
0.0
 47
0.0
 48
0.0
 49
0.0
140
0.0
141
0.0
142
1.0
143
1.0
 70
  1712
 72
     0
 73
     0
 74
     0
  7

 75
     0
 76
     0
 77
     2
 78
   300
147
1.0
148
0.0
149
0.0
100
AcDbLayout
  1
Model
 70
     1
 71
     0
 10
0.0
 20
0.0
 11
12.0
 21
9.0
 12
0.0
 22
0.0
 32
0.0
 14
1.000000000000000E+20
 24
1.000000000000000E+20
 34
1.000000000000000E+20
 15
-1.000000000000000E+20
 25
-1.000000000000000E+20
 35
-1.000000000000000E+20
146
0.0
 13
0.0
 23
0.0
 33
0.0
 16
1.0
 26
0.0
 36
0.0
 17
0.0
 27
1.0
 37
0.0
 76
     0
330
1F
331
29
  0
MATERIAL
  5
3D
102
{ACAD_REACTORS
330
3B
102
}
330
3B
100
AcDbMaterial
  1
ByBlock
 72
     1
 94
      127
  0
MATERIAL
  5
3C
102
{ACAD_REACTORS
330
3B
102
}
330
3B
100
AcDbMaterial
  1
ByLayer
 72
     1
 94
      127
  0
MATERIAL
  5
3E
102
{ACAD_REACTORS
330
3B
102
}
330
3B
100
AcDbMaterial
  1
Global
 72
     1
 94
      127
  0
MLINESTYLE
  5
18
102
{ACAD_REACTORS
330
17
102
}
330
17
100
AcDbMlineStyle
  2
Standard
 70
     0
  3

 62
   256
 51
90.0
 52
90.0
 71
     2
 49
0.5
 62
   256
  6
BYLAYER
 49
-0.5
 62
   256
  6
BYLAYER
  0
ACDBPLACEHOLDER
  5
F
102
{ACAD_REACTORS
330
E
102
}
330
E
  0
VISUALSTYLE
  5
2F
102
{ACAD_REACTORS
330
2A
102
}
330
2A
100
AcDbVisualStyle
  2
2dWireframe
 70
     4
177
     2
291
     0
 71
     0
176
     1
 72
     2
176
     1
 73
     0
176
     1
 90
        0
176
     1
 40
-0.6
176
     1
 41
-30.0
176
     1
 62
     5
 63
     7
421
 16777215
176
     1
 74
     1
176
     1
 91
        4
176
     1
 64
     7
176
     1
 65
   257
176
     1
 75
     1
176
     1
175
     1
176
     1
 42
1.0
176
     1
 92
        0
176
     1
 66
   257
176
     1
 43
1.0
176
     1
 76
     1
176
     1
 77
     6
176
     1
 78
     2
176
     1
 67
     7
176
     1
 79
     5
176
     1
170
     0
176
     1
171
     0
176
     1
290
     0
176
     1
 93
        1
176
     1
 44
0.0
176
     1
173
     0
176
     1
  0
VISUALSTYLE
  5
31
102
{ACAD_REACTORS
330
2A
102
}
330
2A
100
AcDbVisualStyle
  2
3D Hidden
 70
     6
177
     2
291
     0
 71
     1
176
     1
 72
     2
176
     1
 73
     2
176
     1
 90
        0
176
     1
 40
-0.6
176
     1
 41
-30.0
176
     1
 62
     5
 63
     7
421
 16777215
176
     1
 74
     2
176
     1
 91
        2
176
     1
 64
     7
176
     1
 65
   257
176
     1
 75
     2
176
     1
175
     1
176
     1
 42
40.0
176
     1
 92
        0
176
     1
 66
   257
176
     1
 43
1.0
176
     1
 76
     1
176
     1
 77
     6
176
     1
 78
     2
176
     1
 67
     7
176
     1
 79
     3
176
     1
170
     0
176
     1
171
     0
176
     1
290
     0
176
     1
 93
        1
176
     1
 44
0.0
176
     1
173
     0
176
     1
  0
VISUALSTYLE
  5
30
102
{ACAD_REACTORS
330
2A
102
}
330
2A
100
AcDbVisualStyle
  2
3dWireframe
 70
     5
177
     2
291
     0
 71
     0
176
     1
 72
     2
176
     1
 73
     0
176
     1
 90
        0
176
     1
 40
-0.6
176
     1
 41
-30.0
176
     1
 62
     5
 63
     7
421
 16777215
176
     1
 74
     1
176
     1
 91
        4
176
     1
 64
     7
176
     1
 65
   257
176
     1
 75
     1
176
     1
175
     1
176
     1
 42
1.0
176
     1
 92
        0
176
     1
 66
   257
176
     1
 43
1.0
176
     1
 76
     1
176
     1
 77
     6
176
     1
 78
     2
176
     1
 67
     7
176
     1
 79
     5
176
     1
170
     0
176
     1
171
     0
176
     1
290
     0
176
     1
 93
        1
176
     1
 44
0.0
176
     1
173
     0
176
     1
  0
VISUALSTYLE
  5
32
102
{ACAD_REACTORS
330
2A
102
}
330
2A
100
AcDbVisualStyle
  2
Basic
 70
     7
177
     2
291
     1
 71
     1
176
     1
 72
     0
176
     1
 73
     1
176
     1
 90
        0
176
     1
 40
-0.6
176
     1
 41
-30.0
176
     1
 62
     5
 63
     7
421
 16777215
176
     1
 74
     0
176
     1
 91
        4
176
     1
 64
     7
176
     1
 65
   257
176
     1
 75
     1
176
     1
175
     1
176
     1
 42
1.0
176
     1
 92
        8
176
     1
 66
     7
176
     1
 43
1.0
176
     1
 76
     1
176
     1
 77
     6
176
     1
 78
     2
176
     1
 67
     7
176
     1
 79
     5
176
     1
170
     0
176
     1
171
     0
176
     1
290
     0
176
     1
 93
        1
176
     1
 44
0.0
176
     1
173
     0
176
     1
  0
VISUALSTYLE
  5
36
102
{ACAD_REACTORS
330
2A
102
}
330
2A
100
AcDbVisualStyle
  2
Brighten
 70
    12
177
     2
291
     1
 71
     2
176
     1
 72
     2
176
     1
 73
     0
176
     1
 90
        0
176
     1
 40
-0.6
176
     1
 41
-30.0
176
     1
 62
     5
 63
     7
421
 16777215
176
     1
 74
     1
176
     1
 91
        4
176
     1
 64
     7
176
     1
 65
   257
176
     1
 75
     1
176
     1
175
     1
176
     1
 42
1.0
176
     1
 92
        8
176
     1
 66
     7
176
     1
 43
1.0
176
     1
 76
     1
176
     1
 77
     6
176
     1
 78
     2
176
     1
 67
     7
176
     1
 79
     5
176
     1
170
     0
176
     1
171
     0
176
     1
290
     0
176
     1
 93
        1
176
     1
 44
50.0
176
     1
173
     0
176
     1
  0
VISUALSTYLE
  5
3A
102
{ACAD_REACTORS
330
2A
102
}
330
2A
100
AcDbVisualStyle
  2
ColorChange
 70
    16
177
     2
291
     1
 71
     2
176
     1
 72
     2
176
     1
 73
     3
176
     1
 90
        0
176
     1
 40
-0.6
176
     1
 41
-30.0
176
     1
 62
     5
 63
     8
421
  8421504
176
     1
 74
     1
176
     1
 91
        4
176
     1
 64
     7
176
     1
 65
   257
176
     1
 75
     1
176
     1
175
     1
176
     1
 42
1.0
176
     1
 92
        8
176
     1
 66
     8
424
  8421504
176
     1
 43
1.0
176
     1
 76
     1
176
     1
 77
     6
176
     1
 78
     2
176
     1
 67
     7
176
     1
 79
     5
176
     1
170
     0
176
     1
171
     0
176
     1
290
     0
176
     1
 93
        1
176
     1
 44
0.0
176
     1
173
     0
176
     1
  0
VISUALSTYLE
  5
34
102
{ACAD_REACTORS
330
2A
102
}
330
2A
100
AcDbVisualStyle
  2
Conceptual
 70
     9
177
     2
291
     0
 71
     3
176
     1
 72
     2
176
     1
 73
     0
176
     1
 90
        0
176
     1
 40
-0.6
176
     1
 41
-30.0
176
     1
 62
     5
 63
     7
421
 16777215
176
     1
 74
     2
176
     1
 91
        2
176
     1
 64
     7
176
     1
 65
   257
176
     1
 75
     1
176
     1
175
     1
176
     1
 42
40.0
176
     1
 92
        8
176
     1
 66
     7
176
     1
 43
1.0
176
     1
 76
     1
176
     1
 77
     6
176
     1
 78
     2
176
     1
 67
     7
176
     1
 79
     3
176
     1
170
     0
176
     1
171
     0
176
     1
290
     0
176
     1
 93
        1
176
     1
 44
0.0
176
     1
173
     0
176
     1
  0
VISUALSTYLE
  5
35
102
{ACAD_REACTORS
330
2A
102
}
330
2A
100
AcDbVisualStyle
  2
Dim
 70
    11
177
     2
291
     1
 71
     2
176
     1
 72
     2
176
     1
 73
     0
176
     1
 90
        0
176
     1
 40
-0.6
176
     1
 41
-30.0
176
     1
 62
     5
 63
     7
421
 16777215
176
     1
 74
     1
176
     1
 91
        4
176
     1
 64
     7
176
     1
 65
   257
176
     1
 75
     1
176
     1
175
     1
176
     1
 42
1.0
176
     1
 92
        8
176
     1
 66
     7
176
     1
 43
1.0
176
     1
 76
     1
176
     1
 77
     6
176
     1
 78
     2
176
     1
 67
     7
176
     1
 79
     5
176
     1
170
     0
176
     1
171
     0
176
     1
290
     0
176
     1
 93
        1
176
     1
 44
-50.0
176
     1
173
     0
176
     1
  0
VISUALSTYLE
  5
39
102
{ACAD_REACTORS
330
2A
102
}
330
2A
100
AcDbVisualStyle
  2
Facepattern
 70
    15
177
     2
291
     1
 71
     2
176
     1
 72
     2
176
     1
 73
     0
176
     1
 90
        0
176
     1
 40
-0.6
176
     1
 41
-30.0
176
     1
 62
     5
 63
     7
421
 16777215
176
     1
 74
     1
176
     1
 91
        4
176
     1
 64
     7
176
     1
 65
   257
176
     1
 75
     1
176
     1
175
     1
176
     1
 42
1.0
176
     1
 92
        8
176
     1
 66
     7
176
     1
 43
1.0
176
     1
 76
     1
176
     1
 77
     6
176
     1
 78
     2
176
     1
 67
     7
176
     1
 79
     5
176
     1
170
     0
176
     1
171
     0
176
     1
290
     0
176
     1
 93
        1
176
     1
 44
0.0
176
     1
173
     0
176
     1
  0
VISUALSTYLE
  5
2B
102
{ACAD_REACTORS
330
2A
102
}
330
2A
100
AcDbVisualStyle
  2
Flat
 70
     0
177
     2
291
     1
 71
     2
176
     1
 72
     1
176
     1
 73
     1
176
     1
 90
        2
176
     1
 40
-0.6
176
     1
 41
30.0
176
     1
 62
     5
 63
     7
421
 16777215
176
     1
 74
     0
176
     1
 91
        4
176
     1
 64
     7
176
     1
 65
   257
176
     1
 75
     1
176
     1
175
     1
176
     1
 42
1.0
176
     1
 92
        8
176
     1
 66
     7
176
     1
 43
1.0
176
     1
 76
     1
176
     1
 77
     6
176
     1
 78
     2
176
     1
 67
     7
176
     1
 79
     5
176
     1
170
     0
176
     1
171
     0
176
     1
290
     0
176
     1
 93
       13
176
     1
 44
0.0
176
     1
173
     0
176
     1
  0
VISUALSTYLE
  5
2C
102
{ACAD_REACTORS
330
2A
102
}
330
2A
100
AcDbVisualStyle
  2
FlatWithEdges
 70
     1
177
     2
291
     1
 71
     2
176
     1
 72
     1
176
     1
 73
     1
176
     1
 90
        2
176
     1
 40
-0.6
176
     1
 41
30.0
176
     1
 62
     5
 63
     7
421
 16777215
176
     1
 74
     1
176
     1
 91
        4
176
     1
 64
     7
176
     1
 65
   257
176
     1
 75
     1
176
     1
175
     1
176
     1
 42
1.0
176
     1
 92
        0
176
     1
 66
   257
176
     1
 43
1.0
176
     1
 76
     1
176
     1
 77
     6
176
     1
 78
     2
176
     1
 67
     7
176
     1
 79
     5
176
     1
170
     0
176
     1
171
     0
176
     1
290
     0
176
     1
 93
       13
176
     1
 44
0.0
176
     1
173
     0
176
     1
  0
VISUALSTYLE
  5
2D
102
{ACAD_REACTORS
330
2A
102
}
330
2A
100
AcDbVisualStyle
  2
Gouraud
 70
     2
177
     2
291
     1
 71
     2
176
     1
 72
     2
176
     1
 73
     1
176
     1
 90
        2
176
     1
 40
-0.6
176
     1
 41
30.0
176
     1
 62
     5
 63
     7
421
 16777215
176
     1
 74
     0
176
     1
 91
        4
176
     1
 64
     7
176
     1
 65
   257
176
     1
 75
     1
176
     1
175
     1
176
     1
 42
1.0
176
     1
 92
        0
176
     1
 66
     7
176
     1
 43
1.0
176
     1
 76
     1
176
     1
 77
     6
176
     1
 78
     2
176
     1
 67
     7
176
     1
 79
     5
176
     1
170
     0
176
     1
171
     0
176
     1
290
     0
176
     1
 93
       13
176
     1
 44
0.0
176
     1
173
     0
176
     1
  0
VISUALSTYLE
  5
2E
102
{ACAD_REACTORS
330
2A
102
}
330
2A
100
AcDbVisualStyle
  2
GouraudWithEdges
 70
     3
177
     2
291
     1
 71
     2
176
     1
 72
     2
176
     1
 73
     1
176
     1
 90
        2
176
     1
 40
-0.6
176
     1
 41
30.0
176
     1
 62
     5
 63
     7
421
 16777215
176
     1
 74
     1
176
     1
 91
        4
176
     1
 64
     7
176
     1
 65
   257
176
     1
 75
     1
176
     1
175
     1
176
     1
 42
1.0
176
     1
 92
        0
176
     1
 66
   257
176
     1
 43
1.0
176
     1
 76
     1
176
     1
 77
     6
176
     1
 78
     2
176
     1
 67
     7
176
     1
 79
     5
176
     1
170
     0
176
     1
171
     0
176
     1
290
     0
176
     1
 93
       13
176
     1
 44
0.0
176
     1
173
     0
176
     1
  0
VISUALSTYLE
  5
38
102
{ACAD_REACTORS
330
2A
102
}
330
2A
100
AcDbVisualStyle
  2
Linepattern
 70
    14
177
     2
291
     1
 71
     2
176
     1
 72
     2
176
     1
 73
     0
176
     1
 90
        0
176
     1
 40
-0.6
176
     1
 41
-30.0
176
     1
 62
     5
 63
     7
421
 16777215
176
     1
 74
     1
176
     1
 91
        4
176
     1
 64
     7
176
     1
 65
   257
176
     1
 75
     7
176
     1
175
     7
176
     1
 42
1.0
176
     1
 92
        8
176
     1
 66
     7
176
     1
 43
1.0
176
     1
 76
     1
176
     1
 77
     6
176
     1
 78
     2
176
     1
 67
     7
176
     1
 79
     5
176
     1
170
     0
176
     1
171
     0
176
     1
290
     0
176
     1
 93
        1
176
     1
 44
0.0
176
     1
173
     0
176
     1
  0
VISUALSTYLE
  5
33
102
{ACAD_REACTORS
330
2A
102
}
330
2A
100
AcDbVisualStyle
  2
Realistic
 70
     8
177
     2
291
     0
 71
     2
176
     1
 72
     2
176
     1
 73
     0
176
     1
 90
        0
176
     1
 40
-0.6
176
     1
 41
-30.0
176
     1
 62
     5
 63
     7
421
 16777215
176
     1
 74
     1
176
     1
 91
        0
176
     1
 64
     7
176
     1
 65
   257
176
     1
 75
     1
176
     1
175
     1
176
     1
 42
1.0
176
     1
 92
        8
176
     1
 66
     8
424
  7895160
176
     1
 43
1.0
176
     1
 76
     1
176
     1
 77
     6
176
     1
 78
     2
176
     1
 67
     7
176
     1
 79
     5
176
     1
170
     0
176
     1
171
     0
176
     1
290
     0
176
     1
 93
       13
176
     1
 44
0.0
176
     1
173
     0
176
     1
  0
VISUALSTYLE
  5
37
102
{ACAD_REACTORS
330
2A
102
}
330
2A
100
AcDbVisualStyle
  2
Thicken
 70
    13
177
     2
291
     1
 71
     2
176
     1
 72
     2
176
     1
 73
     0
176
     1
 90
        0
176
     1
 40
-0.6
176
     1
 41
-30.0
176
     1
 62
     5
 63
     7
421
 16777215
176
     1
 74
     1
176
     1
 91
        4
176
     1
 64
     7
176
     1
 65
   257
176
     1
 75
     1
176
     1
175
     1
176
     1
 42
1.0
176
     1
 92
       12
176
     1
 66
     7
176
     1
 43
1.0
176
     1
 76
     1
176
     1
 77
     6
176
     1
 78
     2
176
     1
 67
     7
176
     1
 79
     5
176
     1
170
     0
176
     1
171
     0
176
     1
290
     0
176
     1
 93
        1
176
     1
 44
0.0
176
     1
173
     0
176
     1
  0
ENDSEC
  0
EOF
