  0
SECTION
  2
HEADER
  9
$ACADVER
  1
AC1024
  9
$ACADMAINTVER
 70
     6
  9
$DWGCODEPAGE
  3
UNDEFINED
  9
$INSBASE
 10
0.0
 20
0.0
 30
0.0
  9
$EXTMIN
 10
1.000000000000000E+20
 20
1.000000000000000E+20
 30
1.000000000000000E+20
  9
$EXTMAX
 10
-1.000000000000000E+20
 20
-1.000000000000000E+20
 30
-1.000000000000000E+20
  9
$LIMMIN
 10
0.0
 20
0.0
  9
$LIMMAX
 10
12.0
 20
9.0
  9
$ORTHOMODE
 70
     0
  9
$REGENMODE
 70
     1
  9
$FILLMODE
 70
     1
  9
$QTEXTMODE
 70
     0
  9
$MIRRTEXT
 70
     1
  9
$LTSCALE
 40
1.0
  9
$ATTMODE
 70
     1
  9
$TEXTSIZE
 40
0.2
  9
$TRACEWID
 40
0.05
  9
$TEXTSTYLE
  7
Standard
  9
$CLAYER
  8
0
  9
$CELTYPE
  6
ByLayer
  9
$CECOLOR
 62
   256
  9
$CELTSCALE
 40
1.0
  9
$DISPSILH
 70
     0
  9
$DIMSCALE
 40
1.0
  9
$DIMASZ
 40
0.18
  9
$DIMEXO
 40
0.0625
  9
$DIMDLI
 40
0.38
  9
$DIMRND
 40
0.0
  9
$DIMDLE
 40
0.0
  9
$DIMEXE
 40
0.18
  9
$DIMTP
 40
0.0
  9
$DIMTM
 40
0.0
  9
$DIMTXT
 40
0.18
  9
$DIMCEN
 40
0.09
  9
$DIMTSZ
 40
0.0
  9
$DIMTOL
 70
     0
  9
$DIMLIM
 70
     0
  9
$DIMTIH
 70
     1
  9
$DIMTOH
 70
     1
  9
$DIMSE1
 70
     0
  9
$DIMSE2
 70
     0
  9
$DIMTAD
 70
     0
  9
$DIMZIN
 70
     0
  9
$DIMBLK
  1

  9
$DIMASO
 70
     1
  9
$DIMSHO
 70
     1
  9
$DIMPOST
  1

  9
$DIMAPOST
  1

  9
$DIMALT
 70
     0
  9
$DIMALTD
 70
     2
  9
$DIMALTF
 40
25.4
  9
$DIMLFAC
 40
1.0
  9
$DIMTOFL
 70
     0
  9
$DIMTVP
 40
0.0
  9
$DIMTIX
 70
     0
  9
$DIMSOXD
 70
     0
  9
$DIMSAH
 70
     0
  9
$DIMBLK1
  1

  9
$DIMBLK2
  1

  9
$DIMSTYLE
  2
Standard
  9
$DIMCLRD
 70
     0
  9
$DIMCLRE
 70
     0
  9
$DIMCLRT
 70
     0
  9
$DIMTFAC
 40
1.0
  9
$DIMGAP
 40
0.09
  9
$DIMJUST
 70
     0
  9
$DIMSD1
 70
     0
  9
$DIMSD2
 70
     0
  9
$DIMTOLJ
 70
     1
  9
$DIMTZIN
 70
     0
  9
$DIMALTZ
 70
     0
  9
$DIMALTTZ
 70
     0
  9
$DIMUPT
 70
     0
  9
$DIMDEC
 70
     4
  9
$DIMTDEC
 70
     4
  9
$DIMALTU
 70
     2
  9
$DIMALTTD
 70
     2
  9
$DIMTXSTY
  7
Standard
  9
$DIMAUNIT
 70
     0
  9
$DIMADEC
 70
     0
  9
$DIMALTRND
 40
0.0
  9
$DIMAZIN
 70
     0
  9
$DIMDSEP
 70
    46
  9
$DIMATFIT
 70
     3
  9
$DIMFRAC
 70
     0
  9
$DIMLDRBLK
  1

  9
$DIMLUNIT
 70
     2
  9
$DIMLWD
 70
    -2
  9
$DIMLWE
 70
    -2
  9
$DIMTMOVE
 70
     0
  9
$DIMFXL
 40
1.0
  9
$DIMFXLON
 70
     0
  9
$DIMJOGANG
 40
0.7853981633974483
  9
$DIMTFILL
 70
     0
  9
$DIMTFILLCLR
 70
     0
  9
$DIMARCSYM
 70
     0
  9
$DIMLTYPE
  6

  9
$DIMLTEX1
  6

  9
$DIMLTEX2
  6

  9
$DIMTXTDIRECTION
 70
     0
  9
$LUNITS
 70
     2
  9
$LUPREC
 70
     4
  9
$SKETCHINC
 40
0.1
  9
$FILLETRAD
 40
0.5
  9
$AUNITS
 70
     0
  9
$AUPREC
 70
     0
  9
$MENU
  1
.
  9
$ELEVATION
 40
0.0
  9
$PELEVATION
 40
0.0
  9
$THICKNESS
 40
0.0
  9
$LIMCHECK
 70
     0
  9
$CHAMFERA
 40
0.5
  9
$CHAMFERB
 40
0.5
  9
$CHAMFERC
 40
1.0
  9
$CHAMFERD
 40
0.0
  9
$SKPOLY
 70
     0
  9
$TDCREATE
 40
2457917.621122685
  9
$TDUCREATE
 40
2457917.246122685
  9
$TDUPDATE
 40
2457917.621122685
  9
$TDUUPDATE
 40
2457917.246122685
  9
$TDINDWG
 40
0.0000000116
  9
$TDUSRTIMER
 40
0.0000000116
  9
$USRTIMER
 70
     1
  9
$ANGBASE
 50
0.0
  9
$ANGDIR
 70
     0
  9
$PDMODE
 70
     0
  9
$PDSIZE
 40
0.0
  9
$PLINEWID
 40
0.0
  9
$SPLFRAME
 70
     0
  9
$SPLINETYPE
 70
     6
  9
$SPLINESEGS
 70
     8
  9
$HANDSEED
  5
C7
  9
$SURFTAB1
 70
     6
  9
$SURFTAB2
 70
     6
  9
$SURFTYPE
 70
     6
  9
$SURFU
 70
     6
  9
$SURFV
 70
     6
  9
$UCSBASE
  2

  9
$UCSNAME
  2

  9
$UCSORG
 10
0.0
 20
0.0
 30
0.0
  9
$UCSXDIR
 10
1.0
 20
0.0
 30
0.0
  9
$UCSYDIR
 10
0.0
 20
1.0
 30
0.0
  9
$UCSORTHOREF
  2

  9
$UCSORTHOVIEW
 70
     0
  9
$UCSORGTOP
 10
0.0
 20
0.0
 30
0.0
  9
$UCSORGBOTTOM
 10
0.0
 20
0.0
 30
0.0
  9
$UCSORGLEFT
 10
0.0
 20
0.0
 30
0.0
  9
$UCSORGRIGHT
 10
0.0
 20
0.0
 30
0.0
  9
$UCSORGFRONT
 10
0.0
 20
0.0
 30
0.0
  9
$UCSORGBACK
 10
0.0
 20
0.0
 30
0.0
  9
$PUCSBASE
  2

  9
$PUCSNAME
  2

  9
$PUCSORG
 10
0.0
 20
0.0
 30
0.0
  9
$PUCSXDIR
 10
1.0
 20
0.0
 30
0.0
  9
$PUCSYDIR
 10
0.0
 20
1.0
 30
0.0
  9
$PUCSORTHOREF
  2

  9
$PUCSORTHOVIEW
 70
     0
  9
$PUCSORGTOP
 10
0.0
 20
0.0
 30
0.0
  9
$PUCSORGBOTTOM
 10
0.0
 20
0.0
 30
0.0
  9
$PUCSORGLEFT
 10
0.0
 20
0.0
 30
0.0
  9
$PUCSORGRIGHT
 10
0.0
 20
0.0
 30
0.0
  9
$PUCSORGFRONT
 10
0.0
 20
0.0
 30
0.0
  9
$PUCSORGBACK
 10
0.0
 20
0.0
 30
0.0
  9
$USERI1
 70
     0
  9
$USERI2
 70
     0
  9
$USERI3
 70
     0
  9
$USERI4
 70
     0
  9
$USERI5
 70
     0
  9
$USERR1
 40
0.0
  9
$USERR2
 40
0.0
  9
$USERR3
 40
0.0
  9
$USERR4
 40
0.0
  9
$USERR5
 40
0.0
  9
$WORLDVIEW
 70
     1
  9
$SHADEDGE
 70
     3
  9
$SHADEDIF
 70
    70
  9
$TILEMODE
 70
     1
  9
$MAXACTVP
 70
    64
  9
$PINSBASE
 10
0.0
 20
0.0
 30
0.0
  9
$PLIMCHECK
 70
     0
  9
$PEXTMIN
 10
1.000000000000000E+20
 20
1.000000000000000E+20
 30
1.000000000000000E+20
  9
$PEXTMAX
 10
-1.000000000000000E+20
 20
-1.000000000000000E+20
 30
-1.000000000000000E+20
  9
$PLIMMIN
 10
0.0
 20
0.0
  9
$PLIMMAX
 10
12.0
 20
9.0
  9
$UNITMODE
 70
     0
  9
$VISRETAIN
 70
     1
  9
$PLINEGEN
 70
     0
  9
$PSLTSCALE
 70
     1
  9
$TREEDEPTH
 70
  3020
  9
$CMLSTYLE
  2
Standard
  9
$CMLJUST
 70
     0
  9
$CMLSCALE
 40
1.0
  9
$PROXYGRAPHICS
 70
     1
  9
$MEASUREMENT
 70
     0
  9
$CELWEIGHT
370
    -1
  9
$ENDCAPS
280
     0
  9
$JOINSTYLE
280
     0
  9
$LWDISPLAY
290
     1
  9
$INSUNITS
 70
     1
  9
$HYPERLINKBASE
  1

  9
$STYLESHEET
  1

  9
$XEDIT
290
     1
  9
$CEPSNTYPE
380
     0
  9
$PSTYLEMODE
290
     1
  9
$FINGERPRINTGUID
  2
{ADC1644B-82B1-DE92-3C0E-6E1CFFB2EAC3}
  9
$VERSIONGUID
  2
{FAEB1C32-E019-11D5-929B-00C0DF256EC4}
  9
$EXTNAMES
290
     1
  9
$PSVPSCALE
 40
0.0
  9
$OLESTARTUP
290
     0
  9
$SORTENTS
280
   127
  9
$INDEXCTL
280
     0
  9
$HIDETEXT
280
     1
  9
$XCLIPFRAME
280
     2
  9
$HALOGAP
280
     0
  9
$OBSCOLOR
 70
   257
  9
$OBSLTYPE
280
     0
  9
$INTERSECTIONDISPLAY
280
     0
  9
$INTERSECTIONCOLOR
 70
   257
  9
$DIMASSOC
280
     2
  9
$PROJECTNAME
  1

  9
$CAMERADISPLAY
290
     0
  9
$LENSLENGTH
 40
50.0
  9
$CAMERAHEIGHT
 40
0.0
  9
$STEPSPERSEC
 40
2.0
  9
$STEPSIZE
 40
6.0
  9
$3DDWFPREC
 40
2.0
  9
$PSOLWIDTH
 40
0.25
  9
$PSOLHEIGHT
 40
4.0
  9
$LOFTANG1
 40
1.570796326794897
  9
$LOFTANG2
 40
1.570796326794897
  9
$LOFTMAG1
 40
0.0
  9
$LOFTMAG2
 40
0.0
  9
$LOFTPARAM
 70
     7
  9
$LOFTNORMALS
280
     1
  9
$LATITUDE
 40
37.795
  9
$LONGITUDE
 40
-122.394
  9
$NORTHDIRECTION
 40
0.0
  9
$TIMEZONE
 70
 -8000
  9
$LIGHTGLYPHDISPLAY
280
     1
  9
$TILEMODELIGHTSYNCH
280
     1
  9
$CMATERIAL
347
3C
  9
$SOLIDHIST
280
     1
  9
$SHOWHIST
280
     1
  9
$DWFFRAME
280
     2
  9
$DGNFRAME
280
     2
  9
$REALWORLDSCALE
290
     1
  9
$INTERFERECOLOR
 62
   256
  9
$CSHADOW
280
     0
  9
$SHADOWPLANELOCATION
 40
0.0
  0
ENDSEC
  0
SECTION
  2
CLASSES
  0
CLASS
  1
ACDBDICTIONARYWDFLT
  2
AcDbDictionaryWithDefault
  3
ObjectDBX Classes
 90
        0
 91
        4
280
     0
281
     0
  0
CLASS
  1
VISUALSTYLE
  2
AcDbVisualStyle
  3
ObjectDBX Classes
 90
     4095
 91
        4
280
     0
281
     0
  0
CLASS
  1
MATERIAL
  2
AcDbMaterial
  3
ObjectDBX Classes
 90
     1153
 91
        4
280
     0
281
     0
  0
CLASS
  1
SUN
  2
AcDbSun
  3
SCENEOE
 90
     1024
 91
        4
280
     0
281
     0
  0
ENDSEC
  0
SECTION
  2
TABLES
  0
TABLE
  2
VPORT
  5
8
330
0
100
AcDbSymbolTable
 70
     1
  0
VPORT
  5
29
330
8
100
AcDbSymbolTableRecord
100
AcDbViewportTableRecord
  2
*Active
 70
     0
 10
0.0
 20
0.0
 11
1.0
 21
1.0
 12
0.0
 22
0.0
 13
0.0
 23
0.0
 14
0.5
 24
0.5
 15
0.5
 25
0.5
 16
0.0
 26
0.0
 36
1.0
 17
91.00082462281999
 27
-128.4993055234307
 37
0.0
 40
256.9986110468615
 41
0.7081814508812795
 42
50.0
 43
0.0
 44
0.0
 50
0.0
 51
0.0
 71
     0
 72
   100
 73
     1
 74
     3
 75
     0
 76
     0
 77
     0
 78
     0
281
     0
 65
     1
110
0.0
120
0.0
130
0.0
111
1.0
121
0.0
131
0.0
112
0.0
122
1.0
132
0.0
 79
     0
146
0.0
 60
     3
 61
     5
292
     1
282
     1
141
0.0
142
0.0
 63
   250
361
3F
  0
ENDTAB
  0
TABLE
  2
LTYPE
  5
5
330
0
100
AcDbSymbolTable
 70
     1
  0
LTYPE
  5
14
330
5
100
AcDbSymbolTableRecord
100
AcDbLinetypeTableRecord
  2
ByBlock
 70
     0
  3

 72
    65
 73
     0
 40
0.0
  0
LTYPE
  5
15
330
5
100
AcDbSymbolTableRecord
100
AcDbLinetypeTableRecord
  2
ByLayer
 70
     0
  3

 72
    65
 73
     0
 40
0.0
  0
LTYPE
  5
16
330
5
100
AcDbSymbolTableRecord
100
AcDbLinetypeTableRecord
  2
Continuous
 70
     0
  3
Solid line
 72
    65
 73
     0
 40
0.0
  0
ENDTAB
  0
TABLE
  2
LAYER
  5
2
330
0
100
AcDbSymbolTable
 70
     2
  0
LAYER
  5
10
330
2
100
AcDbSymbolTableRecord
100
AcDbLayerTableRecord
  2
0
 70
     0
 62
     7
  6
Continuous
370
    -3
390
F
347
3E
  0
LAYER
  5
40
330
2
100
AcDbSymbolTableRecord
100
AcDbLayerTableRecord
  2
_U+30EC_U+30A4_U+30E4_U+30FC 1
 70
     0
 62
     7
  6
Continuous
370
    -3
390
F
347
3E
  0
ENDTAB
  0
TABLE
  2
STYLE
  5
3
330
0
100
AcDbSymbolTable
 70
     1
  0
STYLE
  5
11
330
3
100
AcDbSymbolTableRecord
100
AcDbTextStyleTableRecord
  2
Standard
 70
     0
 40
0.0
 41
1.0
 50
0.0
 71
     0
 42
0.2
  3
txt
  4

  0
ENDTAB
  0
TABLE
  2
VIEW
  5
6
330
0
100
AcDbSymbolTable
 70
     0
  0
ENDTAB
  0
TABLE
  2
UCS
  5
7
330
0
100
AcDbSymbolTable
 70
     0
  0
ENDTAB
  0
TABLE
  2
APPID
  5
9
330
0
100
AcDbSymbolTable
 70
     1
  0
APPID
  5
12
330
9
100
AcDbSymbolTableRecord
100
AcDbRegAppTableRecord
  2
ACAD
 70
     0
  0
ENDTAB
  0
TABLE
  2
DIMSTYLE
  5
A
330
0
100
AcDbSymbolTable
 70
     1
100
AcDbDimStyleTable
  0
DIMSTYLE
105
27
330
A
100
AcDbSymbolTableRecord
100
AcDbDimStyleTableRecord
  2
Standard
 70
     0
178
     0
340
11
  0
ENDTAB
  0
TABLE
  2
BLOCK_RECORD
  5
1
330
0
100
AcDbSymbolTable
 70
     6
  0
BLOCK_RECORD
  5
1F
330
1
100
AcDbSymbolTableRecord
100
AcDbBlockTableRecord
  2
*Model_Space
340
22
 70
     0
280
     1
281
     0
  0
BLOCK_RECORD
  5
1B
330
1
100
AcDbSymbolTableRecord
100
AcDbBlockTableRecord
  2
*Paper_Space
340
1E
 70
     0
280
     1
281
     0
  0
BLOCK_RECORD
  5
23
330
1
100
AcDbSymbolTableRecord
100
AcDbBlockTableRecord
  2
*Paper_Space0
340
26
 70
     0
280
     1
281
     0
  0
BLOCK_RECORD
  5
4B
330
1
100
AcDbSymbolTableRecord
100
AcDbBlockTableRecord
  2
block 2
340
0
102
{BLKREFS
331
4C
102
}
 70
     0
280
     1
281
     0
  0
BLOCK_RECORD
  5
7B
330
1
100
AcDbSymbolTableRecord
100
AcDbBlockTableRecord
  2
block 3
340
0
102
{BLKREFS
331
7C
102
}
 70
     0
280
     1
281
     0
  0
BLOCK_RECORD
  5
8F
330
1
100
AcDbSymbolTableRecord
100
AcDbBlockTableRecord
  2
block 4
340
0
102
{BLKREFS
331
90
102
}
 70
     0
280
     1
281
     0
  0
BLOCK_RECORD
  5
A7
330
1
100
AcDbSymbolTableRecord
100
AcDbBlockTableRecord
  2
block 5
340
0
102
{BLKREFS
331
A8
102
}
 70
     0
280
     1
281
     0
  0
BLOCK_RECORD
  5
B8
330
1
100
AcDbSymbolTableRecord
100
AcDbBlockTableRecord
  2
block 6
340
0
102
{BLKREFS
331
B9
102
}
 70
     0
280
     1
281
     0
  0
ENDTAB
  0
ENDSEC
  0
SECTION
  2
BLOCKS
  0
BLOCK
  5
20
330
1F
100
AcDbEntity
  8
0
100
AcDbBlockBegin
  2
*Model_Space
 70
     0
 10
0.0
 20
0.0
 30
0.0
  3
*Model_Space
  1

  0
ENDBLK
  5
21
330
1F
100
AcDbEntity
  8
0
100
AcDbBlockEnd
  0
BLOCK
  5
1C
330
1B
100
AcDbEntity
 67
     1
  8
0
100
AcDbBlockBegin
  2
*Paper_Space
 70
     0
 10
0.0
 20
0.0
 30
0.0
  3
*Paper_Space
  1

  0
ENDBLK
  5
1D
330
1B
100
AcDbEntity
 67
     1
  8
0
100
AcDbBlockEnd
  0
BLOCK
  5
24
330
23
100
AcDbEntity
  8
0
100
AcDbBlockBegin
  2
*Paper_Space0
 70
     0
 10
0.0
 20
0.0
 30
0.0
  3
*Paper_Space0
  1

  0
ENDBLK
  5
25
330
23
100
AcDbEntity
  8
0
100
AcDbBlockEnd
  0
BLOCK
  5
4D
330
4B
100
AcDbEntity
  8
0
100
AcDbBlockBegin
  2
block 2
 70
     0
 10
0.0
 20
0.0
 30
0.0
  3
block 2
  1

  0
POLYLINE
  5
4F
330
4B
100
AcDbEntity
  8
_U+30EC_U+30A4_U+30E4_U+30FC 1
 62
   179
420
  2234388
370
    25
100
AcDb2dPolyline
 66
     1
 10
0.0
 20
0.0
 30
0.0
  0
VERTEX
  5
50
330
4F
100
AcDbEntity
  8
_U+30EC_U+30A4_U+30E4_U+30FC 1
 62
   179
420
  2234388
370
    25
100
AcDbVertex
100
AcDb2dVertex
 10
88.11587858530999
 20
-131.6680966337499
 30
0.0
  0
VERTEX
  5
51
330
4F
100
AcDbEntity
  8
_U+30EC_U+30A4_U+30E4_U+30FC 1
 62
   179
420
  2234388
370
    25
100
AcDbVertex
100
AcDb2dVertex
 10
103.1158482026289
 20
-131.6680966337499
 30
0.0
  0
SEQEND
  5
52
330
4F
100
AcDbEntity
  8
_U+30EC_U+30A4_U+30E4_U+30FC 1
 62
   179
420
  2234388
370
    25
  0
POLYLINE
  5
53
330
4B
100
AcDbEntity
  8
_U+30EC_U+30A4_U+30E4_U+30FC 1
 62
   179
420
  2234388
370
    25
100
AcDb2dPolyline
 66
     1
 10
0.0
 20
0.0
 30
0.0
  0
VERTEX
  5
54
330
53
100
AcDbEntity
  8
_U+30EC_U+30A4_U+30E4_U+30FC 1
 62
   179
420
  2234388
370
    25
100
AcDbVertex
100
AcDb2dVertex
 10
88.61301301707148
 20
-130.4678408007161
 30
0.0
  0
VERTEX
  5
55
330
53
100
AcDbEntity
  8
_U+30EC_U+30A4_U+30E4_U+30FC 1
 62
   179
420
  2234388
370
    25
100
AcDbVertex
100
AcDb2dVertex
 10
103.1158482026289
 20
-130.4678408007161
 30
0.0
  0
SEQEND
  5
56
330
53
100
AcDbEntity
  8
_U+30EC_U+30A4_U+30E4_U+30FC 1
 62
   179
420
  2234388
370
    25
  0
POLYLINE
  5
57
330
4B
100
AcDbEntity
  8
_U+30EC_U+30A4_U+30E4_U+30FC 1
 62
   179
420
  2234388
370
    25
100
AcDb2dPolyline
 66
     1
 10
0.0
 20
0.0
 30
0.0
  0
VERTEX
  5
58
330
57
100
AcDbEntity
  8
_U+30EC_U+30A4_U+30E4_U+30FC 1
 62
   179
420
  2234388
370
    25
100
AcDbVertex
100
AcDb2dVertex
 10
88.11587858530999
 20
-131.6680966337499
 30
0.0
  0
VERTEX
  5
59
330
57
100
AcDbEntity
  8
_U+30EC_U+30A4_U+30E4_U+30FC 1
 62
   179
420
  2234388
370
    25
100
AcDbVertex
100
AcDb2dVertex
 10
77.50947385590192
 20
-121.0611624697347
 30
0.0
  0
SEQEND
  5
5A
330
57
100
AcDbEntity
  8
_U+30EC_U+30A4_U+30E4_U+30FC 1
 62
   179
420
  2234388
370
    25
  0
POLYLINE
  5
5B
330
4B
100
AcDbEntity
  8
_U+30EC_U+30A4_U+30E4_U+30FC 1
 62
   179
420
  2234388
370
    25
100
AcDb2dPolyline
 66
     1
 10
0.0
 20
0.0
 30
0.0
  0
VERTEX
  5
5C
330
5B
100
AcDbEntity
  8
_U+30EC_U+30A4_U+30E4_U+30FC 1
 62
   179
420
  2234388
370
    25
100
AcDbVertex
100
AcDb2dVertex
 10
88.61301301707148
 20
-130.4678408007161
 30
0.0
  0
VERTEX
  5
5D
330
5B
100
AcDbEntity
  8
_U+30EC_U+30A4_U+30E4_U+30FC 1
 62
   179
420
  2234388
370
    25
100
AcDbVertex
100
AcDb2dVertex
 10
78.35801022314284
 20
-120.2129788588356
 30
0.0
  0
SEQEND
  5
5E
330
5B
100
AcDbEntity
  8
_U+30EC_U+30A4_U+30E4_U+30FC 1
 62
   179
420
  2234388
370
    25
  0
POLYLINE
  5
5F
330
4B
100
AcDbEntity
  8
_U+30EC_U+30A4_U+30E4_U+30FC 1
 62
   179
420
  2234388
370
    25
100
AcDb2dPolyline
 66
     1
 10
0.0
 20
0.0
 30
0.0
  0
VERTEX
  5
60
330
5F
100
AcDbEntity
  8
_U+30EC_U+30A4_U+30E4_U+30FC 1
 62
   179
420
  2234388
370
    25
100
AcDbVertex
100
AcDb2dVertex
 10
77.50947385590192
 20
-121.0611624697347
 30
0.0
  0
VERTEX
  5
61
330
5F
100
AcDbEntity
  8
_U+30EC_U+30A4_U+30E4_U+30FC 1
 62
   179
420
  2234388
370
    25
100
AcDbVertex
100
AcDb2dVertex
 10
78.35801022314284
 20
-120.2129788588356
 30
0.0
  0
SEQEND
  5
62
330
5F
100
AcDbEntity
  8
_U+30EC_U+30A4_U+30E4_U+30FC 1
 62
   179
420
  2234388
370
    25
  0
POLYLINE
  5
63
330
4B
100
AcDbEntity
  8
_U+30EC_U+30A4_U+30E4_U+30FC 1
 62
   179
420
  2234388
370
    25
100
AcDb2dPolyline
 66
     1
 10
0.0
 20
0.0
 30
0.0
  0
VERTEX
  5
64
330
63
100
AcDbEntity
  8
_U+30EC_U+30A4_U+30E4_U+30FC 1
 62
   179
420
  2234388
370
    25
100
AcDbVertex
100
AcDb2dVertex
 10
103.1158482026289
 20
-130.4678408007161
 30
0.0
  0
VERTEX
  5
65
330
63
100
AcDbEntity
  8
_U+30EC_U+30A4_U+30E4_U+30FC 1
 62
   179
420
  2234388
370
    25
100
AcDbVertex
100
AcDb2dVertex
 10
103.1158482026289
 20
-131.6680966337499
 30
0.0
  0
SEQEND
  5
66
330
63
100
AcDbEntity
  8
_U+30EC_U+30A4_U+30E4_U+30FC 1
 62
   179
420
  2234388
370
    25
  0
SPLINE
  5
67
330
4B
100
AcDbEntity
  8
_U+30EC_U+30A4_U+30E4_U+30FC 1
 62
   179
420
  2234388
370
     9
100
AcDbSpline
210
0.0
220
0.0
230
1.0
 70
     8
 71
     3
 72
    17
 73
    13
 74
     0
 42
0.0000000001
 43
0.0000000001
 12
1.0
 22
0.0
 32
0.0
 13
1.0
 23
0.0
 33
0.0
 40
0.0
 40
0.0
 40
0.0
 40
0.0
 40
1.0
 40
1.0
 40
1.0
 40
2.0
 40
2.0
 40
2.0
 40
3.0
 40
3.0
 40
3.0
 40
4.0
 40
4.0
 40
4.0
 40
4.0
 10
103.1867944186476
 20
-135.5975824661007
 30
0.0
 10
103.1475276462651
 20
-135.5583182994437
 30
0.0
 10
103.084488863118
 20
-135.5583182994437
 30
0.0
 10
103.0452220933196
 20
-135.5975824661007
 30
0.0
 10
103.0062754276465
 20
-135.6368466327577
 30
0.0
 10
103.0062754276465
 20
-135.6995705216308
 30
0.0
 10
103.0452220933196
 20
-135.7388346882878
 30
0.0
 10
103.084488863118
 20
-135.7780988549441
 30
0.0
 10
103.1475276462651
 20
-135.7780988549441
 30
0.0
 10
103.1867944186476
 20
-135.7388346882878
 30
0.0
 10
103.2054184781215
 20
-135.7202432994035
 30
0.0
 10
103.2161076445155
 20
-135.6947374660766
 30
0.0
 10
103.2161076445155
 20
-135.6678557994162
 30
0.0
  0
SPLINE
  5
68
330
4B
100
AcDbEntity
  8
_U+30EC_U+30A4_U+30E4_U+30FC 1
 62
   179
420
  2234388
370
     9
100
AcDbSpline
210
0.0
220
0.0
230
1.0
 70
    11
 71
     3
 72
    17
 73
    13
 74
     0
 42
0.0000000001
 43
0.0000000001
 12
1.0
 22
0.0
 32
0.0
 13
1.0
 23
0.0
 33
0.0
 40
0.0
 40
0.0
 40
0.0
 40
0.0
 40
1.0
 40
1.0
 40
1.0
 40
2.0
 40
2.0
 40
2.0
 40
3.0
 40
3.0
 40
3.0
 40
4.0
 40
4.0
 40
4.0
 40
4.0
 10
107.2158314313629
 20
-131.6680966337499
 30
0.0
 10
107.2158314313629
 20
-131.6129927448744
 30
0.0
 10
107.1714194176515
 20
-131.5681899671077
 30
0.0
 10
107.1159247672451
 20
-131.5681899671077
 30
0.0
 10
107.060820879762
 20
-131.5681899671077
 30
0.0
 10
107.0160181031273
 20
-131.6129927448744
 30
0.0
 10
107.0160181031273
 20
-131.6680966337499
 30
0.0
 10
107.0160181031273
 20
-131.7232358004024
 30
0.0
 10
107.060820879762
 20
-131.7680033003916
 30
0.0
 10
107.1159247672451
 20
-131.7680033003916
 30
0.0
 10
107.1714194176515
 20
-131.7680033003916
 30
0.0
 10
107.2158314313629
 20
-131.7232358004024
 30
0.0
 10
107.2158314313629
 20
-131.6680966337499
 30
0.0
  0
SPLINE
  5
69
330
4B
100
AcDbEntity
  8
_U+30EC_U+30A4_U+30E4_U+30FC 1
 62
   179
420
  2234388
370
     9
100
AcDbSpline
210
0.0
220
0.0
230
1.0
 70
    11
 71
     3
 72
    17
 73
    13
 74
     0
 42
0.0000000001
 43
0.0000000001
 12
1.0
 22
0.0
 32
0.0
 13
1.0
 23
0.0
 33
0.0
 40
0.0
 40
0.0
 40
0.0
 40
0.0
 40
1.0
 40
1.0
 40
1.0
 40
2.0
 40
2.0
 40
2.0
 40
3.0
 40
3.0
 40
3.0
 40
4.0
 40
4.0
 40
4.0
 40
4.0
 10
107.2158314313629
 20
-130.4678408007161
 30
0.0
 10
107.2158314313629
 20
-130.4127016340637
 30
0.0
 10
107.1714194176515
 20
-130.3679341340745
 30
0.0
 10
107.1159247672451
 20
-130.3679341340745
 30
0.0
 10
107.060820879762
 20
-130.3679341340745
 30
0.0
 10
107.0160181031273
 20
-130.4127016340637
 30
0.0
 10
107.0160181031273
 20
-130.4678408007161
 30
0.0
 10
107.0160181031273
 20
-130.5236502451472
 30
0.0
 10
107.060820879762
 20
-130.5684177451357
 30
0.0
 10
107.1159247672451
 20
-130.5684177451357
 30
0.0
 10
107.1714194176515
 20
-130.5684177451357
 30
0.0
 10
107.2158314313629
 20
-130.5236502451472
 30
0.0
 10
107.2158314313629
 20
-130.4678408007161
 30
0.0
  0
SPLINE
  5
6A
330
4B
100
AcDbEntity
  8
_U+30EC_U+30A4_U+30E4_U+30FC 1
 62
   179
420
  2234388
370
     9
100
AcDbSpline
210
0.0
220
0.0
230
1.0
 70
    11
 71
     3
 72
    17
 73
    13
 74
     0
 42
0.0000000001
 43
0.0000000001
 12
1.0
 22
0.0
 32
0.0
 13
1.0
 23
0.0
 33
0.0
 40
0.0
 40
0.0
 40
0.0
 40
0.0
 40
1.0
 40
1.0
 40
1.0
 40
2.0
 40
2.0
 40
2.0
 40
3.0
 40
3.0
 40
3.0
 40
4.0
 40
4.0
 40
4.0
 40
4.0
 10
74.78094948106792
 20
-123.8895935801388
 30
0.0
 10
74.78094948106792
 20
-123.8344896912636
 30
0.0
 10
74.73618198221004
 20
-123.7896869134971
 30
0.0
 10
74.6810428169501
 20
-123.7896869134971
 30
0.0
 10
74.62576254058263
 20
-123.7896869134971
 30
0.0
 10
74.58095976394786
 20
-123.8344896912636
 30
0.0
 10
74.58095976394786
 20
-123.8895935801388
 30
0.0
 10
74.58095976394786
 20
-123.9447327467915
 30
0.0
 10
74.62576254058263
 20
-123.9895002467804
 30
0.0
 10
74.6810428169501
 20
-123.9895002467804
 30
0.0
 10
74.73618198221004
 20
-123.9895002467804
 30
0.0
 10
74.78094948106792
 20
-123.9447327467915
 30
0.0
 10
74.78094948106792
 20
-123.8895935801388
 30
0.0
  0
SPLINE
  5
6B
330
4B
100
AcDbEntity
  8
_U+30EC_U+30A4_U+30E4_U+30FC 1
 62
   179
420
  2234388
370
     9
100
AcDbSpline
210
0.0
220
0.0
230
1.0
 70
    11
 71
     3
 72
    17
 73
    13
 74
     0
 42
0.0000000001
 43
0.0000000001
 12
1.0
 22
0.0
 32
0.0
 13
1.0
 23
0.0
 33
0.0
 40
0.0
 40
0.0
 40
0.0
 40
0.0
 40
1.0
 40
1.0
 40
1.0
 40
2.0
 40
2.0
 40
2.0
 40
3.0
 40
3.0
 40
3.0
 40
4.0
 40
4.0
 40
4.0
 40
4.0
 10
85.38739164531971
 20
-134.4965277441536
 30
0.0
 10
85.38739164531971
 20
-134.4414238552787
 30
0.0
 10
85.3425888675533
 20
-134.396621077512
 30
0.0
 10
85.28748282413504
 20
-134.396621077512
 30
0.0
 10
85.2323436588751
 20
-134.396621077512
 30
0.0
 10
85.1875761600172
 20
-134.4414238552787
 30
0.0
 10
85.1875761600172
 20
-134.4965277441536
 30
0.0
 10
85.1875761600172
 20
-134.5516669108067
 30
0.0
 10
85.2323436588751
 20
-134.5964344107953
 30
0.0
 10
85.28748282413504
 20
-134.5964344107953
 30
0.0
 10
85.3425888675533
 20
-134.5964344107953
 30
0.0
 10
85.38739164531971
 20
-134.5516669108067
 30
0.0
 10
85.38739164531971
 20
-134.4965277441536
 30
0.0
  0
SPLINE
  5
6C
330
4B
100
AcDbEntity
  8
_U+30EC_U+30A4_U+30E4_U+30FC 1
 62
   179
420
  2234388
370
     9
100
AcDbSpline
210
0.0
220
0.0
230
1.0
 70
    11
 71
     3
 72
    17
 73
    13
 74
     0
 42
0.0000000001
 43
0.0000000001
 12
1.0
 22
0.0
 32
0.0
 13
1.0
 23
0.0
 33
0.0
 40
0.0
 40
0.0
 40
0.0
 40
0.0
 40
1.0
 40
1.0
 40
1.0
 40
2.0
 40
2.0
 40
2.0
 40
3.0
 40
3.0
 40
3.0
 40
4.0
 40
4.0
 40
4.0
 40
4.0
 10
88.21578524942782
 20
-135.6678557994162
 30
0.0
 10
88.21578524942782
 20
-135.6127519105412
 30
0.0
 10
88.17101775056993
 20
-135.5679491327745
 30
0.0
 10
88.11587858530999
 20
-135.5679491327745
 30
0.0
 10
88.06077469782691
 20
-135.5679491327745
 30
0.0
 10
88.01597192119215
 20
-135.6127519105412
 30
0.0
 10
88.01597192119215
 20
-135.6678557994162
 30
0.0
 10
88.01597192119215
 20
-135.7236652438466
 30
0.0
 10
88.06077469782691
 20
-135.7684680216133
 30
0.0
 10
88.11587858530999
 20
-135.7684680216133
 30
0.0
 10
88.17101775056993
 20
-135.7684680216133
 30
0.0
 10
88.21578524942782
 20
-135.7236652438466
 30
0.0
 10
88.21578524942782
 20
-135.6678557994162
 30
0.0
  0
SPLINE
  5
6D
330
4B
100
AcDbEntity
  8
_U+30EC_U+30A4_U+30E4_U+30FC 1
 62
   179
420
  2234388
370
     9
100
AcDbSpline
210
0.0
220
0.0
230
1.0
 70
    11
 71
     3
 72
    17
 73
    13
 74
     0
 42
0.0000000001
 43
0.0000000001
 12
1.0
 22
0.0
 32
0.0
 13
1.0
 23
0.0
 33
0.0
 40
0.0
 40
0.0
 40
0.0
 40
0.0
 40
1.0
 40
1.0
 40
1.0
 40
2.0
 40
2.0
 40
2.0
 40
3.0
 40
3.0
 40
3.0
 40
4.0
 40
4.0
 40
4.0
 40
4.0
 10
85.88484142000627
 20
-127.6392333014235
 30
0.0
 10
85.88484142000627
 20
-127.5841294125486
 30
0.0
 10
85.84007392114837
 20
-127.5393266347819
 30
0.0
 10
85.78458197811965
 20
-127.5393266347819
 30
0.0
 10
85.72947809063658
 20
-127.5393266347819
 30
0.0
 10
85.68467531400182
 20
-127.5841294125486
 30
0.0
 10
85.68467531400182
 20
-127.6392333014235
 30
0.0
 10
85.68467531400182
 20
-127.6950427458539
 30
0.0
 10
85.72947809063658
 20
-127.7398455236207
 30
0.0
 10
85.78458197811965
 20
-127.7398455236207
 30
0.0
 10
85.84007392114837
 20
-127.7398455236207
 30
0.0
 10
85.88484142000627
 20
-127.6950427458539
 30
0.0
 10
85.88484142000627
 20
-127.6392333014235
 30
0.0
  0
SPLINE
  5
6E
330
4B
100
AcDbEntity
  8
_U+30EC_U+30A4_U+30E4_U+30FC 1
 62
   179
420
  2234388
370
     9
100
AcDbSpline
210
0.0
220
0.0
230
1.0
 70
    11
 71
     3
 72
    17
 73
    13
 74
     0
 42
0.0000000001
 43
0.0000000001
 12
1.0
 22
0.0
 32
0.0
 13
1.0
 23
0.0
 33
0.0
 40
0.0
 40
0.0
 40
0.0
 40
0.0
 40
1.0
 40
1.0
 40
1.0
 40
2.0
 40
2.0
 40
2.0
 40
3.0
 40
3.0
 40
3.0
 40
4.0
 40
4.0
 40
4.0
 40
4.0
 10
92.7130315235824
 20
-130.4678408007161
 30
0.0
 10
92.7130315235824
 20
-130.4127016340637
 30
0.0
 10
92.66822874694763
 20
-130.3679341340745
 30
0.0
 10
92.61312485946456
 20
-130.3679341340745
 30
0.0
 10
92.55798569420462
 20
-130.3679341340745
 30
0.0
 10
92.51321819534672
 20
-130.4127016340637
 30
0.0
 10
92.51321819534672
 20
-130.4678408007161
 30
0.0
 10
92.51321819534672
 20
-130.5236502451472
 30
0.0
 10
92.55798569420462
 20
-130.5684177451357
 30
0.0
 10
92.61312485946456
 20
-130.5684177451357
 30
0.0
 10
92.66822874694763
 20
-130.5684177451357
 30
0.0
 10
92.7130315235824
 20
-130.5236502451472
 30
0.0
 10
92.7130315235824
 20
-130.4678408007161
 30
0.0
  0
POLYLINE
  5
6F
330
4B
100
AcDbEntity
  8
_U+30EC_U+30A4_U+30E4_U+30FC 1
 62
   179
420
  2234388
370
     9
100
AcDb2dPolyline
 66
     1
 10
0.0
 20
0.0
 30
0.0
  0
VERTEX
  5
70
330
6F
100
AcDbEntity
  8
_U+30EC_U+30A4_U+30E4_U+30FC 1
 62
   179
420
  2234388
370
     9
100
AcDbVertex
100
AcDb2dVertex
 10
74.6810428169501
 20
-123.8895935801388
 30
0.0
  0
VERTEX
  5
71
330
6F
100
AcDbEntity
  8
_U+30EC_U+30A4_U+30E4_U+30FC 1
 62
   179
420
  2234388
370
     9
100
AcDbVertex
100
AcDb2dVertex
 10
85.28748282413504
 20
-134.4965277441536
 30
0.0
  0
SEQEND
  5
72
330
6F
100
AcDbEntity
  8
_U+30EC_U+30A4_U+30E4_U+30FC 1
 62
   179
420
  2234388
370
     9
  0
POLYLINE
  5
73
330
4B
100
AcDbEntity
  8
_U+30EC_U+30A4_U+30E4_U+30FC 1
 62
   179
420
  2234388
370
     9
100
AcDb2dPolyline
 66
     1
 10
0.0
 20
0.0
 30
0.0
  0
VERTEX
  5
74
330
73
100
AcDbEntity
  8
_U+30EC_U+30A4_U+30E4_U+30FC 1
 62
   179
420
  2234388
370
     9
100
AcDbVertex
100
AcDb2dVertex
 10
75.71337640172418
 20
-122.8574363581746
 30
0.0
  0
VERTEX
  5
75
330
73
100
AcDbEntity
  8
_U+30EC_U+30A4_U+30E4_U+30FC 1
 62
   179
420
  2234388
370
     9
100
AcDbVertex
100
AcDb2dVertex
 10
73.97379394610462
 20
-124.5972305244064
 30
0.0
  0
SEQEND
  5
76
330
73
100
AcDbEntity
  8
_U+30EC_U+30A4_U+30E4_U+30FC 1
 62
   179
420
  2234388
370
     9
  0
POLYLINE
  5
77
330
4B
100
AcDbEntity
  8
_U+30EC_U+30A4_U+30E4_U+30FC 1
 62
   179
420
  2234388
370
     9
100
AcDb2dPolyline
 66
     1
 10
0.0
 20
0.0
 30
0.0
  0
VERTEX
  5
78
330
77
100
AcDbEntity
  8
_U+30EC_U+30A4_U+30E4_U+30FC 1
 62
   179
420
  2234388
370
     9
100
AcDbVertex
100
AcDb2dVertex
 10
86.31995752001664
 20
-133.4643705221891
 30
0.0
  0
VERTEX
  5
79
330
77
100
AcDbEntity
  8
_U+30EC_U+30A4_U+30E4_U+30FC 1
 62
   179
420
  2234388
370
     9
100
AcDbVertex
100
AcDb2dVertex
 10
84.58055145328147
 20
-135.2034591328657
 30
0.0
  0
SEQEND
  5
7A
330
77
100
AcDbEntity
  8
_U+30EC_U+30A4_U+30E4_U+30FC 1
 62
   179
420
  2234388
370
     9
  0
INSERT
  5
7C
330
4B
100
AcDbEntity
  8
_U+30EC_U+30A4_U+30E4_U+30FC 1
100
AcDbBlockReference
  2
block 3
 10
0.0
 20
0.0
 30
0.0
  0
POLYLINE
  5
83
330
4B
100
AcDbEntity
  8
_U+30EC_U+30A4_U+30E4_U+30FC 1
 62
   179
420
  2234388
370
     9
100
AcDb2dPolyline
 66
     1
 10
0.0
 20
0.0
 30
0.0
  0
VERTEX
  5
84
330
83
100
AcDbEntity
  8
_U+30EC_U+30A4_U+30E4_U+30FC 1
 62
   179
420
  2234388
370
     9
100
AcDbVertex
100
AcDb2dVertex
 10
88.11587858530999
 20
-135.6678557994162
 30
0.0
  0
VERTEX
  5
85
330
83
100
AcDbEntity
  8
_U+30EC_U+30A4_U+30E4_U+30FC 1
 62
   179
420
  2234388
370
     9
100
AcDbVertex
100
AcDb2dVertex
 10
103.1158482026289
 20
-135.6678557994162
 30
0.0
  0
SEQEND
  5
86
330
83
100
AcDbEntity
  8
_U+30EC_U+30A4_U+30E4_U+30FC 1
 62
   179
420
  2234388
370
     9
  0
POLYLINE
  5
87
330
4B
100
AcDbEntity
  8
_U+30EC_U+30A4_U+30E4_U+30FC 1
 62
   179
420
  2234388
370
     9
100
AcDb2dPolyline
 66
     1
 10
0.0
 20
0.0
 30
0.0
  0
VERTEX
  5
88
330
87
100
AcDbEntity
  8
_U+30EC_U+30A4_U+30E4_U+30FC 1
 62
   179
420
  2234388
370
     9
100
AcDbVertex
100
AcDb2dVertex
 10
88.11587858530999
 20
-134.2078144108925
 30
0.0
  0
VERTEX
  5
89
330
87
100
AcDbEntity
  8
_U+30EC_U+30A4_U+30E4_U+30FC 1
 62
   179
420
  2234388
370
     9
100
AcDbVertex
100
AcDb2dVertex
 10
88.11587858530999
 20
-136.6683335769442
 30
0.0
  0
SEQEND
  5
8A
330
87
100
AcDbEntity
  8
_U+30EC_U+30A4_U+30E4_U+30FC 1
 62
   179
420
  2234388
370
     9
  0
POLYLINE
  5
8B
330
4B
100
AcDbEntity
  8
_U+30EC_U+30A4_U+30E4_U+30FC 1
 62
   179
420
  2234388
370
     9
100
AcDb2dPolyline
 66
     1
 10
0.0
 20
0.0
 30
0.0
  0
VERTEX
  5
8C
330
8B
100
AcDbEntity
  8
_U+30EC_U+30A4_U+30E4_U+30FC 1
 62
   179
420
  2234388
370
     9
100
AcDbVertex
100
AcDb2dVertex
 10
103.1158482026289
 20
-134.2078144108925
 30
0.0
  0
VERTEX
  5
8D
330
8B
100
AcDbEntity
  8
_U+30EC_U+30A4_U+30E4_U+30FC 1
 62
   179
420
  2234388
370
     9
100
AcDbVertex
100
AcDb2dVertex
 10
103.1158482026289
 20
-136.6683335769442
 30
0.0
  0
SEQEND
  5
8E
330
8B
100
AcDbEntity
  8
_U+30EC_U+30A4_U+30E4_U+30FC 1
 62
   179
420
  2234388
370
     9
  0
INSERT
  5
90
330
4B
100
AcDbEntity
  8
_U+30EC_U+30A4_U+30E4_U+30FC 1
100
AcDbBlockReference
  2
block 4
 10
0.0
 20
0.0
 30
0.0
  0
POLYLINE
  5
97
330
4B
100
AcDbEntity
  8
_U+30EC_U+30A4_U+30E4_U+30FC 1
 62
   179
420
  2234388
370
     9
100
AcDb2dPolyline
 66
     1
 10
0.0
 20
0.0
 30
0.0
  0
VERTEX
  5
98
330
97
100
AcDbEntity
  8
_U+30EC_U+30A4_U+30E4_U+30FC 1
 62
   179
420
  2234388
370
     9
100
AcDbVertex
100
AcDb2dVertex
 10
107.1159247672451
 20
-130.4678408007161
 30
0.0
  0
VERTEX
  5
99
330
97
100
AcDbEntity
  8
_U+30EC_U+30A4_U+30E4_U+30FC 1
 62
   179
420
  2234388
370
     9
100
AcDbVertex
100
AcDb2dVertex
 10
107.1159247672451
 20
-125.2104288575863
 30
0.0
  0
SEQEND
  5
9A
330
97
100
AcDbEntity
  8
_U+30EC_U+30A4_U+30E4_U+30FC 1
 62
   179
420
  2234388
370
     9
  0
POLYLINE
  5
9B
330
4B
100
AcDbEntity
  8
_U+30EC_U+30A4_U+30E4_U+30FC 1
 62
   179
420
  2234388
370
     9
100
AcDb2dPolyline
 66
     1
 10
0.0
 20
0.0
 30
0.0
  0
VERTEX
  5
9C
330
9B
100
AcDbEntity
  8
_U+30EC_U+30A4_U+30E4_U+30FC 1
 62
   179
420
  2234388
370
     9
100
AcDbVertex
100
AcDb2dVertex
 10
107.1159247672451
 20
-132.6678688557218
 30
0.0
  0
VERTEX
  5
9D
330
9B
100
AcDbEntity
  8
_U+30EC_U+30A4_U+30E4_U+30FC 1
 62
   179
420
  2234388
370
     9
100
AcDbVertex
100
AcDb2dVertex
 10
107.1159247672451
 20
-130.4678408007161
 30
0.0
  0
SEQEND
  5
9E
330
9B
100
AcDbEntity
  8
_U+30EC_U+30A4_U+30E4_U+30FC 1
 62
   179
420
  2234388
370
     9
  0
POLYLINE
  5
9F
330
4B
100
AcDbEntity
  8
_U+30EC_U+30A4_U+30E4_U+30FC 1
 62
   179
420
  2234388
370
     9
100
AcDb2dPolyline
 66
     1
 10
0.0
 20
0.0
 30
0.0
  0
VERTEX
  5
A0
330
9F
100
AcDbEntity
  8
_U+30EC_U+30A4_U+30E4_U+30FC 1
 62
   179
420
  2234388
370
     9
100
AcDbVertex
100
AcDb2dVertex
 10
105.6559186933818
 20
-131.6680966337499
 30
0.0
  0
VERTEX
  5
A1
330
9F
100
AcDbEntity
  8
_U+30EC_U+30A4_U+30E4_U+30FC 1
 62
   179
420
  2234388
370
     9
100
AcDbVertex
100
AcDb2dVertex
 10
108.1160497417298
 20
-131.6680966337499
 30
0.0
  0
SEQEND
  5
A2
330
9F
100
AcDbEntity
  8
_U+30EC_U+30A4_U+30E4_U+30FC 1
 62
   179
420
  2234388
370
     9
  0
POLYLINE
  5
A3
330
4B
100
AcDbEntity
  8
_U+30EC_U+30A4_U+30E4_U+30FC 1
 62
   179
420
  2234388
370
     9
100
AcDb2dPolyline
 66
     1
 10
0.0
 20
0.0
 30
0.0
  0
VERTEX
  5
A4
330
A3
100
AcDbEntity
  8
_U+30EC_U+30A4_U+30E4_U+30FC 1
 62
   179
420
  2234388
370
     9
100
AcDbVertex
100
AcDb2dVertex
 10
105.6559186933818
 20
-130.4678408007161
 30
0.0
  0
VERTEX
  5
A5
330
A3
100
AcDbEntity
  8
_U+30EC_U+30A4_U+30E4_U+30FC 1
 62
   179
420
  2234388
370
     9
100
AcDbVertex
100
AcDb2dVertex
 10
108.1160497417298
 20
-130.4678408007161
 30
0.0
  0
SEQEND
  5
A6
330
A3
100
AcDbEntity
  8
_U+30EC_U+30A4_U+30E4_U+30FC 1
 62
   179
420
  2234388
370
     9
  0
INSERT
  5
A8
330
4B
100
AcDbEntity
  8
_U+30EC_U+30A4_U+30E4_U+30FC 1
100
AcDbBlockReference
  2
block 5
 10
0.0
 20
0.0
 30
0.0
  0
SPLINE
  5
B7
330
4B
100
AcDbEntity
  8
_U+30EC_U+30A4_U+30E4_U+30FC 1
 62
   179
420
  2234388
370
     9
100
AcDbSpline
210
0.0
220
0.0
230
1.0
 70
     8
 71
     3
 72
    11
 73
     7
 74
     0
 42
0.0000000001
 43
0.0000000001
 12
1.0
 22
0.0
 32
0.0
 13
1.0
 23
0.0
 33
0.0
 40
0.0
 40
0.0
 40
0.0
 40
0.0
 40
1.0
 40
1.0
 40
1.0
 40
2.0
 40
2.0
 40
2.0
 40
2.0
 10
92.61312485946456
 20
-130.4678408007161
 30
0.0
 10
92.61312485946456
 20
-128.2586758012687
 30
0.0
 10
90.82235434959537
 20
-126.467905246161
 30
0.0
 10
88.61301301707148
 20
-126.467905246161
 30
0.0
 10
87.55228082191078
 20
-126.467905246161
 30
0.0
 10
86.53458751454097
 20
-126.8895805238331
 30
0.0
 10
85.78458197811965
 20
-127.6392333014235
 30
0.0
  0
INSERT
  5
B9
330
4B
100
AcDbEntity
  8
_U+30EC_U+30A4_U+30E4_U+30FC 1
100
AcDbBlockReference
  2
block 6
 10
0.0
 20
0.0
 30
0.0
  0
ENDBLK
  5
4E
330
4B
100
AcDbEntity
  8
0
100
AcDbBlockEnd
  0
BLOCK
  5
7D
330
7B
100
AcDbEntity
  8
0
100
AcDbBlockBegin
  2
block 3
 70
     0
 10
0.0
 20
0.0
 30
0.0
  3
block 3
  1

  0
SPLINE
  5
7F
330
7B
100
AcDbEntity
  8
_U+30EC_U+30A4_U+30E4_U+30FC 1
370
     0
100
AcDbSpline
210
0.0
220
0.0
230
1.0
 70
    11
 71
     3
 72
    26
 73
    22
 74
     0
 42
0.0000000001
 43
0.0000000001
 12
1.0
 22
0.0
 32
0.0
 13
1.0
 23
0.0
 33
0.0
 40
0.0
 40
0.0
 40
0.0
 40
0.0
 40
1.0
 40
1.0
 40
1.0
 40
2.0
 40
2.0
 40
2.0
 40
3.0
 40
3.0
 40
3.0
 40
4.0
 40
4.0
 40
4.0
 40
5.0
 40
5.0
 40
5.0
 40
6.0
 40
6.0
 40
6.0
 40
7.0
 40
7.0
 40
7.0
 40
7.0
 10
79.94051240406002
 20
-128.3074137049023
 30
0.0
 10
79.94051240406002
 20
-128.3074137049023
 30
0.0
 10
80.7213432957919
 20
-127.5264105583962
 30
0.0
 10
80.7213432957919
 20
-127.5264105583962
 30
0.0
 10
80.7213432957919
 20
-127.5264105583962
 30
0.0
 10
80.47226289220832
 20
-127.2773301548126
 30
0.0
 10
80.47226289220832
 20
-127.2773301548126
 30
0.0
 10
80.47226289220832
 20
-127.2773301548126
 30
0.0
 10
80.57699379495992
 20
-127.172599252061
 30
0.0
 10
80.57699379495992
 20
-127.172599252061
 30
0.0
 10
80.83830428751612
 20
-127.4130669169315
 30
0.0
 10
80.98868270544727
 20
-127.3331407016737
 30
0.0
 10
81.09186331523051
 20
-127.2745740784244
 30
0.0
 10
81.09186331523051
 20
-127.2745740784244
 30
0.0
 10
81.20245088030703
 20
-127.3851616435009
 30
0.0
 10
81.20245088030703
 20
-127.3851616435009
 30
0.0
 10
81.20245088030703
 20
-127.3851616435009
 30
0.0
 10
80.11035561148283
 20
-128.4772569123251
 30
0.0
 10
80.11035561148283
 20
-128.4772569123251
 30
0.0
 10
80.11035561148283
 20
-128.4772569123251
 30
0.0
 10
79.94051240406002
 20
-128.3074137049023
 30
0.0
 10
79.94051240406002
 20
-128.3074137049023
 30
0.0
  0
HATCH
  5
80
330
7B
100
AcDbEntity
  8
_U+30EC_U+30A4_U+30E4_U+30FC 1
 62
   179
420
  2234388
100
AcDbHatch
 10
0.0
 20
0.0
 30
0.0
210
0.0
220
0.0
230
1.0
  2
SOLID
 70
     1
 71
     0
 91
        1
 92
        1
 93
        1
 72
     4
 94
        3
 73
     0
 74
     1
 95
       26
 96
       22
 40
0.0
 40
0.0
 40
0.0
 40
0.0
 40
1.0
 40
1.0
 40
1.0
 40
2.0
 40
2.0
 40
2.0
 40
3.0
 40
3.0
 40
3.0
 40
4.0
 40
4.0
 40
4.0
 40
5.0
 40
5.0
 40
5.0
 40
6.0
 40
6.0
 40
6.0
 40
7.0
 40
7.0
 40
7.0
 40
7.0
 10
79.94051240406002
 20
-128.3074137049023
 10
79.94051240406002
 20
-128.3074137049023
 10
80.7213432957919
 20
-127.5264105583962
 10
80.7213432957919
 20
-127.5264105583962
 10
80.7213432957919
 20
-127.5264105583962
 10
80.47226289220832
 20
-127.2773301548126
 10
80.47226289220832
 20
-127.2773301548126
 10
80.47226289220832
 20
-127.2773301548126
 10
80.57699379495992
 20
-127.172599252061
 10
80.57699379495992
 20
-127.172599252061
 10
80.83830428751612
 20
-127.4130669169315
 10
80.98868270544727
 20
-127.3331407016737
 10
81.09186331523051
 20
-127.2745740784244
 10
81.09186331523051
 20
-127.2745740784244
 10
81.20245088030703
 20
-127.3851616435009
 10
81.20245088030703
 20
-127.3851616435009
 10
81.20245088030703
 20
-127.3851616435009
 10
80.11035561148283
 20
-128.4772569123251
 10
80.11035561148283
 20
-128.4772569123251
 10
80.11035561148283
 20
-128.4772569123251
 10
79.94051240406002
 20
-128.3074137049023
 10
79.94051240406002
 20
-128.3074137049023
 97
        0
 97
        0
 75
     2
 76
     1
 98
        0
  0
SPLINE
  5
81
330
7B
100
AcDbEntity
  8
_U+30EC_U+30A4_U+30E4_U+30FC 1
370
     0
100
AcDbSpline
210
0.0
220
0.0
230
1.0
 70
    11
 71
     3
 72
    53
 73
    49
 74
     0
 42
0.0000000001
 43
0.0000000001
 12
1.0
 22
0.0
 32
0.0
 13
1.0
 23
0.0
 33
0.0
 40
0.0
 40
0.0
 40
0.0
 40
0.0
 40
1.0
 40
1.0
 40
1.0
 40
2.0
 40
2.0
 40
2.0
 40
3.0
 40
3.0
 40
3.0
 40
4.0
 40
4.0
 40
4.0
 40
5.0
 40
5.0
 40
5.0
 40
6.0
 40
6.0
 40
6.0
 40
7.0
 40
7.0
 40
7.0
 40
8.0
 40
8.0
 40
8.0
 40
9.0
 40
9.0
 40
9.0
 40
10.0
 40
10.0
 40
10.0
 40
11.0
 40
11.0
 40
11.0
 40
12.0
 40
12.0
 40
12.0
 40
13.0
 40
13.0
 40
13.0
 40
14.0
 40
14.0
 40
14.0
 40
15.0
 40
15.0
 40
15.0
 40
16.0
 40
16.0
 40
16.0
 40
16.0
 10
80.81660018595905
 20
-129.2551594728945
 30
0.0
 10
80.75768905316127
 20
-129.1962483400968
 30
0.0
 10
80.69274900326431
 20
-129.1073648765773
 30
0.0
 10
80.66122637957427
 20
-128.9860975154965
 30
0.0
 10
80.60731063523012
 20
-128.7766357099933
 30
0.0
 10
80.68430851932546
 20
-128.668115202208
 30
0.0
 10
80.74649249283421
 20
-128.5778537004944
 30
0.0
 10
80.74649249283421
 20
-128.5778537004944
 30
0.0
 10
80.91426864296588
 20
-128.7456298506261
 30
0.0
 10
80.91426864296588
 20
-128.7456298506261
 30
0.0
 10
80.81487763821643
 20
-128.9275308922473
 30
0.0
 10
80.89015297456913
 20
-129.0446641387458
 30
0.0
 10
80.96043292246823
 20
-129.1149440866449
 30
0.0
 10
81.06585284431688
 20
-129.2203640084935
 30
0.0
 10
81.25137123619757
 20
-129.2648057402533
 30
0.0
 10
81.415702290844
 20
-129.1004746856068
 30
0.0
 10
81.59691431336813
 20
-128.9192626630827
 30
0.0
 10
81.51044241668836
 20
-128.7342610355248
 30
0.0
 10
81.41949189587777
 20
-128.6433105147142
 30
0.0
 10
81.39537622748102
 20
-128.6191948463174
 30
0.0
 10
81.28823375788976
 20
-128.5120523767262
 30
0.0
 10
81.12975936556826
 20
-128.5361680451229
 30
0.0
 10
81.12975936556826
 20
-128.5361680451229
 30
0.0
 10
81.01055906177861
 20
-128.3900959965483
 30
0.0
 10
81.01055906177861
 20
-128.3900959965483
 30
0.0
 10
81.01055906177861
 20
-128.3900959965483
 30
0.0
 10
81.69992266837711
 20
-127.882633431571
 30
0.0
 10
81.69992266837711
 20
-127.882633431571
 30
0.0
 10
81.69992266837711
 20
-127.882633431571
 30
0.0
 10
82.28834497725778
 20
-128.4710557404517
 30
0.0
 10
82.28834497725778
 20
-128.4710557404517
 30
0.0
 10
82.28834497725778
 20
-128.4710557404517
 30
0.0
 10
82.15054115784778
 20
-128.6088595598617
 30
0.0
 10
82.15054115784778
 20
-128.6088595598617
 30
0.0
 10
82.15054115784778
 20
-128.6088595598617
 30
0.0
 10
81.68545326733906
 20
-128.143771669353
 30
0.0
 10
81.68545326733906
 20
-128.143771669353
 30
0.0
 10
81.68545326733906
 20
-128.143771669353
 30
0.0
 10
81.33680960423177
 20
-128.393196582485
 30
0.0
 10
81.33680960423177
 20
-128.393196582485
 30
0.0
 10
81.40674504258234
 20
-128.4155897031392
 30
0.0
 10
81.49769556339294
 20
-128.4493516388946
 30
0.0
 10
81.58726804600944
 20
-128.5389241215111
 30
0.0
 10
81.77915986453785
 20
-128.7308159400395
 30
0.0
 10
81.8267021822343
 20
-129.0415635528091
 30
0.0
 10
81.60518254253273
 20
-129.2630831925106
 30
0.0
 10
81.38090682644297
 20
-129.4873589086004
 30
0.0
 10
81.04535452617964
 20
-129.4839138131152
 30
0.0
 10
80.81660018595905
 20
-129.2551594728945
 30
0.0
  0
HATCH
  5
82
330
7B
100
AcDbEntity
  8
_U+30EC_U+30A4_U+30E4_U+30FC 1
 62
   179
420
  2234388
100
AcDbHatch
 10
0.0
 20
0.0
 30
0.0
210
0.0
220
0.0
230
1.0
  2
SOLID
 70
     1
 71
     0
 91
        1
 92
        1
 93
        1
 72
     4
 94
        3
 73
     0
 74
     1
 95
       53
 96
       49
 40
0.0
 40
0.0
 40
0.0
 40
0.0
 40
1.0
 40
1.0
 40
1.0
 40
2.0
 40
2.0
 40
2.0
 40
3.0
 40
3.0
 40
3.0
 40
4.0
 40
4.0
 40
4.0
 40
5.0
 40
5.0
 40
5.0
 40
6.0
 40
6.0
 40
6.0
 40
7.0
 40
7.0
 40
7.0
 40
8.0
 40
8.0
 40
8.0
 40
9.0
 40
9.0
 40
9.0
 40
10.0
 40
10.0
 40
10.0
 40
11.0
 40
11.0
 40
11.0
 40
12.0
 40
12.0
 40
12.0
 40
13.0
 40
13.0
 40
13.0
 40
14.0
 40
14.0
 40
14.0
 40
15.0
 40
15.0
 40
15.0
 40
16.0
 40
16.0
 40
16.0
 40
16.0
 10
80.81660018595905
 20
-129.2551594728945
 10
80.75768905316127
 20
-129.1962483400968
 10
80.69274900326431
 20
-129.1073648765773
 10
80.66122637957427
 20
-128.9860975154965
 10
80.60731063523012
 20
-128.7766357099933
 10
80.68430851932546
 20
-128.668115202208
 10
80.74649249283421
 20
-128.5778537004944
 10
80.74649249283421
 20
-128.5778537004944
 10
80.91426864296588
 20
-128.7456298506261
 10
80.91426864296588
 20
-128.7456298506261
 10
80.81487763821643
 20
-128.9275308922473
 10
80.89015297456913
 20
-129.0446641387458
 10
80.96043292246823
 20
-129.1149440866449
 10
81.06585284431688
 20
-129.2203640084935
 10
81.25137123619757
 20
-129.2648057402533
 10
81.415702290844
 20
-129.1004746856068
 10
81.59691431336813
 20
-128.9192626630827
 10
81.51044241668836
 20
-128.7342610355248
 10
81.41949189587777
 20
-128.6433105147142
 10
81.39537622748102
 20
-128.6191948463174
 10
81.28823375788976
 20
-128.5120523767262
 10
81.12975936556826
 20
-128.5361680451229
 10
81.12975936556826
 20
-128.5361680451229
 10
81.01055906177861
 20
-128.3900959965483
 10
81.01055906177861
 20
-128.3900959965483
 10
81.01055906177861
 20
-128.3900959965483
 10
81.69992266837711
 20
-127.882633431571
 10
81.69992266837711
 20
-127.882633431571
 10
81.69992266837711
 20
-127.882633431571
 10
82.28834497725778
 20
-128.4710557404517
 10
82.28834497725778
 20
-128.4710557404517
 10
82.28834497725778
 20
-128.4710557404517
 10
82.15054115784778
 20
-128.6088595598617
 10
82.15054115784778
 20
-128.6088595598617
 10
82.15054115784778
 20
-128.6088595598617
 10
81.68545326733906
 20
-128.143771669353
 10
81.68545326733906
 20
-128.143771669353
 10
81.68545326733906
 20
-128.143771669353
 10
81.33680960423177
 20
-128.393196582485
 10
81.33680960423177
 20
-128.393196582485
 10
81.40674504258234
 20
-128.4155897031392
 10
81.49769556339294
 20
-128.4493516388946
 10
81.58726804600944
 20
-128.5389241215111
 10
81.77915986453785
 20
-128.7308159400395
 10
81.8267021822343
 20
-129.0415635528091
 10
81.60518254253273
 20
-129.2630831925106
 10
81.38090682644297
 20
-129.4873589086004
 10
81.04535452617964
 20
-129.4839138131152
 10
80.81660018595905
 20
-129.2551594728945
 97
        0
 97
        0
 75
     2
 76
     1
 98
        0
  0
ENDBLK
  5
7E
330
7B
100
AcDbEntity
  8
0
100
AcDbBlockEnd
  0
BLOCK
  5
91
330
8F
100
AcDbEntity
  8
0
100
AcDbBlockBegin
  2
block 4
 70
     0
 10
0.0
 20
0.0
 30
0.0
  3
block 4
  1

  0
SPLINE
  5
93
330
8F
100
AcDbEntity
  8
_U+30EC_U+30A4_U+30E4_U+30FC 1
370
     0
100
AcDbSpline
210
0.0
220
0.0
230
1.0
 70
    11
 71
     3
 72
    26
 73
    22
 74
     0
 42
0.0000000001
 43
0.0000000001
 12
1.0
 22
0.0
 32
0.0
 13
1.0
 23
0.0
 33
0.0
 40
0.0
 40
0.0
 40
0.0
 40
0.0
 40
1.0
 40
1.0
 40
1.0
 40
2.0
 40
2.0
 40
2.0
 40
3.0
 40
3.0
 40
3.0
 40
4.0
 40
4.0
 40
4.0
 40
5.0
 40
5.0
 40
5.0
 40
6.0
 40
6.0
 40
6.0
 40
7.0
 40
7.0
 40
7.0
 40
7.0
 10
94.93959687296649
 20
-135.0718586901904
 30
0.0
 10
94.93959687296649
 20
-135.0718586901904
 30
0.0
 10
94.93959687296649
 20
-133.9677055871678
 30
0.0
 10
94.93959687296649
 20
-133.9677055871678
 30
0.0
 10
94.93959687296649
 20
-133.9677055871678
 30
0.0
 10
94.58716360482543
 20
-133.9677055871678
 30
0.0
 10
94.58716360482543
 20
-133.9677055871678
 30
0.0
 10
94.58716360482543
 20
-133.9677055871678
 30
0.0
 10
94.58716360482543
 20
-133.819566481302
 30
0.0
 10
94.58716360482543
 20
-133.819566481302
 30
0.0
 10
94.94200843980617
 20
-133.8047525707155
 30
0.0
 10
94.99161781479377
 20
-133.6417995542632
 30
0.0
 10
95.02331269325806
 20
-133.5274223841529
 30
0.0
 10
95.02331269325806
 20
-133.5274223841529
 30
0.0
 10
95.17937551873989
 20
-133.5274223841529
 30
0.0
 10
95.17937551873989
 20
-133.5274223841529
 30
0.0
 10
95.17937551873989
 20
-133.5274223841529
 30
0.0
 10
95.17937551873989
 20
-135.0718586901904
 30
0.0
 10
95.17937551873989
 20
-135.0718586901904
 30
0.0
 10
95.17937551873989
 20
-135.0718586901904
 30
0.0
 10
94.93959687296649
 20
-135.0718586901904
 30
0.0
 10
94.93959687296649
 20
-135.0718586901904
 30
0.0
  0
HATCH
  5
94
330
8F
100
AcDbEntity
  8
_U+30EC_U+30A4_U+30E4_U+30FC 1
 62
   179
420
  2234388
100
AcDbHatch
 10
0.0
 20
0.0
 30
0.0
210
0.0
220
0.0
230
1.0
  2
SOLID
 70
     1
 71
     0
 91
        1
 92
        1
 93
        1
 72
     4
 94
        3
 73
     0
 74
     1
 95
       26
 96
       22
 40
0.0
 40
0.0
 40
0.0
 40
0.0
 40
1.0
 40
1.0
 40
1.0
 40
2.0
 40
2.0
 40
2.0
 40
3.0
 40
3.0
 40
3.0
 40
4.0
 40
4.0
 40
4.0
 40
5.0
 40
5.0
 40
5.0
 40
6.0
 40
6.0
 40
6.0
 40
7.0
 40
7.0
 40
7.0
 40
7.0
 10
94.93959687296649
 20
-135.0718586901904
 10
94.93959687296649
 20
-135.0718586901904
 10
94.93959687296649
 20
-133.9677055871678
 10
94.93959687296649
 20
-133.9677055871678
 10
94.93959687296649
 20
-133.9677055871678
 10
94.58716360482543
 20
-133.9677055871678
 10
94.58716360482543
 20
-133.9677055871678
 10
94.58716360482543
 20
-133.9677055871678
 10
94.58716360482543
 20
-133.819566481302
 10
94.58716360482543
 20
-133.819566481302
 10
94.94200843980617
 20
-133.8047525707155
 10
94.99161781479377
 20
-133.6417995542632
 10
95.02331269325806
 20
-133.5274223841529
 10
95.02331269325806
 20
-133.5274223841529
 10
95.17937551873989
 20
-133.5274223841529
 10
95.17937551873989
 20
-133.5274223841529
 10
95.17937551873989
 20
-133.5274223841529
 10
95.17937551873989
 20
-135.0718586901904
 10
95.17937551873989
 20
-135.0718586901904
 10
95.17937551873989
 20
-135.0718586901904
 10
94.93959687296649
 20
-135.0718586901904
 10
94.93959687296649
 20
-135.0718586901904
 97
        0
 97
        0
 75
     2
 76
     1
 98
        0
  0
SPLINE
  5
95
330
8F
100
AcDbEntity
  8
_U+30EC_U+30A4_U+30E4_U+30FC 1
370
     0
100
AcDbSpline
210
0.0
220
0.0
230
1.0
 70
    11
 71
     3
 72
    53
 73
    49
 74
     0
 42
0.0000000001
 43
0.0000000001
 12
1.0
 22
0.0
 32
0.0
 13
1.0
 23
0.0
 33
0.0
 40
0.0
 40
0.0
 40
0.0
 40
0.0
 40
1.0
 40
1.0
 40
1.0
 40
2.0
 40
2.0
 40
2.0
 40
3.0
 40
3.0
 40
3.0
 40
4.0
 40
4.0
 40
4.0
 40
5.0
 40
5.0
 40
5.0
 40
6.0
 40
6.0
 40
6.0
 40
7.0
 40
7.0
 40
7.0
 40
8.0
 40
8.0
 40
8.0
 40
9.0
 40
9.0
 40
9.0
 40
10.0
 40
10.0
 40
10.0
 40
11.0
 40
11.0
 40
11.0
 40
12.0
 40
12.0
 40
12.0
 40
13.0
 40
13.0
 40
13.0
 40
14.0
 40
14.0
 40
14.0
 40
15.0
 40
15.0
 40
15.0
 40
16.0
 40
16.0
 40
16.0
 40
16.0
 10
96.22909611309551
 20
-135.1225015938236
 30
0.0
 10
96.14572480235246
 20
-135.1225015938236
 30
0.0
 10
96.03685978501856
 20
-135.1056206259458
 30
0.0
 10
95.92868378678172
 20
-135.0422308690172
 30
0.0
 10
95.74299314012676
 20
-134.9323323230378
 30
0.0
 10
95.72060001947263
 20
-134.8010741850497
 30
0.0
 10
95.70027395610965
 20
-134.6932426963614
 30
0.0
 10
95.70027395610965
 20
-134.6932426963614
 30
0.0
 10
95.93764103504337
 20
-134.6932426963614
 30
0.0
 10
95.93764103504337
 20
-134.6932426963614
 30
0.0
 10
95.99620765829262
 20
-134.8920247058603
 30
0.0
 10
96.13194442041146
 20
-134.9216525270335
 30
0.0
 10
96.23150767993518
 20
-134.9216525270335
 30
0.0
 10
96.38068031444651
 20
-134.9216525270335
 30
0.0
 10
96.54328882135029
 20
-134.8220892675098
 30
0.0
 10
96.54328882135029
 20
-134.5895453222554
 30
0.0
 10
96.54328882135029
 20
-134.3335747277013
 30
0.0
 10
96.35139700282188
 20
-134.2636392893507
 30
0.0
 10
96.22255043167354
 20
-134.2636392893507
 30
0.0
 10
96.18844398636956
 20
-134.2636392893507
 30
0.0
 10
96.03685978501856
 20
-134.2636392893507
 30
0.0
 10
95.9421196591742
 20
-134.3928303700476
 30
0.0
 10
95.9421196591742
 20
-134.3928303700476
 30
0.0
 10
95.75436195522808
 20
-134.3738823448788
 30
0.0
 10
95.75436195522808
 20
-134.3738823448788
 30
0.0
 10
95.75436195522808
 20
-134.3738823448788
 30
0.0
 10
95.88320852637642
 20
-133.5274223841529
 30
0.0
 10
95.88320852637642
 20
-133.5274223841529
 30
0.0
 10
95.88320852637642
 20
-133.5274223841529
 30
0.0
 10
96.71519908606426
 20
-133.5274223841529
 30
0.0
 10
96.71519908606426
 20
-133.5274223841529
 30
0.0
 10
96.71519908606426
 20
-133.5274223841529
 30
0.0
 10
96.71519908606426
 20
-133.7220702790695
 30
0.0
 10
96.71519908606426
 20
-133.7220702790695
 30
0.0
 10
96.71519908606426
 20
-133.7220702790695
 30
0.0
 10
96.05753035793006
 20
-133.7220702790695
 30
0.0
 10
96.05753035793006
 20
-133.7220702790695
 30
0.0
 10
96.05753035793006
 20
-133.7220702790695
 30
0.0
 10
95.98725041003097
 20
-134.1451280046582
 30
0.0
 10
95.98725041003097
 20
-134.1451280046582
 30
0.0
 10
96.05270722425071
 20
-134.1113660689027
 30
0.0
 10
96.14090166867311
 20
-134.0710584517253
 30
0.0
 10
96.26768118253031
 20
-134.0710584517253
 30
0.0
 10
96.53881019721946
 20
-134.0710584517253
 30
0.0
 10
96.79202471538534
 20
-134.2574381174773
 30
0.0
 10
96.79202471538534
 20
-134.5705972970865
 30
0.0
 10
96.79202471538534
 20
-134.887890591278
 30
0.0
 10
96.55259057916047
 20
-135.1225015938236
 30
0.0
 10
96.22909611309551
 20
-135.1225015938236
 30
0.0
  0
HATCH
  5
96
330
8F
100
AcDbEntity
  8
_U+30EC_U+30A4_U+30E4_U+30FC 1
 62
   179
420
  2234388
100
AcDbHatch
 10
0.0
 20
0.0
 30
0.0
210
0.0
220
0.0
230
1.0
  2
SOLID
 70
     1
 71
     0
 91
        1
 92
        1
 93
        1
 72
     4
 94
        3
 73
     0
 74
     1
 95
       53
 96
       49
 40
0.0
 40
0.0
 40
0.0
 40
0.0
 40
1.0
 40
1.0
 40
1.0
 40
2.0
 40
2.0
 40
2.0
 40
3.0
 40
3.0
 40
3.0
 40
4.0
 40
4.0
 40
4.0
 40
5.0
 40
5.0
 40
5.0
 40
6.0
 40
6.0
 40
6.0
 40
7.0
 40
7.0
 40
7.0
 40
8.0
 40
8.0
 40
8.0
 40
9.0
 40
9.0
 40
9.0
 40
10.0
 40
10.0
 40
10.0
 40
11.0
 40
11.0
 40
11.0
 40
12.0
 40
12.0
 40
12.0
 40
13.0
 40
13.0
 40
13.0
 40
14.0
 40
14.0
 40
14.0
 40
15.0
 40
15.0
 40
15.0
 40
16.0
 40
16.0
 40
16.0
 40
16.0
 10
96.22909611309551
 20
-135.1225015938236
 10
96.14572480235246
 20
-135.1225015938236
 10
96.03685978501856
 20
-135.1056206259458
 10
95.92868378678172
 20
-135.0422308690172
 10
95.74299314012676
 20
-134.9323323230378
 10
95.72060001947263
 20
-134.8010741850497
 10
95.70027395610965
 20
-134.6932426963614
 10
95.70027395610965
 20
-134.6932426963614
 10
95.93764103504337
 20
-134.6932426963614
 10
95.93764103504337
 20
-134.6932426963614
 10
95.99620765829262
 20
-134.8920247058603
 10
96.13194442041146
 20
-134.9216525270335
 10
96.23150767993518
 20
-134.9216525270335
 10
96.38068031444651
 20
-134.9216525270335
 10
96.54328882135029
 20
-134.8220892675098
 10
96.54328882135029
 20
-134.5895453222554
 10
96.54328882135029
 20
-134.3335747277013
 10
96.35139700282188
 20
-134.2636392893507
 10
96.22255043167354
 20
-134.2636392893507
 10
96.18844398636956
 20
-134.2636392893507
 10
96.03685978501856
 20
-134.2636392893507
 10
95.9421196591742
 20
-134.3928303700476
 10
95.9421196591742
 20
-134.3928303700476
 10
95.75436195522808
 20
-134.3738823448788
 10
95.75436195522808
 20
-134.3738823448788
 10
95.75436195522808
 20
-134.3738823448788
 10
95.88320852637642
 20
-133.5274223841529
 10
95.88320852637642
 20
-133.5274223841529
 10
95.88320852637642
 20
-133.5274223841529
 10
96.71519908606426
 20
-133.5274223841529
 10
96.71519908606426
 20
-133.5274223841529
 10
96.71519908606426
 20
-133.5274223841529
 10
96.71519908606426
 20
-133.7220702790695
 10
96.71519908606426
 20
-133.7220702790695
 10
96.71519908606426
 20
-133.7220702790695
 10
96.05753035793006
 20
-133.7220702790695
 10
96.05753035793006
 20
-133.7220702790695
 10
96.05753035793006
 20
-133.7220702790695
 10
95.98725041003097
 20
-134.1451280046582
 10
95.98725041003097
 20
-134.1451280046582
 10
96.05270722425071
 20
-134.1113660689027
 10
96.14090166867311
 20
-134.0710584517253
 10
96.26768118253031
 20
-134.0710584517253
 10
96.53881019721946
 20
-134.0710584517253
 10
96.79202471538534
 20
-134.2574381174773
 10
96.79202471538534
 20
-134.5705972970865
 10
96.79202471538534
 20
-134.887890591278
 10
96.55259057916047
 20
-135.1225015938236
 10
96.22909611309551
 20
-135.1225015938236
 97
        0
 97
        0
 75
     2
 76
     1
 98
        0
  0
ENDBLK
  5
92
330
8F
100
AcDbEntity
  8
0
100
AcDbBlockEnd
  0
BLOCK
  5
A9
330
A7
100
AcDbEntity
  8
0
100
AcDbBlockBegin
  2
block 5
 70
     0
 10
0.0
 20
0.0
 30
0.0
  3
block 5
  1

  0
SPLINE
  5
AB
330
A7
100
AcDbEntity
  8
_U+30EC_U+30A4_U+30E4_U+30FC 1
370
     0
100
AcDbSpline
210
0.0
220
0.0
230
1.0
 70
    11
 71
     3
 72
    26
 73
    22
 74
     0
 42
0.0000000001
 43
0.0000000001
 12
1.0
 22
0.0
 32
0.0
 13
1.0
 23
0.0
 33
0.0
 40
0.0
 40
0.0
 40
0.0
 40
0.0
 40
1.0
 40
1.0
 40
1.0
 40
2.0
 40
2.0
 40
2.0
 40
3.0
 40
3.0
 40
3.0
 40
4.0
 40
4.0
 40
4.0
 40
5.0
 40
5.0
 40
5.0
 40
6.0
 40
6.0
 40
6.0
 40
7.0
 40
7.0
 40
7.0
 40
7.0
 10
106.5195963275368
 20
-128.2943223420584
 30
0.0
 10
106.5195963275368
 20
-128.2943223420584
 30
0.0
 10
105.4154432245142
 20
-128.2943223420584
 30
0.0
 10
105.4154432245142
 20
-128.2943223420584
 30
0.0
 10
105.4154432245142
 20
-128.2943223420584
 30
0.0
 10
105.4154432245142
 20
-128.6467556101994
 30
0.0
 10
105.4154432245142
 20
-128.6467556101994
 30
0.0
 10
105.4154432245142
 20
-128.6467556101994
 30
0.0
 10
105.2673041186485
 20
-128.6467556101994
 30
0.0
 10
105.2673041186485
 20
-128.6467556101994
 30
0.0
 10
105.2524902080619
 20
-128.2919107752187
 30
0.0
 10
105.0895371916096
 20
-128.2423014002311
 30
0.0
 10
104.9751600214993
 20
-128.2106065217668
 30
0.0
 10
104.9751600214993
 20
-128.2106065217668
 30
0.0
 10
104.9751600214993
 20
-128.054543696285
 30
0.0
 10
104.9751600214993
 20
-128.054543696285
 30
0.0
 10
104.9751600214993
 20
-128.054543696285
 30
0.0
 10
106.5195963275368
 20
-128.054543696285
 30
0.0
 10
106.5195963275368
 20
-128.054543696285
 30
0.0
 10
106.5195963275368
 20
-128.054543696285
 30
0.0
 10
106.5195963275368
 20
-128.2943223420584
 30
0.0
 10
106.5195963275368
 20
-128.2943223420584
 30
0.0
  0
HATCH
  5
AC
330
A7
100
AcDbEntity
  8
_U+30EC_U+30A4_U+30E4_U+30FC 1
 62
   179
420
  2234388
100
AcDbHatch
 10
0.0
 20
0.0
 30
0.0
210
0.0
220
0.0
230
1.0
  2
SOLID
 70
     1
 71
     0
 91
        1
 92
        1
 93
        1
 72
     4
 94
        3
 73
     0
 74
     1
 95
       26
 96
       22
 40
0.0
 40
0.0
 40
0.0
 40
0.0
 40
1.0
 40
1.0
 40
1.0
 40
2.0
 40
2.0
 40
2.0
 40
3.0
 40
3.0
 40
3.0
 40
4.0
 40
4.0
 40
4.0
 40
5.0
 40
5.0
 40
5.0
 40
6.0
 40
6.0
 40
6.0
 40
7.0
 40
7.0
 40
7.0
 40
7.0
 10
106.5195963275368
 20
-128.2943223420584
 10
106.5195963275368
 20
-128.2943223420584
 10
105.4154432245142
 20
-128.2943223420584
 10
105.4154432245142
 20
-128.2943223420584
 10
105.4154432245142
 20
-128.2943223420584
 10
105.4154432245142
 20
-128.6467556101994
 10
105.4154432245142
 20
-128.6467556101994
 10
105.4154432245142
 20
-128.6467556101994
 10
105.2673041186485
 20
-128.6467556101994
 10
105.2673041186485
 20
-128.6467556101994
 10
105.2524902080619
 20
-128.2919107752187
 10
105.0895371916096
 20
-128.2423014002311
 10
104.9751600214993
 20
-128.2106065217668
 10
104.9751600214993
 20
-128.2106065217668
 10
104.9751600214993
 20
-128.054543696285
 10
104.9751600214993
 20
-128.054543696285
 10
104.9751600214993
 20
-128.054543696285
 10
106.5195963275368
 20
-128.054543696285
 10
106.5195963275368
 20
-128.054543696285
 10
106.5195963275368
 20
-128.054543696285
 10
106.5195963275368
 20
-128.2943223420584
 10
106.5195963275368
 20
-128.2943223420584
 97
        0
 97
        0
 75
     2
 76
     1
 98
        0
  0
POLYLINE
  5
AD
330
A7
100
AcDbEntity
  8
_U+30EC_U+30A4_U+30E4_U+30FC 1
370
     0
100
AcDb2dPolyline
 66
     1
 10
0.0
 20
0.0
 30
0.0
  0
VERTEX
  5
AE
330
AD
100
AcDbEntity
  8
_U+30EC_U+30A4_U+30E4_U+30FC 1
370
     0
100
AcDbVertex
100
AcDb2dVertex
 10
106.5195963275368
 20
-127.454752572303
 30
0.0
  0
VERTEX
  5
AF
330
AD
100
AcDbEntity
  8
_U+30EC_U+30A4_U+30E4_U+30FC 1
370
     0
100
AcDbVertex
100
AcDb2dVertex
 10
106.267759847565
 20
-127.454752572303
 30
0.0
  0
VERTEX
  5
B0
330
AD
100
AcDbEntity
  8
_U+30EC_U+30A4_U+30E4_U+30FC 1
370
     0
100
AcDbVertex
100
AcDb2dVertex
 10
106.267759847565
 20
-127.185690614905
 30
0.0
  0
VERTEX
  5
B1
330
AD
100
AcDbEntity
  8
_U+30EC_U+30A4_U+30E4_U+30FC 1
370
     0
100
AcDbVertex
100
AcDb2dVertex
 10
106.5195963275368
 20
-127.185690614905
 30
0.0
  0
VERTEX
  5
B2
330
AD
100
AcDbEntity
  8
_U+30EC_U+30A4_U+30E4_U+30FC 1
370
     0
100
AcDbVertex
100
AcDb2dVertex
 10
106.5195963275368
 20
-127.454752572303
 30
0.0
  0
SEQEND
  5
B3
330
AD
100
AcDbEntity
  8
_U+30EC_U+30A4_U+30E4_U+30FC 1
370
     0
  0
HATCH
  5
B4
330
A7
100
AcDbEntity
  8
_U+30EC_U+30A4_U+30E4_U+30FC 1
 62
   179
420
  2234388
100
AcDbHatch
 10
0.0
 20
0.0
 30
0.0
210
0.0
220
0.0
230
1.0
  2
SOLID
 70
     1
 71
     0
 91
        1
 92
        1
 93
        4
 72
     1
 10
106.5195963275368
 20
-127.454752572303
 11
106.267759847565
 21
-127.454752572303
 72
     1
 10
106.267759847565
 20
-127.454752572303
 11
106.267759847565
 21
-127.185690614905
 72
     1
 10
106.267759847565
 20
-127.185690614905
 11
106.5195963275368
 21
-127.185690614905
 72
     1
 10
106.5195963275368
 20
-127.185690614905
 11
106.5195963275368
 21
-127.454752572303
 97
        0
 75
     2
 76
     1
 98
        0
  0
SPLINE
  5
B5
330
A7
100
AcDbEntity
  8
_U+30EC_U+30A4_U+30E4_U+30FC 1
370
     0
100
AcDbSpline
210
0.0
220
0.0
230
1.0
 70
    11
 71
     3
 72
    44
 73
    40
 74
     0
 42
0.0000000001
 43
0.0000000001
 12
1.0
 22
0.0
 32
0.0
 13
1.0
 23
0.0
 33
0.0
 40
0.0
 40
0.0
 40
0.0
 40
0.0
 40
1.0
 40
1.0
 40
1.0
 40
2.0
 40
2.0
 40
2.0
 40
3.0
 40
3.0
 40
3.0
 40
4.0
 40
4.0
 40
4.0
 40
5.0
 40
5.0
 40
5.0
 40
6.0
 40
6.0
 40
6.0
 40
7.0
 40
7.0
 40
7.0
 40
8.0
 40
8.0
 40
8.0
 40
9.0
 40
9.0
 40
9.0
 40
10.0
 40
10.0
 40
10.0
 40
11.0
 40
11.0
 40
11.0
 40
12.0
 40
12.0
 40
12.0
 40
13.0
 40
13.0
 40
13.0
 40
13.0
 10
105.9377197000781
 20
-126.2989230370017
 30
0.0
 10
106.0965386019481
 20
-126.5318114918045
 30
0.0
 10
106.170608154881
 20
-126.6313747513283
 30
0.0
 10
106.3142686366159
 20
-126.683051183607
 30
0.0
 10
106.3142686366159
 20
-126.683051183607
 30
0.0
 10
106.3142686366159
 20
-125.8514051334677
 30
0.0
 10
106.3142686366159
 20
-125.8514051334677
 30
0.0
 10
106.3142686366159
 20
-125.8514051334677
 30
0.0
 10
106.5195963275368
 20
-125.8514051334677
 30
0.0
 10
106.5195963275368
 20
-125.8514051334677
 30
0.0
 10
106.5195963275368
 20
-125.8514051334677
 30
0.0
 10
106.5195963275368
 20
-126.9500460837139
 30
0.0
 10
106.5195963275368
 20
-126.9500460837139
 30
0.0
 10
106.1619954161678
 20
-126.9159396384099
 30
0.0
 10
106.0837917486527
 20
-126.8460042000593
 30
0.0
 10
105.78544647963
 20
-126.4346597991205
 30
0.0
 10
105.5866644701311
 20
-126.1611192175917
 30
0.0
 10
105.5187960890717
 20
-126.0908392696926
 30
0.0
 10
105.3813367792102
 20
-126.0908392696926
 30
0.0
 10
105.2628254945176
 20
-126.0908392696926
 30
0.0
 10
105.1319118660781
 20
-126.1676648990136
 30
0.0
 10
105.1319118660781
 20
-126.3781602331624
 30
0.0
 10
105.1319118660781
 20
-126.6561794388221
 30
0.0
 10
105.3623887540413
 20
-126.6651366870837
 30
0.0
 10
105.4788329814428
 20
-126.6696153112145
 30
0.0
 10
105.4788329814428
 20
-126.6696153112145
 30
0.0
 10
105.4788329814428
 20
-126.9093939569879
 30
0.0
 10
105.4788329814428
 20
-126.9093939569879
 30
0.0
 10
105.3517089580371
 20
-126.9000921991778
 30
0.0
 10
105.2397433547665
 20
-126.889067893625
 30
0.0
 10
105.1212320700739
 20
-126.8029405064937
 30
0.0
 10
104.9603461109127
 20
-126.6854627504467
 30
0.0
 10
104.9265841751572
 20
-126.4866807409478
 30
0.0
 10
104.9265841751572
 20
-126.3623127939303
 30
0.0
 10
104.9265841751572
 20
-126.0660345821988
 30
0.0
 10
105.1105522740696
 20
-125.8445149424972
 30
0.0
 10
105.3834038365014
 20
-125.8445149424972
 30
0.0
 10
105.612158176722
 20
-125.8445149424972
 30
0.0
 10
105.7113769266972
 20
-125.9688828895147
 30
0.0
 10
105.9377197000781
 20
-126.2989230370017
 30
0.0
  0
HATCH
  5
B6
330
A7
100
AcDbEntity
  8
_U+30EC_U+30A4_U+30E4_U+30FC 1
 62
   179
420
  2234388
100
AcDbHatch
 10
0.0
 20
0.0
 30
0.0
210
0.0
220
0.0
230
1.0
  2
SOLID
 70
     1
 71
     0
 91
        1
 92
        1
 93
        1
 72
     4
 94
        3
 73
     0
 74
     1
 95
       44
 96
       40
 40
0.0
 40
0.0
 40
0.0
 40
0.0
 40
1.0
 40
1.0
 40
1.0
 40
2.0
 40
2.0
 40
2.0
 40
3.0
 40
3.0
 40
3.0
 40
4.0
 40
4.0
 40
4.0
 40
5.0
 40
5.0
 40
5.0
 40
6.0
 40
6.0
 40
6.0
 40
7.0
 40
7.0
 40
7.0
 40
8.0
 40
8.0
 40
8.0
 40
9.0
 40
9.0
 40
9.0
 40
10.0
 40
10.0
 40
10.0
 40
11.0
 40
11.0
 40
11.0
 40
12.0
 40
12.0
 40
12.0
 40
13.0
 40
13.0
 40
13.0
 40
13.0
 10
105.9377197000781
 20
-126.2989230370017
 10
106.0965386019481
 20
-126.5318114918045
 10
106.170608154881
 20
-126.6313747513283
 10
106.3142686366159
 20
-126.683051183607
 10
106.3142686366159
 20
-126.683051183607
 10
106.3142686366159
 20
-125.8514051334677
 10
106.3142686366159
 20
-125.8514051334677
 10
106.3142686366159
 20
-125.8514051334677
 10
106.5195963275368
 20
-125.8514051334677
 10
106.5195963275368
 20
-125.8514051334677
 10
106.5195963275368
 20
-125.8514051334677
 10
106.5195963275368
 20
-126.9500460837139
 10
106.5195963275368
 20
-126.9500460837139
 10
106.1619954161678
 20
-126.9159396384099
 10
106.0837917486527
 20
-126.8460042000593
 10
105.78544647963
 20
-126.4346597991205
 10
105.5866644701311
 20
-126.1611192175917
 10
105.5187960890717
 20
-126.0908392696926
 10
105.3813367792102
 20
-126.0908392696926
 10
105.2628254945176
 20
-126.0908392696926
 10
105.1319118660781
 20
-126.1676648990136
 10
105.1319118660781
 20
-126.3781602331624
 10
105.1319118660781
 20
-126.6561794388221
 10
105.3623887540413
 20
-126.6651366870837
 10
105.4788329814428
 20
-126.6696153112145
 10
105.4788329814428
 20
-126.6696153112145
 10
105.4788329814428
 20
-126.9093939569879
 10
105.4788329814428
 20
-126.9093939569879
 10
105.3517089580371
 20
-126.9000921991778
 10
105.2397433547665
 20
-126.889067893625
 10
105.1212320700739
 20
-126.8029405064937
 10
104.9603461109127
 20
-126.6854627504467
 10
104.9265841751572
 20
-126.4866807409478
 10
104.9265841751572
 20
-126.3623127939303
 10
104.9265841751572
 20
-126.0660345821988
 10
105.1105522740696
 20
-125.8445149424972
 10
105.3834038365014
 20
-125.8445149424972
 10
105.612158176722
 20
-125.8445149424972
 10
105.7113769266972
 20
-125.9688828895147
 10
105.9377197000781
 20
-126.2989230370017
 97
        0
 97
        0
 75
     2
 76
     1
 98
        0
  0
ENDBLK
  5
AA
330
A7
100
AcDbEntity
  8
0
100
AcDbBlockEnd
  0
BLOCK
  5
BA
330
B8
100
AcDbEntity
  8
0
100
AcDbBlockBegin
  2
block 6
 70
     0
 10
0.0
 20
0.0
 30
0.0
  3
block 6
  1

  0
SPLINE
  5
BC
330
B8
100
AcDbEntity
  8
_U+30EC_U+30A4_U+30E4_U+30FC 1
370
     0
100
AcDbSpline
210
0.0
220
0.0
230
1.0
 70
    11
 71
     3
 72
    26
 73
    22
 74
     0
 42
0.0000000001
 43
0.0000000001
 12
1.0
 22
0.0
 32
0.0
 13
1.0
 23
0.0
 33
0.0
 40
0.0
 40
0.0
 40
0.0
 40
0.0
 40
1.0
 40
1.0
 40
1.0
 40
2.0
 40
2.0
 40
2.0
 40
3.0
 40
3.0
 40
3.0
 40
4.0
 40
4.0
 40
4.0
 40
5.0
 40
5.0
 40
5.0
 40
6.0
 40
6.0
 40
6.0
 40
7.0
 40
7.0
 40
7.0
 40
7.0
 10
89.06364201332437
 20
-125.6722601682347
 30
0.0
 10
89.06364201332437
 20
-125.6722601682347
 30
0.0
 10
89.48635522936452
 20
-124.6518228855037
 30
0.0
 10
89.48635522936452
 20
-124.6518228855037
 30
0.0
 10
89.48635522936452
 20
-124.6518228855037
 30
0.0
 10
89.16079370600842
 20
-124.5167751424819
 30
0.0
 10
89.16079370600842
 20
-124.5167751424819
 30
0.0
 10
89.16079370600842
 20
-124.5167751424819
 30
0.0
 10
89.21729327196651
 20
-124.380349361266
 30
0.0
 10
89.21729327196651
 20
-124.380349361266
 30
0.0
 10
89.5507785149387
 20
-124.5023057414439
 30
0.0
 10
89.65895451317554
 20
-124.3707030939073
 30
0.0
 10
89.73199053746283
 20
-124.2776855158056
 30
0.0
 10
89.73199053746283
 20
-124.2776855158056
 30
0.0
 10
89.87599552874629
 20
-124.3369411581519
 30
0.0
 10
89.87599552874629
 20
-124.3369411581519
 30
0.0
 10
89.87599552874629
 20
-124.3369411581519
 30
0.0
 10
89.28516165302594
 20
-125.7638997081424
 30
0.0
 10
89.28516165302594
 20
-125.7638997081424
 30
0.0
 10
89.28516165302594
 20
-125.7638997081424
 30
0.0
 10
89.06364201332437
 20
-125.6722601682347
 30
0.0
 10
89.06364201332437
 20
-125.6722601682347
 30
0.0
  0
HATCH
  5
BD
330
B8
100
AcDbEntity
  8
_U+30EC_U+30A4_U+30E4_U+30FC 1
 62
   179
420
  2234388
100
AcDbHatch
 10
0.0
 20
0.0
 30
0.0
210
0.0
220
0.0
230
1.0
  2
SOLID
 70
     1
 71
     0
 91
        1
 92
        1
 93
        1
 72
     4
 94
        3
 73
     0
 74
     1
 95
       26
 96
       22
 40
0.0
 40
0.0
 40
0.0
 40
0.0
 40
1.0
 40
1.0
 40
1.0
 40
2.0
 40
2.0
 40
2.0
 40
3.0
 40
3.0
 40
3.0
 40
4.0
 40
4.0
 40
4.0
 40
5.0
 40
5.0
 40
5.0
 40
6.0
 40
6.0
 40
6.0
 40
7.0
 40
7.0
 40
7.0
 40
7.0
 10
89.06364201332437
 20
-125.6722601682347
 10
89.06364201332437
 20
-125.6722601682347
 10
89.48635522936452
 20
-124.6518228855037
 10
89.48635522936452
 20
-124.6518228855037
 10
89.48635522936452
 20
-124.6518228855037
 10
89.16079370600842
 20
-124.5167751424819
 10
89.16079370600842
 20
-124.5167751424819
 10
89.16079370600842
 20
-124.5167751424819
 10
89.21729327196651
 20
-124.380349361266
 10
89.21729327196651
 20
-124.380349361266
 10
89.5507785149387
 20
-124.5023057414439
 10
89.65895451317554
 20
-124.3707030939073
 10
89.73199053746283
 20
-124.2776855158056
 10
89.73199053746283
 20
-124.2776855158056
 10
89.87599552874629
 20
-124.3369411581519
 10
89.87599552874629
 20
-124.3369411581519
 10
89.87599552874629
 20
-124.3369411581519
 10
89.28516165302594
 20
-125.7638997081424
 10
89.28516165302594
 20
-125.7638997081424
 10
89.28516165302594
 20
-125.7638997081424
 10
89.06364201332437
 20
-125.6722601682347
 10
89.06364201332437
 20
-125.6722601682347
 97
        0
 97
        0
 75
     2
 76
     1
 98
        0
  0
SPLINE
  5
BE
330
B8
100
AcDbEntity
  8
_U+30EC_U+30A4_U+30E4_U+30FC 1
370
     0
100
AcDbSpline
210
0.0
220
0.0
230
1.0
 70
    11
 71
     3
 72
    62
 73
    58
 74
     0
 42
0.0000000001
 43
0.0000000001
 12
1.0
 22
0.0
 32
0.0
 13
1.0
 23
0.0
 33
0.0
 40
0.0
 40
0.0
 40
0.0
 40
0.0
 40
1.0
 40
1.0
 40
1.0
 40
2.0
 40
2.0
 40
2.0
 40
3.0
 40
3.0
 40
3.0
 40
4.0
 40
4.0
 40
4.0
 40
5.0
 40
5.0
 40
5.0
 40
6.0
 40
6.0
 40
6.0
 40
7.0
 40
7.0
 40
7.0
 40
8.0
 40
8.0
 40
8.0
 40
9.0
 40
9.0
 40
9.0
 40
10.0
 40
10.0
 40
10.0
 40
11.0
 40
11.0
 40
11.0
 40
12.0
 40
12.0
 40
12.0
 40
13.0
 40
13.0
 40
13.0
 40
14.0
 40
14.0
 40
14.0
 40
15.0
 40
15.0
 40
15.0
 40
16.0
 40
16.0
 40
16.0
 40
17.0
 40
17.0
 40
17.0
 40
18.0
 40
18.0
 40
18.0
 40
19.0
 40
19.0
 40
19.0
 40
19.0
 10
90.24599878386212
 20
-126.2165852549042
 30
0.0
 10
90.15229218666332
 20
-126.1780001854694
 30
0.0
 10
89.9452419479998
 20
-126.0691351681355
 30
0.0
 10
89.89322100617254
 20
-125.8462374902398
 30
0.0
 10
89.86290416590234
 20
-125.7122232758636
 30
0.0
 10
89.89701061120631
 20
-125.6185166786648
 30
0.0
 10
89.92526039418536
 20
-125.538590463407
 30
0.0
 10
89.92526039418536
 20
-125.538590463407
 30
0.0
 10
90.1423014097561
 20
-125.6288519651206
 30
0.0
 10
90.1423014097561
 20
-125.6288519651206
 30
0.0
 10
90.11577417451967
 20
-125.6980983843741
 30
0.0
 10
90.03688148790745
 20
-125.9196180240757
 30
0.0
 10
90.31662324130974
 20
-126.0353732323801
 30
0.0
 10
90.45236000342858
 20
-126.0915282887896
 30
0.0
 10
90.62909340182189
 20
-126.0891167219499
 30
0.0
 10
90.71659882714724
 20
-125.8782768782527
 30
0.0
 10
90.76104055890697
 20
-125.7707898991129
 30
0.0
 10
90.74209253373809
 20
-125.7101562185725
 30
0.0
 10
90.72314450856922
 20
-125.6677815441039
 30
0.0
 10
90.67835826726098
 20
-125.5689073036772
 30
0.0
 10
90.5684597212815
 20
-125.5099961708794
 30
0.0
 10
90.51402721261455
 20
-125.4876030502253
 30
0.0
 10
90.49507918744568
 20
-125.4796793306093
 30
0.0
 10
90.45925019439908
 20
-125.4669324773138
 30
0.0
 10
90.42996688277445
 20
-125.4593532672463
 30
0.0
 10
90.42996688277445
 20
-125.4593532672463
 30
0.0
 10
90.50438094525585
 20
-125.2795192829162
 30
0.0
 10
90.50438094525585
 20
-125.2795192829162
 30
0.0
 10
90.5395209192054
 20
-125.3008788749248
 30
0.0
 10
90.5808620650284
 20
-125.3201714096422
 30
0.0
 10
90.58706323690186
 20
-125.3229274860304
 30
0.0
 10
90.65183103202455
 20
-125.3497992308153
 30
0.0
 10
90.85612519429986
 20
-125.4118109495498
 30
0.0
 10
90.94673120556193
 20
-125.1927028766879
 30
0.0
 10
91.01494409616988
 20
-125.02871633159
 30
0.0
 10
90.90642358838451
 20
-124.9239854288384
 30
0.0
 10
90.79790308059914
 20
-124.8791991875302
 30
0.0
 10
90.5367648428172
 20
-124.7706786797448
 30
0.0
 10
90.43961315013316
 20
-124.9825520520877
 30
0.0
 10
90.40791827166886
 20
-125.0473198472104
 30
0.0
 10
90.40791827166886
 20
-125.0473198472104
 30
0.0
 10
90.20741371442732
 20
-124.9639485364674
 30
0.0
 10
90.20741371442732
 20
-124.9639485364674
 30
0.0
 10
90.26322426128837
 20
-124.8523274427453
 30
0.0
 10
90.43410099735675
 20
-124.5153971042878
 30
0.0
 10
90.88540850592449
 20
-124.7024657891369
 30
0.0
 10
91.10727265517457
 20
-124.7941053290445
 30
0.0
 10
91.29675290686332
 20
-125.0101128159697
 30
0.0
 10
91.1834092653986
 20
-125.2836533974985
 30
0.0
 10
91.11209578885392
 20
-125.455908171761
 30
0.0
 10
90.98634980364231
 20
-125.4931152030017
 30
0.0
 10
90.86473793301299
 20
-125.5089626422339
 30
0.0
 10
90.91469181754911
 20
-125.5592610363185
 30
0.0
 10
91.06386445206043
 20
-125.7080891612813
 30
0.0
 10
90.95775551111473
 20
-125.9644042653839
 30
0.0
 10
90.82821992086934
 20
-126.2772189354446
 30
0.0
 10
90.51953936539095
 20
-126.3302734059174
 30
0.0
 10
90.24599878386212
 20
-126.2165852549042
 30
0.0
  0
HATCH
  5
BF
330
B8
100
AcDbEntity
  8
_U+30EC_U+30A4_U+30E4_U+30FC 1
 62
   179
420
  2234388
100
AcDbHatch
 10
0.0
 20
0.0
 30
0.0
210
0.0
220
0.0
230
1.0
  2
SOLID
 70
     1
 71
     0
 91
        1
 92
        1
 93
        1
 72
     4
 94
        3
 73
     0
 74
     1
 95
       62
 96
       58
 40
0.0
 40
0.0
 40
0.0
 40
0.0
 40
1.0
 40
1.0
 40
1.0
 40
2.0
 40
2.0
 40
2.0
 40
3.0
 40
3.0
 40
3.0
 40
4.0
 40
4.0
 40
4.0
 40
5.0
 40
5.0
 40
5.0
 40
6.0
 40
6.0
 40
6.0
 40
7.0
 40
7.0
 40
7.0
 40
8.0
 40
8.0
 40
8.0
 40
9.0
 40
9.0
 40
9.0
 40
10.0
 40
10.0
 40
10.0
 40
11.0
 40
11.0
 40
11.0
 40
12.0
 40
12.0
 40
12.0
 40
13.0
 40
13.0
 40
13.0
 40
14.0
 40
14.0
 40
14.0
 40
15.0
 40
15.0
 40
15.0
 40
16.0
 40
16.0
 40
16.0
 40
17.0
 40
17.0
 40
17.0
 40
18.0
 40
18.0
 40
18.0
 40
19.0
 40
19.0
 40
19.0
 40
19.0
 10
90.24599878386212
 20
-126.2165852549042
 10
90.15229218666332
 20
-126.1780001854694
 10
89.9452419479998
 20
-126.0691351681355
 10
89.89322100617254
 20
-125.8462374902398
 10
89.86290416590234
 20
-125.7122232758636
 10
89.89701061120631
 20
-125.6185166786648
 10
89.92526039418536
 20
-125.538590463407
 10
89.92526039418536
 20
-125.538590463407
 10
90.1423014097561
 20
-125.6288519651206
 10
90.1423014097561
 20
-125.6288519651206
 10
90.11577417451967
 20
-125.6980983843741
 10
90.03688148790745
 20
-125.9196180240757
 10
90.31662324130974
 20
-126.0353732323801
 10
90.45236000342858
 20
-126.0915282887896
 10
90.62909340182189
 20
-126.0891167219499
 10
90.71659882714724
 20
-125.8782768782527
 10
90.76104055890697
 20
-125.7707898991129
 10
90.74209253373809
 20
-125.7101562185725
 10
90.72314450856922
 20
-125.6677815441039
 10
90.67835826726098
 20
-125.5689073036772
 10
90.5684597212815
 20
-125.5099961708794
 10
90.51402721261455
 20
-125.4876030502253
 10
90.49507918744568
 20
-125.4796793306093
 10
90.45925019439908
 20
-125.4669324773138
 10
90.42996688277445
 20
-125.4593532672463
 10
90.42996688277445
 20
-125.4593532672463
 10
90.50438094525585
 20
-125.2795192829162
 10
90.50438094525585
 20
-125.2795192829162
 10
90.5395209192054
 20
-125.3008788749248
 10
90.5808620650284
 20
-125.3201714096422
 10
90.58706323690186
 20
-125.3229274860304
 10
90.65183103202455
 20
-125.3497992308153
 10
90.85612519429986
 20
-125.4118109495498
 10
90.94673120556193
 20
-125.1927028766879
 10
91.01494409616988
 20
-125.02871633159
 10
90.90642358838451
 20
-124.9239854288384
 10
90.79790308059914
 20
-124.8791991875302
 10
90.5367648428172
 20
-124.7706786797448
 10
90.43961315013316
 20
-124.9825520520877
 10
90.40791827166886
 20
-125.0473198472104
 10
90.40791827166886
 20
-125.0473198472104
 10
90.20741371442732
 20
-124.9639485364674
 10
90.20741371442732
 20
-124.9639485364674
 10
90.26322426128837
 20
-124.8523274427453
 10
90.43410099735675
 20
-124.5153971042878
 10
90.88540850592449
 20
-124.7024657891369
 10
91.10727265517457
 20
-124.7941053290445
 10
91.29675290686332
 20
-125.0101128159697
 10
91.1834092653986
 20
-125.2836533974985
 10
91.11209578885392
 20
-125.455908171761
 10
90.98634980364231
 20
-125.4931152030017
 10
90.86473793301299
 20
-125.5089626422339
 10
90.91469181754911
 20
-125.5592610363185
 10
91.06386445206043
 20
-125.7080891612813
 10
90.95775551111473
 20
-125.9644042653839
 10
90.82821992086934
 20
-126.2772189354446
 10
90.51953936539095
 20
-126.3302734059174
 10
90.24599878386212
 20
-126.2165852549042
 97
        0
 97
        0
 75
     2
 76
     1
 98
        0
  0
SPLINE
  5
C0
330
B8
100
AcDbEntity
  8
_U+30EC_U+30A4_U+30E4_U+30FC 1
370
     0
100
AcDbSpline
210
0.0
220
0.0
230
1.0
 70
    11
 71
     3
 72
    53
 73
    49
 74
     0
 42
0.0000000001
 43
0.0000000001
 12
1.0
 22
0.0
 32
0.0
 13
1.0
 23
0.0
 33
0.0
 40
0.0
 40
0.0
 40
0.0
 40
0.0
 40
1.0
 40
1.0
 40
1.0
 40
2.0
 40
2.0
 40
2.0
 40
3.0
 40
3.0
 40
3.0
 40
4.0
 40
4.0
 40
4.0
 40
5.0
 40
5.0
 40
5.0
 40
6.0
 40
6.0
 40
6.0
 40
7.0
 40
7.0
 40
7.0
 40
8.0
 40
8.0
 40
8.0
 40
9.0
 40
9.0
 40
9.0
 40
10.0
 40
10.0
 40
10.0
 40
11.0
 40
11.0
 40
11.0
 40
12.0
 40
12.0
 40
12.0
 40
13.0
 40
13.0
 40
13.0
 40
14.0
 40
14.0
 40
14.0
 40
15.0
 40
15.0
 40
15.0
 40
16.0
 40
16.0
 40
16.0
 40
16.0
 10
91.39803871412965
 20
-126.6937309796113
 30
0.0
 10
91.32017955616301
 20
-126.6616915915985
 30
0.0
 10
91.22681746851275
 20
-126.6045030065433
 30
0.0
 10
91.15068085828872
 20
-126.5045952374711
 30
0.0
 10
91.02148977759185
 20
-126.3316514441115
 30
0.0
 10
91.051117598765
 20
-126.2021158538661
 30
0.0
 10
91.07351071941913
 20
-126.0946288747264
 30
0.0
 10
91.07351071941913
 20
-126.0946288747264
 30
0.0
 10
91.29261879228102
 20
-126.1855793955369
 30
0.0
 10
91.29261879228102
 20
-126.1855793955369
 30
0.0
 10
91.27091469072394
 20
-126.3915961055549
 30
0.0
 10
91.38494735128572
 20
-126.4708333017156
 30
0.0
 10
91.47693140074188
 20
-126.5087293520534
 30
0.0
 10
91.61473522015187
 20
-126.5659179371085
 30
0.0
 10
91.80318194319504
 20
-126.5366346254839
 30
0.0
 10
91.89240991626302
 20
-126.3213161576558
 30
0.0
 10
91.99025062804411
 20
-126.0849826073676
 30
0.0
 10
91.83969995533869
 20
-125.9471787879577
 30
0.0
 10
91.72049965154905
 20
-125.8975694129701
 30
0.0
 10
91.68880477308474
 20
-125.8844780501261
 30
0.0
 10
91.5489338963836
 20
-125.8266004459739
 30
0.0
 10
91.41181909607066
 20
-125.9092827376199
 30
0.0
 10
91.41181909607066
 20
-125.9092827376199
 30
0.0
 10
91.24576549368162
 20
-125.8200547645519
 30
0.0
 10
91.24576549368162
 20
-125.8200547645519
 30
0.0
 10
91.24576549368162
 20
-125.8200547645519
 30
0.0
 10
91.68846026353623
 20
-125.0879719739363
 30
0.0
 10
91.68846026353623
 20
-125.0879719739363
 30
0.0
 10
91.68846026353623
 20
-125.0879719739363
 30
0.0
 10
92.45706106629547
 20
-125.4062987967734
 30
0.0
 10
92.45706106629547
 20
-125.4062987967734
 30
0.0
 10
92.45706106629547
 20
-125.4062987967734
 30
0.0
 10
92.38264700381407
 20
-125.5861327811035
 30
0.0
 10
92.38264700381407
 20
-125.5861327811035
 30
0.0
 10
92.38264700381407
 20
-125.5861327811035
 30
0.0
 10
91.774932160216
 20
-125.3342963011317
 30
0.0
 10
91.774932160216
 20
-125.3342963011317
 30
0.0
 10
91.774932160216
 20
-125.3342963011317
 30
0.0
 10
91.54824487728655
 20
-125.6984428939226
 30
0.0
 10
91.54824487728655
 20
-125.6984428939226
 30
0.0
 10
91.6219699206709
 20
-125.6918972125006
 30
0.0
 10
91.71843259425789
 20
-125.6884521170154
 30
0.0
 10
91.83556584075639
 20
-125.7370279633574
 30
0.0
 10
92.08636879208258
 20
-125.8407253374634
 30
0.0
 10
92.24897729898638
 20
-126.1097872948614
 30
0.0
 10
92.12908797609968
 20
-126.3988308060739
 30
0.0
 10
92.00747610547036
 20
-126.6920084318687
 30
0.0
 10
91.6963839831523
 20
-126.8174099075318
 30
0.0
 10
91.39803871412965
 20
-126.6937309796113
 30
0.0
  0
HATCH
  5
C1
330
B8
100
AcDbEntity
  8
_U+30EC_U+30A4_U+30E4_U+30FC 1
 62
   179
420
  2234388
100
AcDbHatch
 10
0.0
 20
0.0
 30
0.0
210
0.0
220
0.0
230
1.0
  2
SOLID
 70
     1
 71
     0
 91
        1
 92
        1
 93
        1
 72
     4
 94
        3
 73
     0
 74
     1
 95
       53
 96
       49
 40
0.0
 40
0.0
 40
0.0
 40
0.0
 40
1.0
 40
1.0
 40
1.0
 40
2.0
 40
2.0
 40
2.0
 40
3.0
 40
3.0
 40
3.0
 40
4.0
 40
4.0
 40
4.0
 40
5.0
 40
5.0
 40
5.0
 40
6.0
 40
6.0
 40
6.0
 40
7.0
 40
7.0
 40
7.0
 40
8.0
 40
8.0
 40
8.0
 40
9.0
 40
9.0
 40
9.0
 40
10.0
 40
10.0
 40
10.0
 40
11.0
 40
11.0
 40
11.0
 40
12.0
 40
12.0
 40
12.0
 40
13.0
 40
13.0
 40
13.0
 40
14.0
 40
14.0
 40
14.0
 40
15.0
 40
15.0
 40
15.0
 40
16.0
 40
16.0
 40
16.0
 40
16.0
 10
91.39803871412965
 20
-126.6937309796113
 10
91.32017955616301
 20
-126.6616915915985
 10
91.22681746851275
 20
-126.6045030065433
 10
91.15068085828872
 20
-126.5045952374711
 10
91.02148977759185
 20
-126.3316514441115
 10
91.051117598765
 20
-126.2021158538661
 10
91.07351071941913
 20
-126.0946288747264
 10
91.07351071941913
 20
-126.0946288747264
 10
91.29261879228102
 20
-126.1855793955369
 10
91.29261879228102
 20
-126.1855793955369
 10
91.27091469072394
 20
-126.3915961055549
 10
91.38494735128572
 20
-126.4708333017156
 10
91.47693140074188
 20
-126.5087293520534
 10
91.61473522015187
 20
-126.5659179371085
 10
91.80318194319504
 20
-126.5366346254839
 10
91.89240991626302
 20
-126.3213161576558
 10
91.99025062804411
 20
-126.0849826073676
 10
91.83969995533869
 20
-125.9471787879577
 10
91.72049965154905
 20
-125.8975694129701
 10
91.68880477308474
 20
-125.8844780501261
 10
91.5489338963836
 20
-125.8266004459739
 10
91.41181909607066
 20
-125.9092827376199
 10
91.41181909607066
 20
-125.9092827376199
 10
91.24576549368162
 20
-125.8200547645519
 10
91.24576549368162
 20
-125.8200547645519
 10
91.24576549368162
 20
-125.8200547645519
 10
91.68846026353623
 20
-125.0879719739363
 10
91.68846026353623
 20
-125.0879719739363
 10
91.68846026353623
 20
-125.0879719739363
 10
92.45706106629547
 20
-125.4062987967734
 10
92.45706106629547
 20
-125.4062987967734
 10
92.45706106629547
 20
-125.4062987967734
 10
92.38264700381407
 20
-125.5861327811035
 10
92.38264700381407
 20
-125.5861327811035
 10
92.38264700381407
 20
-125.5861327811035
 10
91.774932160216
 20
-125.3342963011317
 10
91.774932160216
 20
-125.3342963011317
 10
91.774932160216
 20
-125.3342963011317
 10
91.54824487728655
 20
-125.6984428939226
 10
91.54824487728655
 20
-125.6984428939226
 10
91.6219699206709
 20
-125.6918972125006
 10
91.71843259425789
 20
-125.6884521170154
 10
91.83556584075639
 20
-125.7370279633574
 10
92.08636879208258
 20
-125.8407253374634
 10
92.24897729898638
 20
-126.1097872948614
 10
92.12908797609968
 20
-126.3988308060739
 10
92.00747610547036
 20
-126.6920084318687
 10
91.6963839831523
 20
-126.8174099075318
 10
91.39803871412965
 20
-126.6937309796113
 97
        0
 97
        0
 75
     2
 76
     1
 98
        0
  0
SPLINE
  5
C2
330
B8
100
AcDbEntity
  8
_U+30EC_U+30A4_U+30E4_U+30FC 1
370
     0
100
AcDbSpline
210
0.0
220
0.0
230
1.0
 70
    11
 71
     3
 72
    17
 73
    13
 74
     0
 42
0.0000000001
 43
0.0000000001
 12
1.0
 22
0.0
 32
0.0
 13
1.0
 23
0.0
 33
0.0
 40
0.0
 40
0.0
 40
0.0
 40
0.0
 40
1.0
 40
1.0
 40
1.0
 40
2.0
 40
2.0
 40
2.0
 40
3.0
 40
3.0
 40
3.0
 40
4.0
 40
4.0
 40
4.0
 40
4.0
 10
93.21636011124453
 20
-125.9974771820423
 30
0.0
 10
93.15331486386445
 20
-126.1497504024903
 30
0.0
 10
92.96865774585507
 20
-126.2241644649717
 30
0.0
 10
92.79915904798077
 20
-126.1542290266212
 30
0.0
 10
92.63207191694616
 20
-126.0849826073676
 30
0.0
 10
92.55076766349426
 20
-125.9027370561979
 30
0.0
 10
92.61484643951991
 20
-125.7483967784587
 30
0.0
 10
92.67892521554555
 20
-125.593711991171
 30
0.0
 10
92.86496037174904
 20
-125.5220540050778
 30
0.0
 10
93.03239201233218
 20
-125.5913004243314
 30
0.0
 10
93.20189071020647
 20
-125.6612358626819
 30
0.0
 10
93.2794053586246
 20
-125.8448594520457
 30
0.0
 10
93.21636011124453
 20
-125.9974771820423
 30
0.0
  0
SPLINE
  5
C3
330
B8
100
AcDbEntity
  8
_U+30EC_U+30A4_U+30E4_U+30FC 1
370
     0
100
AcDbSpline
210
0.0
220
0.0
230
1.0
 70
    11
 71
     3
 72
    17
 73
    13
 74
     0
 42
0.0000000001
 43
0.0000000001
 12
1.0
 22
0.0
 32
0.0
 13
1.0
 23
0.0
 33
0.0
 40
0.0
 40
0.0
 40
0.0
 40
0.0
 40
1.0
 40
1.0
 40
1.0
 40
2.0
 40
2.0
 40
2.0
 40
3.0
 40
3.0
 40
3.0
 40
4.0
 40
4.0
 40
4.0
 40
4.0
 10
92.73818085789185
 20
-125.7993841916404
 30
0.0
 10
92.7002848075541
 20
-125.8913682410966
 30
0.0
 10
92.74886065389612
 20
-125.9985107106879
 30
0.0
 10
92.84670136567722
 20
-126.0388183278653
 30
0.0
 10
92.94488658700683
 20
-126.0794704545912
 30
0.0
 10
93.05547415208336
 20
-126.0381293087682
 30
0.0
 10
93.09337020242111
 20
-125.9464897688606
 30
0.0
 10
93.13161076230737
 20
-125.8545057194044
 30
0.0
 10
93.08475746370799
 20
-125.7480522689102
 30
0.0
 10
92.98450518508722
 20
-125.7067111230872
 30
0.0
 10
92.88425290646644
 20
-125.6653699772642
 30
0.0
 10
92.77642141777812
 20
-125.7074001421843
 30
0.0
 10
92.73818085789185
 20
-125.7993841916404
 30
0.0
  0
HATCH
  5
C4
330
B8
100
AcDbEntity
  8
_U+30EC_U+30A4_U+30E4_U+30FC 1
 62
   179
420
  2234388
100
AcDbHatch
 10
0.0
 20
0.0
 30
0.0
210
0.0
220
0.0
230
1.0
  2
SOLID
 70
     1
 71
     0
 91
        2
 92
        1
 93
        1
 72
     4
 94
        3
 73
     0
 74
     1
 95
       17
 96
       13
 40
0.0
 40
0.0
 40
0.0
 40
0.0
 40
1.0
 40
1.0
 40
1.0
 40
2.0
 40
2.0
 40
2.0
 40
3.0
 40
3.0
 40
3.0
 40
4.0
 40
4.0
 40
4.0
 40
4.0
 10
93.21636011124453
 20
-125.9974771820423
 10
93.15331486386445
 20
-126.1497504024903
 10
92.96865774585507
 20
-126.2241644649717
 10
92.79915904798077
 20
-126.1542290266212
 10
92.63207191694616
 20
-126.0849826073676
 10
92.55076766349426
 20
-125.9027370561979
 10
92.61484643951991
 20
-125.7483967784587
 10
92.67892521554555
 20
-125.593711991171
 10
92.86496037174904
 20
-125.5220540050778
 10
93.03239201233218
 20
-125.5913004243314
 10
93.20189071020647
 20
-125.6612358626819
 10
93.2794053586246
 20
-125.8448594520457
 10
93.21636011124453
 20
-125.9974771820423
 97
        0
 97
        0
 92
        1
 93
        1
 72
     4
 94
        3
 73
     0
 74
     1
 95
       17
 96
       13
 40
0.0
 40
0.0
 40
0.0
 40
0.0
 40
1.0
 40
1.0
 40
1.0
 40
2.0
 40
2.0
 40
2.0
 40
3.0
 40
3.0
 40
3.0
 40
4.0
 40
4.0
 40
4.0
 40
4.0
 10
92.73818085789185
 20
-125.7993841916404
 10
92.7002848075541
 20
-125.8913682410966
 10
92.74886065389612
 20
-125.9985107106879
 10
92.84670136567722
 20
-126.0388183278653
 10
92.94488658700683
 20
-126.0794704545912
 10
93.05547415208336
 20
-126.0381293087682
 10
93.09337020242111
 20
-125.9464897688606
 10
93.13161076230737
 20
-125.8545057194044
 10
93.08475746370799
 20
-125.7480522689102
 10
92.98450518508722
 20
-125.7067111230872
 10
92.88425290646644
 20
-125.6653699772642
 10
92.77642141777812
 20
-125.7074001421843
 10
92.73818085789185
 20
-125.7993841916404
 97
        0
 97
        0
 75
     2
 76
     1
 98
        0
  0
ENDBLK
  5
BB
330
B8
100
AcDbEntity
  8
0
100
AcDbBlockEnd
  0
ENDSEC
  0
SECTION
  2
ENTITIES
  0
POLYLINE
  5
41
330
1F
100
AcDbEntity
  8
_U+30EC_U+30A4_U+30E4_U+30FC 1
370
     0
100
AcDb2dPolyline
 66
     1
 10
0.0
 20
0.0
 30
0.0
  0
VERTEX
  5
42
330
41
100
AcDbEntity
  8
_U+30EC_U+30A4_U+30E4_U+30FC 1
370
     0
100
AcDbVertex
100
AcDb2dVertex
 10
103.1158482026289
 20
-131.6680966337499
 30
0.0
  0
VERTEX
  5
43
330
41
100
AcDbEntity
  8
_U+30EC_U+30A4_U+30E4_U+30FC 1
370
     0
100
AcDbVertex
100
AcDb2dVertex
 10
103.1158482026289
 20
-130.4678408007161
 30
0.0
  0
VERTEX
  5
44
330
41
100
AcDbEntity
  8
_U+30EC_U+30A4_U+30E4_U+30FC 1
370
     0
100
AcDbVertex
100
AcDb2dVertex
 10
88.61301301707148
 20
-130.4678408007161
 30
0.0
  0
VERTEX
  5
45
330
41
100
AcDbEntity
  8
_U+30EC_U+30A4_U+30E4_U+30FC 1
370
     0
100
AcDbVertex
100
AcDb2dVertex
 10
78.35801022314284
 20
-120.2129788588356
 30
0.0
  0
VERTEX
  5
46
330
41
100
AcDbEntity
  8
_U+30EC_U+30A4_U+30E4_U+30FC 1
370
     0
100
AcDbVertex
100
AcDb2dVertex
 10
77.50947385590192
 20
-121.0611624697347
 30
0.0
  0
VERTEX
  5
47
330
41
100
AcDbEntity
  8
_U+30EC_U+30A4_U+30E4_U+30FC 1
370
     0
100
AcDbVertex
100
AcDb2dVertex
 10
88.11587858530999
 20
-131.6680966337499
 30
0.0
  0
VERTEX
  5
48
330
41
100
AcDbEntity
  8
_U+30EC_U+30A4_U+30E4_U+30FC 1
370
     0
100
AcDbVertex
100
AcDb2dVertex
 10
103.1158482026289
 20
-131.6680966337499
 30
0.0
  0
SEQEND
  5
4A
330
41
100
AcDbEntity
  8
_U+30EC_U+30A4_U+30E4_U+30FC 1
370
     0
  0
HATCH
  5
49
330
1F
100
AcDbEntity
  8
_U+30EC_U+30A4_U+30E4_U+30FC 1
 62
   253
420
 11711154
100
AcDbHatch
 10
0.0
 20
0.0
 30
0.0
210
0.0
220
0.0
230
1.0
  2
SOLID
 70
     1
 71
     0
 91
        1
 92
        1
 93
        6
 72
     1
 10
103.1158482026289
 20
-131.6680966337499
 11
103.1158482026289
 21
-130.4678408007161
 72
     1
 10
103.1158482026289
 20
-130.4678408007161
 11
88.61301301707148
 21
-130.4678408007161
 72
     1
 10
88.61301301707148
 20
-130.4678408007161
 11
78.35801022314284
 21
-120.2129788588356
 72
     1
 10
78.35801022314284
 20
-120.2129788588356
 11
77.50947385590192
 21
-121.0611624697347
 72
     1
 10
77.50947385590192
 20
-121.0611624697347
 11
88.11587858530999
 21
-131.6680966337499
 72
     1
 10
88.11587858530999
 20
-131.6680966337499
 11
103.1158482026289
 21
-131.6680966337499
 97
        0
 75
     2
 76
     1
 98
        0
  0
INSERT
  5
4C
330
1F
100
AcDbEntity
  8
_U+30EC_U+30A4_U+30E4_U+30FC 1
100
AcDbBlockReference
  2
block 2
 10
0.0
 20
0.0
 30
0.0
  0
ENDSEC
  0
SECTION
  2
OBJECTS
  0
DICTIONARY
  5
C
330
0
100
AcDbDictionary
281
     1
  3
ACAD_GROUP
350
D
  3
ACAD_LAYOUT
350
1A
  3
ACAD_MATERIAL
350
3B
  3
ACAD_MLEADERSTYLE
350
C6
  3
ACAD_MLINESTYLE
350
17
  3
ACAD_PLOTSETTINGS
350
19
  3
ACAD_PLOTSTYLENAME
350
E
  3
ACAD_TABLESTYLE
350
C5
  3
ACAD_VISUALSTYLE
350
2A
  0
SUN
  5
3F
330
29
100
AcDbSun
 90
        1
290
     0
 63
     7
421
 16777215
 40
1.0
291
     1
 91
  2455826
 92
 54000000
292
     0
 70
     2
 71
   256
280
     1
  0
DICTIONARY
  5
D
102
{ACAD_REACTORS
330
C
102
}
330
C
100
AcDbDictionary
281
     1
  0
DICTIONARY
  5
1A
102
{ACAD_REACTORS
330
C
102
}
330
C
100
AcDbDictionary
281
     1
  3
Layout1
350
1E
  3
Layout2
350
26
  3
Model
350
22
  0
DICTIONARY
  5
3B
102
{ACAD_REACTORS
330
C
102
}
330
C
100
AcDbDictionary
281
     1
  3
ByBlock
350
3D
  3
ByLayer
350
3C
  3
Global
350
3E
  0
DICTIONARY
  5
C6
102
{ACAD_REACTORS
330
C
102
}
330
C
100
AcDbDictionary
281
     1
  0
DICTIONARY
  5
17
102
{ACAD_REACTORS
330
C
102
}
330
C
100
AcDbDictionary
281
     1
  3
Standard
350
18
  0
DICTIONARY
  5
19
102
{ACAD_REACTORS
330
C
102
}
330
C
100
AcDbDictionary
281
     1
  0
ACDBDICTIONARYWDFLT
  5
E
102
{ACAD_REACTORS
330
C
102
}
330
C
100
AcDbDictionary
281
     1
  3
Normal
350
F
100
AcDbDictionaryWithDefault
340
F
  0
DICTIONARY
  5
C5
102
{ACAD_REACTORS
330
C
102
}
330
C
100
AcDbDictionary
281
     1
  0
DICTIONARY
  5
2A
102
{ACAD_REACTORS
330
C
102
}
330
C
100
AcDbDictionary
281
     1
  3
2dWireframe
350
2F
  3
3D Hidden
350
31
  3
3dWireframe
350
30
  3
Basic
350
32
  3
Brighten
350
36
  3
ColorChange
350
3A
  3
Conceptual
350
34
  3
Dim
350
35
  3
Facepattern
350
39
  3
Flat
350
2B
  3
FlatWithEdges
350
2C
  3
Gouraud
350
2D
  3
GouraudWithEdges
350
2E
  3
Linepattern
350
38
  3
Realistic
350
33
  3
Thicken
350
37
  0
LAYOUT
  5
1E
102
{ACAD_REACTORS
330
1A
102
}
330
1A
100
AcDbPlotSettings
  1

  2
none_device
  4

  6

 40
0.0
 41
0.0
 42
0.0
 43
0.0
 44
0.0
 45
0.0
 46
0.0
 47
0.0
 48
0.0
 49
0.0
140
0.0
141
0.0
142
1.0
143
1.0
 70
   688
 72
     0
 73
     0
 74
     5
  7

 75
    16
 76
     0
 77
     2
 78
   300
147
1.0
148
0.0
149
0.0
100
AcDbLayout
  1
Layout1
 70
     1
 71
     1
 10
0.0
 20
0.0
 11
12.0
 21
9.0
 12
0.0
 22
0.0
 32
0.0
 14
1.000000000000000E+20
 24
1.000000000000000E+20
 34
1.000000000000000E+20
 15
-1.000000000000000E+20
 25
-1.000000000000000E+20
 35
-1.000000000000000E+20
146
0.0
 13
0.0
 23
0.0
 33
0.0
 16
1.0
 26
0.0
 36
0.0
 17
0.0
 27
1.0
 37
0.0
 76
     0
330
1B
  0
LAYOUT
  5
26
102
{ACAD_REACTORS
330
1A
102
}
330
1A
100
AcDbPlotSettings
  1

  2
none_device
  4

  6

 40
0.0
 41
0.0
 42
0.0
 43
0.0
 44
0.0
 45
0.0
 46
0.0
 47
0.0
 48
0.0
 49
0.0
140
0.0
141
0.0
142
1.0
143
1.0
 70
   688
 72
     0
 73
     0
 74
     5
  7

 75
    16
 76
     0
 77
     2
 78
   300
147
1.0
148
0.0
149
0.0
100
AcDbLayout
  1
Layout2
 70
     1
 71
     2
 10
0.0
 20
0.0
 11
0.0
 21
0.0
 12
0.0
 22
0.0
 32
0.0
 14
0.0
 24
0.0
 34
0.0
 15
0.0
 25
0.0
 35
0.0
146
0.0
 13
0.0
 23
0.0
 33
0.0
 16
1.0
 26
0.0
 36
0.0
 17
0.0
 27
1.0
 37
0.0
 76
     0
330
23
  0
LAYOUT
  5
22
102
{ACAD_REACTORS
330
1A
102
}
330
1A
100
AcDbPlotSettings
  1

  2
none_device
  4

  6

 40
0.0
 41
0.0
 42
0.0
 43
0.0
 44
0.0
 45
0.0
 46
0.0
 47
0.0
 48
0.0
 49
0.0
140
0.0
141
0.0
142
1.0
143
1.0
 70
  1712
 72
     0
 73
     0
 74
     0
  7

 75
     0
 76
     0
 77
     2
 78
   300
147
1.0
148
0.0
149
0.0
100
AcDbLayout
  1
Model
 70
     1
 71
     0
 10
0.0
 20
0.0
 11
12.0
 21
9.0
 12
0.0
 22
0.0
 32
0.0
 14
1.000000000000000E+20
 24
1.000000000000000E+20
 34
1.000000000000000E+20
 15
-1.000000000000000E+20
 25
-1.000000000000000E+20
 35
-1.000000000000000E+20
146
0.0
 13
0.0
 23
0.0
 33
0.0
 16
1.0
 26
0.0
 36
0.0
 17
0.0
 27
1.0
 37
0.0
 76
     0
330
1F
331
29
  0
MATERIAL
  5
3D
102
{ACAD_REACTORS
330
3B
102
}
330
3B
100
AcDbMaterial
  1
ByBlock
 72
     1
 94
      127
  0
MATERIAL
  5
3C
102
{ACAD_REACTORS
330
3B
102
}
330
3B
100
AcDbMaterial
  1
ByLayer
 72
     1
 94
      127
  0
MATERIAL
  5
3E
102
{ACAD_REACTORS
330
3B
102
}
330
3B
100
AcDbMaterial
  1
Global
 72
     1
 94
      127
  0
MLINESTYLE
  5
18
102
{ACAD_REACTORS
330
17
102
}
330
17
100
AcDbMlineStyle
  2
Standard
 70
     0
  3

 62
   256
 51
90.0
 52
90.0
 71
     2
 49
0.5
 62
   256
  6
BYLAYER
 49
-0.5
 62
   256
  6
BYLAYER
  0
ACDBPLACEHOLDER
  5
F
102
{ACAD_REACTORS
330
E
102
}
330
E
  0
VISUALSTYLE
  5
2F
102
{ACAD_REACTORS
330
2A
102
}
330
2A
100
AcDbVisualStyle
  2
2dWireframe
 70
     4
177
     2
291
     0
 71
     0
176
     1
 72
     2
176
     1
 73
     0
176
     1
 90
        0
176
     1
 40
-0.6
176
     1
 41
-30.0
176
     1
 62
     5
 63
     7
421
 16777215
176
     1
 74
     1
176
     1
 91
        4
176
     1
 64
     7
176
     1
 65
   257
176
     1
 75
     1
176
     1
175
     1
176
     1
 42
1.0
176
     1
 92
        0
176
     1
 66
   257
176
     1
 43
1.0
176
     1
 76
     1
176
     1
 77
     6
176
     1
 78
     2
176
     1
 67
     7
176
     1
 79
     5
176
     1
170
     0
176
     1
171
     0
176
     1
290
     0
176
     1
 93
        1
176
     1
 44
0.0
176
     1
173
     0
176
     1
  0
VISUALSTYLE
  5
31
102
{ACAD_REACTORS
330
2A
102
}
330
2A
100
AcDbVisualStyle
  2
3D Hidden
 70
     6
177
     2
291
     0
 71
     1
176
     1
 72
     2
176
     1
 73
     2
176
     1
 90
        0
176
     1
 40
-0.6
176
     1
 41
-30.0
176
     1
 62
     5
 63
     7
421
 16777215
176
     1
 74
     2
176
     1
 91
        2
176
     1
 64
     7
176
     1
 65
   257
176
     1
 75
     2
176
     1
175
     1
176
     1
 42
40.0
176
     1
 92
        0
176
     1
 66
   257
176
     1
 43
1.0
176
     1
 76
     1
176
     1
 77
     6
176
     1
 78
     2
176
     1
 67
     7
176
     1
 79
     3
176
     1
170
     0
176
     1
171
     0
176
     1
290
     0
176
     1
 93
        1
176
     1
 44
0.0
176
     1
173
     0
176
     1
  0
VISUALSTYLE
  5
30
102
{ACAD_REACTORS
330
2A
102
}
330
2A
100
AcDbVisualStyle
  2
3dWireframe
 70
     5
177
     2
291
     0
 71
     0
176
     1
 72
     2
176
     1
 73
     0
176
     1
 90
        0
176
     1
 40
-0.6
176
     1
 41
-30.0
176
     1
 62
     5
 63
     7
421
 16777215
176
     1
 74
     1
176
     1
 91
        4
176
     1
 64
     7
176
     1
 65
   257
176
     1
 75
     1
176
     1
175
     1
176
     1
 42
1.0
176
     1
 92
        0
176
     1
 66
   257
176
     1
 43
1.0
176
     1
 76
     1
176
     1
 77
     6
176
     1
 78
     2
176
     1
 67
     7
176
     1
 79
     5
176
     1
170
     0
176
     1
171
     0
176
     1
290
     0
176
     1
 93
        1
176
     1
 44
0.0
176
     1
173
     0
176
     1
  0
VISUALSTYLE
  5
32
102
{ACAD_REACTORS
330
2A
102
}
330
2A
100
AcDbVisualStyle
  2
Basic
 70
     7
177
     2
291
     1
 71
     1
176
     1
 72
     0
176
     1
 73
     1
176
     1
 90
        0
176
     1
 40
-0.6
176
     1
 41
-30.0
176
     1
 62
     5
 63
     7
421
 16777215
176
     1
 74
     0
176
     1
 91
        4
176
     1
 64
     7
176
     1
 65
   257
176
     1
 75
     1
176
     1
175
     1
176
     1
 42
1.0
176
     1
 92
        8
176
     1
 66
     7
176
     1
 43
1.0
176
     1
 76
     1
176
     1
 77
     6
176
     1
 78
     2
176
     1
 67
     7
176
     1
 79
     5
176
     1
170
     0
176
     1
171
     0
176
     1
290
     0
176
     1
 93
        1
176
     1
 44
0.0
176
     1
173
     0
176
     1
  0
VISUALSTYLE
  5
36
102
{ACAD_REACTORS
330
2A
102
}
330
2A
100
AcDbVisualStyle
  2
Brighten
 70
    12
177
     2
291
     1
 71
     2
176
     1
 72
     2
176
     1
 73
     0
176
     1
 90
        0
176
     1
 40
-0.6
176
     1
 41
-30.0
176
     1
 62
     5
 63
     7
421
 16777215
176
     1
 74
     1
176
     1
 91
        4
176
     1
 64
     7
176
     1
 65
   257
176
     1
 75
     1
176
     1
175
     1
176
     1
 42
1.0
176
     1
 92
        8
176
     1
 66
     7
176
     1
 43
1.0
176
     1
 76
     1
176
     1
 77
     6
176
     1
 78
     2
176
     1
 67
     7
176
     1
 79
     5
176
     1
170
     0
176
     1
171
     0
176
     1
290
     0
176
     1
 93
        1
176
     1
 44
50.0
176
     1
173
     0
176
     1
  0
VISUALSTYLE
  5
3A
102
{ACAD_REACTORS
330
2A
102
}
330
2A
100
AcDbVisualStyle
  2
ColorChange
 70
    16
177
     2
291
     1
 71
     2
176
     1
 72
     2
176
     1
 73
     3
176
     1
 90
        0
176
     1
 40
-0.6
176
     1
 41
-30.0
176
     1
 62
     5
 63
     8
421
  8421504
176
     1
 74
     1
176
     1
 91
        4
176
     1
 64
     7
176
     1
 65
   257
176
     1
 75
     1
176
     1
175
     1
176
     1
 42
1.0
176
     1
 92
        8
176
     1
 66
     8
424
  8421504
176
     1
 43
1.0
176
     1
 76
     1
176
     1
 77
     6
176
     1
 78
     2
176
     1
 67
     7
176
     1
 79
     5
176
     1
170
     0
176
     1
171
     0
176
     1
290
     0
176
     1
 93
        1
176
     1
 44
0.0
176
     1
173
     0
176
     1
  0
VISUALSTYLE
  5
34
102
{ACAD_REACTORS
330
2A
102
}
330
2A
100
AcDbVisualStyle
  2
Conceptual
 70
     9
177
     2
291
     0
 71
     3
176
     1
 72
     2
176
     1
 73
     0
176
     1
 90
        0
176
     1
 40
-0.6
176
     1
 41
-30.0
176
     1
 62
     5
 63
     7
421
 16777215
176
     1
 74
     2
176
     1
 91
        2
176
     1
 64
     7
176
     1
 65
   257
176
     1
 75
     1
176
     1
175
     1
176
     1
 42
40.0
176
     1
 92
        8
176
     1
 66
     7
176
     1
 43
1.0
176
     1
 76
     1
176
     1
 77
     6
176
     1
 78
     2
176
     1
 67
     7
176
     1
 79
     3
176
     1
170
     0
176
     1
171
     0
176
     1
290
     0
176
     1
 93
        1
176
     1
 44
0.0
176
     1
173
     0
176
     1
  0
VISUALSTYLE
  5
35
102
{ACAD_REACTORS
330
2A
102
}
330
2A
100
AcDbVisualStyle
  2
Dim
 70
    11
177
     2
291
     1
 71
     2
176
     1
 72
     2
176
     1
 73
     0
176
     1
 90
        0
176
     1
 40
-0.6
176
     1
 41
-30.0
176
     1
 62
     5
 63
     7
421
 16777215
176
     1
 74
     1
176
     1
 91
        4
176
     1
 64
     7
176
     1
 65
   257
176
     1
 75
     1
176
     1
175
     1
176
     1
 42
1.0
176
     1
 92
        8
176
     1
 66
     7
176
     1
 43
1.0
176
     1
 76
     1
176
     1
 77
     6
176
     1
 78
     2
176
     1
 67
     7
176
     1
 79
     5
176
     1
170
     0
176
     1
171
     0
176
     1
290
     0
176
     1
 93
        1
176
     1
 44
-50.0
176
     1
173
     0
176
     1
  0
VISUALSTYLE
  5
39
102
{ACAD_REACTORS
330
2A
102
}
330
2A
100
AcDbVisualStyle
  2
Facepattern
 70
    15
177
     2
291
     1
 71
     2
176
     1
 72
     2
176
     1
 73
     0
176
     1
 90
        0
176
     1
 40
-0.6
176
     1
 41
-30.0
176
     1
 62
     5
 63
     7
421
 16777215
176
     1
 74
     1
176
     1
 91
        4
176
     1
 64
     7
176
     1
 65
   257
176
     1
 75
     1
176
     1
175
     1
176
     1
 42
1.0
176
     1
 92
        8
176
     1
 66
     7
176
     1
 43
1.0
176
     1
 76
     1
176
     1
 77
     6
176
     1
 78
     2
176
     1
 67
     7
176
     1
 79
     5
176
     1
170
     0
176
     1
171
     0
176
     1
290
     0
176
     1
 93
        1
176
     1
 44
0.0
176
     1
173
     0
176
     1
  0
VISUALSTYLE
  5
2B
102
{ACAD_REACTORS
330
2A
102
}
330
2A
100
AcDbVisualStyle
  2
Flat
 70
     0
177
     2
291
     1
 71
     2
176
     1
 72
     1
176
     1
 73
     1
176
     1
 90
        2
176
     1
 40
-0.6
176
     1
 41
30.0
176
     1
 62
     5
 63
     7
421
 16777215
176
     1
 74
     0
176
     1
 91
        4
176
     1
 64
     7
176
     1
 65
   257
176
     1
 75
     1
176
     1
175
     1
176
     1
 42
1.0
176
     1
 92
        8
176
     1
 66
     7
176
     1
 43
1.0
176
     1
 76
     1
176
     1
 77
     6
176
     1
 78
     2
176
     1
 67
     7
176
     1
 79
     5
176
     1
170
     0
176
     1
171
     0
176
     1
290
     0
176
     1
 93
       13
176
     1
 44
0.0
176
     1
173
     0
176
     1
  0
VISUALSTYLE
  5
2C
102
{ACAD_REACTORS
330
2A
102
}
330
2A
100
AcDbVisualStyle
  2
FlatWithEdges
 70
     1
177
     2
291
     1
 71
     2
176
     1
 72
     1
176
     1
 73
     1
176
     1
 90
        2
176
     1
 40
-0.6
176
     1
 41
30.0
176
     1
 62
     5
 63
     7
421
 16777215
176
     1
 74
     1
176
     1
 91
        4
176
     1
 64
     7
176
     1
 65
   257
176
     1
 75
     1
176
     1
175
     1
176
     1
 42
1.0
176
     1
 92
        0
176
     1
 66
   257
176
     1
 43
1.0
176
     1
 76
     1
176
     1
 77
     6
176
     1
 78
     2
176
     1
 67
     7
176
     1
 79
     5
176
     1
170
     0
176
     1
171
     0
176
     1
290
     0
176
     1
 93
       13
176
     1
 44
0.0
176
     1
173
     0
176
     1
  0
VISUALSTYLE
  5
2D
102
{ACAD_REACTORS
330
2A
102
}
330
2A
100
AcDbVisualStyle
  2
Gouraud
 70
     2
177
     2
291
     1
 71
     2
176
     1
 72
     2
176
     1
 73
     1
176
     1
 90
        2
176
     1
 40
-0.6
176
     1
 41
30.0
176
     1
 62
     5
 63
     7
421
 16777215
176
     1
 74
     0
176
     1
 91
        4
176
     1
 64
     7
176
     1
 65
   257
176
     1
 75
     1
176
     1
175
     1
176
     1
 42
1.0
176
     1
 92
        0
176
     1
 66
     7
176
     1
 43
1.0
176
     1
 76
     1
176
     1
 77
     6
176
     1
 78
     2
176
     1
 67
     7
176
     1
 79
     5
176
     1
170
     0
176
     1
171
     0
176
     1
290
     0
176
     1
 93
       13
176
     1
 44
0.0
176
     1
173
     0
176
     1
  0
VISUALSTYLE
  5
2E
102
{ACAD_REACTORS
330
2A
102
}
330
2A
100
AcDbVisualStyle
  2
GouraudWithEdges
 70
     3
177
     2
291
     1
 71
     2
176
     1
 72
     2
176
     1
 73
     1
176
     1
 90
        2
176
     1
 40
-0.6
176
     1
 41
30.0
176
     1
 62
     5
 63
     7
421
 16777215
176
     1
 74
     1
176
     1
 91
        4
176
     1
 64
     7
176
     1
 65
   257
176
     1
 75
     1
176
     1
175
     1
176
     1
 42
1.0
176
     1
 92
        0
176
     1
 66
   257
176
     1
 43
1.0
176
     1
 76
     1
176
     1
 77
     6
176
     1
 78
     2
176
     1
 67
     7
176
     1
 79
     5
176
     1
170
     0
176
     1
171
     0
176
     1
290
     0
176
     1
 93
       13
176
     1
 44
0.0
176
     1
173
     0
176
     1
  0
VISUALSTYLE
  5
38
102
{ACAD_REACTORS
330
2A
102
}
330
2A
100
AcDbVisualStyle
  2
Linepattern
 70
    14
177
     2
291
     1
 71
     2
176
     1
 72
     2
176
     1
 73
     0
176
     1
 90
        0
176
     1
 40
-0.6
176
     1
 41
-30.0
176
     1
 62
     5
 63
     7
421
 16777215
176
     1
 74
     1
176
     1
 91
        4
176
     1
 64
     7
176
     1
 65
   257
176
     1
 75
     7
176
     1
175
     7
176
     1
 42
1.0
176
     1
 92
        8
176
     1
 66
     7
176
     1
 43
1.0
176
     1
 76
     1
176
     1
 77
     6
176
     1
 78
     2
176
     1
 67
     7
176
     1
 79
     5
176
     1
170
     0
176
     1
171
     0
176
     1
290
     0
176
     1
 93
        1
176
     1
 44
0.0
176
     1
173
     0
176
     1
  0
VISUALSTYLE
  5
33
102
{ACAD_REACTORS
330
2A
102
}
330
2A
100
AcDbVisualStyle
  2
Realistic
 70
     8
177
     2
291
     0
 71
     2
176
     1
 72
     2
176
     1
 73
     0
176
     1
 90
        0
176
     1
 40
-0.6
176
     1
 41
-30.0
176
     1
 62
     5
 63
     7
421
 16777215
176
     1
 74
     1
176
     1
 91
        0
176
     1
 64
     7
176
     1
 65
   257
176
     1
 75
     1
176
     1
175
     1
176
     1
 42
1.0
176
     1
 92
        8
176
     1
 66
     8
424
  7895160
176
     1
 43
1.0
176
     1
 76
     1
176
     1
 77
     6
176
     1
 78
     2
176
     1
 67
     7
176
     1
 79
     5
176
     1
170
     0
176
     1
171
     0
176
     1
290
     0
176
     1
 93
       13
176
     1
 44
0.0
176
     1
173
     0
176
     1
  0
VISUALSTYLE
  5
37
102
{ACAD_REACTORS
330
2A
102
}
330
2A
100
AcDbVisualStyle
  2
Thicken
 70
    13
177
     2
291
     1
 71
     2
176
     1
 72
     2
176
     1
 73
     0
176
     1
 90
        0
176
     1
 40
-0.6
176
     1
 41
-30.0
176
     1
 62
     5
 63
     7
421
 16777215
176
     1
 74
     1
176
     1
 91
        4
176
     1
 64
     7
176
     1
 65
   257
176
     1
 75
     1
176
     1
175
     1
176
     1
 42
1.0
176
     1
 92
       12
176
     1
 66
     7
176
     1
 43
1.0
176
     1
 76
     1
176
     1
 77
     6
176
     1
 78
     2
176
     1
 67
     7
176
     1
 79
     5
176
     1
170
     0
176
     1
171
     0
176
     1
290
     0
176
     1
 93
        1
176
     1
 44
0.0
176
     1
173
     0
176
     1
  0
ENDSEC
  0
EOF
