  0
SECTION
  2
HEADER
  9
$ACADVER
  1
AC1024
  9
$ACADMAINTVER
 70
     6
  9
$DWGCODEPAGE
  3
UNDEFINED
  9
$INSBASE
 10
0.0
 20
0.0
 30
0.0
  9
$EXTMIN
 10
1.000000000000000E+20
 20
1.000000000000000E+20
 30
1.000000000000000E+20
  9
$EXTMAX
 10
-1.000000000000000E+20
 20
-1.000000000000000E+20
 30
-1.000000000000000E+20
  9
$LIMMIN
 10
0.0
 20
0.0
  9
$LIMMAX
 10
12.0
 20
9.0
  9
$ORTHOMODE
 70
     0
  9
$REGENMODE
 70
     1
  9
$FILLMODE
 70
     1
  9
$QTEXTMODE
 70
     0
  9
$MIRRTEXT
 70
     1
  9
$LTSCALE
 40
1.0
  9
$ATTMODE
 70
     1
  9
$TEXTSIZE
 40
0.2
  9
$TRACEWID
 40
0.05
  9
$TEXTSTYLE
  7
Standard
  9
$CLAYER
  8
0
  9
$CELTYPE
  6
ByLayer
  9
$CECOLOR
 62
   256
  9
$CELTSCALE
 40
1.0
  9
$DISPSILH
 70
     0
  9
$DIMSCALE
 40
1.0
  9
$DIMASZ
 40
0.18
  9
$DIMEXO
 40
0.0625
  9
$DIMDLI
 40
0.38
  9
$DIMRND
 40
0.0
  9
$DIMDLE
 40
0.0
  9
$DIMEXE
 40
0.18
  9
$DIMTP
 40
0.0
  9
$DIMTM
 40
0.0
  9
$DIMTXT
 40
0.18
  9
$DIMCEN
 40
0.09
  9
$DIMTSZ
 40
0.0
  9
$DIMTOL
 70
     0
  9
$DIMLIM
 70
     0
  9
$DIMTIH
 70
     1
  9
$DIMTOH
 70
     1
  9
$DIMSE1
 70
     0
  9
$DIMSE2
 70
     0
  9
$DIMTAD
 70
     0
  9
$DIMZIN
 70
     0
  9
$DIMBLK
  1

  9
$DIMASO
 70
     1
  9
$DIMSHO
 70
     1
  9
$DIMPOST
  1

  9
$DIMAPOST
  1

  9
$DIMALT
 70
     0
  9
$DIMALTD
 70
     2
  9
$DIMALTF
 40
25.4
  9
$DIMLFAC
 40
1.0
  9
$DIMTOFL
 70
     0
  9
$DIMTVP
 40
0.0
  9
$DIMTIX
 70
     0
  9
$DIMSOXD
 70
     0
  9
$DIMSAH
 70
     0
  9
$DIMBLK1
  1

  9
$DIMBLK2
  1

  9
$DIMSTYLE
  2
Standard
  9
$DIMCLRD
 70
     0
  9
$DIMCLRE
 70
     0
  9
$DIMCLRT
 70
     0
  9
$DIMTFAC
 40
1.0
  9
$DIMGAP
 40
0.09
  9
$DIMJUST
 70
     0
  9
$DIMSD1
 70
     0
  9
$DIMSD2
 70
     0
  9
$DIMTOLJ
 70
     1
  9
$DIMTZIN
 70
     0
  9
$DIMALTZ
 70
     0
  9
$DIMALTTZ
 70
     0
  9
$DIMUPT
 70
     0
  9
$DIMDEC
 70
     4
  9
$DIMTDEC
 70
     4
  9
$DIMALTU
 70
     2
  9
$DIMALTTD
 70
     2
  9
$DIMTXSTY
  7
Standard
  9
$DIMAUNIT
 70
     0
  9
$DIMADEC
 70
     0
  9
$DIMALTRND
 40
0.0
  9
$DIMAZIN
 70
     0
  9
$DIMDSEP
 70
    46
  9
$DIMATFIT
 70
     3
  9
$DIMFRAC
 70
     0
  9
$DIMLDRBLK
  1

  9
$DIMLUNIT
 70
     2
  9
$DIMLWD
 70
    -2
  9
$DIMLWE
 70
    -2
  9
$DIMTMOVE
 70
     0
  9
$DIMFXL
 40
1.0
  9
$DIMFXLON
 70
     0
  9
$DIMJOGANG
 40
0.7853981633974483
  9
$DIMTFILL
 70
     0
  9
$DIMTFILLCLR
 70
     0
  9
$DIMARCSYM
 70
     0
  9
$DIMLTYPE
  6

  9
$DIMLTEX1
  6

  9
$DIMLTEX2
  6

  9
$DIMTXTDIRECTION
 70
     0
  9
$LUNITS
 70
     2
  9
$LUPREC
 70
     4
  9
$SKETCHINC
 40
0.1
  9
$FILLETRAD
 40
0.5
  9
$AUNITS
 70
     0
  9
$AUPREC
 70
     0
  9
$MENU
  1
.
  9
$ELEVATION
 40
0.0
  9
$PELEVATION
 40
0.0
  9
$THICKNESS
 40
0.0
  9
$LIMCHECK
 70
     0
  9
$CHAMFERA
 40
0.5
  9
$CHAMFERB
 40
0.5
  9
$CHAMFERC
 40
1.0
  9
$CHAMFERD
 40
0.0
  9
$SKPOLY
 70
     0
  9
$TDCREATE
 40
2457917.620682871
  9
$TDUCREATE
 40
2457917.245682871
  9
$TDUPDATE
 40
2457917.620682871
  9
$TDUUPDATE
 40
2457917.245682871
  9
$TDINDWG
 40
0.0000000116
  9
$TDUSRTIMER
 40
0.0000000116
  9
$USRTIMER
 70
     1
  9
$ANGBASE
 50
0.0
  9
$ANGDIR
 70
     0
  9
$PDMODE
 70
     0
  9
$PDSIZE
 40
0.0
  9
$PLINEWID
 40
0.0
  9
$SPLFRAME
 70
     0
  9
$SPLINETYPE
 70
     6
  9
$SPLINESEGS
 70
     8
  9
$HANDSEED
  5
A7
  9
$SURFTAB1
 70
     6
  9
$SURFTAB2
 70
     6
  9
$SURFTYPE
 70
     6
  9
$SURFU
 70
     6
  9
$SURFV
 70
     6
  9
$UCSBASE
  2

  9
$UCSNAME
  2

  9
$UCSORG
 10
0.0
 20
0.0
 30
0.0
  9
$UCSXDIR
 10
1.0
 20
0.0
 30
0.0
  9
$UCSYDIR
 10
0.0
 20
1.0
 30
0.0
  9
$UCSORTHOREF
  2

  9
$UCSORTHOVIEW
 70
     0
  9
$UCSORGTOP
 10
0.0
 20
0.0
 30
0.0
  9
$UCSORGBOTTOM
 10
0.0
 20
0.0
 30
0.0
  9
$UCSORGLEFT
 10
0.0
 20
0.0
 30
0.0
  9
$UCSORGRIGHT
 10
0.0
 20
0.0
 30
0.0
  9
$UCSORGFRONT
 10
0.0
 20
0.0
 30
0.0
  9
$UCSORGBACK
 10
0.0
 20
0.0
 30
0.0
  9
$PUCSBASE
  2

  9
$PUCSNAME
  2

  9
$PUCSORG
 10
0.0
 20
0.0
 30
0.0
  9
$PUCSXDIR
 10
1.0
 20
0.0
 30
0.0
  9
$PUCSYDIR
 10
0.0
 20
1.0
 30
0.0
  9
$PUCSORTHOREF
  2

  9
$PUCSORTHOVIEW
 70
     0
  9
$PUCSORGTOP
 10
0.0
 20
0.0
 30
0.0
  9
$PUCSORGBOTTOM
 10
0.0
 20
0.0
 30
0.0
  9
$PUCSORGLEFT
 10
0.0
 20
0.0
 30
0.0
  9
$PUCSORGRIGHT
 10
0.0
 20
0.0
 30
0.0
  9
$PUCSORGFRONT
 10
0.0
 20
0.0
 30
0.0
  9
$PUCSORGBACK
 10
0.0
 20
0.0
 30
0.0
  9
$USERI1
 70
     0
  9
$USERI2
 70
     0
  9
$USERI3
 70
     0
  9
$USERI4
 70
     0
  9
$USERI5
 70
     0
  9
$USERR1
 40
0.0
  9
$USERR2
 40
0.0
  9
$USERR3
 40
0.0
  9
$USERR4
 40
0.0
  9
$USERR5
 40
0.0
  9
$WORLDVIEW
 70
     1
  9
$SHADEDGE
 70
     3
  9
$SHADEDIF
 70
    70
  9
$TILEMODE
 70
     1
  9
$MAXACTVP
 70
    64
  9
$PINSBASE
 10
0.0
 20
0.0
 30
0.0
  9
$PLIMCHECK
 70
     0
  9
$PEXTMIN
 10
1.000000000000000E+20
 20
1.000000000000000E+20
 30
1.000000000000000E+20
  9
$PEXTMAX
 10
-1.000000000000000E+20
 20
-1.000000000000000E+20
 30
-1.000000000000000E+20
  9
$PLIMMIN
 10
0.0
 20
0.0
  9
$PLIMMAX
 10
12.0
 20
9.0
  9
$UNITMODE
 70
     0
  9
$VISRETAIN
 70
     1
  9
$PLINEGEN
 70
     0
  9
$PSLTSCALE
 70
     1
  9
$TREEDEPTH
 70
  3020
  9
$CMLSTYLE
  2
Standard
  9
$CMLJUST
 70
     0
  9
$CMLSCALE
 40
1.0
  9
$PROXYGRAPHICS
 70
     1
  9
$MEASUREMENT
 70
     0
  9
$CELWEIGHT
370
    -1
  9
$ENDCAPS
280
     0
  9
$JOINSTYLE
280
     0
  9
$LWDISPLAY
290
     1
  9
$INSUNITS
 70
     1
  9
$HYPERLINKBASE
  1

  9
$STYLESHEET
  1

  9
$XEDIT
290
     1
  9
$CEPSNTYPE
380
     0
  9
$PSTYLEMODE
290
     1
  9
$FINGERPRINTGUID
  2
{67453E97-3F2B-8752-B4C6-20C699B7D9FC}
  9
$VERSIONGUID
  2
{FAEB1C32-E019-11D5-929B-00C0DF256EC4}
  9
$EXTNAMES
290
     1
  9
$PSVPSCALE
 40
0.0
  9
$OLESTARTUP
290
     0
  9
$SORTENTS
280
   127
  9
$INDEXCTL
280
     0
  9
$HIDETEXT
280
     1
  9
$XCLIPFRAME
280
     2
  9
$HALOGAP
280
     0
  9
$OBSCOLOR
 70
   257
  9
$OBSLTYPE
280
     0
  9
$INTERSECTIONDISPLAY
280
     0
  9
$INTERSECTIONCOLOR
 70
   257
  9
$DIMASSOC
280
     2
  9
$PROJECTNAME
  1

  9
$CAMERADISPLAY
290
     0
  9
$LENSLENGTH
 40
50.0
  9
$CAMERAHEIGHT
 40
0.0
  9
$STEPSPERSEC
 40
2.0
  9
$STEPSIZE
 40
6.0
  9
$3DDWFPREC
 40
2.0
  9
$PSOLWIDTH
 40
0.25
  9
$PSOLHEIGHT
 40
4.0
  9
$LOFTANG1
 40
1.570796326794897
  9
$LOFTANG2
 40
1.570796326794897
  9
$LOFTMAG1
 40
0.0
  9
$LOFTMAG2
 40
0.0
  9
$LOFTPARAM
 70
     7
  9
$LOFTNORMALS
280
     1
  9
$LATITUDE
 40
37.795
  9
$LONGITUDE
 40
-122.394
  9
$NORTHDIRECTION
 40
0.0
  9
$TIMEZONE
 70
 -8000
  9
$LIGHTGLYPHDISPLAY
280
     1
  9
$TILEMODELIGHTSYNCH
280
     1
  9
$CMATERIAL
347
3C
  9
$SOLIDHIST
280
     1
  9
$SHOWHIST
280
     1
  9
$DWFFRAME
280
     2
  9
$DGNFRAME
280
     2
  9
$REALWORLDSCALE
290
     1
  9
$INTERFERECOLOR
 62
   256
  9
$CSHADOW
280
     0
  9
$SHADOWPLANELOCATION
 40
0.0
  0
ENDSEC
  0
SECTION
  2
CLASSES
  0
CLASS
  1
ACDBDICTIONARYWDFLT
  2
AcDbDictionaryWithDefault
  3
ObjectDBX Classes
 90
        0
 91
        4
280
     0
281
     0
  0
CLASS
  1
VISUALSTYLE
  2
AcDbVisualStyle
  3
ObjectDBX Classes
 90
     4095
 91
        4
280
     0
281
     0
  0
CLASS
  1
MATERIAL
  2
AcDbMaterial
  3
ObjectDBX Classes
 90
     1153
 91
        4
280
     0
281
     0
  0
CLASS
  1
SUN
  2
AcDbSun
  3
SCENEOE
 90
     1024
 91
        4
280
     0
281
     0
  0
ENDSEC
  0
SECTION
  2
TABLES
  0
TABLE
  2
VPORT
  5
8
330
0
100
AcDbSymbolTable
 70
     1
  0
VPORT
  5
29
330
8
100
AcDbSymbolTableRecord
100
AcDbViewportTableRecord
  2
*Active
 70
     0
 10
0.0
 20
0.0
 11
1.0
 21
1.0
 12
0.0
 22
0.0
 13
0.0
 23
0.0
 14
0.5
 24
0.5
 15
0.5
 25
0.5
 16
0.0
 26
0.0
 36
1.0
 17
91.00082462281999
 27
-128.4993055234307
 37
0.0
 40
256.9986110468615
 41
0.7081814508812795
 42
50.0
 43
0.0
 44
0.0
 50
0.0
 51
0.0
 71
     0
 72
   100
 73
     1
 74
     3
 75
     0
 76
     0
 77
     0
 78
     0
281
     0
 65
     1
110
0.0
120
0.0
130
0.0
111
1.0
121
0.0
131
0.0
112
0.0
122
1.0
132
0.0
 79
     0
146
0.0
 60
     3
 61
     5
292
     1
282
     1
141
0.0
142
0.0
 63
   250
361
3F
  0
ENDTAB
  0
TABLE
  2
LTYPE
  5
5
330
0
100
AcDbSymbolTable
 70
     1
  0
LTYPE
  5
14
330
5
100
AcDbSymbolTableRecord
100
AcDbLinetypeTableRecord
  2
ByBlock
 70
     0
  3

 72
    65
 73
     0
 40
0.0
  0
LTYPE
  5
15
330
5
100
AcDbSymbolTableRecord
100
AcDbLinetypeTableRecord
  2
ByLayer
 70
     0
  3

 72
    65
 73
     0
 40
0.0
  0
LTYPE
  5
16
330
5
100
AcDbSymbolTableRecord
100
AcDbLinetypeTableRecord
  2
Continuous
 70
     0
  3
Solid line
 72
    65
 73
     0
 40
0.0
  0
ENDTAB
  0
TABLE
  2
LAYER
  5
2
330
0
100
AcDbSymbolTable
 70
     2
  0
LAYER
  5
10
330
2
100
AcDbSymbolTableRecord
100
AcDbLayerTableRecord
  2
0
 70
     0
 62
     7
  6
Continuous
370
    -3
390
F
347
3E
  0
LAYER
  5
40
330
2
100
AcDbSymbolTableRecord
100
AcDbLayerTableRecord
  2
_U+30EC_U+30A4_U+30E4_U+30FC 1
 70
     0
 62
     7
  6
Continuous
370
    -3
390
F
347
3E
  0
ENDTAB
  0
TABLE
  2
STYLE
  5
3
330
0
100
AcDbSymbolTable
 70
     1
  0
STYLE
  5
11
330
3
100
AcDbSymbolTableRecord
100
AcDbTextStyleTableRecord
  2
Standard
 70
     0
 40
0.0
 41
1.0
 50
0.0
 71
     0
 42
0.2
  3
txt
  4

  0
ENDTAB
  0
TABLE
  2
VIEW
  5
6
330
0
100
AcDbSymbolTable
 70
     0
  0
ENDTAB
  0
TABLE
  2
UCS
  5
7
330
0
100
AcDbSymbolTable
 70
     0
  0
ENDTAB
  0
TABLE
  2
APPID
  5
9
330
0
100
AcDbSymbolTable
 70
     1
  0
APPID
  5
12
330
9
100
AcDbSymbolTableRecord
100
AcDbRegAppTableRecord
  2
ACAD
 70
     0
  0
ENDTAB
  0
TABLE
  2
DIMSTYLE
  5
A
330
0
100
AcDbSymbolTable
 70
     1
100
AcDbDimStyleTable
  0
DIMSTYLE
105
27
330
A
100
AcDbSymbolTableRecord
100
AcDbDimStyleTableRecord
  2
Standard
 70
     0
178
     0
340
11
  0
ENDTAB
  0
TABLE
  2
BLOCK_RECORD
  5
1
330
0
100
AcDbSymbolTable
 70
     4
  0
BLOCK_RECORD
  5
1F
330
1
100
AcDbSymbolTableRecord
100
AcDbBlockTableRecord
  2
*Model_Space
340
22
 70
     0
280
     1
281
     0
  0
BLOCK_RECORD
  5
1B
330
1
100
AcDbSymbolTableRecord
100
AcDbBlockTableRecord
  2
*Paper_Space
340
1E
 70
     0
280
     1
281
     0
  0
BLOCK_RECORD
  5
23
330
1
100
AcDbSymbolTableRecord
100
AcDbBlockTableRecord
  2
*Paper_Space0
340
26
 70
     0
280
     1
281
     0
  0
BLOCK_RECORD
  5
75
330
1
100
AcDbSymbolTableRecord
100
AcDbBlockTableRecord
  2
block 2
340
0
102
{BLKREFS
331
76
102
}
 70
     0
280
     1
281
     0
  0
BLOCK_RECORD
  5
87
330
1
100
AcDbSymbolTableRecord
100
AcDbBlockTableRecord
  2
block 3
340
0
102
{BLKREFS
331
88
102
}
 70
     0
280
     1
281
     0
  0
BLOCK_RECORD
  5
9C
330
1
100
AcDbSymbolTableRecord
100
AcDbBlockTableRecord
  2
block 4
340
0
102
{BLKREFS
331
9D
102
}
 70
     0
280
     1
281
     0
  0
ENDTAB
  0
ENDSEC
  0
SECTION
  2
BLOCKS
  0
BLOCK
  5
20
330
1F
100
AcDbEntity
  8
0
100
AcDbBlockBegin
  2
*Model_Space
 70
     0
 10
0.0
 20
0.0
 30
0.0
  3
*Model_Space
  1

  0
ENDBLK
  5
21
330
1F
100
AcDbEntity
  8
0
100
AcDbBlockEnd
  0
BLOCK
  5
1C
330
1B
100
AcDbEntity
 67
     1
  8
0
100
AcDbBlockBegin
  2
*Paper_Space
 70
     0
 10
0.0
 20
0.0
 30
0.0
  3
*Paper_Space
  1

  0
ENDBLK
  5
1D
330
1B
100
AcDbEntity
 67
     1
  8
0
100
AcDbBlockEnd
  0
BLOCK
  5
24
330
23
100
AcDbEntity
  8
0
100
AcDbBlockBegin
  2
*Paper_Space0
 70
     0
 10
0.0
 20
0.0
 30
0.0
  3
*Paper_Space0
  1

  0
ENDBLK
  5
25
330
23
100
AcDbEntity
  8
0
100
AcDbBlockEnd
  0
BLOCK
  5
77
330
75
100
AcDbEntity
  8
0
100
AcDbBlockBegin
  2
block 2
 70
     0
 10
0.0
 20
0.0
 30
0.0
  3
block 2
  1

  0
SPLINE
  5
79
330
75
100
AcDbEntity
  8
_U+30EC_U+30A4_U+30E4_U+30FC 1
370
     0
100
AcDbSpline
210
0.0
220
0.0
230
1.0
 70
    11
 71
     3
 72
    62
 73
    58
 74
     0
 42
0.0000000001
 43
0.0000000001
 12
1.0
 22
0.0
 32
0.0
 13
1.0
 23
0.0
 33
0.0
 40
0.0
 40
0.0
 40
0.0
 40
0.0
 40
1.0
 40
1.0
 40
1.0
 40
2.0
 40
2.0
 40
2.0
 40
3.0
 40
3.0
 40
3.0
 40
4.0
 40
4.0
 40
4.0
 40
5.0
 40
5.0
 40
5.0
 40
6.0
 40
6.0
 40
6.0
 40
7.0
 40
7.0
 40
7.0
 40
8.0
 40
8.0
 40
8.0
 40
9.0
 40
9.0
 40
9.0
 40
10.0
 40
10.0
 40
10.0
 40
11.0
 40
11.0
 40
11.0
 40
12.0
 40
12.0
 40
12.0
 40
13.0
 40
13.0
 40
13.0
 40
14.0
 40
14.0
 40
14.0
 40
15.0
 40
15.0
 40
15.0
 40
16.0
 40
16.0
 40
16.0
 40
17.0
 40
17.0
 40
17.0
 40
18.0
 40
18.0
 40
18.0
 40
19.0
 40
19.0
 40
19.0
 40
19.0
 10
120.5711072832253
 20
-149.5588297152145
 30
0.0
 10
120.5711072832253
 20
-149.6542588601559
 30
0.0
 10
120.5500922007653
 20
-149.8719888948237
 30
0.0
 10
120.3640570445618
 20
-149.9970458609382
 30
0.0
 10
120.2517469317426
 20
-150.0711154138711
 30
0.0
 10
120.1525281817674
 20
-150.0752495284534
 30
0.0
 10
120.0677788328303
 20
-150.0793836430357
 30
0.0
 10
120.0677788328303
 20
-150.0793836430357
 30
0.0
 10
120.0677788328303
 20
-149.8592420415283
 30
0.0
 10
120.0677788328303
 20
-149.8592420415283
 30
0.0
 10
120.1418483857632
 20
-149.8571749842371
 30
0.0
 10
120.3764593883087
 20
-149.8468396977813
 30
0.0
 10
120.3764593883087
 20
-149.5633083393453
 30
0.0
 10
120.3764593883087
 20
-149.4258490294838
 30
0.0
 10
120.3068684595066
 20
-149.2732312994873
 30
0.0
 10
120.0784586288346
 20
-149.2732312994873
 30
0.0
 10
119.9620144014331
 20
-149.2732312994873
 30
0.0
 10
119.9134385550911
 20
-149.3114718593735
 30
0.0
 10
119.8817436766268
 20
-149.3431667378378
 30
0.0
 10
119.8076741236939
 20
-149.4172362907707
 30
0.0
 10
119.7949272703985
 20
-149.5336805181721
 30
0.0
 10
119.7949272703985
 20
-149.5884575363876
 30
0.0
 10
119.7949272703985
 20
-149.607750071105
 30
0.0
 10
119.7969943276896
 20
-149.6435790641516
 30
0.0
 10
119.8011284422719
 20
-149.6711398280336
 30
0.0
 10
119.8011284422719
 20
-149.6711398280336
 30
0.0
 10
119.6064805473553
 20
-149.6711398280336
 30
0.0
 10
119.6064805473553
 20
-149.6711398280336
 30
0.0
 10
119.6130262287773
 20
-149.6328992681473
 30
0.0
 10
119.6150932860685
 20
-149.5908691032273
 30
0.0
 10
119.6150932860685
 20
-149.5843234218053
 30
0.0
 10
119.6150932860685
 20
-149.5188666075856
 30
0.0
 10
119.5937336940599
 20
-149.3200845980867
 30
0.0
 10
119.3570556342232
 20
-149.3200845980867
 30
0.0
 10
119.1792887071844
 20
-149.3200845980867
 30
0.0
 10
119.1241671794204
 20
-149.4509982265261
 30
0.0
 10
119.1241671794204
 20
-149.5612412820541
 30
0.0
 10
119.1241671794204
 20
-149.8254801057728
 30
0.0
 10
119.3570556342232
 20
-149.8340928444859
 30
0.0
 10
119.4287136203164
 20
-149.8382269590682
 30
0.0
 10
119.4287136203164
 20
-149.8382269590682
 30
0.0
 10
119.4287136203164
 20
-150.041487592698
 30
0.0
 10
119.4287136203164
 20
-150.041487592698
 30
0.0
 10
119.3040011637504
 20
-150.0328748539849
 30
0.0
 10
118.9274522272126
 20
-150.0053140901028
 30
0.0
 10
118.9274522272126
 20
-149.5484944287587
 30
0.0
 10
118.9274522272126
 20
-149.324218712669
 30
0.0
 10
119.0545762506183
 20
-149.0830620287015
 30
0.0
 10
119.3505099528013
 20
-149.0830620287015
 30
0.0
 10
119.5368896185533
 20
-149.0830620287015
 30
0.0
 10
119.6192274006508
 20
-149.1781466640944
 30
0.0
 10
119.6805501002882
 20
-149.2777099236181
 30
0.0
 10
119.7081108641702
 20
-149.2163872239806
 30
0.0
 10
119.7883815889765
 20
-149.0344861823594
 30
0.0
 10
120.0657117755391
 20
-149.0344861823594
 30
0.0
 10
120.4040201521907
 20
-149.0344861823594
 30
0.0
 10
120.5711072832253
 20
-149.2818440382004
 30
0.0
 10
120.5711072832253
 20
-149.5588297152145
 30
0.0
  0
HATCH
  5
7A
330
75
100
AcDbEntity
  8
_U+30EC_U+30A4_U+30E4_U+30FC 1
 62
   179
420
  2234388
100
AcDbHatch
 10
0.0
 20
0.0
 30
0.0
210
0.0
220
0.0
230
1.0
  2
SOLID
 70
     1
 71
     0
 91
        1
 92
        1
 93
        1
 72
     4
 94
        3
 73
     0
 74
     1
 95
       62
 96
       58
 40
0.0
 40
0.0
 40
0.0
 40
0.0
 40
1.0
 40
1.0
 40
1.0
 40
2.0
 40
2.0
 40
2.0
 40
3.0
 40
3.0
 40
3.0
 40
4.0
 40
4.0
 40
4.0
 40
5.0
 40
5.0
 40
5.0
 40
6.0
 40
6.0
 40
6.0
 40
7.0
 40
7.0
 40
7.0
 40
8.0
 40
8.0
 40
8.0
 40
9.0
 40
9.0
 40
9.0
 40
10.0
 40
10.0
 40
10.0
 40
11.0
 40
11.0
 40
11.0
 40
12.0
 40
12.0
 40
12.0
 40
13.0
 40
13.0
 40
13.0
 40
14.0
 40
14.0
 40
14.0
 40
15.0
 40
15.0
 40
15.0
 40
16.0
 40
16.0
 40
16.0
 40
17.0
 40
17.0
 40
17.0
 40
18.0
 40
18.0
 40
18.0
 40
19.0
 40
19.0
 40
19.0
 40
19.0
 10
120.5711072832253
 20
-149.5588297152145
 10
120.5711072832253
 20
-149.6542588601559
 10
120.5500922007653
 20
-149.8719888948237
 10
120.3640570445618
 20
-149.9970458609382
 10
120.2517469317426
 20
-150.0711154138711
 10
120.1525281817674
 20
-150.0752495284534
 10
120.0677788328303
 20
-150.0793836430357
 10
120.0677788328303
 20
-150.0793836430357
 10
120.0677788328303
 20
-149.8592420415283
 10
120.0677788328303
 20
-149.8592420415283
 10
120.1418483857632
 20
-149.8571749842371
 10
120.3764593883087
 20
-149.8468396977813
 10
120.3764593883087
 20
-149.5633083393453
 10
120.3764593883087
 20
-149.4258490294838
 10
120.3068684595066
 20
-149.2732312994873
 10
120.0784586288346
 20
-149.2732312994873
 10
119.9620144014331
 20
-149.2732312994873
 10
119.9134385550911
 20
-149.3114718593735
 10
119.8817436766268
 20
-149.3431667378378
 10
119.8076741236939
 20
-149.4172362907707
 10
119.7949272703985
 20
-149.5336805181721
 10
119.7949272703985
 20
-149.5884575363876
 10
119.7949272703985
 20
-149.607750071105
 10
119.7969943276896
 20
-149.6435790641516
 10
119.8011284422719
 20
-149.6711398280336
 10
119.8011284422719
 20
-149.6711398280336
 10
119.6064805473553
 20
-149.6711398280336
 10
119.6064805473553
 20
-149.6711398280336
 10
119.6130262287773
 20
-149.6328992681473
 10
119.6150932860685
 20
-149.5908691032273
 10
119.6150932860685
 20
-149.5843234218053
 10
119.6150932860685
 20
-149.5188666075856
 10
119.5937336940599
 20
-149.3200845980867
 10
119.3570556342232
 20
-149.3200845980867
 10
119.1792887071844
 20
-149.3200845980867
 10
119.1241671794204
 20
-149.4509982265261
 10
119.1241671794204
 20
-149.5612412820541
 10
119.1241671794204
 20
-149.8254801057728
 10
119.3570556342232
 20
-149.8340928444859
 10
119.4287136203164
 20
-149.8382269590682
 10
119.4287136203164
 20
-149.8382269590682
 10
119.4287136203164
 20
-150.041487592698
 10
119.4287136203164
 20
-150.041487592698
 10
119.3040011637504
 20
-150.0328748539849
 10
118.9274522272126
 20
-150.0053140901028
 10
118.9274522272126
 20
-149.5484944287587
 10
118.9274522272126
 20
-149.324218712669
 10
119.0545762506183
 20
-149.0830620287015
 10
119.3505099528013
 20
-149.0830620287015
 10
119.5368896185533
 20
-149.0830620287015
 10
119.6192274006508
 20
-149.1781466640944
 10
119.6805501002882
 20
-149.2777099236181
 10
119.7081108641702
 20
-149.2163872239806
 10
119.7883815889765
 20
-149.0344861823594
 10
120.0657117755391
 20
-149.0344861823594
 10
120.4040201521907
 20
-149.0344861823594
 10
120.5711072832253
 20
-149.2818440382004
 10
120.5711072832253
 20
-149.5588297152145
 97
        0
 97
        0
 75
     2
 76
     1
 98
        0
  0
ENDBLK
  5
78
330
75
100
AcDbEntity
  8
0
100
AcDbBlockEnd
  0
BLOCK
  5
89
330
87
100
AcDbEntity
  8
0
100
AcDbBlockBegin
  2
block 3
 70
     0
 10
0.0
 20
0.0
 30
0.0
  3
block 3
  1

  0
SPLINE
  5
8B
330
87
100
AcDbEntity
  8
_U+30EC_U+30A4_U+30E4_U+30FC 1
370
     0
100
AcDbSpline
210
0.0
220
0.0
230
1.0
 70
    11
 71
     3
 72
    53
 73
    49
 74
     0
 42
0.0000000001
 43
0.0000000001
 12
1.0
 22
0.0
 32
0.0
 13
1.0
 23
0.0
 33
0.0
 40
0.0
 40
0.0
 40
0.0
 40
0.0
 40
1.0
 40
1.0
 40
1.0
 40
2.0
 40
2.0
 40
2.0
 40
3.0
 40
3.0
 40
3.0
 40
4.0
 40
4.0
 40
4.0
 40
5.0
 40
5.0
 40
5.0
 40
6.0
 40
6.0
 40
6.0
 40
7.0
 40
7.0
 40
7.0
 40
8.0
 40
8.0
 40
8.0
 40
9.0
 40
9.0
 40
9.0
 40
10.0
 40
10.0
 40
10.0
 40
11.0
 40
11.0
 40
11.0
 40
12.0
 40
12.0
 40
12.0
 40
13.0
 40
13.0
 40
13.0
 40
14.0
 40
14.0
 40
14.0
 40
15.0
 40
15.0
 40
15.0
 40
16.0
 40
16.0
 40
16.0
 40
16.0
 10
62.80633000816995
 20
-126.7357611445313
 30
0.0
 10
62.80633000816995
 20
-126.8139648120465
 30
0.0
 10
62.78944904029223
 20
-126.9155951288614
 30
0.0
 10
62.72588702858936
 20
-127.0172254456763
 30
0.0
 10
62.61581622783563
 20
-127.1905137485843
 30
0.0
 10
62.48473034462187
 20
-127.2118733405929
 30
0.0
 10
62.37689885593355
 20
-127.2308213657617
 30
0.0
 10
62.37689885593355
 20
-127.2308213657617
 30
0.0
 10
62.37689885593355
 20
-127.0086127069631
 30
0.0
 10
62.37689885593355
 20
-127.0086127069631
 30
0.0
 10
62.57568086543247
 20
-126.9538356887477
 30
0.0
 10
62.60530868660562
 20
-126.8267116653419
 30
0.0
 10
62.60530868660562
 20
-126.7336940872402
 30
0.0
 10
62.60530868660562
 20
-126.5941677200876
 30
0.0
 10
62.50591768185616
 20
-126.4418944996395
 30
0.0
 10
62.27320148182753
 20
-126.4418944996395
 30
0.0
 10
62.01723088727347
 20
-126.4418944996395
 30
0.0
 10
61.94746770369716
 20
-126.6217284839696
 30
0.0
 10
61.94746770369716
 20
-126.7423068259533
 30
0.0
 10
61.94746770369716
 20
-126.7740017044176
 30
0.0
 10
61.94746770369716
 20
-126.9155951288614
 30
0.0
 10
62.07648652961977
 20
-127.0044785923808
 30
0.0
 10
62.07648652961977
 20
-127.0044785923808
 30
0.0
 10
62.05736624967663
 20
-127.1801784621286
 30
0.0
 10
62.05736624967663
 20
-127.1801784621286
 30
0.0
 10
62.05736624967663
 20
-127.1801784621286
 30
0.0
 10
61.21125079849927
 20
-127.0596001201448
 30
0.0
 10
61.21125079849927
 20
-127.0596001201448
 30
0.0
 10
61.21125079849927
 20
-127.0596001201448
 30
0.0
 10
61.21125079849927
 20
-126.2810085404784
 30
0.0
 10
61.21125079849927
 20
-126.2810085404784
 30
0.0
 10
61.21125079849927
 20
-126.2810085404784
 30
0.0
 10
61.40589869341589
 20
-126.2810085404784
 30
0.0
 10
61.40589869341589
 20
-126.2810085404784
 30
0.0
 10
61.40589869341589
 20
-126.2810085404784
 30
0.0
 10
61.40589869341589
 20
-126.8966471036925
 30
0.0
 10
61.40589869341589
 20
-126.8966471036925
 30
0.0
 10
61.40589869341589
 20
-126.8966471036925
 30
0.0
 10
61.82895641900457
 20
-126.9621039179123
 30
0.0
 10
61.82895641900457
 20
-126.9621039179123
 30
0.0
 10
61.79502222847486
 20
-126.9007812182748
 30
0.0
 10
61.7548868660717
 20
-126.8184434361773
 30
0.0
 10
61.7548868660717
 20
-126.6999321514847
 30
0.0
 10
61.7548868660717
 20
-126.4460286142218
 30
0.0
 10
61.94109427704945
 20
-126.2090060448366
 30
0.0
 10
62.2540812018844
 20
-126.2090060448366
 30
0.0
 10
62.57154675085017
 20
-126.2090060448366
 30
0.0
 10
62.80633000816995
 20
-126.4332817609264
 30
0.0
 10
62.80633000816995
 20
-126.7357611445313
 30
0.0
  0
HATCH
  5
8C
330
87
100
AcDbEntity
  8
_U+30EC_U+30A4_U+30E4_U+30FC 1
 62
   179
420
  2234388
100
AcDbHatch
 10
0.0
 20
0.0
 30
0.0
210
0.0
220
0.0
230
1.0
  2
SOLID
 70
     1
 71
     0
 91
        1
 92
        1
 93
        1
 72
     4
 94
        3
 73
     0
 74
     1
 95
       53
 96
       49
 40
0.0
 40
0.0
 40
0.0
 40
0.0
 40
1.0
 40
1.0
 40
1.0
 40
2.0
 40
2.0
 40
2.0
 40
3.0
 40
3.0
 40
3.0
 40
4.0
 40
4.0
 40
4.0
 40
5.0
 40
5.0
 40
5.0
 40
6.0
 40
6.0
 40
6.0
 40
7.0
 40
7.0
 40
7.0
 40
8.0
 40
8.0
 40
8.0
 40
9.0
 40
9.0
 40
9.0
 40
10.0
 40
10.0
 40
10.0
 40
11.0
 40
11.0
 40
11.0
 40
12.0
 40
12.0
 40
12.0
 40
13.0
 40
13.0
 40
13.0
 40
14.0
 40
14.0
 40
14.0
 40
15.0
 40
15.0
 40
15.0
 40
16.0
 40
16.0
 40
16.0
 40
16.0
 10
62.80633000816995
 20
-126.7357611445313
 10
62.80633000816995
 20
-126.8139648120465
 10
62.78944904029223
 20
-126.9155951288614
 10
62.72588702858936
 20
-127.0172254456763
 10
62.61581622783563
 20
-127.1905137485843
 10
62.48473034462187
 20
-127.2118733405929
 10
62.37689885593355
 20
-127.2308213657617
 10
62.37689885593355
 20
-127.2308213657617
 10
62.37689885593355
 20
-127.0086127069631
 10
62.37689885593355
 20
-127.0086127069631
 10
62.57568086543247
 20
-126.9538356887477
 10
62.60530868660562
 20
-126.8267116653419
 10
62.60530868660562
 20
-126.7336940872402
 10
62.60530868660562
 20
-126.5941677200876
 10
62.50591768185616
 20
-126.4418944996395
 10
62.27320148182753
 20
-126.4418944996395
 10
62.01723088727347
 20
-126.4418944996395
 10
61.94746770369716
 20
-126.6217284839696
 10
61.94746770369716
 20
-126.7423068259533
 10
61.94746770369716
 20
-126.7740017044176
 10
61.94746770369716
 20
-126.9155951288614
 10
62.07648652961977
 20
-127.0044785923808
 10
62.07648652961977
 20
-127.0044785923808
 10
62.05736624967663
 20
-127.1801784621286
 10
62.05736624967663
 20
-127.1801784621286
 10
62.05736624967663
 20
-127.1801784621286
 10
61.21125079849927
 20
-127.0596001201448
 10
61.21125079849927
 20
-127.0596001201448
 10
61.21125079849927
 20
-127.0596001201448
 10
61.21125079849927
 20
-126.2810085404784
 10
61.21125079849927
 20
-126.2810085404784
 10
61.21125079849927
 20
-126.2810085404784
 10
61.40589869341589
 20
-126.2810085404784
 10
61.40589869341589
 20
-126.2810085404784
 10
61.40589869341589
 20
-126.2810085404784
 10
61.40589869341589
 20
-126.8966471036925
 10
61.40589869341589
 20
-126.8966471036925
 10
61.40589869341589
 20
-126.8966471036925
 10
61.82895641900457
 20
-126.9621039179123
 10
61.82895641900457
 20
-126.9621039179123
 10
61.79502222847486
 20
-126.9007812182748
 10
61.7548868660717
 20
-126.8184434361773
 10
61.7548868660717
 20
-126.6999321514847
 10
61.7548868660717
 20
-126.4460286142218
 10
61.94109427704945
 20
-126.2090060448366
 10
62.2540812018844
 20
-126.2090060448366
 10
62.57154675085017
 20
-126.2090060448366
 10
62.80633000816995
 20
-126.4332817609264
 10
62.80633000816995
 20
-126.7357611445313
 97
        0
 97
        0
 75
     2
 76
     1
 98
        0
  0
SPLINE
  5
8D
330
87
100
AcDbEntity
  8
_U+30EC_U+30A4_U+30E4_U+30FC 1
370
     0
100
AcDbSpline
210
0.0
220
0.0
230
1.0
 70
    11
 71
     3
 72
    29
 73
    25
 74
     0
 42
0.0000000001
 43
0.0000000001
 12
1.0
 22
0.0
 32
0.0
 13
1.0
 23
0.0
 33
0.0
 40
0.0
 40
0.0
 40
0.0
 40
0.0
 40
1.0
 40
1.0
 40
1.0
 40
2.0
 40
2.0
 40
2.0
 40
3.0
 40
3.0
 40
3.0
 40
4.0
 40
4.0
 40
4.0
 40
5.0
 40
5.0
 40
5.0
 40
6.0
 40
6.0
 40
6.0
 40
7.0
 40
7.0
 40
7.0
 40
8.0
 40
8.0
 40
8.0
 40
8.0
 10
62.57774792272362
 20
-125.1420599730548
 30
0.0
 10
62.78720972822681
 20
-125.2502359712916
 30
0.0
 10
62.80633000816995
 20
-125.4235242741997
 30
0.0
 10
62.80633000816995
 20
-125.5399685016011
 30
0.0
 10
62.80633000816995
 20
-125.7008544607623
 30
0.0
 10
62.75982121911908
 20
-125.8424478852061
 30
0.0
 10
62.57774792272362
 20
-125.9375325205989
 30
0.0
 10
62.38327228258127
 20
-126.041229894705
 30
0.0
 10
62.14624971319608
 20
-126.0605224294224
 30
0.0
 10
61.98329669674376
 20
-126.0605224294224
 30
0.0
 10
61.83946396023458
 20
-126.0605224294224
 30
0.0
 10
61.58779973503708
 20
-126.0432969519961
 30
0.0
 10
61.3888454707639
 20
-125.9375325205989
 30
0.0
 10
61.18575709190843
 20
-125.8297010319106
 30
0.0
 10
61.16250269738299
 20
-125.6688150727495
 30
0.0
 10
61.16250269738299
 20
-125.5399685016011
 30
0.0
 10
61.16250269738299
 20
-125.3811495997311
 30
0.0
 10
61.20694442914271
 20
-125.2374891179962
 30
0.0
 10
61.3888454707639
 20
-125.1420599730548
 30
0.0
 10
61.58142630838937
 20
-125.0428412230796
 30
0.0
 10
61.80983613906143
 20
-125.0194145737799
 30
0.0
 10
61.98329669674376
 20
-125.0194145737799
 30
0.0
 10
62.15469019713494
 20
-125.0194145737799
 30
0.0
 10
62.38533933987242
 20
-125.0407741657884
 30
0.0
 10
62.57774792272362
 20
-125.1420599730548
 30
0.0
  0
SPLINE
  5
8E
330
87
100
AcDbEntity
  8
_U+30EC_U+30A4_U+30E4_U+30FC 1
370
     0
100
AcDbSpline
210
0.0
220
0.0
230
1.0
 70
    11
 71
     3
 72
    17
 73
    13
 74
     0
 42
0.0000000001
 43
0.0000000001
 12
1.0
 22
0.0
 32
0.0
 13
1.0
 23
0.0
 33
0.0
 40
0.0
 40
0.0
 40
0.0
 40
0.0
 40
1.0
 40
1.0
 40
1.0
 40
2.0
 40
2.0
 40
2.0
 40
3.0
 40
3.0
 40
3.0
 40
4.0
 40
4.0
 40
4.0
 40
4.0
 10
61.35508353500845
 20
-125.5399685016011
 30
0.0
 10
61.35508353500845
 20
-125.7897379242817
 30
0.0
 10
61.63844263867026
 20
-125.8362467133326
 30
0.0
 10
61.98329669674376
 20
-125.8362467133326
 30
0.0
 10
62.30282930300069
 20
-125.8362467133326
 30
0.0
 10
62.61168211325333
 20
-125.8000732107375
 30
0.0
 10
62.61168211325333
 20
-125.5399685016011
 30
0.0
 10
62.61168211325333
 20
-125.2922661362117
 30
0.0
 10
62.33021781210842
 20
-125.2436902898696
 30
0.0
 10
61.98329669674376
 20
-125.2436902898696
 30
0.0
 10
61.6639363452611
 20
-125.2436902898696
 30
0.0
 10
61.35508353500845
 20
-125.2819308497559
 30
0.0
 10
61.35508353500845
 20
-125.5399685016011
 30
0.0
  0
HATCH
  5
8F
330
87
100
AcDbEntity
  8
_U+30EC_U+30A4_U+30E4_U+30FC 1
 62
   179
420
  2234388
100
AcDbHatch
 10
0.0
 20
0.0
 30
0.0
210
0.0
220
0.0
230
1.0
  2
SOLID
 70
     1
 71
     0
 91
        2
 92
        1
 93
        1
 72
     4
 94
        3
 73
     0
 74
     1
 95
       29
 96
       25
 40
0.0
 40
0.0
 40
0.0
 40
0.0
 40
1.0
 40
1.0
 40
1.0
 40
2.0
 40
2.0
 40
2.0
 40
3.0
 40
3.0
 40
3.0
 40
4.0
 40
4.0
 40
4.0
 40
5.0
 40
5.0
 40
5.0
 40
6.0
 40
6.0
 40
6.0
 40
7.0
 40
7.0
 40
7.0
 40
8.0
 40
8.0
 40
8.0
 40
8.0
 10
62.57774792272362
 20
-125.1420599730548
 10
62.78720972822681
 20
-125.2502359712916
 10
62.80633000816995
 20
-125.4235242741997
 10
62.80633000816995
 20
-125.5399685016011
 10
62.80633000816995
 20
-125.7008544607623
 10
62.75982121911908
 20
-125.8424478852061
 10
62.57774792272362
 20
-125.9375325205989
 10
62.38327228258127
 20
-126.041229894705
 10
62.14624971319608
 20
-126.0605224294224
 10
61.98329669674376
 20
-126.0605224294224
 10
61.83946396023458
 20
-126.0605224294224
 10
61.58779973503708
 20
-126.0432969519961
 10
61.3888454707639
 20
-125.9375325205989
 10
61.18575709190843
 20
-125.8297010319106
 10
61.16250269738299
 20
-125.6688150727495
 10
61.16250269738299
 20
-125.5399685016011
 10
61.16250269738299
 20
-125.3811495997311
 10
61.20694442914271
 20
-125.2374891179962
 10
61.3888454707639
 20
-125.1420599730548
 10
61.58142630838937
 20
-125.0428412230796
 10
61.80983613906143
 20
-125.0194145737799
 10
61.98329669674376
 20
-125.0194145737799
 10
62.15469019713494
 20
-125.0194145737799
 10
62.38533933987242
 20
-125.0407741657884
 10
62.57774792272362
 20
-125.1420599730548
 97
        0
 97
        0
 92
        1
 93
        1
 72
     4
 94
        3
 73
     0
 74
     1
 95
       17
 96
       13
 40
0.0
 40
0.0
 40
0.0
 40
0.0
 40
1.0
 40
1.0
 40
1.0
 40
2.0
 40
2.0
 40
2.0
 40
3.0
 40
3.0
 40
3.0
 40
4.0
 40
4.0
 40
4.0
 40
4.0
 10
61.35508353500845
 20
-125.5399685016011
 10
61.35508353500845
 20
-125.7897379242817
 10
61.63844263867026
 20
-125.8362467133326
 10
61.98329669674376
 20
-125.8362467133326
 10
62.30282930300069
 20
-125.8362467133326
 10
62.61168211325333
 20
-125.8000732107375
 10
62.61168211325333
 20
-125.5399685016011
 10
62.61168211325333
 20
-125.2922661362117
 10
62.33021781210842
 20
-125.2436902898696
 10
61.98329669674376
 20
-125.2436902898696
 10
61.6639363452611
 20
-125.2436902898696
 10
61.35508353500845
 20
-125.2819308497559
 10
61.35508353500845
 20
-125.5399685016011
 97
        0
 97
        0
 75
     2
 76
     1
 98
        0
  0
ENDBLK
  5
8A
330
87
100
AcDbEntity
  8
0
100
AcDbBlockEnd
  0
BLOCK
  5
9E
330
9C
100
AcDbEntity
  8
0
100
AcDbBlockBegin
  2
block 4
 70
     0
 10
0.0
 20
0.0
 30
0.0
  3
block 4
  1

  0
SPLINE
  5
A0
330
9C
100
AcDbEntity
  8
_U+30EC_U+30A4_U+30E4_U+30FC 1
370
     0
100
AcDbSpline
210
0.0
220
0.0
230
1.0
 70
    11
 71
     3
 72
    53
 73
    49
 74
     0
 42
0.0000000001
 43
0.0000000001
 12
1.0
 22
0.0
 32
0.0
 13
1.0
 23
0.0
 33
0.0
 40
0.0
 40
0.0
 40
0.0
 40
0.0
 40
1.0
 40
1.0
 40
1.0
 40
2.0
 40
2.0
 40
2.0
 40
3.0
 40
3.0
 40
3.0
 40
4.0
 40
4.0
 40
4.0
 40
5.0
 40
5.0
 40
5.0
 40
6.0
 40
6.0
 40
6.0
 40
7.0
 40
7.0
 40
7.0
 40
8.0
 40
8.0
 40
8.0
 40
9.0
 40
9.0
 40
9.0
 40
10.0
 40
10.0
 40
10.0
 40
11.0
 40
11.0
 40
11.0
 40
12.0
 40
12.0
 40
12.0
 40
13.0
 40
13.0
 40
13.0
 40
14.0
 40
14.0
 40
14.0
 40
15.0
 40
15.0
 40
15.0
 40
16.0
 40
16.0
 40
16.0
 40
16.0
 10
91.66813420017324
 20
-154.5066758511303
 30
0.0
 10
91.58993053265807
 20
-154.5066758511303
 30
0.0
 10
91.48830021584321
 20
-154.4897948832526
 30
0.0
 10
91.38666989902833
 20
-154.426405126324
 30
0.0
 10
91.21355385089453
 20
-154.3165065803445
 30
0.0
 10
91.19219425888598
 20
-154.1852484423565
 30
0.0
 10
91.17324623371711
 20
-154.0774169536681
 30
0.0
 10
91.17324623371711
 20
-154.0774169536681
 30
0.0
 10
91.39528263774146
 20
-154.0774169536681
 30
0.0
 10
91.39528263774146
 20
-154.0774169536681
 30
0.0
 10
91.45005965595693
 20
-154.2761989631671
 30
0.0
 10
91.57718367936265
 20
-154.3058267843402
 30
0.0
 10
91.6702012574644
 20
-154.3058267843402
 30
0.0
 10
91.80972762461701
 20
-154.3058267843402
 30
0.0
 10
91.96200084506506
 20
-154.2062635248165
 30
0.0
 10
91.96200084506506
 20
-153.9737195795621
 30
0.0
 10
91.96200084506506
 20
-153.7177489850081
 30
0.0
 10
91.78216686073502
 20
-153.6478135466575
 30
0.0
 10
91.66158851875127
 20
-153.6478135466575
 30
0.0
 10
91.62989364028698
 20
-153.6478135466575
 30
0.0
 10
91.48830021584321
 20
-153.6478135466575
 30
0.0
 10
91.39941675232376
 20
-153.7770046273544
 30
0.0
 10
91.39941675232376
 20
-153.7770046273544
 30
0.0
 10
91.22388913735028
 20
-153.7580566021855
 30
0.0
 10
91.22388913735028
 20
-153.7580566021855
 30
0.0
 10
91.22388913735028
 20
-153.7580566021855
 30
0.0
 10
91.34446747933403
 20
-152.9115966414596
 30
0.0
 10
91.34446747933403
 20
-152.9115966414596
 30
0.0
 10
91.34446747933403
 20
-152.9115966414596
 30
0.0
 10
92.12288680422623
 20
-152.9115966414596
 30
0.0
 10
92.12288680422623
 20
-152.9115966414596
 30
0.0
 10
92.12288680422623
 20
-152.9115966414596
 30
0.0
 10
92.12288680422623
 20
-153.1062445363762
 30
0.0
 10
92.12288680422623
 20
-153.1062445363762
 30
0.0
 10
92.12288680422623
 20
-153.1062445363762
 30
0.0
 10
91.50724824101208
 20
-153.1062445363762
 30
0.0
 10
91.50724824101208
 20
-153.1062445363762
 30
0.0
 10
91.50724824101208
 20
-153.1062445363762
 30
0.0
 10
91.44179142679234
 20
-153.5293022619649
 30
0.0
 10
91.44179142679234
 20
-153.5293022619649
 30
0.0
 10
91.50311412642978
 20
-153.4955403262095
 30
0.0
 10
91.58545190852725
 20
-153.455232709032
 30
0.0
 10
91.70396319321985
 20
-153.455232709032
 30
0.0
 10
91.95786673048276
 20
-153.455232709032
 30
0.0
 10
92.19488929986795
 20
-153.641612374784
 30
0.0
 10
92.19488929986795
 20
-153.9547715543933
 30
0.0
 10
92.19488929986795
 20
-154.2720648485848
 30
0.0
 10
91.97061358377819
 20
-154.5066758511303
 30
0.0
 10
91.66813420017324
 20
-154.5066758511303
 30
0.0
  0
HATCH
  5
A1
330
9C
100
AcDbEntity
  8
_U+30EC_U+30A4_U+30E4_U+30FC 1
 62
   179
420
  2234388
100
AcDbHatch
 10
0.0
 20
0.0
 30
0.0
210
0.0
220
0.0
230
1.0
  2
SOLID
 70
     1
 71
     0
 91
        1
 92
        1
 93
        1
 72
     4
 94
        3
 73
     0
 74
     1
 95
       53
 96
       49
 40
0.0
 40
0.0
 40
0.0
 40
0.0
 40
1.0
 40
1.0
 40
1.0
 40
2.0
 40
2.0
 40
2.0
 40
3.0
 40
3.0
 40
3.0
 40
4.0
 40
4.0
 40
4.0
 40
5.0
 40
5.0
 40
5.0
 40
6.0
 40
6.0
 40
6.0
 40
7.0
 40
7.0
 40
7.0
 40
8.0
 40
8.0
 40
8.0
 40
9.0
 40
9.0
 40
9.0
 40
10.0
 40
10.0
 40
10.0
 40
11.0
 40
11.0
 40
11.0
 40
12.0
 40
12.0
 40
12.0
 40
13.0
 40
13.0
 40
13.0
 40
14.0
 40
14.0
 40
14.0
 40
15.0
 40
15.0
 40
15.0
 40
16.0
 40
16.0
 40
16.0
 40
16.0
 10
91.66813420017324
 20
-154.5066758511303
 10
91.58993053265807
 20
-154.5066758511303
 10
91.48830021584321
 20
-154.4897948832526
 10
91.38666989902833
 20
-154.426405126324
 10
91.21355385089453
 20
-154.3165065803445
 10
91.19219425888598
 20
-154.1852484423565
 10
91.17324623371711
 20
-154.0774169536681
 10
91.17324623371711
 20
-154.0774169536681
 10
91.39528263774146
 20
-154.0774169536681
 10
91.39528263774146
 20
-154.0774169536681
 10
91.45005965595693
 20
-154.2761989631671
 10
91.57718367936265
 20
-154.3058267843402
 10
91.6702012574644
 20
-154.3058267843402
 10
91.80972762461701
 20
-154.3058267843402
 10
91.96200084506506
 20
-154.2062635248165
 10
91.96200084506506
 20
-153.9737195795621
 10
91.96200084506506
 20
-153.7177489850081
 10
91.78216686073502
 20
-153.6478135466575
 10
91.66158851875127
 20
-153.6478135466575
 10
91.62989364028698
 20
-153.6478135466575
 10
91.48830021584321
 20
-153.6478135466575
 10
91.39941675232376
 20
-153.7770046273544
 10
91.39941675232376
 20
-153.7770046273544
 10
91.22388913735028
 20
-153.7580566021855
 10
91.22388913735028
 20
-153.7580566021855
 10
91.22388913735028
 20
-153.7580566021855
 10
91.34446747933403
 20
-152.9115966414596
 10
91.34446747933403
 20
-152.9115966414596
 10
91.34446747933403
 20
-152.9115966414596
 10
92.12288680422623
 20
-152.9115966414596
 10
92.12288680422623
 20
-152.9115966414596
 10
92.12288680422623
 20
-152.9115966414596
 10
92.12288680422623
 20
-153.1062445363762
 10
92.12288680422623
 20
-153.1062445363762
 10
92.12288680422623
 20
-153.1062445363762
 10
91.50724824101208
 20
-153.1062445363762
 10
91.50724824101208
 20
-153.1062445363762
 10
91.50724824101208
 20
-153.1062445363762
 10
91.44179142679234
 20
-153.5293022619649
 10
91.44179142679234
 20
-153.5293022619649
 10
91.50311412642978
 20
-153.4955403262095
 10
91.58545190852725
 20
-153.455232709032
 10
91.70396319321985
 20
-153.455232709032
 10
91.95786673048276
 20
-153.455232709032
 10
92.19488929986795
 20
-153.641612374784
 10
92.19488929986795
 20
-153.9547715543933
 10
92.19488929986795
 20
-154.2720648485848
 10
91.97061358377819
 20
-154.5066758511303
 10
91.66813420017324
 20
-154.5066758511303
 97
        0
 97
        0
 75
     2
 76
     1
 98
        0
  0
SPLINE
  5
A2
330
9C
100
AcDbEntity
  8
_U+30EC_U+30A4_U+30E4_U+30FC 1
370
     0
100
AcDbSpline
210
0.0
220
0.0
230
1.0
 70
    11
 71
     3
 72
    29
 73
    25
 74
     0
 42
0.0000000001
 43
0.0000000001
 12
1.0
 22
0.0
 32
0.0
 13
1.0
 23
0.0
 33
0.0
 40
0.0
 40
0.0
 40
0.0
 40
0.0
 40
1.0
 40
1.0
 40
1.0
 40
2.0
 40
2.0
 40
2.0
 40
3.0
 40
3.0
 40
3.0
 40
4.0
 40
4.0
 40
4.0
 40
5.0
 40
5.0
 40
5.0
 40
6.0
 40
6.0
 40
6.0
 40
7.0
 40
7.0
 40
7.0
 40
8.0
 40
8.0
 40
8.0
 40
8.0
 10
93.26183537164982
 20
-154.2782660204582
 30
0.0
 10
93.15365937341298
 20
-154.4877278259614
 30
0.0
 10
92.98037107050492
 20
-154.5066758511303
 30
0.0
 10
92.86392684310347
 20
-154.5066758511303
 30
0.0
 10
92.7030408839423
 20
-154.5066758511303
 30
0.0
 10
92.56144745949854
 20
-154.4601670620794
 30
0.0
 10
92.46636282410563
 20
-154.2782660204582
 30
0.0
 10
92.36266544999961
 20
-154.0836181255416
 30
0.0
 10
92.34337291528222
 20
-153.8465955561564
 30
0.0
 10
92.34337291528222
 20
-153.6839870492526
 30
0.0
 10
92.34337291528222
 20
-153.5399820579692
 30
0.0
 10
92.36059839270847
 20
-153.2881455779974
 30
0.0
 10
92.46636282410563
 20
-153.0893635684985
 30
0.0
 10
92.57419431279395
 20
-152.8864474444173
 30
0.0
 10
92.73508027195513
 20
-152.8630207951176
 30
0.0
 10
92.86392684310347
 20
-152.8630207951176
 30
0.0
 10
93.02274574497349
 20
-152.8630207951176
 30
0.0
 10
93.1664062267084
 20
-152.9074625268773
 30
0.0
 10
93.26183537164982
 20
-153.0893635684985
 30
0.0
 10
93.36105412162502
 20
-153.281944406124
 30
0.0
 10
93.38448077092471
 20
-153.510354236796
 30
0.0
 10
93.38448077092471
 20
-153.6839870492526
 30
0.0
 10
93.38448077092471
 20
-153.8552082948695
 30
0.0
 10
93.36312117891617
 20
-154.0856851828327
 30
0.0
 10
93.26183537164982
 20
-154.2782660204582
 30
0.0
  0
SPLINE
  5
A3
330
9C
100
AcDbEntity
  8
_U+30EC_U+30A4_U+30E4_U+30FC 1
370
     0
100
AcDbSpline
210
0.0
220
0.0
230
1.0
 70
    11
 71
     3
 72
    17
 73
    13
 74
     0
 42
0.0000000001
 43
0.0000000001
 12
1.0
 22
0.0
 32
0.0
 13
1.0
 23
0.0
 33
0.0
 40
0.0
 40
0.0
 40
0.0
 40
0.0
 40
1.0
 40
1.0
 40
1.0
 40
2.0
 40
2.0
 40
2.0
 40
3.0
 40
3.0
 40
3.0
 40
4.0
 40
4.0
 40
4.0
 40
4.0
 10
92.86392684310347
 20
-153.055601632743
 30
0.0
 10
92.61415742042286
 20
-153.055601632743
 30
0.0
 10
92.56764863137198
 20
-153.3391329911791
 30
0.0
 10
92.56764863137198
 20
-153.6839870492526
 30
0.0
 10
92.56764863137198
 20
-154.0033474007353
 30
0.0
 10
92.6038221339671
 20
-154.3120279562137
 30
0.0
 10
92.86392684310347
 20
-154.3120279562137
 30
0.0
 10
93.11162920849293
 20
-154.3120279562137
 30
0.0
 10
93.16020505483495
 20
-154.0309081646173
 30
0.0
 10
93.16020505483495
 20
-153.6839870492526
 30
0.0
 10
93.16020505483495
 20
-153.3642821882214
 30
0.0
 10
93.12196449494868
 20
-153.055601632743
 30
0.0
 10
92.86392684310347
 20
-153.055601632743
 30
0.0
  0
HATCH
  5
A4
330
9C
100
AcDbEntity
  8
_U+30EC_U+30A4_U+30E4_U+30FC 1
 62
   179
420
  2234388
100
AcDbHatch
 10
0.0
 20
0.0
 30
0.0
210
0.0
220
0.0
230
1.0
  2
SOLID
 70
     1
 71
     0
 91
        2
 92
        1
 93
        1
 72
     4
 94
        3
 73
     0
 74
     1
 95
       29
 96
       25
 40
0.0
 40
0.0
 40
0.0
 40
0.0
 40
1.0
 40
1.0
 40
1.0
 40
2.0
 40
2.0
 40
2.0
 40
3.0
 40
3.0
 40
3.0
 40
4.0
 40
4.0
 40
4.0
 40
5.0
 40
5.0
 40
5.0
 40
6.0
 40
6.0
 40
6.0
 40
7.0
 40
7.0
 40
7.0
 40
8.0
 40
8.0
 40
8.0
 40
8.0
 10
93.26183537164982
 20
-154.2782660204582
 10
93.15365937341298
 20
-154.4877278259614
 10
92.98037107050492
 20
-154.5066758511303
 10
92.86392684310347
 20
-154.5066758511303
 10
92.7030408839423
 20
-154.5066758511303
 10
92.56144745949854
 20
-154.4601670620794
 10
92.46636282410563
 20
-154.2782660204582
 10
92.36266544999961
 20
-154.0836181255416
 10
92.34337291528222
 20
-153.8465955561564
 10
92.34337291528222
 20
-153.6839870492526
 10
92.34337291528222
 20
-153.5399820579692
 10
92.36059839270847
 20
-153.2881455779974
 10
92.46636282410563
 20
-153.0893635684985
 10
92.57419431279395
 20
-152.8864474444173
 10
92.73508027195513
 20
-152.8630207951176
 10
92.86392684310347
 20
-152.8630207951176
 10
93.02274574497349
 20
-152.8630207951176
 10
93.1664062267084
 20
-152.9074625268773
 10
93.26183537164982
 20
-153.0893635684985
 10
93.36105412162502
 20
-153.281944406124
 10
93.38448077092471
 20
-153.510354236796
 10
93.38448077092471
 20
-153.6839870492526
 10
93.38448077092471
 20
-153.8552082948695
 10
93.36312117891617
 20
-154.0856851828327
 10
93.26183537164982
 20
-154.2782660204582
 97
        0
 97
        0
 92
        1
 93
        1
 72
     4
 94
        3
 73
     0
 74
     1
 95
       17
 96
       13
 40
0.0
 40
0.0
 40
0.0
 40
0.0
 40
1.0
 40
1.0
 40
1.0
 40
2.0
 40
2.0
 40
2.0
 40
3.0
 40
3.0
 40
3.0
 40
4.0
 40
4.0
 40
4.0
 40
4.0
 10
92.86392684310347
 20
-153.055601632743
 10
92.61415742042286
 20
-153.055601632743
 10
92.56764863137198
 20
-153.3391329911791
 10
92.56764863137198
 20
-153.6839870492526
 10
92.56764863137198
 20
-154.0033474007353
 10
92.6038221339671
 20
-154.3120279562137
 10
92.86392684310347
 20
-154.3120279562137
 10
93.11162920849293
 20
-154.3120279562137
 10
93.16020505483495
 20
-154.0309081646173
 10
93.16020505483495
 20
-153.6839870492526
 10
93.16020505483495
 20
-153.3642821882214
 10
93.12196449494868
 20
-153.055601632743
 10
92.86392684310347
 20
-153.055601632743
 97
        0
 97
        0
 75
     2
 76
     1
 98
        0
  0
ENDBLK
  5
9F
330
9C
100
AcDbEntity
  8
0
100
AcDbBlockEnd
  0
ENDSEC
  0
SECTION
  2
ENTITIES
  0
POLYLINE
  5
41
330
1F
100
AcDbEntity
  8
_U+30EC_U+30A4_U+30E4_U+30FC 1
370
     0
100
AcDb2dPolyline
 66
     1
 10
0.0
 20
0.0
 30
0.0
  0
VERTEX
  5
42
330
41
100
AcDbEntity
  8
_U+30EC_U+30A4_U+30E4_U+30FC 1
370
     0
100
AcDbVertex
100
AcDb2dVertex
 10
70.35143653851866
 20
-101.052912196959
 30
0.0
  0
VERTEX
  5
43
330
41
100
AcDbEntity
  8
_U+30EC_U+30A4_U+30E4_U+30FC 1
370
     0
100
AcDbVertex
100
AcDb2dVertex
 10
67.35144967061025
 20
-101.052912196959
 30
0.0
  0
VERTEX
  5
44
330
41
100
AcDbEntity
  8
_U+30EC_U+30A4_U+30E4_U+30FC 1
370
     0
100
AcDbVertex
100
AcDb2dVertex
 10
67.35144967061025
 20
-151.0526357955705
 30
0.0
  0
VERTEX
  5
45
330
41
100
AcDbEntity
  8
_U+30EC_U+30A4_U+30E4_U+30FC 1
370
     0
100
AcDbVertex
100
AcDb2dVertex
 10
117.3516658949985
 20
-151.0526357955705
 30
0.0
  0
VERTEX
  5
46
330
41
100
AcDbEntity
  8
_U+30EC_U+30A4_U+30E4_U+30FC 1
370
     0
100
AcDbVertex
100
AcDb2dVertex
 10
117.3516658949985
 20
-148.0526488518755
 30
0.0
  0
VERTEX
  5
47
330
41
100
AcDbEntity
  8
_U+30EC_U+30A4_U+30E4_U+30FC 1
370
     0
100
AcDbVertex
100
AcDb2dVertex
 10
70.35143653851866
 20
-148.0526488518755
 30
0.0
  0
VERTEX
  5
48
330
41
100
AcDbEntity
  8
_U+30EC_U+30A4_U+30E4_U+30FC 1
370
     0
100
AcDbVertex
100
AcDb2dVertex
 10
70.35143653851866
 20
-101.052912196959
 30
0.0
  0
SEQEND
  5
4A
330
41
100
AcDbEntity
  8
_U+30EC_U+30A4_U+30E4_U+30FC 1
370
     0
  0
HATCH
  5
49
330
1F
100
AcDbEntity
  8
_U+30EC_U+30A4_U+30E4_U+30FC 1
 62
   253
420
 11711154
100
AcDbHatch
 10
0.0
 20
0.0
 30
0.0
210
0.0
220
0.0
230
1.0
  2
SOLID
 70
     1
 71
     0
 91
        1
 92
        1
 93
        6
 72
     1
 10
70.35143653851866
 20
-101.052912196959
 11
67.35144967061025
 21
-101.052912196959
 72
     1
 10
67.35144967061025
 20
-101.052912196959
 11
67.35144967061025
 21
-151.0526357955705
 72
     1
 10
67.35144967061025
 20
-151.0526357955705
 11
117.3516658949985
 21
-151.0526357955705
 72
     1
 10
117.3516658949985
 20
-151.0526357955705
 11
117.3516658949985
 21
-148.0526488518755
 72
     1
 10
117.3516658949985
 20
-148.0526488518755
 11
70.35143653851866
 21
-148.0526488518755
 72
     1
 10
70.35143653851866
 20
-148.0526488518755
 11
70.35143653851866
 21
-101.052912196959
 97
        0
 75
     2
 76
     1
 98
        0
  0
POLYLINE
  5
4B
330
1F
100
AcDbEntity
  8
_U+30EC_U+30A4_U+30E4_U+30FC 1
 62
   179
420
  2234388
370
    25
100
AcDb2dPolyline
 66
     1
 10
0.0
 20
0.0
 30
0.0
  0
VERTEX
  5
4C
330
4B
100
AcDbEntity
  8
_U+30EC_U+30A4_U+30E4_U+30FC 1
 62
   179
420
  2234388
370
    25
100
AcDbVertex
100
AcDb2dVertex
 10
67.35144967061025
 20
-151.0526357955705
 30
0.0
  0
VERTEX
  5
4D
330
4B
100
AcDbEntity
  8
_U+30EC_U+30A4_U+30E4_U+30FC 1
 62
   179
420
  2234388
370
    25
100
AcDbVertex
100
AcDb2dVertex
 10
117.3516658949985
 20
-151.0526357955705
 30
0.0
  0
SEQEND
  5
4E
330
4B
100
AcDbEntity
  8
_U+30EC_U+30A4_U+30E4_U+30FC 1
 62
   179
420
  2234388
370
    25
  0
POLYLINE
  5
4F
330
1F
100
AcDbEntity
  8
_U+30EC_U+30A4_U+30E4_U+30FC 1
 62
   179
420
  2234388
370
    25
100
AcDb2dPolyline
 66
     1
 10
0.0
 20
0.0
 30
0.0
  0
VERTEX
  5
50
330
4F
100
AcDbEntity
  8
_U+30EC_U+30A4_U+30E4_U+30FC 1
 62
   179
420
  2234388
370
    25
100
AcDbVertex
100
AcDb2dVertex
 10
67.35144967061025
 20
-101.052912196959
 30
0.0
  0
VERTEX
  5
51
330
4F
100
AcDbEntity
  8
_U+30EC_U+30A4_U+30E4_U+30FC 1
 62
   179
420
  2234388
370
    25
100
AcDbVertex
100
AcDb2dVertex
 10
67.35144967061025
 20
-151.0526357955705
 30
0.0
  0
SEQEND
  5
52
330
4F
100
AcDbEntity
  8
_U+30EC_U+30A4_U+30E4_U+30FC 1
 62
   179
420
  2234388
370
    25
  0
POLYLINE
  5
53
330
1F
100
AcDbEntity
  8
_U+30EC_U+30A4_U+30E4_U+30FC 1
 62
   179
420
  2234388
370
    25
100
AcDb2dPolyline
 66
     1
 10
0.0
 20
0.0
 30
0.0
  0
VERTEX
  5
54
330
53
100
AcDbEntity
  8
_U+30EC_U+30A4_U+30E4_U+30FC 1
 62
   179
420
  2234388
370
    25
100
AcDbVertex
100
AcDb2dVertex
 10
67.35144967061025
 20
-101.052912196959
 30
0.0
  0
VERTEX
  5
55
330
53
100
AcDbEntity
  8
_U+30EC_U+30A4_U+30E4_U+30FC 1
 62
   179
420
  2234388
370
    25
100
AcDbVertex
100
AcDb2dVertex
 10
70.35143653851866
 20
-101.052912196959
 30
0.0
  0
SEQEND
  5
56
330
53
100
AcDbEntity
  8
_U+30EC_U+30A4_U+30E4_U+30FC 1
 62
   179
420
  2234388
370
    25
  0
POLYLINE
  5
57
330
1F
100
AcDbEntity
  8
_U+30EC_U+30A4_U+30E4_U+30FC 1
 62
   179
420
  2234388
370
    25
100
AcDb2dPolyline
 66
     1
 10
0.0
 20
0.0
 30
0.0
  0
VERTEX
  5
58
330
57
100
AcDbEntity
  8
_U+30EC_U+30A4_U+30E4_U+30FC 1
 62
   179
420
  2234388
370
    25
100
AcDbVertex
100
AcDb2dVertex
 10
117.3516658949985
 20
-148.0526488518755
 30
0.0
  0
VERTEX
  5
59
330
57
100
AcDbEntity
  8
_U+30EC_U+30A4_U+30E4_U+30FC 1
 62
   179
420
  2234388
370
    25
100
AcDbVertex
100
AcDb2dVertex
 10
117.3516658949985
 20
-151.0526357955705
 30
0.0
  0
SEQEND
  5
5A
330
57
100
AcDbEntity
  8
_U+30EC_U+30A4_U+30E4_U+30FC 1
 62
   179
420
  2234388
370
    25
  0
POLYLINE
  5
5B
330
1F
100
AcDbEntity
  8
_U+30EC_U+30A4_U+30E4_U+30FC 1
 62
   179
420
  2234388
370
    25
100
AcDb2dPolyline
 66
     1
 10
0.0
 20
0.0
 30
0.0
  0
VERTEX
  5
5C
330
5B
100
AcDbEntity
  8
_U+30EC_U+30A4_U+30E4_U+30FC 1
 62
   179
420
  2234388
370
    25
100
AcDbVertex
100
AcDb2dVertex
 10
70.35143653851866
 20
-148.0526488518755
 30
0.0
  0
VERTEX
  5
5D
330
5B
100
AcDbEntity
  8
_U+30EC_U+30A4_U+30E4_U+30FC 1
 62
   179
420
  2234388
370
    25
100
AcDbVertex
100
AcDb2dVertex
 10
117.3516658949985
 20
-148.0526488518755
 30
0.0
  0
SEQEND
  5
5E
330
5B
100
AcDbEntity
  8
_U+30EC_U+30A4_U+30E4_U+30FC 1
 62
   179
420
  2234388
370
    25
  0
POLYLINE
  5
5F
330
1F
100
AcDbEntity
  8
_U+30EC_U+30A4_U+30E4_U+30FC 1
 62
   179
420
  2234388
370
    25
100
AcDb2dPolyline
 66
     1
 10
0.0
 20
0.0
 30
0.0
  0
VERTEX
  5
60
330
5F
100
AcDbEntity
  8
_U+30EC_U+30A4_U+30E4_U+30FC 1
 62
   179
420
  2234388
370
    25
100
AcDbVertex
100
AcDb2dVertex
 10
70.35143653851866
 20
-101.052912196959
 30
0.0
  0
VERTEX
  5
61
330
5F
100
AcDbEntity
  8
_U+30EC_U+30A4_U+30E4_U+30FC 1
 62
   179
420
  2234388
370
    25
100
AcDbVertex
100
AcDb2dVertex
 10
70.35143653851866
 20
-148.0526488518755
 30
0.0
  0
SEQEND
  5
62
330
5F
100
AcDbEntity
  8
_U+30EC_U+30A4_U+30E4_U+30FC 1
 62
   179
420
  2234388
370
    25
  0
SPLINE
  5
63
330
1F
100
AcDbEntity
  8
_U+30EC_U+30A4_U+30E4_U+30FC 1
 62
   179
420
  2234388
370
     9
100
AcDbSpline
210
0.0
220
0.0
230
1.0
 70
    11
 71
     3
 72
    17
 73
    13
 74
     0
 42
0.0000000001
 43
0.0000000001
 12
1.0
 22
0.0
 32
0.0
 13
1.0
 23
0.0
 33
0.0
 40
0.0
 40
0.0
 40
0.0
 40
0.0
 40
1.0
 40
1.0
 40
1.0
 40
2.0
 40
2.0
 40
2.0
 40
3.0
 40
3.0
 40
3.0
 40
4.0
 40
4.0
 40
4.0
 40
4.0
 10
63.45159727010378
 20
-151.0526357955705
 30
0.0
 10
63.45159727010378
 20
-150.9974966289174
 30
0.0
 10
63.40679449346901
 20
-150.9527291289282
 30
0.0
 10
63.35169060598594
 20
-150.9527291289282
 30
0.0
 10
63.296551440726
 20
-150.9527291289282
 30
0.0
 10
63.25178394186811
 20
-150.9974966289174
 30
0.0
 10
63.25178394186811
 20
-151.0526357955705
 30
0.0
 10
63.25178394186811
 20
-151.1080924622231
 30
0.0
 10
63.296551440726
 20
-151.1525424622121
 30
0.0
 10
63.35169060598594
 20
-151.1525424622121
 30
0.0
 10
63.40679449346901
 20
-151.1525424622121
 30
0.0
 10
63.45159727010378
 20
-151.1080924622231
 30
0.0
 10
63.45159727010378
 20
-151.0526357955705
 30
0.0
  0
SPLINE
  5
64
330
1F
100
AcDbEntity
  8
_U+30EC_U+30A4_U+30E4_U+30FC 1
 62
   179
420
  2234388
370
     9
100
AcDbSpline
210
0.0
220
0.0
230
1.0
 70
    11
 71
     3
 72
    17
 73
    13
 74
     0
 42
0.0000000001
 43
0.0000000001
 12
1.0
 22
0.0
 32
0.0
 13
1.0
 23
0.0
 33
0.0
 40
0.0
 40
0.0
 40
0.0
 40
0.0
 40
1.0
 40
1.0
 40
1.0
 40
2.0
 40
2.0
 40
2.0
 40
3.0
 40
3.0
 40
3.0
 40
4.0
 40
4.0
 40
4.0
 40
4.0
 10
67.45135633472809
 20
-155.052712461237
 30
0.0
 10
67.45135633472809
 20
-154.997608572362
 30
0.0
 10
67.40655355809332
 20
-154.9528057945953
 30
0.0
 10
67.35144967061025
 20
-154.9528057945953
 30
0.0
 10
67.2963105053503
 20
-154.9528057945953
 30
0.0
 10
67.25154300649243
 20
-154.997608572362
 30
0.0
 10
67.25154300649243
 20
-155.052712461237
 30
0.0
 10
67.25154300649243
 20
-155.10785162789
 30
0.0
 10
67.2963105053503
 20
-155.1526191278786
 30
0.0
 10
67.35144967061025
 20
-155.1526191278786
 30
0.0
 10
67.40655355809332
 20
-155.1526191278786
 30
0.0
 10
67.45135633472809
 20
-155.10785162789
 30
0.0
 10
67.45135633472809
 20
-155.052712461237
 30
0.0
  0
SPLINE
  5
65
330
1F
100
AcDbEntity
  8
_U+30EC_U+30A4_U+30E4_U+30FC 1
 62
   179
420
  2234388
370
     9
100
AcDbSpline
210
0.0
220
0.0
230
1.0
 70
    11
 71
     3
 72
    17
 73
    13
 74
     0
 42
0.0000000001
 43
0.0000000001
 12
1.0
 22
0.0
 32
0.0
 13
1.0
 23
0.0
 33
0.0
 40
0.0
 40
0.0
 40
0.0
 40
0.0
 40
1.0
 40
1.0
 40
1.0
 40
2.0
 40
2.0
 40
2.0
 40
3.0
 40
3.0
 40
3.0
 40
4.0
 40
4.0
 40
4.0
 40
4.0
 10
120.7457760861853
 20
-148.0526488518755
 30
0.0
 10
120.7457760861853
 20
-147.997509685223
 30
0.0
 10
120.7009733095505
 20
-147.9527421852338
 30
0.0
 10
120.6458694220674
 20
-147.9527421852338
 30
0.0
 10
120.5907333031858
 20
-147.9527421852338
 30
0.0
 10
120.5459627579496
 20
-147.997509685223
 30
0.0
 10
120.5459627579496
 20
-148.0526488518755
 30
0.0
 10
120.5459627579496
 20
-148.107752740751
 30
0.0
 10
120.5907333031858
 20
-148.1525555185171
 30
0.0
 10
120.6458694220674
 20
-148.1525555185171
 30
0.0
 10
120.7009733095505
 20
-148.1525555185171
 30
0.0
 10
120.7457760861853
 20
-148.107752740751
 30
0.0
 10
120.7457760861853
 20
-148.0526488518755
 30
0.0
  0
SPLINE
  5
66
330
1F
100
AcDbEntity
  8
_U+30EC_U+30A4_U+30E4_U+30FC 1
 62
   179
420
  2234388
370
     9
100
AcDbSpline
210
0.0
220
0.0
230
1.0
 70
    11
 71
     3
 72
    17
 73
    13
 74
     0
 42
0.0000000001
 43
0.0000000001
 12
1.0
 22
0.0
 32
0.0
 13
1.0
 23
0.0
 33
0.0
 40
0.0
 40
0.0
 40
0.0
 40
0.0
 40
1.0
 40
1.0
 40
1.0
 40
2.0
 40
2.0
 40
2.0
 40
3.0
 40
3.0
 40
3.0
 40
4.0
 40
4.0
 40
4.0
 40
4.0
 10
120.7457760861853
 20
-151.0526357955705
 30
0.0
 10
120.7457760861853
 20
-150.9974966289174
 30
0.0
 10
120.7009733095505
 20
-150.9527291289282
 30
0.0
 10
120.6458694220674
 20
-150.9527291289282
 30
0.0
 10
120.5907333031858
 20
-150.9527291289282
 30
0.0
 10
120.5459627579496
 20
-150.9974966289174
 30
0.0
 10
120.5459627579496
 20
-151.0526357955705
 30
0.0
 10
120.5459627579496
 20
-151.1080924622231
 30
0.0
 10
120.5907333031858
 20
-151.1525424622121
 30
0.0
 10
120.6458694220674
 20
-151.1525424622121
 30
0.0
 10
120.7009733095505
 20
-151.1525424622121
 30
0.0
 10
120.7457760861853
 20
-151.1080924622231
 30
0.0
 10
120.7457760861853
 20
-151.0526357955705
 30
0.0
  0
SPLINE
  5
67
330
1F
100
AcDbEntity
  8
_U+30EC_U+30A4_U+30E4_U+30FC 1
 62
   179
420
  2234388
370
     9
100
AcDbSpline
210
0.0
220
0.0
230
1.0
 70
    11
 71
     3
 72
    17
 73
    13
 74
     0
 42
0.0000000001
 43
0.0000000001
 12
1.0
 22
0.0
 32
0.0
 13
1.0
 23
0.0
 33
0.0
 40
0.0
 40
0.0
 40
0.0
 40
0.0
 40
1.0
 40
1.0
 40
1.0
 40
2.0
 40
2.0
 40
2.0
 40
3.0
 40
3.0
 40
3.0
 40
4.0
 40
4.0
 40
4.0
 40
4.0
 10
63.45159727010378
 20
-101.052912196959
 30
0.0
 10
63.45159727010378
 20
-100.9974555303063
 30
0.0
 10
63.40679449346901
 20
-100.9526527525396
 30
0.0
 10
63.35169060598594
 20
-100.9526527525396
 30
0.0
 10
63.296551440726
 20
-100.9526527525396
 30
0.0
 10
63.25178394186811
 20
-100.9974555303063
 30
0.0
 10
63.25178394186811
 20
-101.052912196959
 30
0.0
 10
63.25178394186811
 20
-101.1080513636118
 30
0.0
 10
63.296551440726
 20
-101.1528188636006
 30
0.0
 10
63.35169060598594
 20
-101.1528188636006
 30
0.0
 10
63.40679449346901
 20
-101.1528188636006
 30
0.0
 10
63.45159727010378
 20
-101.1080513636118
 30
0.0
 10
63.45159727010378
 20
-101.052912196959
 30
0.0
  0
SPLINE
  5
68
330
1F
100
AcDbEntity
  8
_U+30EC_U+30A4_U+30E4_U+30FC 1
 62
   179
420
  2234388
370
     9
100
AcDbSpline
210
0.0
220
0.0
230
1.0
 70
    11
 71
     3
 72
    17
 73
    13
 74
     0
 42
0.0000000001
 43
0.0000000001
 12
1.0
 22
0.0
 32
0.0
 13
1.0
 23
0.0
 33
0.0
 40
0.0
 40
0.0
 40
0.0
 40
0.0
 40
1.0
 40
1.0
 40
1.0
 40
2.0
 40
2.0
 40
2.0
 40
3.0
 40
3.0
 40
3.0
 40
4.0
 40
4.0
 40
4.0
 40
4.0
 10
117.4515725591163
 20
-155.052712461237
 30
0.0
 10
117.4515725591163
 20
-154.997608572362
 30
0.0
 10
117.4067697824815
 20
-154.9528057945953
 30
0.0
 10
117.3516658949985
 20
-154.9528057945953
 30
0.0
 10
117.2965267297385
 20
-154.9528057945953
 30
0.0
 10
117.2517592308806
 20
-154.997608572362
 30
0.0
 10
117.2517592308806
 20
-155.052712461237
 30
0.0
 10
117.2517592308806
 20
-155.10785162789
 30
0.0
 10
117.2965267297385
 20
-155.1526191278786
 30
0.0
 10
117.3516658949985
 20
-155.1526191278786
 30
0.0
 10
117.4067697824815
 20
-155.1526191278786
 30
0.0
 10
117.4515725591163
 20
-155.10785162789
 30
0.0
 10
117.4515725591163
 20
-155.052712461237
 30
0.0
  0
POLYLINE
  5
69
330
1F
100
AcDbEntity
  8
_U+30EC_U+30A4_U+30E4_U+30FC 1
 62
   179
420
  2234388
370
     9
100
AcDb2dPolyline
 66
     1
 10
0.0
 20
0.0
 30
0.0
  0
VERTEX
  5
6A
330
69
100
AcDbEntity
  8
_U+30EC_U+30A4_U+30E4_U+30FC 1
 62
   179
420
  2234388
370
     9
100
AcDbVertex
100
AcDb2dVertex
 10
120.6458694220674
 20
-148.0526488518755
 30
0.0
  0
VERTEX
  5
6B
330
69
100
AcDbEntity
  8
_U+30EC_U+30A4_U+30E4_U+30FC 1
 62
   179
420
  2234388
370
     9
100
AcDbVertex
100
AcDb2dVertex
 10
120.6458694220674
 20
-151.0526357955705
 30
0.0
  0
SEQEND
  5
6C
330
69
100
AcDbEntity
  8
_U+30EC_U+30A4_U+30E4_U+30FC 1
 62
   179
420
  2234388
370
     9
  0
POLYLINE
  5
6D
330
1F
100
AcDbEntity
  8
_U+30EC_U+30A4_U+30E4_U+30FC 1
 62
   179
420
  2234388
370
     9
100
AcDb2dPolyline
 66
     1
 10
0.0
 20
0.0
 30
0.0
  0
VERTEX
  5
6E
330
6D
100
AcDbEntity
  8
_U+30EC_U+30A4_U+30E4_U+30FC 1
 62
   179
420
  2234388
370
     9
100
AcDbVertex
100
AcDb2dVertex
 10
119.1858280704273
 20
-148.0526488518755
 30
0.0
  0
VERTEX
  5
6F
330
6D
100
AcDbEntity
  8
_U+30EC_U+30A4_U+30E4_U+30FC 1
 62
   179
420
  2234388
370
     9
100
AcDbVertex
100
AcDb2dVertex
 10
121.646311896544
 20
-148.0526488518755
 30
0.0
  0
SEQEND
  5
70
330
6D
100
AcDbEntity
  8
_U+30EC_U+30A4_U+30E4_U+30FC 1
 62
   179
420
  2234388
370
     9
  0
POLYLINE
  5
71
330
1F
100
AcDbEntity
  8
_U+30EC_U+30A4_U+30E4_U+30FC 1
 62
   179
420
  2234388
370
     9
100
AcDb2dPolyline
 66
     1
 10
0.0
 20
0.0
 30
0.0
  0
VERTEX
  5
72
330
71
100
AcDbEntity
  8
_U+30EC_U+30A4_U+30E4_U+30FC 1
 62
   179
420
  2234388
370
     9
100
AcDbVertex
100
AcDb2dVertex
 10
119.1858280704273
 20
-151.0526357955705
 30
0.0
  0
VERTEX
  5
73
330
71
100
AcDbEntity
  8
_U+30EC_U+30A4_U+30E4_U+30FC 1
 62
   179
420
  2234388
370
     9
100
AcDbVertex
100
AcDb2dVertex
 10
121.646311896544
 20
-151.0526357955705
 30
0.0
  0
SEQEND
  5
74
330
71
100
AcDbEntity
  8
_U+30EC_U+30A4_U+30E4_U+30FC 1
 62
   179
420
  2234388
370
     9
  0
INSERT
  5
76
330
1F
100
AcDbEntity
  8
_U+30EC_U+30A4_U+30E4_U+30FC 1
100
AcDbBlockReference
  2
block 2
 10
0.0
 20
0.0
 30
0.0
  0
POLYLINE
  5
7B
330
1F
100
AcDbEntity
  8
_U+30EC_U+30A4_U+30E4_U+30FC 1
 62
   179
420
  2234388
370
     9
100
AcDb2dPolyline
 66
     1
 10
0.0
 20
0.0
 30
0.0
  0
VERTEX
  5
7C
330
7B
100
AcDbEntity
  8
_U+30EC_U+30A4_U+30E4_U+30FC 1
 62
   179
420
  2234388
370
     9
100
AcDbVertex
100
AcDb2dVertex
 10
63.35169060598594
 20
-101.052912196959
 30
0.0
  0
VERTEX
  5
7D
330
7B
100
AcDbEntity
  8
_U+30EC_U+30A4_U+30E4_U+30FC 1
 62
   179
420
  2234388
370
     9
100
AcDbVertex
100
AcDb2dVertex
 10
63.35169060598594
 20
-151.0526357955705
 30
0.0
  0
SEQEND
  5
7E
330
7B
100
AcDbEntity
  8
_U+30EC_U+30A4_U+30E4_U+30FC 1
 62
   179
420
  2234388
370
     9
  0
POLYLINE
  5
7F
330
1F
100
AcDbEntity
  8
_U+30EC_U+30A4_U+30E4_U+30FC 1
 62
   179
420
  2234388
370
     9
100
AcDb2dPolyline
 66
     1
 10
0.0
 20
0.0
 30
0.0
  0
VERTEX
  5
80
330
7F
100
AcDbEntity
  8
_U+30EC_U+30A4_U+30E4_U+30FC 1
 62
   179
420
  2234388
370
     9
100
AcDbVertex
100
AcDb2dVertex
 10
64.81173195762608
 20
-101.052912196959
 30
0.0
  0
VERTEX
  5
81
330
7F
100
AcDbEntity
  8
_U+30EC_U+30A4_U+30E4_U+30FC 1
 62
   179
420
  2234388
370
     9
100
AcDbVertex
100
AcDb2dVertex
 10
62.35156563150126
 20
-101.052912196959
 30
0.0
  0
SEQEND
  5
82
330
7F
100
AcDbEntity
  8
_U+30EC_U+30A4_U+30E4_U+30FC 1
 62
   179
420
  2234388
370
     9
  0
POLYLINE
  5
83
330
1F
100
AcDbEntity
  8
_U+30EC_U+30A4_U+30E4_U+30FC 1
 62
   179
420
  2234388
370
     9
100
AcDb2dPolyline
 66
     1
 10
0.0
 20
0.0
 30
0.0
  0
VERTEX
  5
84
330
83
100
AcDbEntity
  8
_U+30EC_U+30A4_U+30E4_U+30FC 1
 62
   179
420
  2234388
370
     9
100
AcDbVertex
100
AcDb2dVertex
 10
64.81173195762608
 20
-151.0526357955705
 30
0.0
  0
VERTEX
  5
85
330
83
100
AcDbEntity
  8
_U+30EC_U+30A4_U+30E4_U+30FC 1
 62
   179
420
  2234388
370
     9
100
AcDbVertex
100
AcDb2dVertex
 10
62.35156563150126
 20
-151.0526357955705
 30
0.0
  0
SEQEND
  5
86
330
83
100
AcDbEntity
  8
_U+30EC_U+30A4_U+30E4_U+30FC 1
 62
   179
420
  2234388
370
     9
  0
INSERT
  5
88
330
1F
100
AcDbEntity
  8
_U+30EC_U+30A4_U+30E4_U+30FC 1
100
AcDbBlockReference
  2
block 3
 10
0.0
 20
0.0
 30
0.0
  0
POLYLINE
  5
90
330
1F
100
AcDbEntity
  8
_U+30EC_U+30A4_U+30E4_U+30FC 1
 62
   179
420
  2234388
370
     9
100
AcDb2dPolyline
 66
     1
 10
0.0
 20
0.0
 30
0.0
  0
VERTEX
  5
91
330
90
100
AcDbEntity
  8
_U+30EC_U+30A4_U+30E4_U+30FC 1
 62
   179
420
  2234388
370
     9
100
AcDbVertex
100
AcDb2dVertex
 10
67.35144967061025
 20
-155.052712461237
 30
0.0
  0
VERTEX
  5
92
330
90
100
AcDbEntity
  8
_U+30EC_U+30A4_U+30E4_U+30FC 1
 62
   179
420
  2234388
370
     9
100
AcDbVertex
100
AcDb2dVertex
 10
117.3516658949985
 20
-155.052712461237
 30
0.0
  0
SEQEND
  5
93
330
90
100
AcDbEntity
  8
_U+30EC_U+30A4_U+30E4_U+30FC 1
 62
   179
420
  2234388
370
     9
  0
POLYLINE
  5
94
330
1F
100
AcDbEntity
  8
_U+30EC_U+30A4_U+30E4_U+30FC 1
 62
   179
420
  2234388
370
     9
100
AcDb2dPolyline
 66
     1
 10
0.0
 20
0.0
 30
0.0
  0
VERTEX
  5
95
330
94
100
AcDbEntity
  8
_U+30EC_U+30A4_U+30E4_U+30FC 1
 62
   179
420
  2234388
370
     9
100
AcDbVertex
100
AcDb2dVertex
 10
67.35144967061025
 20
-153.5927063504908
 30
0.0
  0
VERTEX
  5
96
330
94
100
AcDbEntity
  8
_U+30EC_U+30A4_U+30E4_U+30FC 1
 62
   179
420
  2234388
370
     9
100
AcDbVertex
100
AcDb2dVertex
 10
67.35144967061025
 20
-156.0528374609866
 30
0.0
  0
SEQEND
  5
97
330
94
100
AcDbEntity
  8
_U+30EC_U+30A4_U+30E4_U+30FC 1
 62
   179
420
  2234388
370
     9
  0
POLYLINE
  5
98
330
1F
100
AcDbEntity
  8
_U+30EC_U+30A4_U+30E4_U+30FC 1
 62
   179
420
  2234388
370
     9
100
AcDb2dPolyline
 66
     1
 10
0.0
 20
0.0
 30
0.0
  0
VERTEX
  5
99
330
98
100
AcDbEntity
  8
_U+30EC_U+30A4_U+30E4_U+30FC 1
 62
   179
420
  2234388
370
     9
100
AcDbVertex
100
AcDb2dVertex
 10
117.3516658949985
 20
-153.5927063504908
 30
0.0
  0
VERTEX
  5
9A
330
98
100
AcDbEntity
  8
_U+30EC_U+30A4_U+30E4_U+30FC 1
 62
   179
420
  2234388
370
     9
100
AcDbVertex
100
AcDb2dVertex
 10
117.3516658949985
 20
-156.0528374609866
 30
0.0
  0
SEQEND
  5
9B
330
98
100
AcDbEntity
  8
_U+30EC_U+30A4_U+30E4_U+30FC 1
 62
   179
420
  2234388
370
     9
  0
INSERT
  5
9D
330
1F
100
AcDbEntity
  8
_U+30EC_U+30A4_U+30E4_U+30FC 1
100
AcDbBlockReference
  2
block 4
 10
0.0
 20
0.0
 30
0.0
  0
ENDSEC
  0
SECTION
  2
OBJECTS
  0
DICTIONARY
  5
C
330
0
100
AcDbDictionary
281
     1
  3
ACAD_GROUP
350
D
  3
ACAD_LAYOUT
350
1A
  3
ACAD_MATERIAL
350
3B
  3
ACAD_MLEADERSTYLE
350
A6
  3
ACAD_MLINESTYLE
350
17
  3
ACAD_PLOTSETTINGS
350
19
  3
ACAD_PLOTSTYLENAME
350
E
  3
ACAD_TABLESTYLE
350
A5
  3
ACAD_VISUALSTYLE
350
2A
  0
SUN
  5
3F
330
29
100
AcDbSun
 90
        1
290
     0
 63
     7
421
 16777215
 40
1.0
291
     1
 91
  2455826
 92
 54000000
292
     0
 70
     2
 71
   256
280
     1
  0
DICTIONARY
  5
D
102
{ACAD_REACTORS
330
C
102
}
330
C
100
AcDbDictionary
281
     1
  0
DICTIONARY
  5
1A
102
{ACAD_REACTORS
330
C
102
}
330
C
100
AcDbDictionary
281
     1
  3
Layout1
350
1E
  3
Layout2
350
26
  3
Model
350
22
  0
DICTIONARY
  5
3B
102
{ACAD_REACTORS
330
C
102
}
330
C
100
AcDbDictionary
281
     1
  3
ByBlock
350
3D
  3
ByLayer
350
3C
  3
Global
350
3E
  0
DICTIONARY
  5
A6
102
{ACAD_REACTORS
330
C
102
}
330
C
100
AcDbDictionary
281
     1
  0
DICTIONARY
  5
17
102
{ACAD_REACTORS
330
C
102
}
330
C
100
AcDbDictionary
281
     1
  3
Standard
350
18
  0
DICTIONARY
  5
19
102
{ACAD_REACTORS
330
C
102
}
330
C
100
AcDbDictionary
281
     1
  0
ACDBDICTIONARYWDFLT
  5
E
102
{ACAD_REACTORS
330
C
102
}
330
C
100
AcDbDictionary
281
     1
  3
Normal
350
F
100
AcDbDictionaryWithDefault
340
F
  0
DICTIONARY
  5
A5
102
{ACAD_REACTORS
330
C
102
}
330
C
100
AcDbDictionary
281
     1
  0
DICTIONARY
  5
2A
102
{ACAD_REACTORS
330
C
102
}
330
C
100
AcDbDictionary
281
     1
  3
2dWireframe
350
2F
  3
3D Hidden
350
31
  3
3dWireframe
350
30
  3
Basic
350
32
  3
Brighten
350
36
  3
ColorChange
350
3A
  3
Conceptual
350
34
  3
Dim
350
35
  3
Facepattern
350
39
  3
Flat
350
2B
  3
FlatWithEdges
350
2C
  3
Gouraud
350
2D
  3
GouraudWithEdges
350
2E
  3
Linepattern
350
38
  3
Realistic
350
33
  3
Thicken
350
37
  0
LAYOUT
  5
1E
102
{ACAD_REACTORS
330
1A
102
}
330
1A
100
AcDbPlotSettings
  1

  2
none_device
  4

  6

 40
0.0
 41
0.0
 42
0.0
 43
0.0
 44
0.0
 45
0.0
 46
0.0
 47
0.0
 48
0.0
 49
0.0
140
0.0
141
0.0
142
1.0
143
1.0
 70
   688
 72
     0
 73
     0
 74
     5
  7

 75
    16
 76
     0
 77
     2
 78
   300
147
1.0
148
0.0
149
0.0
100
AcDbLayout
  1
Layout1
 70
     1
 71
     1
 10
0.0
 20
0.0
 11
12.0
 21
9.0
 12
0.0
 22
0.0
 32
0.0
 14
1.000000000000000E+20
 24
1.000000000000000E+20
 34
1.000000000000000E+20
 15
-1.000000000000000E+20
 25
-1.000000000000000E+20
 35
-1.000000000000000E+20
146
0.0
 13
0.0
 23
0.0
 33
0.0
 16
1.0
 26
0.0
 36
0.0
 17
0.0
 27
1.0
 37
0.0
 76
     0
330
1B
  0
LAYOUT
  5
26
102
{ACAD_REACTORS
330
1A
102
}
330
1A
100
AcDbPlotSettings
  1

  2
none_device
  4

  6

 40
0.0
 41
0.0
 42
0.0
 43
0.0
 44
0.0
 45
0.0
 46
0.0
 47
0.0
 48
0.0
 49
0.0
140
0.0
141
0.0
142
1.0
143
1.0
 70
   688
 72
     0
 73
     0
 74
     5
  7

 75
    16
 76
     0
 77
     2
 78
   300
147
1.0
148
0.0
149
0.0
100
AcDbLayout
  1
Layout2
 70
     1
 71
     2
 10
0.0
 20
0.0
 11
0.0
 21
0.0
 12
0.0
 22
0.0
 32
0.0
 14
0.0
 24
0.0
 34
0.0
 15
0.0
 25
0.0
 35
0.0
146
0.0
 13
0.0
 23
0.0
 33
0.0
 16
1.0
 26
0.0
 36
0.0
 17
0.0
 27
1.0
 37
0.0
 76
     0
330
23
  0
LAYOUT
  5
22
102
{ACAD_REACTORS
330
1A
102
}
330
1A
100
AcDbPlotSettings
  1

  2
none_device
  4

  6

 40
0.0
 41
0.0
 42
0.0
 43
0.0
 44
0.0
 45
0.0
 46
0.0
 47
0.0
 48
0.0
 49
0.0
140
0.0
141
0.0
142
1.0
143
1.0
 70
  1712
 72
     0
 73
     0
 74
     0
  7

 75
     0
 76
     0
 77
     2
 78
   300
147
1.0
148
0.0
149
0.0
100
AcDbLayout
  1
Model
 70
     1
 71
     0
 10
0.0
 20
0.0
 11
12.0
 21
9.0
 12
0.0
 22
0.0
 32
0.0
 14
1.000000000000000E+20
 24
1.000000000000000E+20
 34
1.000000000000000E+20
 15
-1.000000000000000E+20
 25
-1.000000000000000E+20
 35
-1.000000000000000E+20
146
0.0
 13
0.0
 23
0.0
 33
0.0
 16
1.0
 26
0.0
 36
0.0
 17
0.0
 27
1.0
 37
0.0
 76
     0
330
1F
331
29
  0
MATERIAL
  5
3D
102
{ACAD_REACTORS
330
3B
102
}
330
3B
100
AcDbMaterial
  1
ByBlock
 72
     1
 94
      127
  0
MATERIAL
  5
3C
102
{ACAD_REACTORS
330
3B
102
}
330
3B
100
AcDbMaterial
  1
ByLayer
 72
     1
 94
      127
  0
MATERIAL
  5
3E
102
{ACAD_REACTORS
330
3B
102
}
330
3B
100
AcDbMaterial
  1
Global
 72
     1
 94
      127
  0
MLINESTYLE
  5
18
102
{ACAD_REACTORS
330
17
102
}
330
17
100
AcDbMlineStyle
  2
Standard
 70
     0
  3

 62
   256
 51
90.0
 52
90.0
 71
     2
 49
0.5
 62
   256
  6
BYLAYER
 49
-0.5
 62
   256
  6
BYLAYER
  0
ACDBPLACEHOLDER
  5
F
102
{ACAD_REACTORS
330
E
102
}
330
E
  0
VISUALSTYLE
  5
2F
102
{ACAD_REACTORS
330
2A
102
}
330
2A
100
AcDbVisualStyle
  2
2dWireframe
 70
     4
177
     2
291
     0
 71
     0
176
     1
 72
     2
176
     1
 73
     0
176
     1
 90
        0
176
     1
 40
-0.6
176
     1
 41
-30.0
176
     1
 62
     5
 63
     7
421
 16777215
176
     1
 74
     1
176
     1
 91
        4
176
     1
 64
     7
176
     1
 65
   257
176
     1
 75
     1
176
     1
175
     1
176
     1
 42
1.0
176
     1
 92
        0
176
     1
 66
   257
176
     1
 43
1.0
176
     1
 76
     1
176
     1
 77
     6
176
     1
 78
     2
176
     1
 67
     7
176
     1
 79
     5
176
     1
170
     0
176
     1
171
     0
176
     1
290
     0
176
     1
 93
        1
176
     1
 44
0.0
176
     1
173
     0
176
     1
  0
VISUALSTYLE
  5
31
102
{ACAD_REACTORS
330
2A
102
}
330
2A
100
AcDbVisualStyle
  2
3D Hidden
 70
     6
177
     2
291
     0
 71
     1
176
     1
 72
     2
176
     1
 73
     2
176
     1
 90
        0
176
     1
 40
-0.6
176
     1
 41
-30.0
176
     1
 62
     5
 63
     7
421
 16777215
176
     1
 74
     2
176
     1
 91
        2
176
     1
 64
     7
176
     1
 65
   257
176
     1
 75
     2
176
     1
175
     1
176
     1
 42
40.0
176
     1
 92
        0
176
     1
 66
   257
176
     1
 43
1.0
176
     1
 76
     1
176
     1
 77
     6
176
     1
 78
     2
176
     1
 67
     7
176
     1
 79
     3
176
     1
170
     0
176
     1
171
     0
176
     1
290
     0
176
     1
 93
        1
176
     1
 44
0.0
176
     1
173
     0
176
     1
  0
VISUALSTYLE
  5
30
102
{ACAD_REACTORS
330
2A
102
}
330
2A
100
AcDbVisualStyle
  2
3dWireframe
 70
     5
177
     2
291
     0
 71
     0
176
     1
 72
     2
176
     1
 73
     0
176
     1
 90
        0
176
     1
 40
-0.6
176
     1
 41
-30.0
176
     1
 62
     5
 63
     7
421
 16777215
176
     1
 74
     1
176
     1
 91
        4
176
     1
 64
     7
176
     1
 65
   257
176
     1
 75
     1
176
     1
175
     1
176
     1
 42
1.0
176
     1
 92
        0
176
     1
 66
   257
176
     1
 43
1.0
176
     1
 76
     1
176
     1
 77
     6
176
     1
 78
     2
176
     1
 67
     7
176
     1
 79
     5
176
     1
170
     0
176
     1
171
     0
176
     1
290
     0
176
     1
 93
        1
176
     1
 44
0.0
176
     1
173
     0
176
     1
  0
VISUALSTYLE
  5
32
102
{ACAD_REACTORS
330
2A
102
}
330
2A
100
AcDbVisualStyle
  2
Basic
 70
     7
177
     2
291
     1
 71
     1
176
     1
 72
     0
176
     1
 73
     1
176
     1
 90
        0
176
     1
 40
-0.6
176
     1
 41
-30.0
176
     1
 62
     5
 63
     7
421
 16777215
176
     1
 74
     0
176
     1
 91
        4
176
     1
 64
     7
176
     1
 65
   257
176
     1
 75
     1
176
     1
175
     1
176
     1
 42
1.0
176
     1
 92
        8
176
     1
 66
     7
176
     1
 43
1.0
176
     1
 76
     1
176
     1
 77
     6
176
     1
 78
     2
176
     1
 67
     7
176
     1
 79
     5
176
     1
170
     0
176
     1
171
     0
176
     1
290
     0
176
     1
 93
        1
176
     1
 44
0.0
176
     1
173
     0
176
     1
  0
VISUALSTYLE
  5
36
102
{ACAD_REACTORS
330
2A
102
}
330
2A
100
AcDbVisualStyle
  2
Brighten
 70
    12
177
     2
291
     1
 71
     2
176
     1
 72
     2
176
     1
 73
     0
176
     1
 90
        0
176
     1
 40
-0.6
176
     1
 41
-30.0
176
     1
 62
     5
 63
     7
421
 16777215
176
     1
 74
     1
176
     1
 91
        4
176
     1
 64
     7
176
     1
 65
   257
176
     1
 75
     1
176
     1
175
     1
176
     1
 42
1.0
176
     1
 92
        8
176
     1
 66
     7
176
     1
 43
1.0
176
     1
 76
     1
176
     1
 77
     6
176
     1
 78
     2
176
     1
 67
     7
176
     1
 79
     5
176
     1
170
     0
176
     1
171
     0
176
     1
290
     0
176
     1
 93
        1
176
     1
 44
50.0
176
     1
173
     0
176
     1
  0
VISUALSTYLE
  5
3A
102
{ACAD_REACTORS
330
2A
102
}
330
2A
100
AcDbVisualStyle
  2
ColorChange
 70
    16
177
     2
291
     1
 71
     2
176
     1
 72
     2
176
     1
 73
     3
176
     1
 90
        0
176
     1
 40
-0.6
176
     1
 41
-30.0
176
     1
 62
     5
 63
     8
421
  8421504
176
     1
 74
     1
176
     1
 91
        4
176
     1
 64
     7
176
     1
 65
   257
176
     1
 75
     1
176
     1
175
     1
176
     1
 42
1.0
176
     1
 92
        8
176
     1
 66
     8
424
  8421504
176
     1
 43
1.0
176
     1
 76
     1
176
     1
 77
     6
176
     1
 78
     2
176
     1
 67
     7
176
     1
 79
     5
176
     1
170
     0
176
     1
171
     0
176
     1
290
     0
176
     1
 93
        1
176
     1
 44
0.0
176
     1
173
     0
176
     1
  0
VISUALSTYLE
  5
34
102
{ACAD_REACTORS
330
2A
102
}
330
2A
100
AcDbVisualStyle
  2
Conceptual
 70
     9
177
     2
291
     0
 71
     3
176
     1
 72
     2
176
     1
 73
     0
176
     1
 90
        0
176
     1
 40
-0.6
176
     1
 41
-30.0
176
     1
 62
     5
 63
     7
421
 16777215
176
     1
 74
     2
176
     1
 91
        2
176
     1
 64
     7
176
     1
 65
   257
176
     1
 75
     1
176
     1
175
     1
176
     1
 42
40.0
176
     1
 92
        8
176
     1
 66
     7
176
     1
 43
1.0
176
     1
 76
     1
176
     1
 77
     6
176
     1
 78
     2
176
     1
 67
     7
176
     1
 79
     3
176
     1
170
     0
176
     1
171
     0
176
     1
290
     0
176
     1
 93
        1
176
     1
 44
0.0
176
     1
173
     0
176
     1
  0
VISUALSTYLE
  5
35
102
{ACAD_REACTORS
330
2A
102
}
330
2A
100
AcDbVisualStyle
  2
Dim
 70
    11
177
     2
291
     1
 71
     2
176
     1
 72
     2
176
     1
 73
     0
176
     1
 90
        0
176
     1
 40
-0.6
176
     1
 41
-30.0
176
     1
 62
     5
 63
     7
421
 16777215
176
     1
 74
     1
176
     1
 91
        4
176
     1
 64
     7
176
     1
 65
   257
176
     1
 75
     1
176
     1
175
     1
176
     1
 42
1.0
176
     1
 92
        8
176
     1
 66
     7
176
     1
 43
1.0
176
     1
 76
     1
176
     1
 77
     6
176
     1
 78
     2
176
     1
 67
     7
176
     1
 79
     5
176
     1
170
     0
176
     1
171
     0
176
     1
290
     0
176
     1
 93
        1
176
     1
 44
-50.0
176
     1
173
     0
176
     1
  0
VISUALSTYLE
  5
39
102
{ACAD_REACTORS
330
2A
102
}
330
2A
100
AcDbVisualStyle
  2
Facepattern
 70
    15
177
     2
291
     1
 71
     2
176
     1
 72
     2
176
     1
 73
     0
176
     1
 90
        0
176
     1
 40
-0.6
176
     1
 41
-30.0
176
     1
 62
     5
 63
     7
421
 16777215
176
     1
 74
     1
176
     1
 91
        4
176
     1
 64
     7
176
     1
 65
   257
176
     1
 75
     1
176
     1
175
     1
176
     1
 42
1.0
176
     1
 92
        8
176
     1
 66
     7
176
     1
 43
1.0
176
     1
 76
     1
176
     1
 77
     6
176
     1
 78
     2
176
     1
 67
     7
176
     1
 79
     5
176
     1
170
     0
176
     1
171
     0
176
     1
290
     0
176
     1
 93
        1
176
     1
 44
0.0
176
     1
173
     0
176
     1
  0
VISUALSTYLE
  5
2B
102
{ACAD_REACTORS
330
2A
102
}
330
2A
100
AcDbVisualStyle
  2
Flat
 70
     0
177
     2
291
     1
 71
     2
176
     1
 72
     1
176
     1
 73
     1
176
     1
 90
        2
176
     1
 40
-0.6
176
     1
 41
30.0
176
     1
 62
     5
 63
     7
421
 16777215
176
     1
 74
     0
176
     1
 91
        4
176
     1
 64
     7
176
     1
 65
   257
176
     1
 75
     1
176
     1
175
     1
176
     1
 42
1.0
176
     1
 92
        8
176
     1
 66
     7
176
     1
 43
1.0
176
     1
 76
     1
176
     1
 77
     6
176
     1
 78
     2
176
     1
 67
     7
176
     1
 79
     5
176
     1
170
     0
176
     1
171
     0
176
     1
290
     0
176
     1
 93
       13
176
     1
 44
0.0
176
     1
173
     0
176
     1
  0
VISUALSTYLE
  5
2C
102
{ACAD_REACTORS
330
2A
102
}
330
2A
100
AcDbVisualStyle
  2
FlatWithEdges
 70
     1
177
     2
291
     1
 71
     2
176
     1
 72
     1
176
     1
 73
     1
176
     1
 90
        2
176
     1
 40
-0.6
176
     1
 41
30.0
176
     1
 62
     5
 63
     7
421
 16777215
176
     1
 74
     1
176
     1
 91
        4
176
     1
 64
     7
176
     1
 65
   257
176
     1
 75
     1
176
     1
175
     1
176
     1
 42
1.0
176
     1
 92
        0
176
     1
 66
   257
176
     1
 43
1.0
176
     1
 76
     1
176
     1
 77
     6
176
     1
 78
     2
176
     1
 67
     7
176
     1
 79
     5
176
     1
170
     0
176
     1
171
     0
176
     1
290
     0
176
     1
 93
       13
176
     1
 44
0.0
176
     1
173
     0
176
     1
  0
VISUALSTYLE
  5
2D
102
{ACAD_REACTORS
330
2A
102
}
330
2A
100
AcDbVisualStyle
  2
Gouraud
 70
     2
177
     2
291
     1
 71
     2
176
     1
 72
     2
176
     1
 73
     1
176
     1
 90
        2
176
     1
 40
-0.6
176
     1
 41
30.0
176
     1
 62
     5
 63
     7
421
 16777215
176
     1
 74
     0
176
     1
 91
        4
176
     1
 64
     7
176
     1
 65
   257
176
     1
 75
     1
176
     1
175
     1
176
     1
 42
1.0
176
     1
 92
        0
176
     1
 66
     7
176
     1
 43
1.0
176
     1
 76
     1
176
     1
 77
     6
176
     1
 78
     2
176
     1
 67
     7
176
     1
 79
     5
176
     1
170
     0
176
     1
171
     0
176
     1
290
     0
176
     1
 93
       13
176
     1
 44
0.0
176
     1
173
     0
176
     1
  0
VISUALSTYLE
  5
2E
102
{ACAD_REACTORS
330
2A
102
}
330
2A
100
AcDbVisualStyle
  2
GouraudWithEdges
 70
     3
177
     2
291
     1
 71
     2
176
     1
 72
     2
176
     1
 73
     1
176
     1
 90
        2
176
     1
 40
-0.6
176
     1
 41
30.0
176
     1
 62
     5
 63
     7
421
 16777215
176
     1
 74
     1
176
     1
 91
        4
176
     1
 64
     7
176
     1
 65
   257
176
     1
 75
     1
176
     1
175
     1
176
     1
 42
1.0
176
     1
 92
        0
176
     1
 66
   257
176
     1
 43
1.0
176
     1
 76
     1
176
     1
 77
     6
176
     1
 78
     2
176
     1
 67
     7
176
     1
 79
     5
176
     1
170
     0
176
     1
171
     0
176
     1
290
     0
176
     1
 93
       13
176
     1
 44
0.0
176
     1
173
     0
176
     1
  0
VISUALSTYLE
  5
38
102
{ACAD_REACTORS
330
2A
102
}
330
2A
100
AcDbVisualStyle
  2
Linepattern
 70
    14
177
     2
291
     1
 71
     2
176
     1
 72
     2
176
     1
 73
     0
176
     1
 90
        0
176
     1
 40
-0.6
176
     1
 41
-30.0
176
     1
 62
     5
 63
     7
421
 16777215
176
     1
 74
     1
176
     1
 91
        4
176
     1
 64
     7
176
     1
 65
   257
176
     1
 75
     7
176
     1
175
     7
176
     1
 42
1.0
176
     1
 92
        8
176
     1
 66
     7
176
     1
 43
1.0
176
     1
 76
     1
176
     1
 77
     6
176
     1
 78
     2
176
     1
 67
     7
176
     1
 79
     5
176
     1
170
     0
176
     1
171
     0
176
     1
290
     0
176
     1
 93
        1
176
     1
 44
0.0
176
     1
173
     0
176
     1
  0
VISUALSTYLE
  5
33
102
{ACAD_REACTORS
330
2A
102
}
330
2A
100
AcDbVisualStyle
  2
Realistic
 70
     8
177
     2
291
     0
 71
     2
176
     1
 72
     2
176
     1
 73
     0
176
     1
 90
        0
176
     1
 40
-0.6
176
     1
 41
-30.0
176
     1
 62
     5
 63
     7
421
 16777215
176
     1
 74
     1
176
     1
 91
        0
176
     1
 64
     7
176
     1
 65
   257
176
     1
 75
     1
176
     1
175
     1
176
     1
 42
1.0
176
     1
 92
        8
176
     1
 66
     8
424
  7895160
176
     1
 43
1.0
176
     1
 76
     1
176
     1
 77
     6
176
     1
 78
     2
176
     1
 67
     7
176
     1
 79
     5
176
     1
170
     0
176
     1
171
     0
176
     1
290
     0
176
     1
 93
       13
176
     1
 44
0.0
176
     1
173
     0
176
     1
  0
VISUALSTYLE
  5
37
102
{ACAD_REACTORS
330
2A
102
}
330
2A
100
AcDbVisualStyle
  2
Thicken
 70
    13
177
     2
291
     1
 71
     2
176
     1
 72
     2
176
     1
 73
     0
176
     1
 90
        0
176
     1
 40
-0.6
176
     1
 41
-30.0
176
     1
 62
     5
 63
     7
421
 16777215
176
     1
 74
     1
176
     1
 91
        4
176
     1
 64
     7
176
     1
 65
   257
176
     1
 75
     1
176
     1
175
     1
176
     1
 42
1.0
176
     1
 92
       12
176
     1
 66
     7
176
     1
 43
1.0
176
     1
 76
     1
176
     1
 77
     6
176
     1
 78
     2
176
     1
 67
     7
176
     1
 79
     5
176
     1
170
     0
176
     1
171
     0
176
     1
290
     0
176
     1
 93
        1
176
     1
 44
0.0
176
     1
173
     0
176
     1
  0
ENDSEC
  0
EOF
