  0
SECTION
  2
HEADER
  9
$ACADVER
  1
AC1024
  9
$ACADMAINTVER
 70
     6
  9
$DWGCODEPAGE
  3
UNDEFINED
  9
$INSBASE
 10
0.0
 20
0.0
 30
0.0
  9
$EXTMIN
 10
1.000000000000000E+20
 20
1.000000000000000E+20
 30
1.000000000000000E+20
  9
$EXTMAX
 10
-1.000000000000000E+20
 20
-1.000000000000000E+20
 30
-1.000000000000000E+20
  9
$LIMMIN
 10
0.0
 20
0.0
  9
$LIMMAX
 10
12.0
 20
9.0
  9
$ORTHOMODE
 70
     0
  9
$REGENMODE
 70
     1
  9
$FILLMODE
 70
     1
  9
$QTEXTMODE
 70
     0
  9
$MIRRTEXT
 70
     1
  9
$LTSCALE
 40
1.0
  9
$ATTMODE
 70
     1
  9
$TEXTSIZE
 40
0.2
  9
$TRACEWID
 40
0.05
  9
$TEXTSTYLE
  7
Standard
  9
$CLAYER
  8
0
  9
$CELTYPE
  6
ByLayer
  9
$CECOLOR
 62
   256
  9
$CELTSCALE
 40
1.0
  9
$DISPSILH
 70
     0
  9
$DIMSCALE
 40
1.0
  9
$DIMASZ
 40
0.18
  9
$DIMEXO
 40
0.0625
  9
$DIMDLI
 40
0.38
  9
$DIMRND
 40
0.0
  9
$DIMDLE
 40
0.0
  9
$DIMEXE
 40
0.18
  9
$DIMTP
 40
0.0
  9
$DIMTM
 40
0.0
  9
$DIMTXT
 40
0.18
  9
$DIMCEN
 40
0.09
  9
$DIMTSZ
 40
0.0
  9
$DIMTOL
 70
     0
  9
$DIMLIM
 70
     0
  9
$DIMTIH
 70
     1
  9
$DIMTOH
 70
     1
  9
$DIMSE1
 70
     0
  9
$DIMSE2
 70
     0
  9
$DIMTAD
 70
     0
  9
$DIMZIN
 70
     0
  9
$DIMBLK
  1

  9
$DIMASO
 70
     1
  9
$DIMSHO
 70
     1
  9
$DIMPOST
  1

  9
$DIMAPOST
  1

  9
$DIMALT
 70
     0
  9
$DIMALTD
 70
     2
  9
$DIMALTF
 40
25.4
  9
$DIMLFAC
 40
1.0
  9
$DIMTOFL
 70
     0
  9
$DIMTVP
 40
0.0
  9
$DIMTIX
 70
     0
  9
$DIMSOXD
 70
     0
  9
$DIMSAH
 70
     0
  9
$DIMBLK1
  1

  9
$DIMBLK2
  1

  9
$DIMSTYLE
  2
Standard
  9
$DIMCLRD
 70
     0
  9
$DIMCLRE
 70
     0
  9
$DIMCLRT
 70
     0
  9
$DIMTFAC
 40
1.0
  9
$DIMGAP
 40
0.09
  9
$DIMJUST
 70
     0
  9
$DIMSD1
 70
     0
  9
$DIMSD2
 70
     0
  9
$DIMTOLJ
 70
     1
  9
$DIMTZIN
 70
     0
  9
$DIMALTZ
 70
     0
  9
$DIMALTTZ
 70
     0
  9
$DIMUPT
 70
     0
  9
$DIMDEC
 70
     4
  9
$DIMTDEC
 70
     4
  9
$DIMALTU
 70
     2
  9
$DIMALTTD
 70
     2
  9
$DIMTXSTY
  7
Standard
  9
$DIMAUNIT
 70
     0
  9
$DIMADEC
 70
     0
  9
$DIMALTRND
 40
0.0
  9
$DIMAZIN
 70
     0
  9
$DIMDSEP
 70
    46
  9
$DIMATFIT
 70
     3
  9
$DIMFRAC
 70
     0
  9
$DIMLDRBLK
  1

  9
$DIMLUNIT
 70
     2
  9
$DIMLWD
 70
    -2
  9
$DIMLWE
 70
    -2
  9
$DIMTMOVE
 70
     0
  9
$DIMFXL
 40
1.0
  9
$DIMFXLON
 70
     0
  9
$DIMJOGANG
 40
0.7853981633974483
  9
$DIMTFILL
 70
     0
  9
$DIMTFILLCLR
 70
     0
  9
$DIMARCSYM
 70
     0
  9
$DIMLTYPE
  6

  9
$DIMLTEX1
  6

  9
$DIMLTEX2
  6

  9
$DIMTXTDIRECTION
 70
     0
  9
$LUNITS
 70
     2
  9
$LUPREC
 70
     4
  9
$SKETCHINC
 40
0.1
  9
$FILLETRAD
 40
0.5
  9
$AUNITS
 70
     0
  9
$AUPREC
 70
     0
  9
$MENU
  1
.
  9
$ELEVATION
 40
0.0
  9
$PELEVATION
 40
0.0
  9
$THICKNESS
 40
0.0
  9
$LIMCHECK
 70
     0
  9
$CHAMFERA
 40
0.5
  9
$CHAMFERB
 40
0.5
  9
$CHAMFERC
 40
1.0
  9
$CHAMFERD
 40
0.0
  9
$SKPOLY
 70
     0
  9
$TDCREATE
 40
2457917.621342581
  9
$TDUCREATE
 40
2457917.246342592
  9
$TDUPDATE
 40
2457917.621342581
  9
$TDUUPDATE
 40
2457917.246342592
  9
$TDINDWG
 40
0.0000000116
  9
$TDUSRTIMER
 40
0.0000000116
  9
$USRTIMER
 70
     1
  9
$ANGBASE
 50
0.0
  9
$ANGDIR
 70
     0
  9
$PDMODE
 70
     0
  9
$PDSIZE
 40
0.0
  9
$PLINEWID
 40
0.0
  9
$SPLFRAME
 70
     0
  9
$SPLINETYPE
 70
     6
  9
$SPLINESEGS
 70
     8
  9
$HANDSEED
  5
C2
  9
$SURFTAB1
 70
     6
  9
$SURFTAB2
 70
     6
  9
$SURFTYPE
 70
     6
  9
$SURFU
 70
     6
  9
$SURFV
 70
     6
  9
$UCSBASE
  2

  9
$UCSNAME
  2

  9
$UCSORG
 10
0.0
 20
0.0
 30
0.0
  9
$UCSXDIR
 10
1.0
 20
0.0
 30
0.0
  9
$UCSYDIR
 10
0.0
 20
1.0
 30
0.0
  9
$UCSORTHOREF
  2

  9
$UCSORTHOVIEW
 70
     0
  9
$UCSORGTOP
 10
0.0
 20
0.0
 30
0.0
  9
$UCSORGBOTTOM
 10
0.0
 20
0.0
 30
0.0
  9
$UCSORGLEFT
 10
0.0
 20
0.0
 30
0.0
  9
$UCSORGRIGHT
 10
0.0
 20
0.0
 30
0.0
  9
$UCSORGFRONT
 10
0.0
 20
0.0
 30
0.0
  9
$UCSORGBACK
 10
0.0
 20
0.0
 30
0.0
  9
$PUCSBASE
  2

  9
$PUCSNAME
  2

  9
$PUCSORG
 10
0.0
 20
0.0
 30
0.0
  9
$PUCSXDIR
 10
1.0
 20
0.0
 30
0.0
  9
$PUCSYDIR
 10
0.0
 20
1.0
 30
0.0
  9
$PUCSORTHOREF
  2

  9
$PUCSORTHOVIEW
 70
     0
  9
$PUCSORGTOP
 10
0.0
 20
0.0
 30
0.0
  9
$PUCSORGBOTTOM
 10
0.0
 20
0.0
 30
0.0
  9
$PUCSORGLEFT
 10
0.0
 20
0.0
 30
0.0
  9
$PUCSORGRIGHT
 10
0.0
 20
0.0
 30
0.0
  9
$PUCSORGFRONT
 10
0.0
 20
0.0
 30
0.0
  9
$PUCSORGBACK
 10
0.0
 20
0.0
 30
0.0
  9
$USERI1
 70
     0
  9
$USERI2
 70
     0
  9
$USERI3
 70
     0
  9
$USERI4
 70
     0
  9
$USERI5
 70
     0
  9
$USERR1
 40
0.0
  9
$USERR2
 40
0.0
  9
$USERR3
 40
0.0
  9
$USERR4
 40
0.0
  9
$USERR5
 40
0.0
  9
$WORLDVIEW
 70
     1
  9
$SHADEDGE
 70
     3
  9
$SHADEDIF
 70
    70
  9
$TILEMODE
 70
     1
  9
$MAXACTVP
 70
    64
  9
$PINSBASE
 10
0.0
 20
0.0
 30
0.0
  9
$PLIMCHECK
 70
     0
  9
$PEXTMIN
 10
1.000000000000000E+20
 20
1.000000000000000E+20
 30
1.000000000000000E+20
  9
$PEXTMAX
 10
-1.000000000000000E+20
 20
-1.000000000000000E+20
 30
-1.000000000000000E+20
  9
$PLIMMIN
 10
0.0
 20
0.0
  9
$PLIMMAX
 10
12.0
 20
9.0
  9
$UNITMODE
 70
     0
  9
$VISRETAIN
 70
     1
  9
$PLINEGEN
 70
     0
  9
$PSLTSCALE
 70
     1
  9
$TREEDEPTH
 70
  3020
  9
$CMLSTYLE
  2
Standard
  9
$CMLJUST
 70
     0
  9
$CMLSCALE
 40
1.0
  9
$PROXYGRAPHICS
 70
     1
  9
$MEASUREMENT
 70
     0
  9
$CELWEIGHT
370
    -1
  9
$ENDCAPS
280
     0
  9
$JOINSTYLE
280
     0
  9
$LWDISPLAY
290
     1
  9
$INSUNITS
 70
     1
  9
$HYPERLINKBASE
  1

  9
$STYLESHEET
  1

  9
$XEDIT
290
     1
  9
$CEPSNTYPE
380
     0
  9
$PSTYLEMODE
290
     1
  9
$FINGERPRINTGUID
  2
{732740C9-03AC-C6F0-9723-FC0F54B77836}
  9
$VERSIONGUID
  2
{FAEB1C32-E019-11D5-929B-00C0DF256EC4}
  9
$EXTNAMES
290
     1
  9
$PSVPSCALE
 40
0.0
  9
$OLESTARTUP
290
     0
  9
$SORTENTS
280
   127
  9
$INDEXCTL
280
     0
  9
$HIDETEXT
280
     1
  9
$XCLIPFRAME
280
     2
  9
$HALOGAP
280
     0
  9
$OBSCOLOR
 70
   257
  9
$OBSLTYPE
280
     0
  9
$INTERSECTIONDISPLAY
280
     0
  9
$INTERSECTIONCOLOR
 70
   257
  9
$DIMASSOC
280
     2
  9
$PROJECTNAME
  1

  9
$CAMERADISPLAY
290
     0
  9
$LENSLENGTH
 40
50.0
  9
$CAMERAHEIGHT
 40
0.0
  9
$STEPSPERSEC
 40
2.0
  9
$STEPSIZE
 40
6.0
  9
$3DDWFPREC
 40
2.0
  9
$PSOLWIDTH
 40
0.25
  9
$PSOLHEIGHT
 40
4.0
  9
$LOFTANG1
 40
1.570796326794897
  9
$LOFTANG2
 40
1.570796326794897
  9
$LOFTMAG1
 40
0.0
  9
$LOFTMAG2
 40
0.0
  9
$LOFTPARAM
 70
     7
  9
$LOFTNORMALS
280
     1
  9
$LATITUDE
 40
37.795
  9
$LONGITUDE
 40
-122.394
  9
$NORTHDIRECTION
 40
0.0
  9
$TIMEZONE
 70
 -8000
  9
$LIGHTGLYPHDISPLAY
280
     1
  9
$TILEMODELIGHTSYNCH
280
     1
  9
$CMATERIAL
347
3C
  9
$SOLIDHIST
280
     1
  9
$SHOWHIST
280
     1
  9
$DWFFRAME
280
     2
  9
$DGNFRAME
280
     2
  9
$REALWORLDSCALE
290
     1
  9
$INTERFERECOLOR
 62
   256
  9
$CSHADOW
280
     0
  9
$SHADOWPLANELOCATION
 40
0.0
  0
ENDSEC
  0
SECTION
  2
CLASSES
  0
CLASS
  1
ACDBDICTIONARYWDFLT
  2
AcDbDictionaryWithDefault
  3
ObjectDBX Classes
 90
        0
 91
        4
280
     0
281
     0
  0
CLASS
  1
VISUALSTYLE
  2
AcDbVisualStyle
  3
ObjectDBX Classes
 90
     4095
 91
        4
280
     0
281
     0
  0
CLASS
  1
MATERIAL
  2
AcDbMaterial
  3
ObjectDBX Classes
 90
     1153
 91
        4
280
     0
281
     0
  0
CLASS
  1
SUN
  2
AcDbSun
  3
SCENEOE
 90
     1024
 91
        4
280
     0
281
     0
  0
ENDSEC
  0
SECTION
  2
TABLES
  0
TABLE
  2
VPORT
  5
8
330
0
100
AcDbSymbolTable
 70
     1
  0
VPORT
  5
29
330
8
100
AcDbSymbolTableRecord
100
AcDbViewportTableRecord
  2
*Active
 70
     0
 10
0.0
 20
0.0
 11
1.0
 21
1.0
 12
0.0
 22
0.0
 13
0.0
 23
0.0
 14
0.5
 24
0.5
 15
0.5
 25
0.5
 16
0.0
 26
0.0
 36
1.0
 17
91.00082462281999
 27
-128.4993055234307
 37
0.0
 40
256.9986110468615
 41
0.7081814508812795
 42
50.0
 43
0.0
 44
0.0
 50
0.0
 51
0.0
 71
     0
 72
   100
 73
     1
 74
     3
 75
     0
 76
     0
 77
     0
 78
     0
281
     0
 65
     1
110
0.0
120
0.0
130
0.0
111
1.0
121
0.0
131
0.0
112
0.0
122
1.0
132
0.0
 79
     0
146
0.0
 60
     3
 61
     5
292
     1
282
     1
141
0.0
142
0.0
 63
   250
361
3F
  0
ENDTAB
  0
TABLE
  2
LTYPE
  5
5
330
0
100
AcDbSymbolTable
 70
     1
  0
LTYPE
  5
14
330
5
100
AcDbSymbolTableRecord
100
AcDbLinetypeTableRecord
  2
ByBlock
 70
     0
  3

 72
    65
 73
     0
 40
0.0
  0
LTYPE
  5
15
330
5
100
AcDbSymbolTableRecord
100
AcDbLinetypeTableRecord
  2
ByLayer
 70
     0
  3

 72
    65
 73
     0
 40
0.0
  0
LTYPE
  5
16
330
5
100
AcDbSymbolTableRecord
100
AcDbLinetypeTableRecord
  2
Continuous
 70
     0
  3
Solid line
 72
    65
 73
     0
 40
0.0
  0
ENDTAB
  0
TABLE
  2
LAYER
  5
2
330
0
100
AcDbSymbolTable
 70
     2
  0
LAYER
  5
10
330
2
100
AcDbSymbolTableRecord
100
AcDbLayerTableRecord
  2
0
 70
     0
 62
     7
  6
Continuous
370
    -3
390
F
347
3E
  0
LAYER
  5
40
330
2
100
AcDbSymbolTableRecord
100
AcDbLayerTableRecord
  2
_U+30EC_U+30A4_U+30E4_U+30FC 1
 70
     0
 62
     7
  6
Continuous
370
    -3
390
F
347
3E
  0
ENDTAB
  0
TABLE
  2
STYLE
  5
3
330
0
100
AcDbSymbolTable
 70
     1
  0
STYLE
  5
11
330
3
100
AcDbSymbolTableRecord
100
AcDbTextStyleTableRecord
  2
Standard
 70
     0
 40
0.0
 41
1.0
 50
0.0
 71
     0
 42
0.2
  3
txt
  4

  0
ENDTAB
  0
TABLE
  2
VIEW
  5
6
330
0
100
AcDbSymbolTable
 70
     0
  0
ENDTAB
  0
TABLE
  2
UCS
  5
7
330
0
100
AcDbSymbolTable
 70
     0
  0
ENDTAB
  0
TABLE
  2
APPID
  5
9
330
0
100
AcDbSymbolTable
 70
     1
  0
APPID
  5
12
330
9
100
AcDbSymbolTableRecord
100
AcDbRegAppTableRecord
  2
ACAD
 70
     0
  0
ENDTAB
  0
TABLE
  2
DIMSTYLE
  5
A
330
0
100
AcDbSymbolTable
 70
     1
100
AcDbDimStyleTable
  0
DIMSTYLE
105
27
330
A
100
AcDbSymbolTableRecord
100
AcDbDimStyleTableRecord
  2
Standard
 70
     0
178
     0
340
11
  0
ENDTAB
  0
TABLE
  2
BLOCK_RECORD
  5
1
330
0
100
AcDbSymbolTable
 70
     4
  0
BLOCK_RECORD
  5
1F
330
1
100
AcDbSymbolTableRecord
100
AcDbBlockTableRecord
  2
*Model_Space
340
22
 70
     0
280
     1
281
     0
  0
BLOCK_RECORD
  5
1B
330
1
100
AcDbSymbolTableRecord
100
AcDbBlockTableRecord
  2
*Paper_Space
340
1E
 70
     0
280
     1
281
     0
  0
BLOCK_RECORD
  5
23
330
1
100
AcDbSymbolTableRecord
100
AcDbBlockTableRecord
  2
*Paper_Space0
340
26
 70
     0
280
     1
281
     0
  0
BLOCK_RECORD
  5
7D
330
1
100
AcDbSymbolTableRecord
100
AcDbBlockTableRecord
  2
block 2
340
0
102
{BLKREFS
331
7E
102
}
 70
     0
280
     1
281
     0
  0
BLOCK_RECORD
  5
95
330
1
100
AcDbSymbolTableRecord
100
AcDbBlockTableRecord
  2
block 3
340
0
102
{BLKREFS
331
96
102
}
 70
     0
280
     1
281
     0
  0
BLOCK_RECORD
  5
AD
330
1
100
AcDbSymbolTableRecord
100
AcDbBlockTableRecord
  2
block 4
340
0
102
{BLKREFS
331
AE
102
}
 70
     0
280
     1
281
     0
  0
ENDTAB
  0
ENDSEC
  0
SECTION
  2
BLOCKS
  0
BLOCK
  5
20
330
1F
100
AcDbEntity
  8
0
100
AcDbBlockBegin
  2
*Model_Space
 70
     0
 10
0.0
 20
0.0
 30
0.0
  3
*Model_Space
  1

  0
ENDBLK
  5
21
330
1F
100
AcDbEntity
  8
0
100
AcDbBlockEnd
  0
BLOCK
  5
1C
330
1B
100
AcDbEntity
 67
     1
  8
0
100
AcDbBlockBegin
  2
*Paper_Space
 70
     0
 10
0.0
 20
0.0
 30
0.0
  3
*Paper_Space
  1

  0
ENDBLK
  5
1D
330
1B
100
AcDbEntity
 67
     1
  8
0
100
AcDbBlockEnd
  0
BLOCK
  5
24
330
23
100
AcDbEntity
  8
0
100
AcDbBlockBegin
  2
*Paper_Space0
 70
     0
 10
0.0
 20
0.0
 30
0.0
  3
*Paper_Space0
  1

  0
ENDBLK
  5
25
330
23
100
AcDbEntity
  8
0
100
AcDbBlockEnd
  0
BLOCK
  5
7F
330
7D
100
AcDbEntity
  8
0
100
AcDbBlockBegin
  2
block 2
 70
     0
 10
0.0
 20
0.0
 30
0.0
  3
block 2
  1

  0
SPLINE
  5
81
330
7D
100
AcDbEntity
  8
_U+30EC_U+30A4_U+30E4_U+30FC 1
370
     0
100
AcDbSpline
210
0.0
220
0.0
230
1.0
 70
    11
 71
     3
 72
    26
 73
    22
 74
     0
 42
0.0000000001
 43
0.0000000001
 12
1.0
 22
0.0
 32
0.0
 13
1.0
 23
0.0
 33
0.0
 40
0.0
 40
0.0
 40
0.0
 40
0.0
 40
1.0
 40
1.0
 40
1.0
 40
2.0
 40
2.0
 40
2.0
 40
3.0
 40
3.0
 40
3.0
 40
4.0
 40
4.0
 40
4.0
 40
5.0
 40
5.0
 40
5.0
 40
6.0
 40
6.0
 40
6.0
 40
7.0
 40
7.0
 40
7.0
 40
7.0
 10
89.84430065028198
 20
-133.9208522885684
 30
0.0
 10
89.84430065028198
 20
-133.9208522885684
 30
0.0
 10
89.84430065028198
 20
-132.8163546759973
 30
0.0
 10
89.84430065028198
 20
-132.8163546759973
 30
0.0
 10
89.84430065028198
 20
-132.8163546759973
 30
0.0
 10
89.51426050279505
 20
-132.8163546759973
 30
0.0
 10
89.51426050279505
 20
-132.8163546759973
 30
0.0
 10
89.51426050279505
 20
-132.8163546759973
 30
0.0
 10
89.51426050279505
 20
-132.6682155701316
 30
0.0
 10
89.51426050279505
 20
-132.6682155701316
 30
0.0
 10
89.84636770757314
 20
-132.653401659545
 30
0.0
 10
89.89304875139827
 20
-132.4907931526412
 30
0.0
 10
89.92250431779716
 20
-132.3764159825309
 30
0.0
 10
89.92250431779716
 20
-132.3764159825309
 30
0.0
 10
90.06857636637174
 20
-132.3764159825309
 30
0.0
 10
90.06857636637174
 20
-132.3764159825309
 30
0.0
 10
90.06857636637174
 20
-132.3764159825309
 30
0.0
 10
90.06857636637174
 20
-133.9208522885684
 30
0.0
 10
90.06857636637174
 20
-133.9208522885684
 30
0.0
 10
90.06857636637174
 20
-133.9208522885684
 30
0.0
 10
89.84430065028198
 20
-133.9208522885684
 30
0.0
 10
89.84430065028198
 20
-133.9208522885684
 30
0.0
  0
HATCH
  5
82
330
7D
100
AcDbEntity
  8
_U+30EC_U+30A4_U+30E4_U+30FC 1
 62
   179
420
  2234388
100
AcDbHatch
 10
0.0
 20
0.0
 30
0.0
210
0.0
220
0.0
230
1.0
  2
SOLID
 70
     1
 71
     0
 91
        1
 92
        1
 93
        1
 72
     4
 94
        3
 73
     0
 74
     1
 95
       26
 96
       22
 40
0.0
 40
0.0
 40
0.0
 40
0.0
 40
1.0
 40
1.0
 40
1.0
 40
2.0
 40
2.0
 40
2.0
 40
3.0
 40
3.0
 40
3.0
 40
4.0
 40
4.0
 40
4.0
 40
5.0
 40
5.0
 40
5.0
 40
6.0
 40
6.0
 40
6.0
 40
7.0
 40
7.0
 40
7.0
 40
7.0
 10
89.84430065028198
 20
-133.9208522885684
 10
89.84430065028198
 20
-133.9208522885684
 10
89.84430065028198
 20
-132.8163546759973
 10
89.84430065028198
 20
-132.8163546759973
 10
89.84430065028198
 20
-132.8163546759973
 10
89.51426050279505
 20
-132.8163546759973
 10
89.51426050279505
 20
-132.8163546759973
 10
89.51426050279505
 20
-132.8163546759973
 10
89.51426050279505
 20
-132.6682155701316
 10
89.51426050279505
 20
-132.6682155701316
 10
89.84636770757314
 20
-132.653401659545
 10
89.89304875139827
 20
-132.4907931526412
 10
89.92250431779716
 20
-132.3764159825309
 10
89.92250431779716
 20
-132.3764159825309
 10
90.06857636637174
 20
-132.3764159825309
 10
90.06857636637174
 20
-132.3764159825309
 10
90.06857636637174
 20
-132.3764159825309
 10
90.06857636637174
 20
-133.9208522885684
 10
90.06857636637174
 20
-133.9208522885684
 10
90.06857636637174
 20
-133.9208522885684
 10
89.84430065028198
 20
-133.9208522885684
 10
89.84430065028198
 20
-133.9208522885684
 97
        0
 97
        0
 75
     2
 76
     1
 98
        0
  0
SPLINE
  5
83
330
7D
100
AcDbEntity
  8
_U+30EC_U+30A4_U+30E4_U+30FC 1
370
     0
100
AcDbSpline
210
0.0
220
0.0
230
1.0
 70
    11
 71
     3
 72
    29
 73
    25
 74
     0
 42
0.0000000001
 43
0.0000000001
 12
1.0
 22
0.0
 32
0.0
 13
1.0
 23
0.0
 33
0.0
 40
0.0
 40
0.0
 40
0.0
 40
0.0
 40
1.0
 40
1.0
 40
1.0
 40
2.0
 40
2.0
 40
2.0
 40
3.0
 40
3.0
 40
3.0
 40
4.0
 40
4.0
 40
4.0
 40
5.0
 40
5.0
 40
5.0
 40
6.0
 40
6.0
 40
6.0
 40
7.0
 40
7.0
 40
7.0
 40
8.0
 40
8.0
 40
8.0
 40
8.0
 10
91.46762964293171
 20
-133.7430853615295
 30
0.0
 10
91.35962589946912
 20
-133.9525471670327
 30
0.0
 10
91.18616534178679
 20
-133.9714951922016
 30
0.0
 10
91.06989336915962
 20
-133.9714951922016
 30
0.0
 10
90.90900740999845
 20
-133.9714951922016
 30
0.0
 10
90.76724173078041
 20
-133.9249864031507
 30
0.0
 10
90.67215709538752
 20
-133.7430853615295
 30
0.0
 10
90.5684597212815
 20
-133.5484374666129
 30
0.0
 10
90.54951169611263
 20
-133.3114148972277
 30
0.0
 10
90.54951169611263
 20
-133.1484618807754
 30
0.0
 10
90.54951169611263
 20
-133.0048013990405
 30
0.0
 10
90.56639266399036
 20
-132.7529649190687
 30
0.0
 10
90.67215709538752
 20
-132.5541829095698
 30
0.0
 10
90.77998858407584
 20
-132.3509222759401
 30
0.0
 10
90.940874543237
 20
-132.3278401361889
 30
0.0
 10
91.06989336915962
 20
-132.3278401361889
 30
0.0
 10
91.22854001625537
 20
-132.3278401361889
 30
0.0
 10
91.37220049799029
 20
-132.3722818679486
 30
0.0
 10
91.46762964293171
 20
-132.5541829095698
 30
0.0
 10
91.5668483929069
 20
-132.7467637471952
 30
0.0
 10
91.5902750422066
 20
-132.9751735778673
 30
0.0
 10
91.5902750422066
 20
-133.1484618807754
 30
0.0
 10
91.5902750422066
 20
-133.3200276359408
 30
0.0
 10
91.56925995974657
 20
-133.550504523904
 30
0.0
 10
91.46762964293171
 20
-133.7430853615295
 30
0.0
  0
SPLINE
  5
84
330
7D
100
AcDbEntity
  8
_U+30EC_U+30A4_U+30E4_U+30FC 1
370
     0
100
AcDbSpline
210
0.0
220
0.0
230
1.0
 70
    11
 71
     3
 72
    17
 73
    13
 74
     0
 42
0.0000000001
 43
0.0000000001
 12
1.0
 22
0.0
 32
0.0
 13
1.0
 23
0.0
 33
0.0
 40
0.0
 40
0.0
 40
0.0
 40
0.0
 40
1.0
 40
1.0
 40
1.0
 40
2.0
 40
2.0
 40
2.0
 40
3.0
 40
3.0
 40
3.0
 40
4.0
 40
4.0
 40
4.0
 40
4.0
 10
91.06989336915962
 20
-132.5204209738143
 30
0.0
 10
90.82029620125326
 20
-132.5204209738143
 30
0.0
 10
90.77361515742813
 20
-132.8036078227019
 30
0.0
 10
90.77361515742813
 20
-133.1484618807754
 30
0.0
 10
90.77361515742813
 20
-133.467822232258
 30
0.0
 10
90.80961640524899
 20
-133.776847297285
 30
0.0
 10
91.06989336915962
 20
-133.776847297285
 30
0.0
 10
91.31742347977482
 20
-133.776847297285
 30
0.0
 10
91.36599932611684
 20
-133.4953829961401
 30
0.0
 10
91.36599932611684
 20
-133.1484618807754
 30
0.0
 10
91.36599932611684
 20
-132.8291015292927
 30
0.0
 10
91.32793102100483
 20
-132.5204209738143
 30
0.0
 10
91.06989336915962
 20
-132.5204209738143
 30
0.0
  0
HATCH
  5
85
330
7D
100
AcDbEntity
  8
_U+30EC_U+30A4_U+30E4_U+30FC 1
 62
   179
420
  2234388
100
AcDbHatch
 10
0.0
 20
0.0
 30
0.0
210
0.0
220
0.0
230
1.0
  2
SOLID
 70
     1
 71
     0
 91
        2
 92
        1
 93
        1
 72
     4
 94
        3
 73
     0
 74
     1
 95
       29
 96
       25
 40
0.0
 40
0.0
 40
0.0
 40
0.0
 40
1.0
 40
1.0
 40
1.0
 40
2.0
 40
2.0
 40
2.0
 40
3.0
 40
3.0
 40
3.0
 40
4.0
 40
4.0
 40
4.0
 40
5.0
 40
5.0
 40
5.0
 40
6.0
 40
6.0
 40
6.0
 40
7.0
 40
7.0
 40
7.0
 40
8.0
 40
8.0
 40
8.0
 40
8.0
 10
91.46762964293171
 20
-133.7430853615295
 10
91.35962589946912
 20
-133.9525471670327
 10
91.18616534178679
 20
-133.9714951922016
 10
91.06989336915962
 20
-133.9714951922016
 10
90.90900740999845
 20
-133.9714951922016
 10
90.76724173078041
 20
-133.9249864031507
 10
90.67215709538752
 20
-133.7430853615295
 10
90.5684597212815
 20
-133.5484374666129
 10
90.54951169611263
 20
-133.3114148972277
 10
90.54951169611263
 20
-133.1484618807754
 10
90.54951169611263
 20
-133.0048013990405
 10
90.56639266399036
 20
-132.7529649190687
 10
90.67215709538752
 20
-132.5541829095698
 10
90.77998858407584
 20
-132.3509222759401
 10
90.940874543237
 20
-132.3278401361889
 10
91.06989336915962
 20
-132.3278401361889
 10
91.22854001625537
 20
-132.3278401361889
 10
91.37220049799029
 20
-132.3722818679486
 10
91.46762964293171
 20
-132.5541829095698
 10
91.5668483929069
 20
-132.7467637471952
 10
91.5902750422066
 20
-132.9751735778673
 10
91.5902750422066
 20
-133.1484618807754
 10
91.5902750422066
 20
-133.3200276359408
 10
91.56925995974657
 20
-133.550504523904
 10
91.46762964293171
 20
-133.7430853615295
 97
        0
 97
        0
 92
        1
 93
        1
 72
     4
 94
        3
 73
     0
 74
     1
 95
       17
 96
       13
 40
0.0
 40
0.0
 40
0.0
 40
0.0
 40
1.0
 40
1.0
 40
1.0
 40
2.0
 40
2.0
 40
2.0
 40
3.0
 40
3.0
 40
3.0
 40
4.0
 40
4.0
 40
4.0
 40
4.0
 10
91.06989336915962
 20
-132.5204209738143
 10
90.82029620125326
 20
-132.5204209738143
 10
90.77361515742813
 20
-132.8036078227019
 10
90.77361515742813
 20
-133.1484618807754
 10
90.77361515742813
 20
-133.467822232258
 10
90.80961640524899
 20
-133.776847297285
 10
91.06989336915962
 20
-133.776847297285
 10
91.31742347977482
 20
-133.776847297285
 10
91.36599932611684
 20
-133.4953829961401
 10
91.36599932611684
 20
-133.1484618807754
 10
91.36599932611684
 20
-132.8291015292927
 10
91.32793102100483
 20
-132.5204209738143
 10
91.06989336915962
 20
-132.5204209738143
 97
        0
 97
        0
 75
     2
 76
     1
 98
        0
  0
ENDBLK
  5
80
330
7D
100
AcDbEntity
  8
0
100
AcDbBlockEnd
  0
BLOCK
  5
97
330
95
100
AcDbEntity
  8
0
100
AcDbBlockBegin
  2
block 3
 70
     0
 10
0.0
 20
0.0
 30
0.0
  3
block 3
  1

  0
SPLINE
  5
99
330
95
100
AcDbEntity
  8
_U+30EC_U+30A4_U+30E4_U+30FC 1
370
     0
100
AcDbSpline
210
0.0
220
0.0
230
1.0
 70
    11
 71
     3
 72
    26
 73
    22
 74
     0
 42
0.0000000001
 43
0.0000000001
 12
1.0
 22
0.0
 32
0.0
 13
1.0
 23
0.0
 33
0.0
 40
0.0
 40
0.0
 40
0.0
 40
0.0
 40
1.0
 40
1.0
 40
1.0
 40
2.0
 40
2.0
 40
2.0
 40
3.0
 40
3.0
 40
3.0
 40
4.0
 40
4.0
 40
4.0
 40
5.0
 40
5.0
 40
5.0
 40
6.0
 40
6.0
 40
6.0
 40
7.0
 40
7.0
 40
7.0
 40
7.0
 10
81.1089165378825
 20
-125.9306423296285
 30
0.0
 10
81.1089165378825
 20
-125.9306423296285
 30
0.0
 10
80.00459118008565
 20
-125.9306423296285
 30
0.0
 10
80.00459118008565
 20
-125.9306423296285
 30
0.0
 10
80.00459118008565
 20
-125.9306423296285
 30
0.0
 10
80.00459118008565
 20
-126.2606824771154
 30
0.0
 10
80.00459118008565
 20
-126.2606824771154
 30
0.0
 10
80.00459118008565
 20
-126.2606824771154
 30
0.0
 10
79.85662432899419
 20
-126.2606824771154
 30
0.0
 10
79.85662432899419
 20
-126.2606824771154
 30
0.0
 10
79.8418104184076
 20
-125.9285752723373
 30
0.0
 10
79.67885740195528
 20
-125.8820664832864
 30
0.0
 10
79.56465248661925
 20
-125.8524386621133
 30
0.0
 10
79.56465248661925
 20
-125.8524386621133
 30
0.0
 10
79.56465248661925
 20
-125.7063666135387
 30
0.0
 10
79.56465248661925
 20
-125.7063666135387
 30
0.0
 10
79.56465248661925
 20
-125.7063666135387
 30
0.0
 10
81.1089165378825
 20
-125.7063666135387
 30
0.0
 10
81.1089165378825
 20
-125.7063666135387
 30
0.0
 10
81.1089165378825
 20
-125.7063666135387
 30
0.0
 10
81.1089165378825
 20
-125.9306423296285
 30
0.0
 10
81.1089165378825
 20
-125.9306423296285
 30
0.0
  0
HATCH
  5
9A
330
95
100
AcDbEntity
  8
_U+30EC_U+30A4_U+30E4_U+30FC 1
 62
   179
420
  2234388
100
AcDbHatch
 10
0.0
 20
0.0
 30
0.0
210
0.0
220
0.0
230
1.0
  2
SOLID
 70
     1
 71
     0
 91
        1
 92
        1
 93
        1
 72
     4
 94
        3
 73
     0
 74
     1
 95
       26
 96
       22
 40
0.0
 40
0.0
 40
0.0
 40
0.0
 40
1.0
 40
1.0
 40
1.0
 40
2.0
 40
2.0
 40
2.0
 40
3.0
 40
3.0
 40
3.0
 40
4.0
 40
4.0
 40
4.0
 40
5.0
 40
5.0
 40
5.0
 40
6.0
 40
6.0
 40
6.0
 40
7.0
 40
7.0
 40
7.0
 40
7.0
 10
81.1089165378825
 20
-125.9306423296285
 10
81.1089165378825
 20
-125.9306423296285
 10
80.00459118008565
 20
-125.9306423296285
 10
80.00459118008565
 20
-125.9306423296285
 10
80.00459118008565
 20
-125.9306423296285
 10
80.00459118008565
 20
-126.2606824771154
 10
80.00459118008565
 20
-126.2606824771154
 10
80.00459118008565
 20
-126.2606824771154
 10
79.85662432899419
 20
-126.2606824771154
 10
79.85662432899419
 20
-126.2606824771154
 10
79.8418104184076
 20
-125.9285752723373
 10
79.67885740195528
 20
-125.8820664832864
 10
79.56465248661925
 20
-125.8524386621133
 10
79.56465248661925
 20
-125.8524386621133
 10
79.56465248661925
 20
-125.7063666135387
 10
79.56465248661925
 20
-125.7063666135387
 10
79.56465248661925
 20
-125.7063666135387
 10
81.1089165378825
 20
-125.7063666135387
 10
81.1089165378825
 20
-125.7063666135387
 10
81.1089165378825
 20
-125.7063666135387
 10
81.1089165378825
 20
-125.9306423296285
 10
81.1089165378825
 20
-125.9306423296285
 97
        0
 97
        0
 75
     2
 76
     1
 98
        0
  0
SPLINE
  5
9B
330
95
100
AcDbEntity
  8
_U+30EC_U+30A4_U+30E4_U+30FC 1
370
     0
100
AcDbSpline
210
0.0
220
0.0
230
1.0
 70
    11
 71
     3
 72
    29
 73
    25
 74
     0
 42
0.0000000001
 43
0.0000000001
 12
1.0
 22
0.0
 32
0.0
 13
1.0
 23
0.0
 33
0.0
 40
0.0
 40
0.0
 40
0.0
 40
0.0
 40
1.0
 40
1.0
 40
1.0
 40
2.0
 40
2.0
 40
2.0
 40
3.0
 40
3.0
 40
3.0
 40
4.0
 40
4.0
 40
4.0
 40
5.0
 40
5.0
 40
5.0
 40
6.0
 40
6.0
 40
6.0
 40
7.0
 40
7.0
 40
7.0
 40
8.0
 40
8.0
 40
8.0
 40
8.0
 10
80.93132186561787
 20
-124.3073133369787
 30
0.0
 10
81.1406114163468
 20
-124.4153170804413
 30
0.0
 10
81.15973169628994
 20
-124.5887776381236
 30
0.0
 10
81.15973169628994
 20
-124.7050496107508
 30
0.0
 10
81.15973169628994
 20
-124.865935569912
 30
0.0
 10
81.11322290723906
 20
-125.00770124913
 30
0.0
 10
80.93132186561787
 20
-125.1027858845229
 30
0.0
 10
80.73667397070125
 20
-125.2064832586289
 30
0.0
 10
80.49965140131606
 20
-125.2256035385721
 30
0.0
 10
80.33687063963801
 20
-125.2256035385721
 30
0.0
 10
80.19286564835457
 20
-125.2256035385721
 30
0.0
 10
79.94120142315707
 20
-125.2085503159201
 30
0.0
 10
79.74224715888388
 20
-125.1027858845229
 30
0.0
 10
79.53933103480267
 20
-124.9949543958346
 30
0.0
 10
79.51590438550298
 20
-124.8342406914477
 30
0.0
 10
79.51590438550298
 20
-124.7050496107508
 30
0.0
 10
79.51590438550298
 20
-124.5464029636551
 30
0.0
 10
79.5603461172627
 20
-124.4025702271459
 30
0.0
 10
79.74224715888388
 20
-124.3073133369787
 30
0.0
 10
79.93482799650936
 20
-124.2079223322293
 30
0.0
 10
80.16323782718142
 20
-124.1846679377038
 30
0.0
 10
80.33687063963801
 20
-124.1846679377038
 30
0.0
 10
80.50809188525493
 20
-124.1846679377038
 30
0.0
 10
80.7387410279924
 20
-124.2058552749381
 30
0.0
 10
80.93132186561787
 20
-124.3073133369787
 30
0.0
  0
SPLINE
  5
9C
330
95
100
AcDbEntity
  8
_U+30EC_U+30A4_U+30E4_U+30FC 1
370
     0
100
AcDbSpline
210
0.0
220
0.0
230
1.0
 70
    11
 71
     3
 72
    17
 73
    13
 74
     0
 42
0.0000000001
 43
0.0000000001
 12
1.0
 22
0.0
 32
0.0
 13
1.0
 23
0.0
 33
0.0
 40
0.0
 40
0.0
 40
0.0
 40
0.0
 40
1.0
 40
1.0
 40
1.0
 40
2.0
 40
2.0
 40
2.0
 40
3.0
 40
3.0
 40
3.0
 40
4.0
 40
4.0
 40
4.0
 40
4.0
 10
79.70848522312843
 20
-124.7050496107508
 30
0.0
 10
79.70848522312843
 20
-124.9548190334314
 30
0.0
 10
79.9920165815645
 20
-125.0013278224823
 30
0.0
 10
80.33687063963801
 20
-125.0013278224823
 30
0.0
 10
80.65623099112067
 20
-125.0013278224823
 30
0.0
 10
80.96508380137331
 20
-124.9653265746614
 30
0.0
 10
80.96508380137331
 20
-124.7050496107508
 30
0.0
 10
80.96508380137331
 20
-124.4575195001356
 30
0.0
 10
80.68379175500267
 20
-124.4089436537936
 30
0.0
 10
80.33687063963801
 20
-124.4089436537936
 30
0.0
 10
80.01733803338108
 20
-124.4089436537936
 30
0.0
 10
79.70848522312843
 20
-124.4470119589056
 30
0.0
 10
79.70848522312843
 20
-124.7050496107508
 30
0.0
  0
HATCH
  5
9D
330
95
100
AcDbEntity
  8
_U+30EC_U+30A4_U+30E4_U+30FC 1
 62
   179
420
  2234388
100
AcDbHatch
 10
0.0
 20
0.0
 30
0.0
210
0.0
220
0.0
230
1.0
  2
SOLID
 70
     1
 71
     0
 91
        2
 92
        1
 93
        1
 72
     4
 94
        3
 73
     0
 74
     1
 95
       29
 96
       25
 40
0.0
 40
0.0
 40
0.0
 40
0.0
 40
1.0
 40
1.0
 40
1.0
 40
2.0
 40
2.0
 40
2.0
 40
3.0
 40
3.0
 40
3.0
 40
4.0
 40
4.0
 40
4.0
 40
5.0
 40
5.0
 40
5.0
 40
6.0
 40
6.0
 40
6.0
 40
7.0
 40
7.0
 40
7.0
 40
8.0
 40
8.0
 40
8.0
 40
8.0
 10
80.93132186561787
 20
-124.3073133369787
 10
81.1406114163468
 20
-124.4153170804413
 10
81.15973169628994
 20
-124.5887776381236
 10
81.15973169628994
 20
-124.7050496107508
 10
81.15973169628994
 20
-124.865935569912
 10
81.11322290723906
 20
-125.00770124913
 10
80.93132186561787
 20
-125.1027858845229
 10
80.73667397070125
 20
-125.2064832586289
 10
80.49965140131606
 20
-125.2256035385721
 10
80.33687063963801
 20
-125.2256035385721
 10
80.19286564835457
 20
-125.2256035385721
 10
79.94120142315707
 20
-125.2085503159201
 10
79.74224715888388
 20
-125.1027858845229
 10
79.53933103480267
 20
-124.9949543958346
 10
79.51590438550298
 20
-124.8342406914477
 10
79.51590438550298
 20
-124.7050496107508
 10
79.51590438550298
 20
-124.5464029636551
 10
79.5603461172627
 20
-124.4025702271459
 10
79.74224715888388
 20
-124.3073133369787
 10
79.93482799650936
 20
-124.2079223322293
 10
80.16323782718142
 20
-124.1846679377038
 10
80.33687063963801
 20
-124.1846679377038
 10
80.50809188525493
 20
-124.1846679377038
 10
80.7387410279924
 20
-124.2058552749381
 10
80.93132186561787
 20
-124.3073133369787
 97
        0
 97
        0
 92
        1
 93
        1
 72
     4
 94
        3
 73
     0
 74
     1
 95
       17
 96
       13
 40
0.0
 40
0.0
 40
0.0
 40
0.0
 40
1.0
 40
1.0
 40
1.0
 40
2.0
 40
2.0
 40
2.0
 40
3.0
 40
3.0
 40
3.0
 40
4.0
 40
4.0
 40
4.0
 40
4.0
 10
79.70848522312843
 20
-124.7050496107508
 10
79.70848522312843
 20
-124.9548190334314
 10
79.9920165815645
 20
-125.0013278224823
 10
80.33687063963801
 20
-125.0013278224823
 10
80.65623099112067
 20
-125.0013278224823
 10
80.96508380137331
 20
-124.9653265746614
 10
80.96508380137331
 20
-124.7050496107508
 10
80.96508380137331
 20
-124.4575195001356
 10
80.68379175500267
 20
-124.4089436537936
 10
80.33687063963801
 20
-124.4089436537936
 10
80.01733803338108
 20
-124.4089436537936
 10
79.70848522312843
 20
-124.4470119589056
 10
79.70848522312843
 20
-124.7050496107508
 97
        0
 97
        0
 75
     2
 76
     1
 98
        0
  0
ENDBLK
  5
98
330
95
100
AcDbEntity
  8
0
100
AcDbBlockEnd
  0
BLOCK
  5
AF
330
AD
100
AcDbEntity
  8
0
100
AcDbBlockBegin
  2
block 4
 70
     0
 10
0.0
 20
0.0
 30
0.0
  3
block 4
  1

  0
SPLINE
  5
B1
330
AD
100
AcDbEntity
  8
_U+30EC_U+30A4_U+30E4_U+30FC 1
370
     0
100
AcDbSpline
210
0.0
220
0.0
230
1.0
 70
    11
 71
     3
 72
    26
 73
    22
 74
     0
 42
0.0000000001
 43
0.0000000001
 12
1.0
 22
0.0
 32
0.0
 13
1.0
 23
0.0
 33
0.0
 40
0.0
 40
0.0
 40
0.0
 40
0.0
 40
1.0
 40
1.0
 40
1.0
 40
2.0
 40
2.0
 40
2.0
 40
3.0
 40
3.0
 40
3.0
 40
4.0
 40
4.0
 40
4.0
 40
5.0
 40
5.0
 40
5.0
 40
6.0
 40
6.0
 40
6.0
 40
7.0
 40
7.0
 40
7.0
 40
7.0
 10
102.6362846965632
 20
-130.6504231444207
 30
0.0
 10
102.6362846965632
 20
-130.6504231444207
 30
0.0
 10
101.5317870839921
 20
-130.6504231444207
 30
0.0
 10
101.5317870839921
 20
-130.6504231444207
 30
0.0
 10
101.5317870839921
 20
-130.6504231444207
 30
0.0
 10
101.5317870839921
 20
-130.9804632919077
 30
0.0
 10
101.5317870839921
 20
-130.9804632919077
 30
0.0
 10
101.5317870839921
 20
-130.9804632919077
 30
0.0
 10
101.3836479781263
 20
-130.9804632919077
 30
0.0
 10
101.3836479781263
 20
-130.9804632919077
 30
0.0
 10
101.3688340675397
 20
-130.6483560871296
 30
0.0
 10
101.2062255606359
 20
-130.6018472980787
 30
0.0
 10
101.0918483905257
 20
-130.5722194769056
 30
0.0
 10
101.0918483905257
 20
-130.5722194769056
 30
0.0
 10
101.0918483905257
 20
-130.426147428331
 30
0.0
 10
101.0918483905257
 20
-130.426147428331
 30
0.0
 10
101.0918483905257
 20
-130.426147428331
 30
0.0
 10
102.6362846965632
 20
-130.426147428331
 30
0.0
 10
102.6362846965632
 20
-130.426147428331
 30
0.0
 10
102.6362846965632
 20
-130.426147428331
 30
0.0
 10
102.6362846965632
 20
-130.6504231444207
 30
0.0
 10
102.6362846965632
 20
-130.6504231444207
 30
0.0
  0
HATCH
  5
B2
330
AD
100
AcDbEntity
  8
_U+30EC_U+30A4_U+30E4_U+30FC 1
 62
   179
420
  2234388
100
AcDbHatch
 10
0.0
 20
0.0
 30
0.0
210
0.0
220
0.0
230
1.0
  2
SOLID
 70
     1
 71
     0
 91
        1
 92
        1
 93
        1
 72
     4
 94
        3
 73
     0
 74
     1
 95
       26
 96
       22
 40
0.0
 40
0.0
 40
0.0
 40
0.0
 40
1.0
 40
1.0
 40
1.0
 40
2.0
 40
2.0
 40
2.0
 40
3.0
 40
3.0
 40
3.0
 40
4.0
 40
4.0
 40
4.0
 40
5.0
 40
5.0
 40
5.0
 40
6.0
 40
6.0
 40
6.0
 40
7.0
 40
7.0
 40
7.0
 40
7.0
 10
102.6362846965632
 20
-130.6504231444207
 10
102.6362846965632
 20
-130.6504231444207
 10
101.5317870839921
 20
-130.6504231444207
 10
101.5317870839921
 20
-130.6504231444207
 10
101.5317870839921
 20
-130.6504231444207
 10
101.5317870839921
 20
-130.9804632919077
 10
101.5317870839921
 20
-130.9804632919077
 10
101.5317870839921
 20
-130.9804632919077
 10
101.3836479781263
 20
-130.9804632919077
 10
101.3836479781263
 20
-130.9804632919077
 10
101.3688340675397
 20
-130.6483560871296
 10
101.2062255606359
 20
-130.6018472980787
 10
101.0918483905257
 20
-130.5722194769056
 10
101.0918483905257
 20
-130.5722194769056
 10
101.0918483905257
 20
-130.426147428331
 10
101.0918483905257
 20
-130.426147428331
 10
101.0918483905257
 20
-130.426147428331
 10
102.6362846965632
 20
-130.426147428331
 10
102.6362846965632
 20
-130.426147428331
 10
102.6362846965632
 20
-130.426147428331
 10
102.6362846965632
 20
-130.6504231444207
 10
102.6362846965632
 20
-130.6504231444207
 97
        0
 97
        0
 75
     2
 76
     1
 98
        0
  0
POLYLINE
  5
B3
330
AD
100
AcDbEntity
  8
_U+30EC_U+30A4_U+30E4_U+30FC 1
370
     0
100
AcDb2dPolyline
 66
     1
 10
0.0
 20
0.0
 30
0.0
  0
VERTEX
  5
B4
330
B3
100
AcDbEntity
  8
_U+30EC_U+30A4_U+30E4_U+30FC 1
370
     0
100
AcDbVertex
100
AcDb2dVertex
 10
102.6362846965632
 20
-129.8649413737838
 30
0.0
  0
VERTEX
  5
B5
330
B3
100
AcDbEntity
  8
_U+30EC_U+30A4_U+30E4_U+30FC 1
370
     0
100
AcDbVertex
100
AcDb2dVertex
 10
102.3844482165914
 20
-129.8649413737838
 30
0.0
  0
VERTEX
  5
B6
330
B3
100
AcDbEntity
  8
_U+30EC_U+30A4_U+30E4_U+30FC 1
370
     0
100
AcDbVertex
100
AcDb2dVertex
 10
102.3844482165914
 20
-129.613104893812
 30
0.0
  0
VERTEX
  5
B7
330
B3
100
AcDbEntity
  8
_U+30EC_U+30A4_U+30E4_U+30FC 1
370
     0
100
AcDbVertex
100
AcDb2dVertex
 10
102.6362846965632
 20
-129.613104893812
 30
0.0
  0
VERTEX
  5
B8
330
B3
100
AcDbEntity
  8
_U+30EC_U+30A4_U+30E4_U+30FC 1
370
     0
100
AcDbVertex
100
AcDb2dVertex
 10
102.6362846965632
 20
-129.8649413737838
 30
0.0
  0
SEQEND
  5
B9
330
B3
100
AcDbEntity
  8
_U+30EC_U+30A4_U+30E4_U+30FC 1
370
     0
  0
HATCH
  5
BA
330
AD
100
AcDbEntity
  8
_U+30EC_U+30A4_U+30E4_U+30FC 1
 62
   179
420
  2234388
100
AcDbHatch
 10
0.0
 20
0.0
 30
0.0
210
0.0
220
0.0
230
1.0
  2
SOLID
 70
     1
 71
     0
 91
        1
 92
        1
 93
        4
 72
     1
 10
102.6362846965632
 20
-129.8649413737838
 11
102.3844482165914
 21
-129.8649413737838
 72
     1
 10
102.3844482165914
 20
-129.8649413737838
 11
102.3844482165914
 21
-129.613104893812
 72
     1
 10
102.3844482165914
 20
-129.613104893812
 11
102.6362846965632
 21
-129.613104893812
 72
     1
 10
102.6362846965632
 20
-129.613104893812
 11
102.6362846965632
 21
-129.8649413737838
 97
        0
 75
     2
 76
     1
 98
        0
  0
SPLINE
  5
BB
330
AD
100
AcDbEntity
  8
_U+30EC_U+30A4_U+30E4_U+30FC 1
370
     0
100
AcDbSpline
210
0.0
220
0.0
230
1.0
 70
    11
 71
     3
 72
    44
 73
    40
 74
     0
 42
0.0000000001
 43
0.0000000001
 12
1.0
 22
0.0
 32
0.0
 13
1.0
 23
0.0
 33
0.0
 40
0.0
 40
0.0
 40
0.0
 40
0.0
 40
1.0
 40
1.0
 40
1.0
 40
2.0
 40
2.0
 40
2.0
 40
3.0
 40
3.0
 40
3.0
 40
4.0
 40
4.0
 40
4.0
 40
5.0
 40
5.0
 40
5.0
 40
6.0
 40
6.0
 40
6.0
 40
7.0
 40
7.0
 40
7.0
 40
8.0
 40
8.0
 40
8.0
 40
9.0
 40
9.0
 40
9.0
 40
10.0
 40
10.0
 40
10.0
 40
11.0
 40
11.0
 40
11.0
 40
12.0
 40
12.0
 40
12.0
 40
13.0
 40
13.0
 40
13.0
 40
13.0
 10
102.0544080691045
 20
-128.7835259009638
 30
0.0
 10
102.2128824614259
 20
-129.0016004451802
 30
0.0
 10
102.2869520143588
 20
-129.0946180232819
 30
0.0
 10
102.4309570056423
 20
-129.1431938696239
 30
0.0
 10
102.4309570056423
 20
-129.1431938696239
 30
0.0
 10
102.4309570056423
 20
-128.3647745447317
 30
0.0
 10
102.4309570056423
 20
-128.3647745447317
 30
0.0
 10
102.4309570056423
 20
-128.3647745447317
 30
0.0
 10
102.6362846965632
 20
-128.3647745447317
 30
0.0
 10
102.6362846965632
 20
-128.3647745447317
 30
0.0
 10
102.6362846965632
 20
-128.3647745447317
 30
0.0
 10
102.6362846965632
 20
-129.3929632923045
 30
0.0
 10
102.6362846965632
 20
-129.3929632923045
 30
0.0
 10
102.2786837851942
 20
-129.3612684138402
 30
0.0
 10
102.200480117679
 20
-129.295467090072
 30
0.0
 10
101.9021348486564
 20
-128.9106499243696
 30
0.0
 10
101.7033528391575
 20
-128.6545070750412
 30
0.0
 10
101.6354844580981
 20
-128.5888780060472
 30
0.0
 10
101.4980251482366
 20
-128.5888780060472
 30
0.0
 10
101.379513863544
 20
-128.5888780060472
 30
0.0
 10
101.248255725556
 20
-128.660880501689
 30
0.0
 10
101.248255725556
 20
-128.8575954538967
 30
0.0
 10
101.248255725556
 20
-129.1177001630331
 30
0.0
 10
101.4790771230677
 20
-129.1263129017462
 30
0.0
 10
101.5951768409207
 20
-129.1304470163285
 30
0.0
 10
101.5951768409207
 20
-129.1304470163285
 30
0.0
 10
101.5951768409207
 20
-129.3547227324183
 30
0.0
 10
101.5951768409207
 20
-129.3547227324183
 30
0.0
 10
101.4683973270635
 20
-129.3464545032537
 30
0.0
 10
101.3564317237928
 20
-129.3357747072494
 30
0.0
 10
101.2379204391003
 20
-129.2551594728945
 30
0.0
 10
101.0770344799391
 20
-129.1452609269151
 30
0.0
 10
101.0432725441836
 20
-128.9592257707116
 30
0.0
 10
101.0432725441836
 20
-128.8427815433101
 30
0.0
 10
101.0432725441836
 20
-128.5656236115218
 30
0.0
 10
101.227240643096
 20
-128.358401118084
 30
0.0
 10
101.5000922055278
 20
-128.358401118084
 30
0.0
 10
101.7285020361998
 20
-128.358401118084
 30
0.0
 10
101.8280652957235
 20
-128.4746730907112
 30
0.0
 10
102.0544080691045
 20
-128.7835259009638
 30
0.0
  0
HATCH
  5
BC
330
AD
100
AcDbEntity
  8
_U+30EC_U+30A4_U+30E4_U+30FC 1
 62
   179
420
  2234388
100
AcDbHatch
 10
0.0
 20
0.0
 30
0.0
210
0.0
220
0.0
230
1.0
  2
SOLID
 70
     1
 71
     0
 91
        1
 92
        1
 93
        1
 72
     4
 94
        3
 73
     0
 74
     1
 95
       44
 96
       40
 40
0.0
 40
0.0
 40
0.0
 40
0.0
 40
1.0
 40
1.0
 40
1.0
 40
2.0
 40
2.0
 40
2.0
 40
3.0
 40
3.0
 40
3.0
 40
4.0
 40
4.0
 40
4.0
 40
5.0
 40
5.0
 40
5.0
 40
6.0
 40
6.0
 40
6.0
 40
7.0
 40
7.0
 40
7.0
 40
8.0
 40
8.0
 40
8.0
 40
9.0
 40
9.0
 40
9.0
 40
10.0
 40
10.0
 40
10.0
 40
11.0
 40
11.0
 40
11.0
 40
12.0
 40
12.0
 40
12.0
 40
13.0
 40
13.0
 40
13.0
 40
13.0
 10
102.0544080691045
 20
-128.7835259009638
 10
102.2128824614259
 20
-129.0016004451802
 10
102.2869520143588
 20
-129.0946180232819
 10
102.4309570056423
 20
-129.1431938696239
 10
102.4309570056423
 20
-129.1431938696239
 10
102.4309570056423
 20
-128.3647745447317
 10
102.4309570056423
 20
-128.3647745447317
 10
102.4309570056423
 20
-128.3647745447317
 10
102.6362846965632
 20
-128.3647745447317
 10
102.6362846965632
 20
-128.3647745447317
 10
102.6362846965632
 20
-128.3647745447317
 10
102.6362846965632
 20
-129.3929632923045
 10
102.6362846965632
 20
-129.3929632923045
 10
102.2786837851942
 20
-129.3612684138402
 10
102.200480117679
 20
-129.295467090072
 10
101.9021348486564
 20
-128.9106499243696
 10
101.7033528391575
 20
-128.6545070750412
 10
101.6354844580981
 20
-128.5888780060472
 10
101.4980251482366
 20
-128.5888780060472
 10
101.379513863544
 20
-128.5888780060472
 10
101.248255725556
 20
-128.660880501689
 10
101.248255725556
 20
-128.8575954538967
 10
101.248255725556
 20
-129.1177001630331
 10
101.4790771230677
 20
-129.1263129017462
 10
101.5951768409207
 20
-129.1304470163285
 10
101.5951768409207
 20
-129.1304470163285
 10
101.5951768409207
 20
-129.3547227324183
 10
101.5951768409207
 20
-129.3547227324183
 10
101.4683973270635
 20
-129.3464545032537
 10
101.3564317237928
 20
-129.3357747072494
 10
101.2379204391003
 20
-129.2551594728945
 10
101.0770344799391
 20
-129.1452609269151
 10
101.0432725441836
 20
-128.9592257707116
 10
101.0432725441836
 20
-128.8427815433101
 10
101.0432725441836
 20
-128.5656236115218
 10
101.227240643096
 20
-128.358401118084
 10
101.5000922055278
 20
-128.358401118084
 10
101.7285020361998
 20
-128.358401118084
 10
101.8280652957235
 20
-128.4746730907112
 10
102.0544080691045
 20
-128.7835259009638
 97
        0
 97
        0
 75
     2
 76
     1
 98
        0
  0
ENDBLK
  5
B0
330
AD
100
AcDbEntity
  8
0
100
AcDbBlockEnd
  0
ENDSEC
  0
SECTION
  2
ENTITIES
  0
SPLINE
  5
41
330
1F
100
AcDbEntity
  8
_U+30EC_U+30A4_U+30E4_U+30FC 1
370
     0
100
AcDbSpline
210
0.0
220
0.0
230
1.0
 70
    11
 71
     3
 72
    35
 73
    31
 74
     0
 42
0.0000000001
 43
0.0000000001
 12
1.0
 22
0.0
 32
0.0
 13
1.0
 23
0.0
 33
0.0
 40
0.0
 40
0.0
 40
0.0
 40
0.0
 40
1.0
 40
1.0
 40
1.0
 40
2.0
 40
2.0
 40
2.0
 40
3.0
 40
3.0
 40
3.0
 40
4.0
 40
4.0
 40
4.0
 40
5.0
 40
5.0
 40
5.0
 40
6.0
 40
6.0
 40
6.0
 40
7.0
 40
7.0
 40
7.0
 40
8.0
 40
8.0
 40
8.0
 40
9.0
 40
9.0
 40
9.0
 40
10.0
 40
10.0
 40
10.0
 40
10.0
 10
95.44603617607986
 20
-129.093242189949
 30
0.0
 10
95.44603617607986
 20
-129.093242189949
 30
0.0
 10
86.68134306635248
 20
-129.093242189949
 30
0.0
 10
86.68134306635248
 20
-129.093242189949
 30
0.0
 10
86.68134306635248
 20
-129.093242189949
 30
0.0
 10
86.68134306635248
 20
-120.2934474699267
 30
0.0
 10
86.68134306635248
 20
-120.2934474699267
 30
0.0
 10
86.68134306635248
 20
-120.2934474699267
 30
0.0
 10
85.51657670717925
 20
-120.2934474699267
 30
0.0
 10
85.51657670717925
 20
-120.2934474699267
 30
0.0
 10
85.51657670717925
 20
-120.3127091365884
 30
0.0
 10
85.50105448535304
 20
-120.3285841365844
 30
0.0
 10
85.481440041409
 20
-120.3285841365844
 30
0.0
 10
85.481440041409
 20
-120.3285841365844
 30
0.0
 10
85.481440041409
 20
-130.2580438563242
 30
0.0
 10
85.481440041409
 20
-130.2580438563242
 30
0.0
 10
85.50105448535304
 20
-130.2580438563242
 30
0.0
 10
85.51657670717925
 20
-130.2738835785428
 30
0.0
 10
85.51657670717925
 20
-130.293180522982
 30
0.0
 10
85.51657670717925
 20
-130.293180522982
 30
0.0
 10
95.44603617607986
 20
-130.293180522982
 30
0.0
 10
95.44603617607986
 20
-130.293180522982
 30
0.0
 10
95.44603617607986
 20
-130.2738835785428
 30
0.0
 10
95.46187589789798
 20
-130.2580438563242
 30
0.0
 10
95.48152561961889
 20
-130.2580438563242
 30
0.0
 10
95.48152561961889
 20
-130.2580438563242
 30
0.0
 10
95.48152561961889
 20
-129.1287316343845
 30
0.0
 10
95.48152561961889
 20
-129.1287316343845
 30
0.0
 10
95.46187589789798
 20
-129.1287316343845
 30
0.0
 10
95.44603617607986
 20
-129.112891912166
 30
0.0
 10
95.44603617607986
 20
-129.093242189949
 30
0.0
  0
HATCH
  5
42
330
1F
100
AcDbEntity
  8
_U+30EC_U+30A4_U+30E4_U+30FC 1
 62
   253
420
 11711154
100
AcDbHatch
 10
0.0
 20
0.0
 30
0.0
210
0.0
220
0.0
230
1.0
  2
SOLID
 70
     1
 71
     0
 91
        1
 92
        1
 93
        1
 72
     4
 94
        3
 73
     0
 74
     1
 95
       35
 96
       31
 40
0.0
 40
0.0
 40
0.0
 40
0.0
 40
1.0
 40
1.0
 40
1.0
 40
2.0
 40
2.0
 40
2.0
 40
3.0
 40
3.0
 40
3.0
 40
4.0
 40
4.0
 40
4.0
 40
5.0
 40
5.0
 40
5.0
 40
6.0
 40
6.0
 40
6.0
 40
7.0
 40
7.0
 40
7.0
 40
8.0
 40
8.0
 40
8.0
 40
9.0
 40
9.0
 40
9.0
 40
10.0
 40
10.0
 40
10.0
 40
10.0
 10
95.44603617607986
 20
-129.093242189949
 10
95.44603617607986
 20
-129.093242189949
 10
86.68134306635248
 20
-129.093242189949
 10
86.68134306635248
 20
-129.093242189949
 10
86.68134306635248
 20
-129.093242189949
 10
86.68134306635248
 20
-120.2934474699267
 10
86.68134306635248
 20
-120.2934474699267
 10
86.68134306635248
 20
-120.2934474699267
 10
85.51657670717925
 20
-120.2934474699267
 10
85.51657670717925
 20
-120.2934474699267
 10
85.51657670717925
 20
-120.3127091365884
 10
85.50105448535304
 20
-120.3285841365844
 10
85.481440041409
 20
-120.3285841365844
 10
85.481440041409
 20
-120.3285841365844
 10
85.481440041409
 20
-130.2580438563242
 10
85.481440041409
 20
-130.2580438563242
 10
85.50105448535304
 20
-130.2580438563242
 10
85.51657670717925
 20
-130.2738835785428
 10
85.51657670717925
 20
-130.293180522982
 10
85.51657670717925
 20
-130.293180522982
 10
95.44603617607986
 20
-130.293180522982
 10
95.44603617607986
 20
-130.293180522982
 10
95.44603617607986
 20
-130.2738835785428
 10
95.46187589789798
 20
-130.2580438563242
 10
95.48152561961889
 20
-130.2580438563242
 10
95.48152561961889
 20
-130.2580438563242
 10
95.48152561961889
 20
-129.1287316343845
 10
95.48152561961889
 20
-129.1287316343845
 10
95.46187589789798
 20
-129.1287316343845
 10
95.44603617607986
 20
-129.112891912166
 10
95.44603617607986
 20
-129.093242189949
 97
        0
 97
        0
 75
     2
 76
     1
 98
        0
  0
SPLINE
  5
43
330
1F
100
AcDbEntity
  8
_U+30EC_U+30A4_U+30E4_U+30FC 1
370
     0
100
AcDbSpline
210
0.0
220
0.0
230
1.0
 70
    11
 71
     3
 72
    14
 73
    10
 74
     0
 42
0.0000000001
 43
0.0000000001
 12
1.0
 22
0.0
 32
0.0
 13
1.0
 23
0.0
 33
0.0
 40
0.0
 40
0.0
 40
0.0
 40
0.0
 40
1.0
 40
1.0
 40
1.0
 40
2.0
 40
2.0
 40
2.0
 40
3.0
 40
3.0
 40
3.0
 40
3.0
 10
85.51657670717925
 20
-120.2934474699267
 30
0.0
 10
85.51657670717925
 20
-120.2934474699267
 30
0.0
 10
85.481440041409
 20
-120.2934474699267
 30
0.0
 10
85.481440041409
 20
-120.2934474699267
 30
0.0
 10
85.481440041409
 20
-120.2934474699267
 30
0.0
 10
85.481440041409
 20
-120.3285841365844
 30
0.0
 10
85.481440041409
 20
-120.3285841365844
 30
0.0
 10
85.50105448535304
 20
-120.3285841365844
 30
0.0
 10
85.51657670717925
 20
-120.3127091365884
 30
0.0
 10
85.51657670717925
 20
-120.2934474699267
 30
0.0
  0
HATCH
  5
44
330
1F
100
AcDbEntity
  8
_U+30EC_U+30A4_U+30E4_U+30FC 1
 62
   253
420
 11711154
100
AcDbHatch
 10
0.0
 20
0.0
 30
0.0
210
0.0
220
0.0
230
1.0
  2
SOLID
 70
     1
 71
     0
 91
        1
 92
        1
 93
        1
 72
     4
 94
        3
 73
     0
 74
     1
 95
       14
 96
       10
 40
0.0
 40
0.0
 40
0.0
 40
0.0
 40
1.0
 40
1.0
 40
1.0
 40
2.0
 40
2.0
 40
2.0
 40
3.0
 40
3.0
 40
3.0
 40
3.0
 10
85.51657670717925
 20
-120.2934474699267
 10
85.51657670717925
 20
-120.2934474699267
 10
85.481440041409
 20
-120.2934474699267
 10
85.481440041409
 20
-120.2934474699267
 10
85.481440041409
 20
-120.2934474699267
 10
85.481440041409
 20
-120.3285841365844
 10
85.481440041409
 20
-120.3285841365844
 10
85.50105448535304
 20
-120.3285841365844
 10
85.51657670717925
 20
-120.3127091365884
 10
85.51657670717925
 20
-120.2934474699267
 97
        0
 97
        0
 75
     2
 76
     1
 98
        0
  0
SPLINE
  5
45
330
1F
100
AcDbEntity
  8
_U+30EC_U+30A4_U+30E4_U+30FC 1
370
     0
100
AcDbSpline
210
0.0
220
0.0
230
1.0
 70
    11
 71
     3
 72
    20
 73
    16
 74
     0
 42
0.0000000001
 43
0.0000000001
 12
1.0
 22
0.0
 32
0.0
 13
1.0
 23
0.0
 33
0.0
 40
0.0
 40
0.0
 40
0.0
 40
0.0
 40
1.0
 40
1.0
 40
1.0
 40
2.0
 40
2.0
 40
2.0
 40
3.0
 40
3.0
 40
3.0
 40
4.0
 40
4.0
 40
4.0
 40
5.0
 40
5.0
 40
5.0
 40
5.0
 10
85.51657670717925
 20
-120.2934474699267
 30
0.0
 10
85.51657670717925
 20
-120.2737977477094
 30
0.0
 10
85.50105448535304
 20
-120.2579580254912
 30
0.0
 10
85.481440041409
 20
-120.2579580254912
 30
0.0
 10
85.46179031968809
 20
-120.2579580254912
 30
0.0
 10
85.44595275641623
 20
-120.2737977477094
 30
0.0
 10
85.44595275641623
 20
-120.2934474699267
 30
0.0
 10
85.44595275641623
 20
-120.3127091365884
 30
0.0
 10
85.46179031968809
 20
-120.3285841365844
 30
0.0
 10
85.481440041409
 20
-120.3285841365844
 30
0.0
 10
85.481440041409
 20
-120.3285841365844
 30
0.0
 10
85.481440041409
 20
-120.2934474699267
 30
0.0
 10
85.481440041409
 20
-120.2934474699267
 30
0.0
 10
85.481440041409
 20
-120.2934474699267
 30
0.0
 10
85.51657670717925
 20
-120.2934474699267
 30
0.0
 10
85.51657670717925
 20
-120.2934474699267
 30
0.0
  0
HATCH
  5
46
330
1F
100
AcDbEntity
  8
_U+30EC_U+30A4_U+30E4_U+30FC 1
 62
   253
420
 11711154
100
AcDbHatch
 10
0.0
 20
0.0
 30
0.0
210
0.0
220
0.0
230
1.0
  2
SOLID
 70
     1
 71
     0
 91
        1
 92
        1
 93
        1
 72
     4
 94
        3
 73
     0
 74
     1
 95
       20
 96
       16
 40
0.0
 40
0.0
 40
0.0
 40
0.0
 40
1.0
 40
1.0
 40
1.0
 40
2.0
 40
2.0
 40
2.0
 40
3.0
 40
3.0
 40
3.0
 40
4.0
 40
4.0
 40
4.0
 40
5.0
 40
5.0
 40
5.0
 40
5.0
 10
85.51657670717925
 20
-120.2934474699267
 10
85.51657670717925
 20
-120.2737977477094
 10
85.50105448535304
 20
-120.2579580254912
 10
85.481440041409
 20
-120.2579580254912
 10
85.46179031968809
 20
-120.2579580254912
 10
85.44595275641623
 20
-120.2737977477094
 10
85.44595275641623
 20
-120.2934474699267
 10
85.44595275641623
 20
-120.3127091365884
 10
85.46179031968809
 20
-120.3285841365844
 10
85.481440041409
 20
-120.3285841365844
 10
85.481440041409
 20
-120.3285841365844
 10
85.481440041409
 20
-120.2934474699267
 10
85.481440041409
 20
-120.2934474699267
 10
85.481440041409
 20
-120.2934474699267
 10
85.51657670717925
 20
-120.2934474699267
 10
85.51657670717925
 20
-120.2934474699267
 97
        0
 97
        0
 75
     2
 76
     1
 98
        0
  0
SPLINE
  5
47
330
1F
100
AcDbEntity
  8
_U+30EC_U+30A4_U+30E4_U+30FC 1
370
     0
100
AcDbSpline
210
0.0
220
0.0
230
1.0
 70
    11
 71
     3
 72
    14
 73
    10
 74
     0
 42
0.0000000001
 43
0.0000000001
 12
1.0
 22
0.0
 32
0.0
 13
1.0
 23
0.0
 33
0.0
 40
0.0
 40
0.0
 40
0.0
 40
0.0
 40
1.0
 40
1.0
 40
1.0
 40
2.0
 40
2.0
 40
2.0
 40
3.0
 40
3.0
 40
3.0
 40
3.0
 10
85.481440041409
 20
-130.2580438563242
 30
0.0
 10
85.481440041409
 20
-130.2580438563242
 30
0.0
 10
85.481440041409
 20
-130.293180522982
 30
0.0
 10
85.481440041409
 20
-130.293180522982
 30
0.0
 10
85.481440041409
 20
-130.293180522982
 30
0.0
 10
85.51657670717925
 20
-130.293180522982
 30
0.0
 10
85.51657670717925
 20
-130.293180522982
 30
0.0
 10
85.51657670717925
 20
-130.2738835785428
 30
0.0
 10
85.50105448535304
 20
-130.2580438563242
 30
0.0
 10
85.481440041409
 20
-130.2580438563242
 30
0.0
  0
HATCH
  5
48
330
1F
100
AcDbEntity
  8
_U+30EC_U+30A4_U+30E4_U+30FC 1
 62
   253
420
 11711154
100
AcDbHatch
 10
0.0
 20
0.0
 30
0.0
210
0.0
220
0.0
230
1.0
  2
SOLID
 70
     1
 71
     0
 91
        1
 92
        1
 93
        1
 72
     4
 94
        3
 73
     0
 74
     1
 95
       14
 96
       10
 40
0.0
 40
0.0
 40
0.0
 40
0.0
 40
1.0
 40
1.0
 40
1.0
 40
2.0
 40
2.0
 40
2.0
 40
3.0
 40
3.0
 40
3.0
 40
3.0
 10
85.481440041409
 20
-130.2580438563242
 10
85.481440041409
 20
-130.2580438563242
 10
85.481440041409
 20
-130.293180522982
 10
85.481440041409
 20
-130.293180522982
 10
85.481440041409
 20
-130.293180522982
 10
85.51657670717925
 20
-130.293180522982
 10
85.51657670717925
 20
-130.293180522982
 10
85.51657670717925
 20
-130.2738835785428
 10
85.50105448535304
 20
-130.2580438563242
 10
85.481440041409
 20
-130.2580438563242
 97
        0
 97
        0
 75
     2
 76
     1
 98
        0
  0
SPLINE
  5
49
330
1F
100
AcDbEntity
  8
_U+30EC_U+30A4_U+30E4_U+30FC 1
370
     0
100
AcDbSpline
210
0.0
220
0.0
230
1.0
 70
    11
 71
     3
 72
    20
 73
    16
 74
     0
 42
0.0000000001
 43
0.0000000001
 12
1.0
 22
0.0
 32
0.0
 13
1.0
 23
0.0
 33
0.0
 40
0.0
 40
0.0
 40
0.0
 40
0.0
 40
1.0
 40
1.0
 40
1.0
 40
2.0
 40
2.0
 40
2.0
 40
3.0
 40
3.0
 40
3.0
 40
4.0
 40
4.0
 40
4.0
 40
5.0
 40
5.0
 40
5.0
 40
5.0
 10
85.481440041409
 20
-130.2580438563242
 30
0.0
 10
85.46179031968809
 20
-130.2580438563242
 30
0.0
 10
85.44595275641623
 20
-130.2738835785428
 30
0.0
 10
85.44595275641623
 20
-130.293180522982
 30
0.0
 10
85.44595275641623
 20
-130.312794967422
 30
0.0
 10
85.46179031968809
 20
-130.3286346896399
 30
0.0
 10
85.481440041409
 20
-130.3286346896399
 30
0.0
 10
85.50105448535304
 20
-130.3286346896399
 30
0.0
 10
85.51657670717925
 20
-130.312794967422
 30
0.0
 10
85.51657670717925
 20
-130.293180522982
 30
0.0
 10
85.51657670717925
 20
-130.293180522982
 30
0.0
 10
85.481440041409
 20
-130.293180522982
 30
0.0
 10
85.481440041409
 20
-130.293180522982
 30
0.0
 10
85.481440041409
 20
-130.293180522982
 30
0.0
 10
85.481440041409
 20
-130.2580438563242
 30
0.0
 10
85.481440041409
 20
-130.2580438563242
 30
0.0
  0
HATCH
  5
4A
330
1F
100
AcDbEntity
  8
_U+30EC_U+30A4_U+30E4_U+30FC 1
 62
   253
420
 11711154
100
AcDbHatch
 10
0.0
 20
0.0
 30
0.0
210
0.0
220
0.0
230
1.0
  2
SOLID
 70
     1
 71
     0
 91
        1
 92
        1
 93
        1
 72
     4
 94
        3
 73
     0
 74
     1
 95
       20
 96
       16
 40
0.0
 40
0.0
 40
0.0
 40
0.0
 40
1.0
 40
1.0
 40
1.0
 40
2.0
 40
2.0
 40
2.0
 40
3.0
 40
3.0
 40
3.0
 40
4.0
 40
4.0
 40
4.0
 40
5.0
 40
5.0
 40
5.0
 40
5.0
 10
85.481440041409
 20
-130.2580438563242
 10
85.46179031968809
 20
-130.2580438563242
 10
85.44595275641623
 20
-130.2738835785428
 10
85.44595275641623
 20
-130.293180522982
 10
85.44595275641623
 20
-130.312794967422
 10
85.46179031968809
 20
-130.3286346896399
 10
85.481440041409
 20
-130.3286346896399
 10
85.50105448535304
 20
-130.3286346896399
 10
85.51657670717925
 20
-130.312794967422
 10
85.51657670717925
 20
-130.293180522982
 10
85.51657670717925
 20
-130.293180522982
 10
85.481440041409
 20
-130.293180522982
 10
85.481440041409
 20
-130.293180522982
 10
85.481440041409
 20
-130.293180522982
 10
85.481440041409
 20
-130.2580438563242
 10
85.481440041409
 20
-130.2580438563242
 97
        0
 97
        0
 75
     2
 76
     1
 98
        0
  0
SPLINE
  5
4B
330
1F
100
AcDbEntity
  8
_U+30EC_U+30A4_U+30E4_U+30FC 1
370
     0
100
AcDbSpline
210
0.0
220
0.0
230
1.0
 70
    11
 71
     3
 72
    14
 73
    10
 74
     0
 42
0.0000000001
 43
0.0000000001
 12
1.0
 22
0.0
 32
0.0
 13
1.0
 23
0.0
 33
0.0
 40
0.0
 40
0.0
 40
0.0
 40
0.0
 40
1.0
 40
1.0
 40
1.0
 40
2.0
 40
2.0
 40
2.0
 40
3.0
 40
3.0
 40
3.0
 40
3.0
 10
95.44603617607986
 20
-130.293180522982
 30
0.0
 10
95.44603617607986
 20
-130.293180522982
 30
0.0
 10
95.48152561961889
 20
-130.293180522982
 30
0.0
 10
95.48152561961889
 20
-130.293180522982
 30
0.0
 10
95.48152561961889
 20
-130.293180522982
 30
0.0
 10
95.48152561961889
 20
-130.2580438563242
 30
0.0
 10
95.48152561961889
 20
-130.2580438563242
 30
0.0
 10
95.46187589789798
 20
-130.2580438563242
 30
0.0
 10
95.44603617607986
 20
-130.2738835785428
 30
0.0
 10
95.44603617607986
 20
-130.293180522982
 30
0.0
  0
HATCH
  5
4C
330
1F
100
AcDbEntity
  8
_U+30EC_U+30A4_U+30E4_U+30FC 1
 62
   253
420
 11711154
100
AcDbHatch
 10
0.0
 20
0.0
 30
0.0
210
0.0
220
0.0
230
1.0
  2
SOLID
 70
     1
 71
     0
 91
        1
 92
        1
 93
        1
 72
     4
 94
        3
 73
     0
 74
     1
 95
       14
 96
       10
 40
0.0
 40
0.0
 40
0.0
 40
0.0
 40
1.0
 40
1.0
 40
1.0
 40
2.0
 40
2.0
 40
2.0
 40
3.0
 40
3.0
 40
3.0
 40
3.0
 10
95.44603617607986
 20
-130.293180522982
 10
95.44603617607986
 20
-130.293180522982
 10
95.48152561961889
 20
-130.293180522982
 10
95.48152561961889
 20
-130.293180522982
 10
95.48152561961889
 20
-130.293180522982
 10
95.48152561961889
 20
-130.2580438563242
 10
95.48152561961889
 20
-130.2580438563242
 10
95.46187589789798
 20
-130.2580438563242
 10
95.44603617607986
 20
-130.2738835785428
 10
95.44603617607986
 20
-130.293180522982
 97
        0
 97
        0
 75
     2
 76
     1
 98
        0
  0
SPLINE
  5
4D
330
1F
100
AcDbEntity
  8
_U+30EC_U+30A4_U+30E4_U+30FC 1
370
     0
100
AcDbSpline
210
0.0
220
0.0
230
1.0
 70
    11
 71
     3
 72
    20
 73
    16
 74
     0
 42
0.0000000001
 43
0.0000000001
 12
1.0
 22
0.0
 32
0.0
 13
1.0
 23
0.0
 33
0.0
 40
0.0
 40
0.0
 40
0.0
 40
0.0
 40
1.0
 40
1.0
 40
1.0
 40
2.0
 40
2.0
 40
2.0
 40
3.0
 40
3.0
 40
3.0
 40
4.0
 40
4.0
 40
4.0
 40
5.0
 40
5.0
 40
5.0
 40
5.0
 10
95.44603617607986
 20
-130.293180522982
 30
0.0
 10
95.44603617607986
 20
-130.312794967422
 30
0.0
 10
95.46187589789798
 20
-130.3286346896399
 30
0.0
 10
95.48152561961889
 20
-130.3286346896399
 30
0.0
 10
95.50078728579416
 20
-130.3286346896399
 30
0.0
 10
95.51666228538916
 20
-130.312794967422
 30
0.0
 10
95.51666228538916
 20
-130.293180522982
 30
0.0
 10
95.51666228538916
 20
-130.2738835785428
 30
0.0
 10
95.50078728579416
 20
-130.2580438563242
 30
0.0
 10
95.48152561961889
 20
-130.2580438563242
 30
0.0
 10
95.48152561961889
 20
-130.2580438563242
 30
0.0
 10
95.48152561961889
 20
-130.293180522982
 30
0.0
 10
95.48152561961889
 20
-130.293180522982
 30
0.0
 10
95.48152561961889
 20
-130.293180522982
 30
0.0
 10
95.44603617607986
 20
-130.293180522982
 30
0.0
 10
95.44603617607986
 20
-130.293180522982
 30
0.0
  0
HATCH
  5
4E
330
1F
100
AcDbEntity
  8
_U+30EC_U+30A4_U+30E4_U+30FC 1
 62
   253
420
 11711154
100
AcDbHatch
 10
0.0
 20
0.0
 30
0.0
210
0.0
220
0.0
230
1.0
  2
SOLID
 70
     1
 71
     0
 91
        1
 92
        1
 93
        1
 72
     4
 94
        3
 73
     0
 74
     1
 95
       20
 96
       16
 40
0.0
 40
0.0
 40
0.0
 40
0.0
 40
1.0
 40
1.0
 40
1.0
 40
2.0
 40
2.0
 40
2.0
 40
3.0
 40
3.0
 40
3.0
 40
4.0
 40
4.0
 40
4.0
 40
5.0
 40
5.0
 40
5.0
 40
5.0
 10
95.44603617607986
 20
-130.293180522982
 10
95.44603617607986
 20
-130.312794967422
 10
95.46187589789798
 20
-130.3286346896399
 10
95.48152561961889
 20
-130.3286346896399
 10
95.50078728579416
 20
-130.3286346896399
 10
95.51666228538916
 20
-130.312794967422
 10
95.51666228538916
 20
-130.293180522982
 10
95.51666228538916
 20
-130.2738835785428
 10
95.50078728579416
 20
-130.2580438563242
 10
95.48152561961889
 20
-130.2580438563242
 10
95.48152561961889
 20
-130.2580438563242
 10
95.48152561961889
 20
-130.293180522982
 10
95.48152561961889
 20
-130.293180522982
 10
95.48152561961889
 20
-130.293180522982
 10
95.44603617607986
 20
-130.293180522982
 10
95.44603617607986
 20
-130.293180522982
 97
        0
 97
        0
 75
     2
 76
     1
 98
        0
  0
SPLINE
  5
4F
330
1F
100
AcDbEntity
  8
_U+30EC_U+30A4_U+30E4_U+30FC 1
370
     0
100
AcDbSpline
210
0.0
220
0.0
230
1.0
 70
    11
 71
     3
 72
    20
 73
    16
 74
     0
 42
0.0000000001
 43
0.0000000001
 12
1.0
 22
0.0
 32
0.0
 13
1.0
 23
0.0
 33
0.0
 40
0.0
 40
0.0
 40
0.0
 40
0.0
 40
1.0
 40
1.0
 40
1.0
 40
2.0
 40
2.0
 40
2.0
 40
3.0
 40
3.0
 40
3.0
 40
4.0
 40
4.0
 40
4.0
 40
5.0
 40
5.0
 40
5.0
 40
5.0
 10
95.48152561961889
 20
-129.1287316343845
 30
0.0
 10
95.50078728579416
 20
-129.1287316343845
 30
0.0
 10
95.51666228538916
 20
-129.112891912166
 30
0.0
 10
95.51666228538916
 20
-129.093242189949
 30
0.0
 10
95.51666228538916
 20
-129.0739452455092
 30
0.0
 10
95.50078728579416
 20
-129.0581055232913
 30
0.0
 10
95.48152561961889
 20
-129.0581055232913
 30
0.0
 10
95.46187589789798
 20
-129.0581055232913
 30
0.0
 10
95.44603617607986
 20
-129.0739452455092
 30
0.0
 10
95.44603617607986
 20
-129.093242189949
 30
0.0
 10
95.44603617607986
 20
-129.093242189949
 30
0.0
 10
95.48152561961889
 20
-129.093242189949
 30
0.0
 10
95.48152561961889
 20
-129.093242189949
 30
0.0
 10
95.48152561961889
 20
-129.093242189949
 30
0.0
 10
95.48152561961889
 20
-129.1287316343845
 30
0.0
 10
95.48152561961889
 20
-129.1287316343845
 30
0.0
  0
HATCH
  5
50
330
1F
100
AcDbEntity
  8
_U+30EC_U+30A4_U+30E4_U+30FC 1
 62
   253
420
 11711154
100
AcDbHatch
 10
0.0
 20
0.0
 30
0.0
210
0.0
220
0.0
230
1.0
  2
SOLID
 70
     1
 71
     0
 91
        1
 92
        1
 93
        1
 72
     4
 94
        3
 73
     0
 74
     1
 95
       20
 96
       16
 40
0.0
 40
0.0
 40
0.0
 40
0.0
 40
1.0
 40
1.0
 40
1.0
 40
2.0
 40
2.0
 40
2.0
 40
3.0
 40
3.0
 40
3.0
 40
4.0
 40
4.0
 40
4.0
 40
5.0
 40
5.0
 40
5.0
 40
5.0
 10
95.48152561961889
 20
-129.1287316343845
 10
95.50078728579416
 20
-129.1287316343845
 10
95.51666228538916
 20
-129.112891912166
 10
95.51666228538916
 20
-129.093242189949
 10
95.51666228538916
 20
-129.0739452455092
 10
95.50078728579416
 20
-129.0581055232913
 10
95.48152561961889
 20
-129.0581055232913
 10
95.46187589789798
 20
-129.0581055232913
 10
95.44603617607986
 20
-129.0739452455092
 10
95.44603617607986
 20
-129.093242189949
 10
95.44603617607986
 20
-129.093242189949
 10
95.48152561961889
 20
-129.093242189949
 10
95.48152561961889
 20
-129.093242189949
 10
95.48152561961889
 20
-129.093242189949
 10
95.48152561961889
 20
-129.1287316343845
 10
95.48152561961889
 20
-129.1287316343845
 97
        0
 97
        0
 75
     2
 76
     1
 98
        0
  0
SPLINE
  5
51
330
1F
100
AcDbEntity
  8
_U+30EC_U+30A4_U+30E4_U+30FC 1
370
     0
100
AcDbSpline
210
0.0
220
0.0
230
1.0
 70
    11
 71
     3
 72
    14
 73
    10
 74
     0
 42
0.0000000001
 43
0.0000000001
 12
1.0
 22
0.0
 32
0.0
 13
1.0
 23
0.0
 33
0.0
 40
0.0
 40
0.0
 40
0.0
 40
0.0
 40
1.0
 40
1.0
 40
1.0
 40
2.0
 40
2.0
 40
2.0
 40
3.0
 40
3.0
 40
3.0
 40
3.0
 10
95.48152561961889
 20
-129.1287316343845
 30
0.0
 10
95.48152561961889
 20
-129.1287316343845
 30
0.0
 10
95.48152561961889
 20
-129.093242189949
 30
0.0
 10
95.48152561961889
 20
-129.093242189949
 30
0.0
 10
95.48152561961889
 20
-129.093242189949
 30
0.0
 10
95.44603617607986
 20
-129.093242189949
 30
0.0
 10
95.44603617607986
 20
-129.093242189949
 30
0.0
 10
95.44603617607986
 20
-129.112891912166
 30
0.0
 10
95.46187589789798
 20
-129.1287316343845
 30
0.0
 10
95.48152561961889
 20
-129.1287316343845
 30
0.0
  0
HATCH
  5
52
330
1F
100
AcDbEntity
  8
_U+30EC_U+30A4_U+30E4_U+30FC 1
 62
   253
420
 11711154
100
AcDbHatch
 10
0.0
 20
0.0
 30
0.0
210
0.0
220
0.0
230
1.0
  2
SOLID
 70
     1
 71
     0
 91
        1
 92
        1
 93
        1
 72
     4
 94
        3
 73
     0
 74
     1
 95
       14
 96
       10
 40
0.0
 40
0.0
 40
0.0
 40
0.0
 40
1.0
 40
1.0
 40
1.0
 40
2.0
 40
2.0
 40
2.0
 40
3.0
 40
3.0
 40
3.0
 40
3.0
 10
95.48152561961889
 20
-129.1287316343845
 10
95.48152561961889
 20
-129.1287316343845
 10
95.48152561961889
 20
-129.093242189949
 10
95.48152561961889
 20
-129.093242189949
 10
95.48152561961889
 20
-129.093242189949
 10
95.44603617607986
 20
-129.093242189949
 10
95.44603617607986
 20
-129.093242189949
 10
95.44603617607986
 20
-129.112891912166
 10
95.46187589789798
 20
-129.1287316343845
 10
95.48152561961889
 20
-129.1287316343845
 97
        0
 97
        0
 75
     2
 76
     1
 98
        0
  0
POLYLINE
  5
53
330
1F
100
AcDbEntity
  8
_U+30EC_U+30A4_U+30E4_U+30FC 1
 62
   179
420
  2234388
370
    25
100
AcDb2dPolyline
 66
     1
 10
0.0
 20
0.0
 30
0.0
  0
VERTEX
  5
54
330
53
100
AcDbEntity
  8
_U+30EC_U+30A4_U+30E4_U+30FC 1
 62
   179
420
  2234388
370
    25
100
AcDbVertex
100
AcDb2dVertex
 10
85.481440041409
 20
-130.293180522982
 30
0.0
  0
VERTEX
  5
55
330
53
100
AcDbEntity
  8
_U+30EC_U+30A4_U+30E4_U+30FC 1
 62
   179
420
  2234388
370
    25
100
AcDbVertex
100
AcDb2dVertex
 10
95.48152561961889
 20
-130.293180522982
 30
0.0
  0
SEQEND
  5
56
330
53
100
AcDbEntity
  8
_U+30EC_U+30A4_U+30E4_U+30FC 1
 62
   179
420
  2234388
370
    25
  0
POLYLINE
  5
57
330
1F
100
AcDbEntity
  8
_U+30EC_U+30A4_U+30E4_U+30FC 1
 62
   179
420
  2234388
370
    25
100
AcDb2dPolyline
 66
     1
 10
0.0
 20
0.0
 30
0.0
  0
VERTEX
  5
58
330
57
100
AcDbEntity
  8
_U+30EC_U+30A4_U+30E4_U+30FC 1
 62
   179
420
  2234388
370
    25
100
AcDbVertex
100
AcDb2dVertex
 10
85.481440041409
 20
-120.2934474699267
 30
0.0
  0
VERTEX
  5
59
330
57
100
AcDbEntity
  8
_U+30EC_U+30A4_U+30E4_U+30FC 1
 62
   179
420
  2234388
370
    25
100
AcDbVertex
100
AcDb2dVertex
 10
85.481440041409
 20
-130.293180522982
 30
0.0
  0
SEQEND
  5
5A
330
57
100
AcDbEntity
  8
_U+30EC_U+30A4_U+30E4_U+30FC 1
 62
   179
420
  2234388
370
    25
  0
POLYLINE
  5
5B
330
1F
100
AcDbEntity
  8
_U+30EC_U+30A4_U+30E4_U+30FC 1
 62
   179
420
  2234388
370
    25
100
AcDb2dPolyline
 66
     1
 10
0.0
 20
0.0
 30
0.0
  0
VERTEX
  5
5C
330
5B
100
AcDbEntity
  8
_U+30EC_U+30A4_U+30E4_U+30FC 1
 62
   179
420
  2234388
370
    25
100
AcDbVertex
100
AcDb2dVertex
 10
86.68134306635248
 20
-120.2934474699267
 30
0.0
  0
VERTEX
  5
5D
330
5B
100
AcDbEntity
  8
_U+30EC_U+30A4_U+30E4_U+30FC 1
 62
   179
420
  2234388
370
    25
100
AcDbVertex
100
AcDb2dVertex
 10
86.68134306635248
 20
-129.093242189949
 30
0.0
  0
SEQEND
  5
5E
330
5B
100
AcDbEntity
  8
_U+30EC_U+30A4_U+30E4_U+30FC 1
 62
   179
420
  2234388
370
    25
  0
POLYLINE
  5
5F
330
1F
100
AcDbEntity
  8
_U+30EC_U+30A4_U+30E4_U+30FC 1
 62
   179
420
  2234388
370
    25
100
AcDb2dPolyline
 66
     1
 10
0.0
 20
0.0
 30
0.0
  0
VERTEX
  5
60
330
5F
100
AcDbEntity
  8
_U+30EC_U+30A4_U+30E4_U+30FC 1
 62
   179
420
  2234388
370
    25
100
AcDbVertex
100
AcDb2dVertex
 10
86.68134306635248
 20
-129.093242189949
 30
0.0
  0
VERTEX
  5
61
330
5F
100
AcDbEntity
  8
_U+30EC_U+30A4_U+30E4_U+30FC 1
 62
   179
420
  2234388
370
    25
100
AcDbVertex
100
AcDb2dVertex
 10
95.48152561961889
 20
-129.093242189949
 30
0.0
  0
SEQEND
  5
62
330
5F
100
AcDbEntity
  8
_U+30EC_U+30A4_U+30E4_U+30FC 1
 62
   179
420
  2234388
370
    25
  0
POLYLINE
  5
63
330
1F
100
AcDbEntity
  8
_U+30EC_U+30A4_U+30E4_U+30FC 1
 62
   179
420
  2234388
370
    25
100
AcDb2dPolyline
 66
     1
 10
0.0
 20
0.0
 30
0.0
  0
VERTEX
  5
64
330
63
100
AcDbEntity
  8
_U+30EC_U+30A4_U+30E4_U+30FC 1
 62
   179
420
  2234388
370
    25
100
AcDbVertex
100
AcDb2dVertex
 10
85.481440041409
 20
-120.2934474699267
 30
0.0
  0
VERTEX
  5
65
330
63
100
AcDbEntity
  8
_U+30EC_U+30A4_U+30E4_U+30FC 1
 62
   179
420
  2234388
370
    25
100
AcDbVertex
100
AcDb2dVertex
 10
86.68134306635248
 20
-120.2934474699267
 30
0.0
  0
SEQEND
  5
66
330
63
100
AcDbEntity
  8
_U+30EC_U+30A4_U+30E4_U+30FC 1
 62
   179
420
  2234388
370
    25
  0
POLYLINE
  5
67
330
1F
100
AcDbEntity
  8
_U+30EC_U+30A4_U+30E4_U+30FC 1
 62
   179
420
  2234388
370
    25
100
AcDb2dPolyline
 66
     1
 10
0.0
 20
0.0
 30
0.0
  0
VERTEX
  5
68
330
67
100
AcDbEntity
  8
_U+30EC_U+30A4_U+30E4_U+30FC 1
 62
   179
420
  2234388
370
    25
100
AcDbVertex
100
AcDb2dVertex
 10
95.48152561961889
 20
-129.093242189949
 30
0.0
  0
VERTEX
  5
69
330
67
100
AcDbEntity
  8
_U+30EC_U+30A4_U+30E4_U+30FC 1
 62
   179
420
  2234388
370
    25
100
AcDbVertex
100
AcDb2dVertex
 10
95.48152561961889
 20
-130.293180522982
 30
0.0
  0
SEQEND
  5
6A
330
67
100
AcDbEntity
  8
_U+30EC_U+30A4_U+30E4_U+30FC 1
 62
   179
420
  2234388
370
    25
  0
SPLINE
  5
6B
330
1F
100
AcDbEntity
  8
_U+30EC_U+30A4_U+30E4_U+30FC 1
 62
   179
420
  2234388
370
     9
100
AcDbSpline
210
0.0
220
0.0
230
1.0
 70
    11
 71
     3
 72
    17
 73
    13
 74
     0
 42
0.0000000001
 43
0.0000000001
 12
1.0
 22
0.0
 32
0.0
 13
1.0
 23
0.0
 33
0.0
 40
0.0
 40
0.0
 40
0.0
 40
0.0
 40
1.0
 40
1.0
 40
1.0
 40
2.0
 40
2.0
 40
2.0
 40
3.0
 40
3.0
 40
3.0
 40
4.0
 40
4.0
 40
4.0
 40
4.0
 10
81.58123486313374
 20
-130.293180522982
 30
0.0
 10
81.58123486313374
 20
-130.2380413563295
 30
0.0
 10
81.53646942406047
 20
-130.1932738563403
 30
0.0
 10
81.4813281990159
 20
-130.1932738563403
 30
0.0
 10
81.42622431153283
 20
-130.1932738563403
 30
0.0
 10
81.38142153489808
 20
-130.2380413563295
 30
0.0
 10
81.38142153489808
 20
-130.293180522982
 30
0.0
 10
81.38142153489808
 20
-130.3486371896353
 30
0.0
 10
81.42622431153283
 20
-130.3934046896238
 30
0.0
 10
81.4813281990159
 20
-130.3934046896238
 30
0.0
 10
81.53646942406047
 20
-130.3934046896238
 30
0.0
 10
81.58123486313374
 20
-130.3486371896353
 30
0.0
 10
81.58123486313374
 20
-130.293180522982
 30
0.0
  0
SPLINE
  5
6C
330
1F
100
AcDbEntity
  8
_U+30EC_U+30A4_U+30E4_U+30FC 1
 62
   179
420
  2234388
370
     9
100
AcDbSpline
210
0.0
220
0.0
230
1.0
 70
    11
 71
     3
 72
    17
 73
    13
 74
     0
 42
0.0000000001
 43
0.0000000001
 12
1.0
 22
0.0
 32
0.0
 13
1.0
 23
0.0
 33
0.0
 40
0.0
 40
0.0
 40
0.0
 40
0.0
 40
1.0
 40
1.0
 40
1.0
 40
2.0
 40
2.0
 40
2.0
 40
3.0
 40
3.0
 40
3.0
 40
4.0
 40
4.0
 40
4.0
 40
4.0
 10
85.58134670552684
 20
-134.2932571886491
 30
0.0
 10
85.58134670552684
 20
-134.2381532997735
 30
0.0
 10
85.53654392889207
 20
-134.1933505220074
 30
0.0
 10
85.481440041409
 20
-134.1933505220074
 30
0.0
 10
85.42594809838027
 20
-134.1933505220074
 30
0.0
 10
85.3811805995224
 20
-134.2381532997735
 30
0.0
 10
85.3811805995224
 20
-134.2932571886491
 30
0.0
 10
85.3811805995224
 20
-134.3483963553015
 30
0.0
 10
85.42594809838027
 20
-134.3931638552907
 30
0.0
 10
85.481440041409
 20
-134.3931638552907
 30
0.0
 10
85.53654392889207
 20
-134.3931638552907
 30
0.0
 10
85.58134670552684
 20
-134.3483963553015
 30
0.0
 10
85.58134670552684
 20
-134.2932571886491
 30
0.0
  0
SPLINE
  5
6D
330
1F
100
AcDbEntity
  8
_U+30EC_U+30A4_U+30E4_U+30FC 1
 62
   179
420
  2234388
370
     9
100
AcDbSpline
210
0.0
220
0.0
230
1.0
 70
    11
 71
     3
 72
    17
 73
    13
 74
     0
 42
0.0000000001
 43
0.0000000001
 12
1.0
 22
0.0
 32
0.0
 13
1.0
 23
0.0
 33
0.0
 40
0.0
 40
0.0
 40
0.0
 40
0.0
 40
1.0
 40
1.0
 40
1.0
 40
2.0
 40
2.0
 40
2.0
 40
3.0
 40
3.0
 40
3.0
 40
4.0
 40
4.0
 40
4.0
 40
4.0
 10
99.58115607058417
 20
-130.293180522982
 30
0.0
 10
99.58115607058417
 20
-130.2380413563295
 30
0.0
 10
99.53638857172628
 20
-130.1932738563403
 30
0.0
 10
99.48124940646633
 20
-130.1932738563403
 30
0.0
 10
99.42614551898326
 20
-130.1932738563403
 30
0.0
 10
99.3813427423485
 20
-130.2380413563295
 30
0.0
 10
99.3813427423485
 20
-130.293180522982
 30
0.0
 10
99.3813427423485
 20
-130.3486371896353
 30
0.0
 10
99.42614551898326
 20
-130.3934046896238
 30
0.0
 10
99.48124940646633
 20
-130.3934046896238
 30
0.0
 10
99.53638857172628
 20
-130.3934046896238
 30
0.0
 10
99.58115607058417
 20
-130.3486371896353
 30
0.0
 10
99.58115607058417
 20
-130.293180522982
 30
0.0
  0
SPLINE
  5
6E
330
1F
100
AcDbEntity
  8
_U+30EC_U+30A4_U+30E4_U+30FC 1
 62
   179
420
  2234388
370
     9
100
AcDbSpline
210
0.0
220
0.0
230
1.0
 70
    11
 71
     3
 72
    17
 73
    13
 74
     0
 42
0.0000000001
 43
0.0000000001
 12
1.0
 22
0.0
 32
0.0
 13
1.0
 23
0.0
 33
0.0
 40
0.0
 40
0.0
 40
0.0
 40
0.0
 40
1.0
 40
1.0
 40
1.0
 40
2.0
 40
2.0
 40
2.0
 40
3.0
 40
3.0
 40
3.0
 40
4.0
 40
4.0
 40
4.0
 40
4.0
 10
99.58115607058417
 20
-129.093242189949
 30
0.0
 10
99.58115607058417
 20
-129.0381030232959
 30
0.0
 10
99.53638857172628
 20
-128.9933355233074
 30
0.0
 10
99.48124940646633
 20
-128.9933355233074
 30
0.0
 10
99.42614551898326
 20
-128.9933355233074
 30
0.0
 10
99.3813427423485
 20
-129.0381030232959
 30
0.0
 10
99.3813427423485
 20
-129.093242189949
 30
0.0
 10
99.3813427423485
 20
-129.1483460788239
 30
0.0
 10
99.42614551898326
 20
-129.1931488565907
 30
0.0
 10
99.48124940646633
 20
-129.1931488565907
 30
0.0
 10
99.53638857172628
 20
-129.1931488565907
 30
0.0
 10
99.58115607058417
 20
-129.1483460788239
 30
0.0
 10
99.58115607058417
 20
-129.093242189949
 30
0.0
  0
SPLINE
  5
6F
330
1F
100
AcDbEntity
  8
_U+30EC_U+30A4_U+30E4_U+30FC 1
 62
   179
420
  2234388
370
     9
100
AcDbSpline
210
0.0
220
0.0
230
1.0
 70
    11
 71
     3
 72
    17
 73
    13
 74
     0
 42
0.0000000001
 43
0.0000000001
 12
1.0
 22
0.0
 32
0.0
 13
1.0
 23
0.0
 33
0.0
 40
0.0
 40
0.0
 40
0.0
 40
0.0
 40
1.0
 40
1.0
 40
1.0
 40
2.0
 40
2.0
 40
2.0
 40
3.0
 40
3.0
 40
3.0
 40
4.0
 40
4.0
 40
4.0
 40
4.0
 10
95.58143228373673
 20
-134.2932571886491
 30
0.0
 10
95.58143228373673
 20
-134.2381532997735
 30
0.0
 10
95.53662950710196
 20
-134.1933505220074
 30
0.0
 10
95.48152561961889
 20
-134.1933505220074
 30
0.0
 10
95.42603608725453
 20
-134.1933505220074
 30
0.0
 10
95.38158608726557
 20
-134.2381532997735
 30
0.0
 10
95.38158608726557
 20
-134.2932571886491
 30
0.0
 10
95.38158608726557
 20
-134.3483963553015
 30
0.0
 10
95.42603608725453
 20
-134.3931638552907
 30
0.0
 10
95.48152561961889
 20
-134.3931638552907
 30
0.0
 10
95.53662950710196
 20
-134.3931638552907
 30
0.0
 10
95.58143228373673
 20
-134.3483963553015
 30
0.0
 10
95.58143228373673
 20
-134.2932571886491
 30
0.0
  0
SPLINE
  5
70
330
1F
100
AcDbEntity
  8
_U+30EC_U+30A4_U+30E4_U+30FC 1
 62
   179
420
  2234388
370
     9
100
AcDbSpline
210
0.0
220
0.0
230
1.0
 70
    11
 71
     3
 72
    17
 73
    13
 74
     0
 42
0.0000000001
 43
0.0000000001
 12
1.0
 22
0.0
 32
0.0
 13
1.0
 23
0.0
 33
0.0
 40
0.0
 40
0.0
 40
0.0
 40
0.0
 40
1.0
 40
1.0
 40
1.0
 40
2.0
 40
2.0
 40
2.0
 40
3.0
 40
3.0
 40
3.0
 40
4.0
 40
4.0
 40
4.0
 40
4.0
 10
81.58123486313374
 20
-120.2934474699267
 30
0.0
 10
81.58123486313374
 20
-120.2379555254962
 30
0.0
 10
81.53646942406047
 20
-120.1931880255073
 30
0.0
 10
81.4813281990159
 20
-120.1931880255073
 30
0.0
 10
81.42622431153283
 20
-120.1931880255073
 30
0.0
 10
81.38142153489808
 20
-120.2379555254962
 30
0.0
 10
81.38142153489808
 20
-120.2934474699267
 30
0.0
 10
81.38142153489808
 20
-120.3485513588016
 30
0.0
 10
81.42622431153283
 20
-120.3933541365683
 30
0.0
 10
81.4813281990159
 20
-120.3933541365683
 30
0.0
 10
81.53646942406047
 20
-120.3933541365683
 30
0.0
 10
81.58123486313374
 20
-120.3485513588016
 30
0.0
 10
81.58123486313374
 20
-120.2934474699267
 30
0.0
  0
POLYLINE
  5
71
330
1F
100
AcDbEntity
  8
_U+30EC_U+30A4_U+30E4_U+30FC 1
 62
   179
420
  2234388
370
     9
100
AcDb2dPolyline
 66
     1
 10
0.0
 20
0.0
 30
0.0
  0
VERTEX
  5
72
330
71
100
AcDbEntity
  8
_U+30EC_U+30A4_U+30E4_U+30FC 1
 62
   179
420
  2234388
370
     9
100
AcDbVertex
100
AcDb2dVertex
 10
85.481440041409
 20
-134.2932571886491
 30
0.0
  0
VERTEX
  5
73
330
71
100
AcDbEntity
  8
_U+30EC_U+30A4_U+30E4_U+30FC 1
 62
   179
420
  2234388
370
     9
100
AcDbVertex
100
AcDb2dVertex
 10
95.48152561961889
 20
-134.2932571886491
 30
0.0
  0
SEQEND
  5
74
330
71
100
AcDbEntity
  8
_U+30EC_U+30A4_U+30E4_U+30FC 1
 62
   179
420
  2234388
370
     9
  0
POLYLINE
  5
75
330
1F
100
AcDbEntity
  8
_U+30EC_U+30A4_U+30E4_U+30FC 1
 62
   179
420
  2234388
370
     9
100
AcDb2dPolyline
 66
     1
 10
0.0
 20
0.0
 30
0.0
  0
VERTEX
  5
76
330
75
100
AcDbEntity
  8
_U+30EC_U+30A4_U+30E4_U+30FC 1
 62
   179
420
  2234388
370
     9
100
AcDbVertex
100
AcDb2dVertex
 10
85.481440041409
 20
-132.8332510779029
 30
0.0
  0
VERTEX
  5
77
330
75
100
AcDbEntity
  8
_U+30EC_U+30A4_U+30E4_U+30FC 1
 62
   179
420
  2234388
370
     9
100
AcDbVertex
100
AcDb2dVertex
 10
85.481440041409
 20
-135.2933821883987
 30
0.0
  0
SEQEND
  5
78
330
75
100
AcDbEntity
  8
_U+30EC_U+30A4_U+30E4_U+30FC 1
 62
   179
420
  2234388
370
     9
  0
POLYLINE
  5
79
330
1F
100
AcDbEntity
  8
_U+30EC_U+30A4_U+30E4_U+30FC 1
 62
   179
420
  2234388
370
     9
100
AcDb2dPolyline
 66
     1
 10
0.0
 20
0.0
 30
0.0
  0
VERTEX
  5
7A
330
79
100
AcDbEntity
  8
_U+30EC_U+30A4_U+30E4_U+30FC 1
 62
   179
420
  2234388
370
     9
100
AcDbVertex
100
AcDb2dVertex
 10
95.48152561961889
 20
-132.8332510779029
 30
0.0
  0
VERTEX
  5
7B
330
79
100
AcDbEntity
  8
_U+30EC_U+30A4_U+30E4_U+30FC 1
 62
   179
420
  2234388
370
     9
100
AcDbVertex
100
AcDb2dVertex
 10
95.48152561961889
 20
-135.2933821883987
 30
0.0
  0
SEQEND
  5
7C
330
79
100
AcDbEntity
  8
_U+30EC_U+30A4_U+30E4_U+30FC 1
 62
   179
420
  2234388
370
     9
  0
INSERT
  5
7E
330
1F
100
AcDbEntity
  8
_U+30EC_U+30A4_U+30E4_U+30FC 1
100
AcDbBlockReference
  2
block 2
 10
0.0
 20
0.0
 30
0.0
  0
SPLINE
  5
86
330
1F
100
AcDbEntity
  8
_U+30EC_U+30A4_U+30E4_U+30FC 1
 62
   179
420
  2234388
370
    25
100
AcDbSpline
210
0.0
220
0.0
230
1.0
 70
    11
 71
     3
 72
    17
 73
    13
 74
     0
 42
0.0000000001
 43
0.0000000001
 12
1.0
 22
0.0
 32
0.0
 13
1.0
 23
0.0
 33
0.0
 40
0.0
 40
0.0
 40
0.0
 40
0.0
 40
1.0
 40
1.0
 40
1.0
 40
2.0
 40
2.0
 40
2.0
 40
3.0
 40
3.0
 40
3.0
 40
4.0
 40
4.0
 40
4.0
 40
4.0
 10
85.51657670717925
 20
-130.293180522982
 30
0.0
 10
85.51657670717925
 20
-130.312794967422
 30
0.0
 10
85.50105448535304
 20
-130.3286346896399
 30
0.0
 10
85.481440041409
 20
-130.3286346896399
 30
0.0
 10
85.46179031968809
 20
-130.3286346896399
 30
0.0
 10
85.44595275641623
 20
-130.312794967422
 30
0.0
 10
85.44595275641623
 20
-130.293180522982
 30
0.0
 10
85.44595275641623
 20
-130.2738835785428
 30
0.0
 10
85.46179031968809
 20
-130.2580438563242
 30
0.0
 10
85.481440041409
 20
-130.2580438563242
 30
0.0
 10
85.50105448535304
 20
-130.2580438563242
 30
0.0
 10
85.51657670717925
 20
-130.2738835785428
 30
0.0
 10
85.51657670717925
 20
-130.293180522982
 30
0.0
  0
SPLINE
  5
87
330
1F
100
AcDbEntity
  8
_U+30EC_U+30A4_U+30E4_U+30FC 1
 62
   179
420
  2234388
370
    25
100
AcDbSpline
210
0.0
220
0.0
230
1.0
 70
    11
 71
     3
 72
    17
 73
    13
 74
     0
 42
0.0000000001
 43
0.0000000001
 12
1.0
 22
0.0
 32
0.0
 13
1.0
 23
0.0
 33
0.0
 40
0.0
 40
0.0
 40
0.0
 40
0.0
 40
1.0
 40
1.0
 40
1.0
 40
2.0
 40
2.0
 40
2.0
 40
3.0
 40
3.0
 40
3.0
 40
4.0
 40
4.0
 40
4.0
 40
4.0
 10
95.51666228538916
 20
-130.293180522982
 30
0.0
 10
95.51666228538916
 20
-130.312794967422
 30
0.0
 10
95.50078728579416
 20
-130.3286346896399
 30
0.0
 10
95.48152561961889
 20
-130.3286346896399
 30
0.0
 10
95.46187589789798
 20
-130.3286346896399
 30
0.0
 10
95.44603617607986
 20
-130.312794967422
 30
0.0
 10
95.44603617607986
 20
-130.293180522982
 30
0.0
 10
95.44603617607986
 20
-130.2738835785428
 30
0.0
 10
95.46187589789798
 20
-130.2580438563242
 30
0.0
 10
95.48152561961889
 20
-130.2580438563242
 30
0.0
 10
95.50078728579416
 20
-130.2580438563242
 30
0.0
 10
95.51666228538916
 20
-130.2738835785428
 30
0.0
 10
95.51666228538916
 20
-130.293180522982
 30
0.0
  0
SPLINE
  5
88
330
1F
100
AcDbEntity
  8
_U+30EC_U+30A4_U+30E4_U+30FC 1
 62
   179
420
  2234388
370
     9
100
AcDbSpline
210
0.0
220
0.0
230
1.0
 70
    11
 71
     3
 72
    17
 73
    13
 74
     0
 42
0.0000000001
 43
0.0000000001
 12
1.0
 22
0.0
 32
0.0
 13
1.0
 23
0.0
 33
0.0
 40
0.0
 40
0.0
 40
0.0
 40
0.0
 40
1.0
 40
1.0
 40
1.0
 40
2.0
 40
2.0
 40
2.0
 40
3.0
 40
3.0
 40
3.0
 40
4.0
 40
4.0
 40
4.0
 40
4.0
 10
95.51666228538916
 20
-134.2932571886491
 30
0.0
 10
95.51666228538916
 20
-134.312906910866
 30
0.0
 10
95.50078728579416
 20
-134.3283938553068
 30
0.0
 10
95.48152561961889
 20
-134.3283938553068
 30
0.0
 10
95.46187589789798
 20
-134.3283938553068
 30
0.0
 10
95.44603617607986
 20
-134.312906910866
 30
0.0
 10
95.44603617607986
 20
-134.2932571886491
 30
0.0
 10
95.44603617607986
 20
-134.2739602442093
 30
0.0
 10
95.46187589789798
 20
-134.2581205219907
 30
0.0
 10
95.48152561961889
 20
-134.2581205219907
 30
0.0
 10
95.50078728579416
 20
-134.2581205219907
 30
0.0
 10
95.51666228538916
 20
-134.2739602442093
 30
0.0
 10
95.51666228538916
 20
-134.2932571886491
 30
0.0
  0
POLYLINE
  5
89
330
1F
100
AcDbEntity
  8
_U+30EC_U+30A4_U+30E4_U+30FC 1
 62
   179
420
  2234388
370
     9
100
AcDb2dPolyline
 66
     1
 10
0.0
 20
0.0
 30
0.0
  0
VERTEX
  5
8A
330
89
100
AcDbEntity
  8
_U+30EC_U+30A4_U+30E4_U+30FC 1
 62
   179
420
  2234388
370
     9
100
AcDbVertex
100
AcDb2dVertex
 10
81.4813281990159
 20
-120.2934474699267
 30
0.0
  0
VERTEX
  5
8B
330
89
100
AcDbEntity
  8
_U+30EC_U+30A4_U+30E4_U+30FC 1
 62
   179
420
  2234388
370
     9
100
AcDbVertex
100
AcDb2dVertex
 10
81.4813281990159
 20
-130.293180522982
 30
0.0
  0
SEQEND
  5
8C
330
89
100
AcDbEntity
  8
_U+30EC_U+30A4_U+30E4_U+30FC 1
 62
   179
420
  2234388
370
     9
  0
POLYLINE
  5
8D
330
1F
100
AcDbEntity
  8
_U+30EC_U+30A4_U+30E4_U+30FC 1
 62
   179
420
  2234388
370
     9
100
AcDb2dPolyline
 66
     1
 10
0.0
 20
0.0
 30
0.0
  0
VERTEX
  5
8E
330
8D
100
AcDbEntity
  8
_U+30EC_U+30A4_U+30E4_U+30FC 1
 62
   179
420
  2234388
370
     9
100
AcDbVertex
100
AcDb2dVertex
 10
82.94136955065605
 20
-120.2934474699267
 30
0.0
  0
VERTEX
  5
8F
330
8D
100
AcDbEntity
  8
_U+30EC_U+30A4_U+30E4_U+30FC 1
 62
   179
420
  2234388
370
     9
100
AcDbVertex
100
AcDb2dVertex
 10
80.48155600230001
 20
-120.2934474699267
 30
0.0
  0
SEQEND
  5
90
330
8D
100
AcDbEntity
  8
_U+30EC_U+30A4_U+30E4_U+30FC 1
 62
   179
420
  2234388
370
     9
  0
POLYLINE
  5
91
330
1F
100
AcDbEntity
  8
_U+30EC_U+30A4_U+30E4_U+30FC 1
 62
   179
420
  2234388
370
     9
100
AcDb2dPolyline
 66
     1
 10
0.0
 20
0.0
 30
0.0
  0
VERTEX
  5
92
330
91
100
AcDbEntity
  8
_U+30EC_U+30A4_U+30E4_U+30FC 1
 62
   179
420
  2234388
370
     9
100
AcDbVertex
100
AcDb2dVertex
 10
82.94136955065605
 20
-130.293180522982
 30
0.0
  0
VERTEX
  5
93
330
91
100
AcDbEntity
  8
_U+30EC_U+30A4_U+30E4_U+30FC 1
 62
   179
420
  2234388
370
     9
100
AcDbVertex
100
AcDb2dVertex
 10
80.48155600230001
 20
-130.293180522982
 30
0.0
  0
SEQEND
  5
94
330
91
100
AcDbEntity
  8
_U+30EC_U+30A4_U+30E4_U+30FC 1
 62
   179
420
  2234388
370
     9
  0
INSERT
  5
96
330
1F
100
AcDbEntity
  8
_U+30EC_U+30A4_U+30E4_U+30FC 1
100
AcDbBlockReference
  2
block 3
 10
0.0
 20
0.0
 30
0.0
  0
SPLINE
  5
9E
330
1F
100
AcDbEntity
  8
_U+30EC_U+30A4_U+30E4_U+30FC 1
 62
   179
420
  2234388
370
    25
100
AcDbSpline
210
0.0
220
0.0
230
1.0
 70
    11
 71
     3
 72
    17
 73
    13
 74
     0
 42
0.0000000001
 43
0.0000000001
 12
1.0
 22
0.0
 32
0.0
 13
1.0
 23
0.0
 33
0.0
 40
0.0
 40
0.0
 40
0.0
 40
0.0
 40
1.0
 40
1.0
 40
1.0
 40
2.0
 40
2.0
 40
2.0
 40
3.0
 40
3.0
 40
3.0
 40
4.0
 40
4.0
 40
4.0
 40
4.0
 10
85.51657670717925
 20
-120.2934474699267
 30
0.0
 10
85.51657670717925
 20
-120.3127091365884
 30
0.0
 10
85.50105448535304
 20
-120.3285841365844
 30
0.0
 10
85.481440041409
 20
-120.3285841365844
 30
0.0
 10
85.46179031968809
 20
-120.3285841365844
 30
0.0
 10
85.44595275641623
 20
-120.3127091365884
 30
0.0
 10
85.44595275641623
 20
-120.2934474699267
 30
0.0
 10
85.44595275641623
 20
-120.2737977477094
 30
0.0
 10
85.46179031968809
 20
-120.2579580254912
 30
0.0
 10
85.481440041409
 20
-120.2579580254912
 30
0.0
 10
85.50105448535304
 20
-120.2579580254912
 30
0.0
 10
85.51657670717925
 20
-120.2737977477094
 30
0.0
 10
85.51657670717925
 20
-120.2934474699267
 30
0.0
  0
SPLINE
  5
9F
330
1F
100
AcDbEntity
  8
_U+30EC_U+30A4_U+30E4_U+30FC 1
 62
   179
420
  2234388
370
    25
100
AcDbSpline
210
0.0
220
0.0
230
1.0
 70
    11
 71
     3
 72
    17
 73
    13
 74
     0
 42
0.0000000001
 43
0.0000000001
 12
1.0
 22
0.0
 32
0.0
 13
1.0
 23
0.0
 33
0.0
 40
0.0
 40
0.0
 40
0.0
 40
0.0
 40
1.0
 40
1.0
 40
1.0
 40
2.0
 40
2.0
 40
2.0
 40
3.0
 40
3.0
 40
3.0
 40
4.0
 40
4.0
 40
4.0
 40
4.0
 10
85.51657670717925
 20
-130.293180522982
 30
0.0
 10
85.51657670717925
 20
-130.312794967422
 30
0.0
 10
85.50105448535304
 20
-130.3286346896399
 30
0.0
 10
85.481440041409
 20
-130.3286346896399
 30
0.0
 10
85.46179031968809
 20
-130.3286346896399
 30
0.0
 10
85.44595275641623
 20
-130.312794967422
 30
0.0
 10
85.44595275641623
 20
-130.293180522982
 30
0.0
 10
85.44595275641623
 20
-130.2738835785428
 30
0.0
 10
85.46179031968809
 20
-130.2580438563242
 30
0.0
 10
85.481440041409
 20
-130.2580438563242
 30
0.0
 10
85.50105448535304
 20
-130.2580438563242
 30
0.0
 10
85.51657670717925
 20
-130.2738835785428
 30
0.0
 10
85.51657670717925
 20
-130.293180522982
 30
0.0
  0
SPLINE
  5
A0
330
1F
100
AcDbEntity
  8
_U+30EC_U+30A4_U+30E4_U+30FC 1
 62
   179
420
  2234388
370
     9
100
AcDbSpline
210
0.0
220
0.0
230
1.0
 70
    11
 71
     3
 72
    17
 73
    13
 74
     0
 42
0.0000000001
 43
0.0000000001
 12
1.0
 22
0.0
 32
0.0
 13
1.0
 23
0.0
 33
0.0
 40
0.0
 40
0.0
 40
0.0
 40
0.0
 40
1.0
 40
1.0
 40
1.0
 40
2.0
 40
2.0
 40
2.0
 40
3.0
 40
3.0
 40
3.0
 40
4.0
 40
4.0
 40
4.0
 40
4.0
 10
81.51646486478617
 20
-130.293180522982
 30
0.0
 10
81.51646486478617
 20
-130.312794967422
 30
0.0
 10
81.50062514296805
 20
-130.3286346896399
 30
0.0
 10
81.4813281990159
 20
-130.3286346896399
 30
0.0
 10
81.46203331296789
 20
-130.3286346896399
 30
0.0
 10
81.44619153324565
 20
-130.312794967422
 30
0.0
 10
81.44619153324565
 20
-130.293180522982
 30
0.0
 10
81.44619153324565
 20
-130.2738835785428
 30
0.0
 10
81.46203331296789
 20
-130.2580438563242
 30
0.0
 10
81.4813281990159
 20
-130.2580438563242
 30
0.0
 10
81.50062514296805
 20
-130.2580438563242
 30
0.0
 10
81.51646486478617
 20
-130.2738835785428
 30
0.0
 10
81.51646486478617
 20
-130.293180522982
 30
0.0
  0
POLYLINE
  5
A1
330
1F
100
AcDbEntity
  8
_U+30EC_U+30A4_U+30E4_U+30FC 1
 62
   179
420
  2234388
370
     9
100
AcDb2dPolyline
 66
     1
 10
0.0
 20
0.0
 30
0.0
  0
VERTEX
  5
A2
330
A1
100
AcDbEntity
  8
_U+30EC_U+30A4_U+30E4_U+30FC 1
 62
   179
420
  2234388
370
     9
100
AcDbVertex
100
AcDb2dVertex
 10
99.48124940646633
 20
-131.2932702449548
 30
0.0
  0
VERTEX
  5
A3
330
A1
100
AcDbEntity
  8
_U+30EC_U+30A4_U+30E4_U+30FC 1
 62
   179
420
  2234388
370
     9
100
AcDbVertex
100
AcDb2dVertex
 10
99.48124940646633
 20
-129.093242189949
 30
0.0
  0
SEQEND
  5
A4
330
A1
100
AcDbEntity
  8
_U+30EC_U+30A4_U+30E4_U+30FC 1
 62
   179
420
  2234388
370
     9
  0
POLYLINE
  5
A5
330
1F
100
AcDbEntity
  8
_U+30EC_U+30A4_U+30E4_U+30FC 1
 62
   179
420
  2234388
370
     9
100
AcDb2dPolyline
 66
     1
 10
0.0
 20
0.0
 30
0.0
  0
VERTEX
  5
A6
330
A5
100
AcDbEntity
  8
_U+30EC_U+30A4_U+30E4_U+30FC 1
 62
   179
420
  2234388
370
     9
100
AcDbVertex
100
AcDb2dVertex
 10
98.02124333260308
 20
-130.293180522982
 30
0.0
  0
VERTEX
  5
A7
330
A5
100
AcDbEntity
  8
_U+30EC_U+30A4_U+30E4_U+30FC 1
 62
   179
420
  2234388
370
     9
100
AcDbVertex
100
AcDb2dVertex
 10
100.481374380951
 20
-130.293180522982
 30
0.0
  0
SEQEND
  5
A8
330
A5
100
AcDbEntity
  8
_U+30EC_U+30A4_U+30E4_U+30FC 1
 62
   179
420
  2234388
370
     9
  0
POLYLINE
  5
A9
330
1F
100
AcDbEntity
  8
_U+30EC_U+30A4_U+30E4_U+30FC 1
 62
   179
420
  2234388
370
     9
100
AcDb2dPolyline
 66
     1
 10
0.0
 20
0.0
 30
0.0
  0
VERTEX
  5
AA
330
A9
100
AcDbEntity
  8
_U+30EC_U+30A4_U+30E4_U+30FC 1
 62
   179
420
  2234388
370
     9
100
AcDbVertex
100
AcDb2dVertex
 10
98.02124333260308
 20
-129.093242189949
 30
0.0
  0
VERTEX
  5
AB
330
A9
100
AcDbEntity
  8
_U+30EC_U+30A4_U+30E4_U+30FC 1
 62
   179
420
  2234388
370
     9
100
AcDbVertex
100
AcDb2dVertex
 10
100.481374380951
 20
-129.093242189949
 30
0.0
  0
SEQEND
  5
AC
330
A9
100
AcDbEntity
  8
_U+30EC_U+30A4_U+30E4_U+30FC 1
 62
   179
420
  2234388
370
     9
  0
INSERT
  5
AE
330
1F
100
AcDbEntity
  8
_U+30EC_U+30A4_U+30E4_U+30FC 1
100
AcDbBlockReference
  2
block 4
 10
0.0
 20
0.0
 30
0.0
  0
SPLINE
  5
BD
330
1F
100
AcDbEntity
  8
_U+30EC_U+30A4_U+30E4_U+30FC 1
 62
   179
420
  2234388
370
    25
100
AcDbSpline
210
0.0
220
0.0
230
1.0
 70
    11
 71
     3
 72
    17
 73
    13
 74
     0
 42
0.0000000001
 43
0.0000000001
 12
1.0
 22
0.0
 32
0.0
 13
1.0
 23
0.0
 33
0.0
 40
0.0
 40
0.0
 40
0.0
 40
0.0
 40
1.0
 40
1.0
 40
1.0
 40
2.0
 40
2.0
 40
2.0
 40
3.0
 40
3.0
 40
3.0
 40
4.0
 40
4.0
 40
4.0
 40
4.0
 10
95.51666228538916
 20
-130.293180522982
 30
0.0
 10
95.51666228538916
 20
-130.312794967422
 30
0.0
 10
95.50078728579416
 20
-130.3286346896399
 30
0.0
 10
95.48152561961889
 20
-130.3286346896399
 30
0.0
 10
95.46187589789798
 20
-130.3286346896399
 30
0.0
 10
95.44603617607986
 20
-130.312794967422
 30
0.0
 10
95.44603617607986
 20
-130.293180522982
 30
0.0
 10
95.44603617607986
 20
-130.2738835785428
 30
0.0
 10
95.46187589789798
 20
-130.2580438563242
 30
0.0
 10
95.48152561961889
 20
-130.2580438563242
 30
0.0
 10
95.50078728579416
 20
-130.2580438563242
 30
0.0
 10
95.51666228538916
 20
-130.2738835785428
 30
0.0
 10
95.51666228538916
 20
-130.293180522982
 30
0.0
  0
SPLINE
  5
BE
330
1F
100
AcDbEntity
  8
_U+30EC_U+30A4_U+30E4_U+30FC 1
 62
   179
420
  2234388
370
    25
100
AcDbSpline
210
0.0
220
0.0
230
1.0
 70
    11
 71
     3
 72
    17
 73
    13
 74
     0
 42
0.0000000001
 43
0.0000000001
 12
1.0
 22
0.0
 32
0.0
 13
1.0
 23
0.0
 33
0.0
 40
0.0
 40
0.0
 40
0.0
 40
0.0
 40
1.0
 40
1.0
 40
1.0
 40
2.0
 40
2.0
 40
2.0
 40
3.0
 40
3.0
 40
3.0
 40
4.0
 40
4.0
 40
4.0
 40
4.0
 10
95.51666228538916
 20
-129.093242189949
 30
0.0
 10
95.51666228538916
 20
-129.112891912166
 30
0.0
 10
95.50078728579416
 20
-129.1287316343845
 30
0.0
 10
95.48152561961889
 20
-129.1287316343845
 30
0.0
 10
95.46187589789798
 20
-129.1287316343845
 30
0.0
 10
95.44603617607986
 20
-129.112891912166
 30
0.0
 10
95.44603617607986
 20
-129.093242189949
 30
0.0
 10
95.44603617607986
 20
-129.0739452455092
 30
0.0
 10
95.46187589789798
 20
-129.0581055232913
 30
0.0
 10
95.48152561961889
 20
-129.0581055232913
 30
0.0
 10
95.50078728579416
 20
-129.0581055232913
 30
0.0
 10
95.51666228538916
 20
-129.0739452455092
 30
0.0
 10
95.51666228538916
 20
-129.093242189949
 30
0.0
  0
SPLINE
  5
BF
330
1F
100
AcDbEntity
  8
_U+30EC_U+30A4_U+30E4_U+30FC 1
 62
   179
420
  2234388
370
     9
100
AcDbSpline
210
0.0
220
0.0
230
1.0
 70
    11
 71
     3
 72
    17
 73
    13
 74
     0
 42
0.0000000001
 43
0.0000000001
 12
1.0
 22
0.0
 32
0.0
 13
1.0
 23
0.0
 33
0.0
 40
0.0
 40
0.0
 40
0.0
 40
0.0
 40
1.0
 40
1.0
 40
1.0
 40
2.0
 40
2.0
 40
2.0
 40
3.0
 40
3.0
 40
3.0
 40
4.0
 40
4.0
 40
4.0
 40
4.0
 10
99.51642135001346
 20
-129.093242189949
 30
0.0
 10
99.51642135001346
 20
-129.112891912166
 30
0.0
 10
99.50089912818724
 20
-129.1287316343845
 30
0.0
 10
99.48124940646633
 20
-129.1287316343845
 30
0.0
 10
99.46198774029106
 20
-129.1287316343845
 30
0.0
 10
99.44611274069608
 20
-129.112891912166
 30
0.0
 10
99.44611274069608
 20
-129.093242189949
 30
0.0
 10
99.44611274069608
 20
-129.0739452455092
 30
0.0
 10
99.46198774029106
 20
-129.0581055232913
 30
0.0
 10
99.48124940646633
 20
-129.0581055232913
 30
0.0
 10
99.50089912818724
 20
-129.0581055232913
 30
0.0
 10
99.51642135001346
 20
-129.0739452455092
 30
0.0
 10
99.51642135001346
 20
-129.093242189949
 30
0.0
  0
ENDSEC
  0
SECTION
  2
OBJECTS
  0
DICTIONARY
  5
C
330
0
100
AcDbDictionary
281
     1
  3
ACAD_GROUP
350
D
  3
ACAD_LAYOUT
350
1A
  3
ACAD_MATERIAL
350
3B
  3
ACAD_MLEADERSTYLE
350
C1
  3
ACAD_MLINESTYLE
350
17
  3
ACAD_PLOTSETTINGS
350
19
  3
ACAD_PLOTSTYLENAME
350
E
  3
ACAD_TABLESTYLE
350
C0
  3
ACAD_VISUALSTYLE
350
2A
  0
SUN
  5
3F
330
29
100
AcDbSun
 90
        1
290
     0
 63
     7
421
 16777215
 40
1.0
291
     1
 91
  2455826
 92
 54000000
292
     0
 70
     2
 71
   256
280
     1
  0
DICTIONARY
  5
D
102
{ACAD_REACTORS
330
C
102
}
330
C
100
AcDbDictionary
281
     1
  0
DICTIONARY
  5
1A
102
{ACAD_REACTORS
330
C
102
}
330
C
100
AcDbDictionary
281
     1
  3
Layout1
350
1E
  3
Layout2
350
26
  3
Model
350
22
  0
DICTIONARY
  5
3B
102
{ACAD_REACTORS
330
C
102
}
330
C
100
AcDbDictionary
281
     1
  3
ByBlock
350
3D
  3
ByLayer
350
3C
  3
Global
350
3E
  0
DICTIONARY
  5
C1
102
{ACAD_REACTORS
330
C
102
}
330
C
100
AcDbDictionary
281
     1
  0
DICTIONARY
  5
17
102
{ACAD_REACTORS
330
C
102
}
330
C
100
AcDbDictionary
281
     1
  3
Standard
350
18
  0
DICTIONARY
  5
19
102
{ACAD_REACTORS
330
C
102
}
330
C
100
AcDbDictionary
281
     1
  0
ACDBDICTIONARYWDFLT
  5
E
102
{ACAD_REACTORS
330
C
102
}
330
C
100
AcDbDictionary
281
     1
  3
Normal
350
F
100
AcDbDictionaryWithDefault
340
F
  0
DICTIONARY
  5
C0
102
{ACAD_REACTORS
330
C
102
}
330
C
100
AcDbDictionary
281
     1
  0
DICTIONARY
  5
2A
102
{ACAD_REACTORS
330
C
102
}
330
C
100
AcDbDictionary
281
     1
  3
2dWireframe
350
2F
  3
3D Hidden
350
31
  3
3dWireframe
350
30
  3
Basic
350
32
  3
Brighten
350
36
  3
ColorChange
350
3A
  3
Conceptual
350
34
  3
Dim
350
35
  3
Facepattern
350
39
  3
Flat
350
2B
  3
FlatWithEdges
350
2C
  3
Gouraud
350
2D
  3
GouraudWithEdges
350
2E
  3
Linepattern
350
38
  3
Realistic
350
33
  3
Thicken
350
37
  0
LAYOUT
  5
1E
102
{ACAD_REACTORS
330
1A
102
}
330
1A
100
AcDbPlotSettings
  1

  2
none_device
  4

  6

 40
0.0
 41
0.0
 42
0.0
 43
0.0
 44
0.0
 45
0.0
 46
0.0
 47
0.0
 48
0.0
 49
0.0
140
0.0
141
0.0
142
1.0
143
1.0
 70
   688
 72
     0
 73
     0
 74
     5
  7

 75
    16
 76
     0
 77
     2
 78
   300
147
1.0
148
0.0
149
0.0
100
AcDbLayout
  1
Layout1
 70
     1
 71
     1
 10
0.0
 20
0.0
 11
12.0
 21
9.0
 12
0.0
 22
0.0
 32
0.0
 14
1.000000000000000E+20
 24
1.000000000000000E+20
 34
1.000000000000000E+20
 15
-1.000000000000000E+20
 25
-1.000000000000000E+20
 35
-1.000000000000000E+20
146
0.0
 13
0.0
 23
0.0
 33
0.0
 16
1.0
 26
0.0
 36
0.0
 17
0.0
 27
1.0
 37
0.0
 76
     0
330
1B
  0
LAYOUT
  5
26
102
{ACAD_REACTORS
330
1A
102
}
330
1A
100
AcDbPlotSettings
  1

  2
none_device
  4

  6

 40
0.0
 41
0.0
 42
0.0
 43
0.0
 44
0.0
 45
0.0
 46
0.0
 47
0.0
 48
0.0
 49
0.0
140
0.0
141
0.0
142
1.0
143
1.0
 70
   688
 72
     0
 73
     0
 74
     5
  7

 75
    16
 76
     0
 77
     2
 78
   300
147
1.0
148
0.0
149
0.0
100
AcDbLayout
  1
Layout2
 70
     1
 71
     2
 10
0.0
 20
0.0
 11
0.0
 21
0.0
 12
0.0
 22
0.0
 32
0.0
 14
0.0
 24
0.0
 34
0.0
 15
0.0
 25
0.0
 35
0.0
146
0.0
 13
0.0
 23
0.0
 33
0.0
 16
1.0
 26
0.0
 36
0.0
 17
0.0
 27
1.0
 37
0.0
 76
     0
330
23
  0
LAYOUT
  5
22
102
{ACAD_REACTORS
330
1A
102
}
330
1A
100
AcDbPlotSettings
  1

  2
none_device
  4

  6

 40
0.0
 41
0.0
 42
0.0
 43
0.0
 44
0.0
 45
0.0
 46
0.0
 47
0.0
 48
0.0
 49
0.0
140
0.0
141
0.0
142
1.0
143
1.0
 70
  1712
 72
     0
 73
     0
 74
     0
  7

 75
     0
 76
     0
 77
     2
 78
   300
147
1.0
148
0.0
149
0.0
100
AcDbLayout
  1
Model
 70
     1
 71
     0
 10
0.0
 20
0.0
 11
12.0
 21
9.0
 12
0.0
 22
0.0
 32
0.0
 14
1.000000000000000E+20
 24
1.000000000000000E+20
 34
1.000000000000000E+20
 15
-1.000000000000000E+20
 25
-1.000000000000000E+20
 35
-1.000000000000000E+20
146
0.0
 13
0.0
 23
0.0
 33
0.0
 16
1.0
 26
0.0
 36
0.0
 17
0.0
 27
1.0
 37
0.0
 76
     0
330
1F
331
29
  0
MATERIAL
  5
3D
102
{ACAD_REACTORS
330
3B
102
}
330
3B
100
AcDbMaterial
  1
ByBlock
 72
     1
 94
      127
  0
MATERIAL
  5
3C
102
{ACAD_REACTORS
330
3B
102
}
330
3B
100
AcDbMaterial
  1
ByLayer
 72
     1
 94
      127
  0
MATERIAL
  5
3E
102
{ACAD_REACTORS
330
3B
102
}
330
3B
100
AcDbMaterial
  1
Global
 72
     1
 94
      127
  0
MLINESTYLE
  5
18
102
{ACAD_REACTORS
330
17
102
}
330
17
100
AcDbMlineStyle
  2
Standard
 70
     0
  3

 62
   256
 51
90.0
 52
90.0
 71
     2
 49
0.5
 62
   256
  6
BYLAYER
 49
-0.5
 62
   256
  6
BYLAYER
  0
ACDBPLACEHOLDER
  5
F
102
{ACAD_REACTORS
330
E
102
}
330
E
  0
VISUALSTYLE
  5
2F
102
{ACAD_REACTORS
330
2A
102
}
330
2A
100
AcDbVisualStyle
  2
2dWireframe
 70
     4
177
     2
291
     0
 71
     0
176
     1
 72
     2
176
     1
 73
     0
176
     1
 90
        0
176
     1
 40
-0.6
176
     1
 41
-30.0
176
     1
 62
     5
 63
     7
421
 16777215
176
     1
 74
     1
176
     1
 91
        4
176
     1
 64
     7
176
     1
 65
   257
176
     1
 75
     1
176
     1
175
     1
176
     1
 42
1.0
176
     1
 92
        0
176
     1
 66
   257
176
     1
 43
1.0
176
     1
 76
     1
176
     1
 77
     6
176
     1
 78
     2
176
     1
 67
     7
176
     1
 79
     5
176
     1
170
     0
176
     1
171
     0
176
     1
290
     0
176
     1
 93
        1
176
     1
 44
0.0
176
     1
173
     0
176
     1
  0
VISUALSTYLE
  5
31
102
{ACAD_REACTORS
330
2A
102
}
330
2A
100
AcDbVisualStyle
  2
3D Hidden
 70
     6
177
     2
291
     0
 71
     1
176
     1
 72
     2
176
     1
 73
     2
176
     1
 90
        0
176
     1
 40
-0.6
176
     1
 41
-30.0
176
     1
 62
     5
 63
     7
421
 16777215
176
     1
 74
     2
176
     1
 91
        2
176
     1
 64
     7
176
     1
 65
   257
176
     1
 75
     2
176
     1
175
     1
176
     1
 42
40.0
176
     1
 92
        0
176
     1
 66
   257
176
     1
 43
1.0
176
     1
 76
     1
176
     1
 77
     6
176
     1
 78
     2
176
     1
 67
     7
176
     1
 79
     3
176
     1
170
     0
176
     1
171
     0
176
     1
290
     0
176
     1
 93
        1
176
     1
 44
0.0
176
     1
173
     0
176
     1
  0
VISUALSTYLE
  5
30
102
{ACAD_REACTORS
330
2A
102
}
330
2A
100
AcDbVisualStyle
  2
3dWireframe
 70
     5
177
     2
291
     0
 71
     0
176
     1
 72
     2
176
     1
 73
     0
176
     1
 90
        0
176
     1
 40
-0.6
176
     1
 41
-30.0
176
     1
 62
     5
 63
     7
421
 16777215
176
     1
 74
     1
176
     1
 91
        4
176
     1
 64
     7
176
     1
 65
   257
176
     1
 75
     1
176
     1
175
     1
176
     1
 42
1.0
176
     1
 92
        0
176
     1
 66
   257
176
     1
 43
1.0
176
     1
 76
     1
176
     1
 77
     6
176
     1
 78
     2
176
     1
 67
     7
176
     1
 79
     5
176
     1
170
     0
176
     1
171
     0
176
     1
290
     0
176
     1
 93
        1
176
     1
 44
0.0
176
     1
173
     0
176
     1
  0
VISUALSTYLE
  5
32
102
{ACAD_REACTORS
330
2A
102
}
330
2A
100
AcDbVisualStyle
  2
Basic
 70
     7
177
     2
291
     1
 71
     1
176
     1
 72
     0
176
     1
 73
     1
176
     1
 90
        0
176
     1
 40
-0.6
176
     1
 41
-30.0
176
     1
 62
     5
 63
     7
421
 16777215
176
     1
 74
     0
176
     1
 91
        4
176
     1
 64
     7
176
     1
 65
   257
176
     1
 75
     1
176
     1
175
     1
176
     1
 42
1.0
176
     1
 92
        8
176
     1
 66
     7
176
     1
 43
1.0
176
     1
 76
     1
176
     1
 77
     6
176
     1
 78
     2
176
     1
 67
     7
176
     1
 79
     5
176
     1
170
     0
176
     1
171
     0
176
     1
290
     0
176
     1
 93
        1
176
     1
 44
0.0
176
     1
173
     0
176
     1
  0
VISUALSTYLE
  5
36
102
{ACAD_REACTORS
330
2A
102
}
330
2A
100
AcDbVisualStyle
  2
Brighten
 70
    12
177
     2
291
     1
 71
     2
176
     1
 72
     2
176
     1
 73
     0
176
     1
 90
        0
176
     1
 40
-0.6
176
     1
 41
-30.0
176
     1
 62
     5
 63
     7
421
 16777215
176
     1
 74
     1
176
     1
 91
        4
176
     1
 64
     7
176
     1
 65
   257
176
     1
 75
     1
176
     1
175
     1
176
     1
 42
1.0
176
     1
 92
        8
176
     1
 66
     7
176
     1
 43
1.0
176
     1
 76
     1
176
     1
 77
     6
176
     1
 78
     2
176
     1
 67
     7
176
     1
 79
     5
176
     1
170
     0
176
     1
171
     0
176
     1
290
     0
176
     1
 93
        1
176
     1
 44
50.0
176
     1
173
     0
176
     1
  0
VISUALSTYLE
  5
3A
102
{ACAD_REACTORS
330
2A
102
}
330
2A
100
AcDbVisualStyle
  2
ColorChange
 70
    16
177
     2
291
     1
 71
     2
176
     1
 72
     2
176
     1
 73
     3
176
     1
 90
        0
176
     1
 40
-0.6
176
     1
 41
-30.0
176
     1
 62
     5
 63
     8
421
  8421504
176
     1
 74
     1
176
     1
 91
        4
176
     1
 64
     7
176
     1
 65
   257
176
     1
 75
     1
176
     1
175
     1
176
     1
 42
1.0
176
     1
 92
        8
176
     1
 66
     8
424
  8421504
176
     1
 43
1.0
176
     1
 76
     1
176
     1
 77
     6
176
     1
 78
     2
176
     1
 67
     7
176
     1
 79
     5
176
     1
170
     0
176
     1
171
     0
176
     1
290
     0
176
     1
 93
        1
176
     1
 44
0.0
176
     1
173
     0
176
     1
  0
VISUALSTYLE
  5
34
102
{ACAD_REACTORS
330
2A
102
}
330
2A
100
AcDbVisualStyle
  2
Conceptual
 70
     9
177
     2
291
     0
 71
     3
176
     1
 72
     2
176
     1
 73
     0
176
     1
 90
        0
176
     1
 40
-0.6
176
     1
 41
-30.0
176
     1
 62
     5
 63
     7
421
 16777215
176
     1
 74
     2
176
     1
 91
        2
176
     1
 64
     7
176
     1
 65
   257
176
     1
 75
     1
176
     1
175
     1
176
     1
 42
40.0
176
     1
 92
        8
176
     1
 66
     7
176
     1
 43
1.0
176
     1
 76
     1
176
     1
 77
     6
176
     1
 78
     2
176
     1
 67
     7
176
     1
 79
     3
176
     1
170
     0
176
     1
171
     0
176
     1
290
     0
176
     1
 93
        1
176
     1
 44
0.0
176
     1
173
     0
176
     1
  0
VISUALSTYLE
  5
35
102
{ACAD_REACTORS
330
2A
102
}
330
2A
100
AcDbVisualStyle
  2
Dim
 70
    11
177
     2
291
     1
 71
     2
176
     1
 72
     2
176
     1
 73
     0
176
     1
 90
        0
176
     1
 40
-0.6
176
     1
 41
-30.0
176
     1
 62
     5
 63
     7
421
 16777215
176
     1
 74
     1
176
     1
 91
        4
176
     1
 64
     7
176
     1
 65
   257
176
     1
 75
     1
176
     1
175
     1
176
     1
 42
1.0
176
     1
 92
        8
176
     1
 66
     7
176
     1
 43
1.0
176
     1
 76
     1
176
     1
 77
     6
176
     1
 78
     2
176
     1
 67
     7
176
     1
 79
     5
176
     1
170
     0
176
     1
171
     0
176
     1
290
     0
176
     1
 93
        1
176
     1
 44
-50.0
176
     1
173
     0
176
     1
  0
VISUALSTYLE
  5
39
102
{ACAD_REACTORS
330
2A
102
}
330
2A
100
AcDbVisualStyle
  2
Facepattern
 70
    15
177
     2
291
     1
 71
     2
176
     1
 72
     2
176
     1
 73
     0
176
     1
 90
        0
176
     1
 40
-0.6
176
     1
 41
-30.0
176
     1
 62
     5
 63
     7
421
 16777215
176
     1
 74
     1
176
     1
 91
        4
176
     1
 64
     7
176
     1
 65
   257
176
     1
 75
     1
176
     1
175
     1
176
     1
 42
1.0
176
     1
 92
        8
176
     1
 66
     7
176
     1
 43
1.0
176
     1
 76
     1
176
     1
 77
     6
176
     1
 78
     2
176
     1
 67
     7
176
     1
 79
     5
176
     1
170
     0
176
     1
171
     0
176
     1
290
     0
176
     1
 93
        1
176
     1
 44
0.0
176
     1
173
     0
176
     1
  0
VISUALSTYLE
  5
2B
102
{ACAD_REACTORS
330
2A
102
}
330
2A
100
AcDbVisualStyle
  2
Flat
 70
     0
177
     2
291
     1
 71
     2
176
     1
 72
     1
176
     1
 73
     1
176
     1
 90
        2
176
     1
 40
-0.6
176
     1
 41
30.0
176
     1
 62
     5
 63
     7
421
 16777215
176
     1
 74
     0
176
     1
 91
        4
176
     1
 64
     7
176
     1
 65
   257
176
     1
 75
     1
176
     1
175
     1
176
     1
 42
1.0
176
     1
 92
        8
176
     1
 66
     7
176
     1
 43
1.0
176
     1
 76
     1
176
     1
 77
     6
176
     1
 78
     2
176
     1
 67
     7
176
     1
 79
     5
176
     1
170
     0
176
     1
171
     0
176
     1
290
     0
176
     1
 93
       13
176
     1
 44
0.0
176
     1
173
     0
176
     1
  0
VISUALSTYLE
  5
2C
102
{ACAD_REACTORS
330
2A
102
}
330
2A
100
AcDbVisualStyle
  2
FlatWithEdges
 70
     1
177
     2
291
     1
 71
     2
176
     1
 72
     1
176
     1
 73
     1
176
     1
 90
        2
176
     1
 40
-0.6
176
     1
 41
30.0
176
     1
 62
     5
 63
     7
421
 16777215
176
     1
 74
     1
176
     1
 91
        4
176
     1
 64
     7
176
     1
 65
   257
176
     1
 75
     1
176
     1
175
     1
176
     1
 42
1.0
176
     1
 92
        0
176
     1
 66
   257
176
     1
 43
1.0
176
     1
 76
     1
176
     1
 77
     6
176
     1
 78
     2
176
     1
 67
     7
176
     1
 79
     5
176
     1
170
     0
176
     1
171
     0
176
     1
290
     0
176
     1
 93
       13
176
     1
 44
0.0
176
     1
173
     0
176
     1
  0
VISUALSTYLE
  5
2D
102
{ACAD_REACTORS
330
2A
102
}
330
2A
100
AcDbVisualStyle
  2
Gouraud
 70
     2
177
     2
291
     1
 71
     2
176
     1
 72
     2
176
     1
 73
     1
176
     1
 90
        2
176
     1
 40
-0.6
176
     1
 41
30.0
176
     1
 62
     5
 63
     7
421
 16777215
176
     1
 74
     0
176
     1
 91
        4
176
     1
 64
     7
176
     1
 65
   257
176
     1
 75
     1
176
     1
175
     1
176
     1
 42
1.0
176
     1
 92
        0
176
     1
 66
     7
176
     1
 43
1.0
176
     1
 76
     1
176
     1
 77
     6
176
     1
 78
     2
176
     1
 67
     7
176
     1
 79
     5
176
     1
170
     0
176
     1
171
     0
176
     1
290
     0
176
     1
 93
       13
176
     1
 44
0.0
176
     1
173
     0
176
     1
  0
VISUALSTYLE
  5
2E
102
{ACAD_REACTORS
330
2A
102
}
330
2A
100
AcDbVisualStyle
  2
GouraudWithEdges
 70
     3
177
     2
291
     1
 71
     2
176
     1
 72
     2
176
     1
 73
     1
176
     1
 90
        2
176
     1
 40
-0.6
176
     1
 41
30.0
176
     1
 62
     5
 63
     7
421
 16777215
176
     1
 74
     1
176
     1
 91
        4
176
     1
 64
     7
176
     1
 65
   257
176
     1
 75
     1
176
     1
175
     1
176
     1
 42
1.0
176
     1
 92
        0
176
     1
 66
   257
176
     1
 43
1.0
176
     1
 76
     1
176
     1
 77
     6
176
     1
 78
     2
176
     1
 67
     7
176
     1
 79
     5
176
     1
170
     0
176
     1
171
     0
176
     1
290
     0
176
     1
 93
       13
176
     1
 44
0.0
176
     1
173
     0
176
     1
  0
VISUALSTYLE
  5
38
102
{ACAD_REACTORS
330
2A
102
}
330
2A
100
AcDbVisualStyle
  2
Linepattern
 70
    14
177
     2
291
     1
 71
     2
176
     1
 72
     2
176
     1
 73
     0
176
     1
 90
        0
176
     1
 40
-0.6
176
     1
 41
-30.0
176
     1
 62
     5
 63
     7
421
 16777215
176
     1
 74
     1
176
     1
 91
        4
176
     1
 64
     7
176
     1
 65
   257
176
     1
 75
     7
176
     1
175
     7
176
     1
 42
1.0
176
     1
 92
        8
176
     1
 66
     7
176
     1
 43
1.0
176
     1
 76
     1
176
     1
 77
     6
176
     1
 78
     2
176
     1
 67
     7
176
     1
 79
     5
176
     1
170
     0
176
     1
171
     0
176
     1
290
     0
176
     1
 93
        1
176
     1
 44
0.0
176
     1
173
     0
176
     1
  0
VISUALSTYLE
  5
33
102
{ACAD_REACTORS
330
2A
102
}
330
2A
100
AcDbVisualStyle
  2
Realistic
 70
     8
177
     2
291
     0
 71
     2
176
     1
 72
     2
176
     1
 73
     0
176
     1
 90
        0
176
     1
 40
-0.6
176
     1
 41
-30.0
176
     1
 62
     5
 63
     7
421
 16777215
176
     1
 74
     1
176
     1
 91
        0
176
     1
 64
     7
176
     1
 65
   257
176
     1
 75
     1
176
     1
175
     1
176
     1
 42
1.0
176
     1
 92
        8
176
     1
 66
     8
424
  7895160
176
     1
 43
1.0
176
     1
 76
     1
176
     1
 77
     6
176
     1
 78
     2
176
     1
 67
     7
176
     1
 79
     5
176
     1
170
     0
176
     1
171
     0
176
     1
290
     0
176
     1
 93
       13
176
     1
 44
0.0
176
     1
173
     0
176
     1
  0
VISUALSTYLE
  5
37
102
{ACAD_REACTORS
330
2A
102
}
330
2A
100
AcDbVisualStyle
  2
Thicken
 70
    13
177
     2
291
     1
 71
     2
176
     1
 72
     2
176
     1
 73
     0
176
     1
 90
        0
176
     1
 40
-0.6
176
     1
 41
-30.0
176
     1
 62
     5
 63
     7
421
 16777215
176
     1
 74
     1
176
     1
 91
        4
176
     1
 64
     7
176
     1
 65
   257
176
     1
 75
     1
176
     1
175
     1
176
     1
 42
1.0
176
     1
 92
       12
176
     1
 66
     7
176
     1
 43
1.0
176
     1
 76
     1
176
     1
 77
     6
176
     1
 78
     2
176
     1
 67
     7
176
     1
 79
     5
176
     1
170
     0
176
     1
171
     0
176
     1
290
     0
176
     1
 93
        1
176
     1
 44
0.0
176
     1
173
     0
176
     1
  0
ENDSEC
  0
EOF
