  0
SECTION
  2
HEADER
  9
$ACADVER
  1
AC1024
  9
$ACADMAINTVER
 70
     6
  9
$DWGCODEPAGE
  3
UNDEFINED
  9
$INSBASE
 10
0.0
 20
0.0
 30
0.0
  9
$EXTMIN
 10
1.000000000000000E+20
 20
1.000000000000000E+20
 30
1.000000000000000E+20
  9
$EXTMAX
 10
-1.000000000000000E+20
 20
-1.000000000000000E+20
 30
-1.000000000000000E+20
  9
$LIMMIN
 10
0.0
 20
0.0
  9
$LIMMAX
 10
12.0
 20
9.0
  9
$ORTHOMODE
 70
     0
  9
$REGENMODE
 70
     1
  9
$FILLMODE
 70
     1
  9
$QTEXTMODE
 70
     0
  9
$MIRRTEXT
 70
     1
  9
$LTSCALE
 40
1.0
  9
$ATTMODE
 70
     1
  9
$TEXTSIZE
 40
0.2
  9
$TRACEWID
 40
0.05
  9
$TEXTSTYLE
  7
Standard
  9
$CLAYER
  8
0
  9
$CELTYPE
  6
ByLayer
  9
$CECOLOR
 62
   256
  9
$CELTSCALE
 40
1.0
  9
$DISPSILH
 70
     0
  9
$DIMSCALE
 40
1.0
  9
$DIMASZ
 40
0.18
  9
$DIMEXO
 40
0.0625
  9
$DIMDLI
 40
0.38
  9
$DIMRND
 40
0.0
  9
$DIMDLE
 40
0.0
  9
$DIMEXE
 40
0.18
  9
$DIMTP
 40
0.0
  9
$DIMTM
 40
0.0
  9
$DIMTXT
 40
0.18
  9
$DIMCEN
 40
0.09
  9
$DIMTSZ
 40
0.0
  9
$DIMTOL
 70
     0
  9
$DIMLIM
 70
     0
  9
$DIMTIH
 70
     1
  9
$DIMTOH
 70
     1
  9
$DIMSE1
 70
     0
  9
$DIMSE2
 70
     0
  9
$DIMTAD
 70
     0
  9
$DIMZIN
 70
     0
  9
$DIMBLK
  1

  9
$DIMASO
 70
     1
  9
$DIMSHO
 70
     1
  9
$DIMPOST
  1

  9
$DIMAPOST
  1

  9
$DIMALT
 70
     0
  9
$DIMALTD
 70
     2
  9
$DIMALTF
 40
25.4
  9
$DIMLFAC
 40
1.0
  9
$DIMTOFL
 70
     0
  9
$DIMTVP
 40
0.0
  9
$DIMTIX
 70
     0
  9
$DIMSOXD
 70
     0
  9
$DIMSAH
 70
     0
  9
$DIMBLK1
  1

  9
$DIMBLK2
  1

  9
$DIMSTYLE
  2
Standard
  9
$DIMCLRD
 70
     0
  9
$DIMCLRE
 70
     0
  9
$DIMCLRT
 70
     0
  9
$DIMTFAC
 40
1.0
  9
$DIMGAP
 40
0.09
  9
$DIMJUST
 70
     0
  9
$DIMSD1
 70
     0
  9
$DIMSD2
 70
     0
  9
$DIMTOLJ
 70
     1
  9
$DIMTZIN
 70
     0
  9
$DIMALTZ
 70
     0
  9
$DIMALTTZ
 70
     0
  9
$DIMUPT
 70
     0
  9
$DIMDEC
 70
     4
  9
$DIMTDEC
 70
     4
  9
$DIMALTU
 70
     2
  9
$DIMALTTD
 70
     2
  9
$DIMTXSTY
  7
Standard
  9
$DIMAUNIT
 70
     0
  9
$DIMADEC
 70
     0
  9
$DIMALTRND
 40
0.0
  9
$DIMAZIN
 70
     0
  9
$DIMDSEP
 70
    46
  9
$DIMATFIT
 70
     3
  9
$DIMFRAC
 70
     0
  9
$DIMLDRBLK
  1

  9
$DIMLUNIT
 70
     2
  9
$DIMLWD
 70
    -2
  9
$DIMLWE
 70
    -2
  9
$DIMTMOVE
 70
     0
  9
$DIMFXL
 40
1.0
  9
$DIMFXLON
 70
     0
  9
$DIMJOGANG
 40
0.7853981633974483
  9
$DIMTFILL
 70
     0
  9
$DIMTFILLCLR
 70
     0
  9
$DIMARCSYM
 70
     0
  9
$DIMLTYPE
  6

  9
$DIMLTEX1
  6

  9
$DIMLTEX2
  6

  9
$DIMTXTDIRECTION
 70
     0
  9
$LUNITS
 70
     2
  9
$LUPREC
 70
     4
  9
$SKETCHINC
 40
0.1
  9
$FILLETRAD
 40
0.5
  9
$AUNITS
 70
     0
  9
$AUPREC
 70
     0
  9
$MENU
  1
.
  9
$ELEVATION
 40
0.0
  9
$PELEVATION
 40
0.0
  9
$THICKNESS
 40
0.0
  9
$LIMCHECK
 70
     0
  9
$CHAMFERA
 40
0.5
  9
$CHAMFERB
 40
0.5
  9
$CHAMFERC
 40
1.0
  9
$CHAMFERD
 40
0.0
  9
$SKPOLY
 70
     0
  9
$TDCREATE
 40
2457917.620520833
  9
$TDUCREATE
 40
2457917.245520833
  9
$TDUPDATE
 40
2457917.620520833
  9
$TDUUPDATE
 40
2457917.245520833
  9
$TDINDWG
 40
0.0000000116
  9
$TDUSRTIMER
 40
0.0000000116
  9
$USRTIMER
 70
     1
  9
$ANGBASE
 50
0.0
  9
$ANGDIR
 70
     0
  9
$PDMODE
 70
     0
  9
$PDSIZE
 40
0.0
  9
$PLINEWID
 40
0.0
  9
$SPLFRAME
 70
     0
  9
$SPLINETYPE
 70
     6
  9
$SPLINESEGS
 70
     8
  9
$HANDSEED
  5
B3
  9
$SURFTAB1
 70
     6
  9
$SURFTAB2
 70
     6
  9
$SURFTYPE
 70
     6
  9
$SURFU
 70
     6
  9
$SURFV
 70
     6
  9
$UCSBASE
  2

  9
$UCSNAME
  2

  9
$UCSORG
 10
0.0
 20
0.0
 30
0.0
  9
$UCSXDIR
 10
1.0
 20
0.0
 30
0.0
  9
$UCSYDIR
 10
0.0
 20
1.0
 30
0.0
  9
$UCSORTHOREF
  2

  9
$UCSORTHOVIEW
 70
     0
  9
$UCSORGTOP
 10
0.0
 20
0.0
 30
0.0
  9
$UCSORGBOTTOM
 10
0.0
 20
0.0
 30
0.0
  9
$UCSORGLEFT
 10
0.0
 20
0.0
 30
0.0
  9
$UCSORGRIGHT
 10
0.0
 20
0.0
 30
0.0
  9
$UCSORGFRONT
 10
0.0
 20
0.0
 30
0.0
  9
$UCSORGBACK
 10
0.0
 20
0.0
 30
0.0
  9
$PUCSBASE
  2

  9
$PUCSNAME
  2

  9
$PUCSORG
 10
0.0
 20
0.0
 30
0.0
  9
$PUCSXDIR
 10
1.0
 20
0.0
 30
0.0
  9
$PUCSYDIR
 10
0.0
 20
1.0
 30
0.0
  9
$PUCSORTHOREF
  2

  9
$PUCSORTHOVIEW
 70
     0
  9
$PUCSORGTOP
 10
0.0
 20
0.0
 30
0.0
  9
$PUCSORGBOTTOM
 10
0.0
 20
0.0
 30
0.0
  9
$PUCSORGLEFT
 10
0.0
 20
0.0
 30
0.0
  9
$PUCSORGRIGHT
 10
0.0
 20
0.0
 30
0.0
  9
$PUCSORGFRONT
 10
0.0
 20
0.0
 30
0.0
  9
$PUCSORGBACK
 10
0.0
 20
0.0
 30
0.0
  9
$USERI1
 70
     0
  9
$USERI2
 70
     0
  9
$USERI3
 70
     0
  9
$USERI4
 70
     0
  9
$USERI5
 70
     0
  9
$USERR1
 40
0.0
  9
$USERR2
 40
0.0
  9
$USERR3
 40
0.0
  9
$USERR4
 40
0.0
  9
$USERR5
 40
0.0
  9
$WORLDVIEW
 70
     1
  9
$SHADEDGE
 70
     3
  9
$SHADEDIF
 70
    70
  9
$TILEMODE
 70
     1
  9
$MAXACTVP
 70
    64
  9
$PINSBASE
 10
0.0
 20
0.0
 30
0.0
  9
$PLIMCHECK
 70
     0
  9
$PEXTMIN
 10
1.000000000000000E+20
 20
1.000000000000000E+20
 30
1.000000000000000E+20
  9
$PEXTMAX
 10
-1.000000000000000E+20
 20
-1.000000000000000E+20
 30
-1.000000000000000E+20
  9
$PLIMMIN
 10
0.0
 20
0.0
  9
$PLIMMAX
 10
12.0
 20
9.0
  9
$UNITMODE
 70
     0
  9
$VISRETAIN
 70
     1
  9
$PLINEGEN
 70
     0
  9
$PSLTSCALE
 70
     1
  9
$TREEDEPTH
 70
  3020
  9
$CMLSTYLE
  2
Standard
  9
$CMLJUST
 70
     0
  9
$CMLSCALE
 40
1.0
  9
$PROXYGRAPHICS
 70
     1
  9
$MEASUREMENT
 70
     0
  9
$CELWEIGHT
370
    -1
  9
$ENDCAPS
280
     0
  9
$JOINSTYLE
280
     0
  9
$LWDISPLAY
290
     1
  9
$INSUNITS
 70
     1
  9
$HYPERLINKBASE
  1

  9
$STYLESHEET
  1

  9
$XEDIT
290
     1
  9
$CEPSNTYPE
380
     0
  9
$PSTYLEMODE
290
     1
  9
$FINGERPRINTGUID
  2
{544538F8-391B-4837-F0C8-1AAF03144391}
  9
$VERSIONGUID
  2
{FAEB1C32-E019-11D5-929B-00C0DF256EC4}
  9
$EXTNAMES
290
     1
  9
$PSVPSCALE
 40
0.0
  9
$OLESTARTUP
290
     0
  9
$SORTENTS
280
   127
  9
$INDEXCTL
280
     0
  9
$HIDETEXT
280
     1
  9
$XCLIPFRAME
280
     2
  9
$HALOGAP
280
     0
  9
$OBSCOLOR
 70
   257
  9
$OBSLTYPE
280
     0
  9
$INTERSECTIONDISPLAY
280
     0
  9
$INTERSECTIONCOLOR
 70
   257
  9
$DIMASSOC
280
     2
  9
$PROJECTNAME
  1

  9
$CAMERADISPLAY
290
     0
  9
$LENSLENGTH
 40
50.0
  9
$CAMERAHEIGHT
 40
0.0
  9
$STEPSPERSEC
 40
2.0
  9
$STEPSIZE
 40
6.0
  9
$3DDWFPREC
 40
2.0
  9
$PSOLWIDTH
 40
0.25
  9
$PSOLHEIGHT
 40
4.0
  9
$LOFTANG1
 40
1.570796326794897
  9
$LOFTANG2
 40
1.570796326794897
  9
$LOFTMAG1
 40
0.0
  9
$LOFTMAG2
 40
0.0
  9
$LOFTPARAM
 70
     7
  9
$LOFTNORMALS
280
     1
  9
$LATITUDE
 40
37.795
  9
$LONGITUDE
 40
-122.394
  9
$NORTHDIRECTION
 40
0.0
  9
$TIMEZONE
 70
 -8000
  9
$LIGHTGLYPHDISPLAY
280
     1
  9
$TILEMODELIGHTSYNCH
280
     1
  9
$CMATERIAL
347
3C
  9
$SOLIDHIST
280
     1
  9
$SHOWHIST
280
     1
  9
$DWFFRAME
280
     2
  9
$DGNFRAME
280
     2
  9
$REALWORLDSCALE
290
     1
  9
$INTERFERECOLOR
 62
   256
  9
$CSHADOW
280
     0
  9
$SHADOWPLANELOCATION
 40
0.0
  0
ENDSEC
  0
SECTION
  2
CLASSES
  0
CLASS
  1
ACDBDICTIONARYWDFLT
  2
AcDbDictionaryWithDefault
  3
ObjectDBX Classes
 90
        0
 91
        4
280
     0
281
     0
  0
CLASS
  1
VISUALSTYLE
  2
AcDbVisualStyle
  3
ObjectDBX Classes
 90
     4095
 91
        4
280
     0
281
     0
  0
CLASS
  1
MATERIAL
  2
AcDbMaterial
  3
ObjectDBX Classes
 90
     1153
 91
        4
280
     0
281
     0
  0
CLASS
  1
SUN
  2
AcDbSun
  3
SCENEOE
 90
     1024
 91
        4
280
     0
281
     0
  0
ENDSEC
  0
SECTION
  2
TABLES
  0
TABLE
  2
VPORT
  5
8
330
0
100
AcDbSymbolTable
 70
     1
  0
VPORT
  5
29
330
8
100
AcDbSymbolTableRecord
100
AcDbViewportTableRecord
  2
*Active
 70
     0
 10
0.0
 20
0.0
 11
1.0
 21
1.0
 12
0.0
 22
0.0
 13
0.0
 23
0.0
 14
0.5
 24
0.5
 15
0.5
 25
0.5
 16
0.0
 26
0.0
 36
1.0
 17
91.00082462281999
 27
-128.4993055234307
 37
0.0
 40
256.9986110468615
 41
0.7081814508812795
 42
50.0
 43
0.0
 44
0.0
 50
0.0
 51
0.0
 71
     0
 72
   100
 73
     1
 74
     3
 75
     0
 76
     0
 77
     0
 78
     0
281
     0
 65
     1
110
0.0
120
0.0
130
0.0
111
1.0
121
0.0
131
0.0
112
0.0
122
1.0
132
0.0
 79
     0
146
0.0
 60
     3
 61
     5
292
     1
282
     1
141
0.0
142
0.0
 63
   250
361
3F
  0
ENDTAB
  0
TABLE
  2
LTYPE
  5
5
330
0
100
AcDbSymbolTable
 70
     1
  0
LTYPE
  5
14
330
5
100
AcDbSymbolTableRecord
100
AcDbLinetypeTableRecord
  2
ByBlock
 70
     0
  3

 72
    65
 73
     0
 40
0.0
  0
LTYPE
  5
15
330
5
100
AcDbSymbolTableRecord
100
AcDbLinetypeTableRecord
  2
ByLayer
 70
     0
  3

 72
    65
 73
     0
 40
0.0
  0
LTYPE
  5
16
330
5
100
AcDbSymbolTableRecord
100
AcDbLinetypeTableRecord
  2
Continuous
 70
     0
  3
Solid line
 72
    65
 73
     0
 40
0.0
  0
ENDTAB
  0
TABLE
  2
LAYER
  5
2
330
0
100
AcDbSymbolTable
 70
     2
  0
LAYER
  5
10
330
2
100
AcDbSymbolTableRecord
100
AcDbLayerTableRecord
  2
0
 70
     0
 62
     7
  6
Continuous
370
    -3
390
F
347
3E
  0
LAYER
  5
40
330
2
100
AcDbSymbolTableRecord
100
AcDbLayerTableRecord
  2
_U+30EC_U+30A4_U+30E4_U+30FC 1
 70
     0
 62
     7
  6
Continuous
370
    -3
390
F
347
3E
  0
ENDTAB
  0
TABLE
  2
STYLE
  5
3
330
0
100
AcDbSymbolTable
 70
     1
  0
STYLE
  5
11
330
3
100
AcDbSymbolTableRecord
100
AcDbTextStyleTableRecord
  2
Standard
 70
     0
 40
0.0
 41
1.0
 50
0.0
 71
     0
 42
0.2
  3
txt
  4

  0
ENDTAB
  0
TABLE
  2
VIEW
  5
6
330
0
100
AcDbSymbolTable
 70
     0
  0
ENDTAB
  0
TABLE
  2
UCS
  5
7
330
0
100
AcDbSymbolTable
 70
     0
  0
ENDTAB
  0
TABLE
  2
APPID
  5
9
330
0
100
AcDbSymbolTable
 70
     1
  0
APPID
  5
12
330
9
100
AcDbSymbolTableRecord
100
AcDbRegAppTableRecord
  2
ACAD
 70
     0
  0
ENDTAB
  0
TABLE
  2
DIMSTYLE
  5
A
330
0
100
AcDbSymbolTable
 70
     1
100
AcDbDimStyleTable
  0
DIMSTYLE
105
27
330
A
100
AcDbSymbolTableRecord
100
AcDbDimStyleTableRecord
  2
Standard
 70
     0
178
     0
340
11
  0
ENDTAB
  0
TABLE
  2
BLOCK_RECORD
  5
1
330
0
100
AcDbSymbolTable
 70
     4
  0
BLOCK_RECORD
  5
1F
330
1
100
AcDbSymbolTableRecord
100
AcDbBlockTableRecord
  2
*Model_Space
340
22
 70
     0
280
     1
281
     0
  0
BLOCK_RECORD
  5
1B
330
1
100
AcDbSymbolTableRecord
100
AcDbBlockTableRecord
  2
*Paper_Space
340
1E
 70
     0
280
     1
281
     0
  0
BLOCK_RECORD
  5
23
330
1
100
AcDbSymbolTableRecord
100
AcDbBlockTableRecord
  2
*Paper_Space0
340
26
 70
     0
280
     1
281
     0
  0
BLOCK_RECORD
  5
75
330
1
100
AcDbSymbolTableRecord
100
AcDbBlockTableRecord
  2
block 2
340
0
102
{BLKREFS
331
76
102
}
 70
     0
280
     1
281
     0
  0
BLOCK_RECORD
  5
91
330
1
100
AcDbSymbolTableRecord
100
AcDbBlockTableRecord
  2
block 3
340
0
102
{BLKREFS
331
92
102
}
 70
     0
280
     1
281
     0
  0
BLOCK_RECORD
  5
A7
330
1
100
AcDbSymbolTableRecord
100
AcDbBlockTableRecord
  2
block 4
340
0
102
{BLKREFS
331
A8
102
}
 70
     0
280
     1
281
     0
  0
ENDTAB
  0
ENDSEC
  0
SECTION
  2
BLOCKS
  0
BLOCK
  5
20
330
1F
100
AcDbEntity
  8
0
100
AcDbBlockBegin
  2
*Model_Space
 70
     0
 10
0.0
 20
0.0
 30
0.0
  3
*Model_Space
  1

  0
ENDBLK
  5
21
330
1F
100
AcDbEntity
  8
0
100
AcDbBlockEnd
  0
BLOCK
  5
1C
330
1B
100
AcDbEntity
 67
     1
  8
0
100
AcDbBlockBegin
  2
*Paper_Space
 70
     0
 10
0.0
 20
0.0
 30
0.0
  3
*Paper_Space
  1

  0
ENDBLK
  5
1D
330
1B
100
AcDbEntity
 67
     1
  8
0
100
AcDbBlockEnd
  0
BLOCK
  5
24
330
23
100
AcDbEntity
  8
0
100
AcDbBlockBegin
  2
*Paper_Space0
 70
     0
 10
0.0
 20
0.0
 30
0.0
  3
*Paper_Space0
  1

  0
ENDBLK
  5
25
330
23
100
AcDbEntity
  8
0
100
AcDbBlockEnd
  0
BLOCK
  5
77
330
75
100
AcDbEntity
  8
0
100
AcDbBlockBegin
  2
block 2
 70
     0
 10
0.0
 20
0.0
 30
0.0
  3
block 2
  1

  0
SPLINE
  5
79
330
75
100
AcDbEntity
  8
_U+30EC_U+30A4_U+30E4_U+30FC 1
370
     0
100
AcDbSpline
210
0.0
220
0.0
230
1.0
 70
    11
 71
     3
 72
    26
 73
    22
 74
     0
 42
0.0000000001
 43
0.0000000001
 12
1.0
 22
0.0
 32
0.0
 13
1.0
 23
0.0
 33
0.0
 40
0.0
 40
0.0
 40
0.0
 40
0.0
 40
1.0
 40
1.0
 40
1.0
 40
2.0
 40
2.0
 40
2.0
 40
3.0
 40
3.0
 40
3.0
 40
4.0
 40
4.0
 40
4.0
 40
5.0
 40
5.0
 40
5.0
 40
6.0
 40
6.0
 40
6.0
 40
7.0
 40
7.0
 40
7.0
 40
7.0
 10
114.906336776829
 20
-145.3068928673191
 30
0.0
 10
114.906336776829
 20
-145.3068928673191
 30
0.0
 10
113.8021836738064
 20
-145.3068928673191
 30
0.0
 10
113.8021836738064
 20
-145.3068928673191
 30
0.0
 10
113.8021836738064
 20
-145.3068928673191
 30
0.0
 10
113.8021836738064
 20
-145.6369330148061
 30
0.0
 10
113.8021836738064
 20
-145.6369330148061
 30
0.0
 10
113.8021836738064
 20
-145.6369330148061
 30
0.0
 10
113.6540445679407
 20
-145.6369330148061
 30
0.0
 10
113.6540445679407
 20
-145.6369330148061
 30
0.0
 10
113.6392306573541
 20
-145.304825810028
 30
0.0
 10
113.4762776409018
 20
-145.2583170209771
 30
0.0
 10
113.3619004707915
 20
-145.2286891998039
 30
0.0
 10
113.3619004707915
 20
-145.2286891998039
 30
0.0
 10
113.3619004707915
 20
-145.0826171512294
 30
0.0
 10
113.3619004707915
 20
-145.0826171512294
 30
0.0
 10
113.3619004707915
 20
-145.0826171512294
 30
0.0
 10
114.906336776829
 20
-145.0826171512294
 30
0.0
 10
114.906336776829
 20
-145.0826171512294
 30
0.0
 10
114.906336776829
 20
-145.0826171512294
 30
0.0
 10
114.906336776829
 20
-145.3068928673191
 30
0.0
 10
114.906336776829
 20
-145.3068928673191
 30
0.0
  0
HATCH
  5
7A
330
75
100
AcDbEntity
  8
_U+30EC_U+30A4_U+30E4_U+30FC 1
 62
   179
420
  2234388
100
AcDbHatch
 10
0.0
 20
0.0
 30
0.0
210
0.0
220
0.0
230
1.0
  2
SOLID
 70
     1
 71
     0
 91
        1
 92
        1
 93
        1
 72
     4
 94
        3
 73
     0
 74
     1
 95
       26
 96
       22
 40
0.0
 40
0.0
 40
0.0
 40
0.0
 40
1.0
 40
1.0
 40
1.0
 40
2.0
 40
2.0
 40
2.0
 40
3.0
 40
3.0
 40
3.0
 40
4.0
 40
4.0
 40
4.0
 40
5.0
 40
5.0
 40
5.0
 40
6.0
 40
6.0
 40
6.0
 40
7.0
 40
7.0
 40
7.0
 40
7.0
 10
114.906336776829
 20
-145.3068928673191
 10
114.906336776829
 20
-145.3068928673191
 10
113.8021836738064
 20
-145.3068928673191
 10
113.8021836738064
 20
-145.3068928673191
 10
113.8021836738064
 20
-145.3068928673191
 10
113.8021836738064
 20
-145.6369330148061
 10
113.8021836738064
 20
-145.6369330148061
 10
113.8021836738064
 20
-145.6369330148061
 10
113.6540445679407
 20
-145.6369330148061
 10
113.6540445679407
 20
-145.6369330148061
 10
113.6392306573541
 20
-145.304825810028
 10
113.4762776409018
 20
-145.2583170209771
 10
113.3619004707915
 20
-145.2286891998039
 10
113.3619004707915
 20
-145.2286891998039
 10
113.3619004707915
 20
-145.0826171512294
 10
113.3619004707915
 20
-145.0826171512294
 10
113.3619004707915
 20
-145.0826171512294
 10
114.906336776829
 20
-145.0826171512294
 10
114.906336776829
 20
-145.0826171512294
 10
114.906336776829
 20
-145.0826171512294
 10
114.906336776829
 20
-145.3068928673191
 10
114.906336776829
 20
-145.3068928673191
 97
        0
 97
        0
 75
     2
 76
     1
 98
        0
  0
POLYLINE
  5
7B
330
75
100
AcDbEntity
  8
_U+30EC_U+30A4_U+30E4_U+30FC 1
370
     0
100
AcDb2dPolyline
 66
     1
 10
0.0
 20
0.0
 30
0.0
  0
VERTEX
  5
7C
330
7B
100
AcDbEntity
  8
_U+30EC_U+30A4_U+30E4_U+30FC 1
370
     0
100
AcDbVertex
100
AcDb2dVertex
 10
114.906336776829
 20
-144.5214110966822
 30
0.0
  0
VERTEX
  5
7D
330
7B
100
AcDbEntity
  8
_U+30EC_U+30A4_U+30E4_U+30FC 1
370
     0
100
AcDbVertex
100
AcDb2dVertex
 10
114.6545002968572
 20
-144.5214110966822
 30
0.0
  0
VERTEX
  5
7E
330
7B
100
AcDbEntity
  8
_U+30EC_U+30A4_U+30E4_U+30FC 1
370
     0
100
AcDbVertex
100
AcDb2dVertex
 10
114.6545002968572
 20
-144.2695746167104
 30
0.0
  0
VERTEX
  5
7F
330
7B
100
AcDbEntity
  8
_U+30EC_U+30A4_U+30E4_U+30FC 1
370
     0
100
AcDbVertex
100
AcDb2dVertex
 10
114.906336776829
 20
-144.2695746167104
 30
0.0
  0
VERTEX
  5
80
330
7B
100
AcDbEntity
  8
_U+30EC_U+30A4_U+30E4_U+30FC 1
370
     0
100
AcDbVertex
100
AcDb2dVertex
 10
114.906336776829
 20
-144.5214110966822
 30
0.0
  0
SEQEND
  5
81
330
7B
100
AcDbEntity
  8
_U+30EC_U+30A4_U+30E4_U+30FC 1
370
     0
  0
HATCH
  5
82
330
75
100
AcDbEntity
  8
_U+30EC_U+30A4_U+30E4_U+30FC 1
 62
   179
420
  2234388
100
AcDbHatch
 10
0.0
 20
0.0
 30
0.0
210
0.0
220
0.0
230
1.0
  2
SOLID
 70
     1
 71
     0
 91
        1
 92
        1
 93
        4
 72
     1
 10
114.906336776829
 20
-144.5214110966822
 11
114.6545002968572
 21
-144.5214110966822
 72
     1
 10
114.6545002968572
 20
-144.5214110966822
 11
114.6545002968572
 21
-144.2695746167104
 72
     1
 10
114.6545002968572
 20
-144.2695746167104
 11
114.906336776829
 21
-144.2695746167104
 72
     1
 10
114.906336776829
 20
-144.2695746167104
 11
114.906336776829
 21
-144.5214110966822
 97
        0
 75
     2
 76
     1
 98
        0
  0
SPLINE
  5
83
330
75
100
AcDbEntity
  8
_U+30EC_U+30A4_U+30E4_U+30FC 1
370
     0
100
AcDbSpline
210
0.0
220
0.0
230
1.0
 70
    11
 71
     3
 72
    53
 73
    49
 74
     0
 42
0.0000000001
 43
0.0000000001
 12
1.0
 22
0.0
 32
0.0
 13
1.0
 23
0.0
 33
0.0
 40
0.0
 40
0.0
 40
0.0
 40
0.0
 40
1.0
 40
1.0
 40
1.0
 40
2.0
 40
2.0
 40
2.0
 40
3.0
 40
3.0
 40
3.0
 40
4.0
 40
4.0
 40
4.0
 40
5.0
 40
5.0
 40
5.0
 40
6.0
 40
6.0
 40
6.0
 40
7.0
 40
7.0
 40
7.0
 40
8.0
 40
8.0
 40
8.0
 40
9.0
 40
9.0
 40
9.0
 40
10.0
 40
10.0
 40
10.0
 40
11.0
 40
11.0
 40
11.0
 40
12.0
 40
12.0
 40
12.0
 40
13.0
 40
13.0
 40
13.0
 40
14.0
 40
14.0
 40
14.0
 40
15.0
 40
15.0
 40
15.0
 40
16.0
 40
16.0
 40
16.0
 40
16.0
 10
114.9569796804622
 20
-143.5523057366814
 30
0.0
 10
114.9569796804622
 20
-143.6305094041965
 30
0.0
 10
114.9400987125844
 20
-143.7321397210114
 30
0.0
 10
114.8767089556558
 20
-143.8337700378263
 30
0.0
 10
114.7668104096764
 20
-144.0070583407343
 30
0.0
 10
114.6355522716883
 20
-144.0284179327429
 30
0.0
 10
114.527720783
 20
-144.0473659579118
 30
0.0
 10
114.527720783
 20
-144.0473659579118
 30
0.0
 10
114.527720783
 20
-143.8251572991132
 30
0.0
 10
114.527720783
 20
-143.8251572991132
 30
0.0
 10
114.7265027924989
 20
-143.7703802808977
 30
0.0
 10
114.7561306136721
 20
-143.643256257492
 30
0.0
 10
114.7561306136721
 20
-143.5502386793902
 30
0.0
 10
114.7561306136721
 20
-143.4107123122376
 30
0.0
 10
114.6565673541484
 20
-143.2584390917896
 30
0.0
 10
114.424023408894
 20
-143.2584390917896
 30
0.0
 10
114.1680528143399
 20
-143.2584390917896
 30
0.0
 10
114.0981173759894
 20
-143.4382730761196
 30
0.0
 10
114.0981173759894
 20
-143.5588514181034
 30
0.0
 10
114.0981173759894
 20
-143.5905462965677
 30
0.0
 10
114.0981173759894
 20
-143.7321397210114
 30
0.0
 10
114.2273084566862
 20
-143.8210231845309
 30
0.0
 10
114.2273084566862
 20
-143.8210231845309
 30
0.0
 10
114.2083604315174
 20
-143.9967230542786
 30
0.0
 10
114.2083604315174
 20
-143.9967230542786
 30
0.0
 10
114.2083604315174
 20
-143.9967230542786
 30
0.0
 10
113.3619004707915
 20
-143.8761447122949
 30
0.0
 10
113.3619004707915
 20
-143.8761447122949
 30
0.0
 10
113.3619004707915
 20
-143.8761447122949
 30
0.0
 10
113.3619004707915
 20
-143.0975531326284
 30
0.0
 10
113.3619004707915
 20
-143.0975531326284
 30
0.0
 10
113.3619004707915
 20
-143.0975531326284
 30
0.0
 10
113.5565483657081
 20
-143.0975531326284
 30
0.0
 10
113.5565483657081
 20
-143.0975531326284
 30
0.0
 10
113.5565483657081
 20
-143.0975531326284
 30
0.0
 10
113.5565483657081
 20
-143.7131916958425
 30
0.0
 10
113.5565483657081
 20
-143.7131916958425
 30
0.0
 10
113.5565483657081
 20
-143.7131916958425
 30
0.0
 10
113.9796060912968
 20
-143.7786485100623
 30
0.0
 10
113.9796060912968
 20
-143.7786485100623
 30
0.0
 10
113.9458441555413
 20
-143.7173258104249
 30
0.0
 10
113.9055365383639
 20
-143.6349880283274
 30
0.0
 10
113.9055365383639
 20
-143.5164767436348
 30
0.0
 10
113.9055365383639
 20
-143.2625732063719
 30
0.0
 10
114.0919162041159
 20
-143.0255506369867
 30
0.0
 10
114.4050753837251
 20
-143.0255506369867
 30
0.0
 10
114.7223686779166
 20
-143.0255506369867
 30
0.0
 10
114.9569796804622
 20
-143.2498263530764
 30
0.0
 10
114.9569796804622
 20
-143.5523057366814
 30
0.0
  0
HATCH
  5
84
330
75
100
AcDbEntity
  8
_U+30EC_U+30A4_U+30E4_U+30FC 1
 62
   179
420
  2234388
100
AcDbHatch
 10
0.0
 20
0.0
 30
0.0
210
0.0
220
0.0
230
1.0
  2
SOLID
 70
     1
 71
     0
 91
        1
 92
        1
 93
        1
 72
     4
 94
        3
 73
     0
 74
     1
 95
       53
 96
       49
 40
0.0
 40
0.0
 40
0.0
 40
0.0
 40
1.0
 40
1.0
 40
1.0
 40
2.0
 40
2.0
 40
2.0
 40
3.0
 40
3.0
 40
3.0
 40
4.0
 40
4.0
 40
4.0
 40
5.0
 40
5.0
 40
5.0
 40
6.0
 40
6.0
 40
6.0
 40
7.0
 40
7.0
 40
7.0
 40
8.0
 40
8.0
 40
8.0
 40
9.0
 40
9.0
 40
9.0
 40
10.0
 40
10.0
 40
10.0
 40
11.0
 40
11.0
 40
11.0
 40
12.0
 40
12.0
 40
12.0
 40
13.0
 40
13.0
 40
13.0
 40
14.0
 40
14.0
 40
14.0
 40
15.0
 40
15.0
 40
15.0
 40
16.0
 40
16.0
 40
16.0
 40
16.0
 10
114.9569796804622
 20
-143.5523057366814
 10
114.9569796804622
 20
-143.6305094041965
 10
114.9400987125844
 20
-143.7321397210114
 10
114.8767089556558
 20
-143.8337700378263
 10
114.7668104096764
 20
-144.0070583407343
 10
114.6355522716883
 20
-144.0284179327429
 10
114.527720783
 20
-144.0473659579118
 10
114.527720783
 20
-144.0473659579118
 10
114.527720783
 20
-143.8251572991132
 10
114.527720783
 20
-143.8251572991132
 10
114.7265027924989
 20
-143.7703802808977
 10
114.7561306136721
 20
-143.643256257492
 10
114.7561306136721
 20
-143.5502386793902
 10
114.7561306136721
 20
-143.4107123122376
 10
114.6565673541484
 20
-143.2584390917896
 10
114.424023408894
 20
-143.2584390917896
 10
114.1680528143399
 20
-143.2584390917896
 10
114.0981173759894
 20
-143.4382730761196
 10
114.0981173759894
 20
-143.5588514181034
 10
114.0981173759894
 20
-143.5905462965677
 10
114.0981173759894
 20
-143.7321397210114
 10
114.2273084566862
 20
-143.8210231845309
 10
114.2273084566862
 20
-143.8210231845309
 10
114.2083604315174
 20
-143.9967230542786
 10
114.2083604315174
 20
-143.9967230542786
 10
114.2083604315174
 20
-143.9967230542786
 10
113.3619004707915
 20
-143.8761447122949
 10
113.3619004707915
 20
-143.8761447122949
 10
113.3619004707915
 20
-143.8761447122949
 10
113.3619004707915
 20
-143.0975531326284
 10
113.3619004707915
 20
-143.0975531326284
 10
113.3619004707915
 20
-143.0975531326284
 10
113.5565483657081
 20
-143.0975531326284
 10
113.5565483657081
 20
-143.0975531326284
 10
113.5565483657081
 20
-143.0975531326284
 10
113.5565483657081
 20
-143.7131916958425
 10
113.5565483657081
 20
-143.7131916958425
 10
113.5565483657081
 20
-143.7131916958425
 10
113.9796060912968
 20
-143.7786485100623
 10
113.9796060912968
 20
-143.7786485100623
 10
113.9458441555413
 20
-143.7173258104249
 10
113.9055365383639
 20
-143.6349880283274
 10
113.9055365383639
 20
-143.5164767436348
 10
113.9055365383639
 20
-143.2625732063719
 10
114.0919162041159
 20
-143.0255506369867
 10
114.4050753837251
 20
-143.0255506369867
 10
114.7223686779166
 20
-143.0255506369867
 10
114.9569796804622
 20
-143.2498263530764
 10
114.9569796804622
 20
-143.5523057366814
 97
        0
 97
        0
 75
     2
 76
     1
 98
        0
  0
ENDBLK
  5
78
330
75
100
AcDbEntity
  8
0
100
AcDbBlockEnd
  0
BLOCK
  5
93
330
91
100
AcDbEntity
  8
0
100
AcDbBlockBegin
  2
block 3
 70
     0
 10
0.0
 20
0.0
 30
0.0
  3
block 3
  1

  0
SPLINE
  5
95
330
91
100
AcDbEntity
  8
_U+30EC_U+30A4_U+30E4_U+30FC 1
370
     0
100
AcDbSpline
210
0.0
220
0.0
230
1.0
 70
    11
 71
     3
 72
    62
 73
    58
 74
     0
 42
0.0000000001
 43
0.0000000001
 12
1.0
 22
0.0
 32
0.0
 13
1.0
 23
0.0
 33
0.0
 40
0.0
 40
0.0
 40
0.0
 40
0.0
 40
1.0
 40
1.0
 40
1.0
 40
2.0
 40
2.0
 40
2.0
 40
3.0
 40
3.0
 40
3.0
 40
4.0
 40
4.0
 40
4.0
 40
5.0
 40
5.0
 40
5.0
 40
6.0
 40
6.0
 40
6.0
 40
7.0
 40
7.0
 40
7.0
 40
8.0
 40
8.0
 40
8.0
 40
9.0
 40
9.0
 40
9.0
 40
10.0
 40
10.0
 40
10.0
 40
11.0
 40
11.0
 40
11.0
 40
12.0
 40
12.0
 40
12.0
 40
13.0
 40
13.0
 40
13.0
 40
14.0
 40
14.0
 40
14.0
 40
15.0
 40
15.0
 40
15.0
 40
16.0
 40
16.0
 40
16.0
 40
17.0
 40
17.0
 40
17.0
 40
18.0
 40
18.0
 40
18.0
 40
19.0
 40
19.0
 40
19.0
 40
19.0
 10
89.98055417672362
 20
-148.400244103525
 30
0.0
 10
89.8851250317822
 20
-148.400244103525
 30
0.0
 10
89.6673949971144
 20
-148.3792290210649
 30
0.0
 10
89.54233803099983
 20
-148.1931938648614
 30
0.0
 10
89.46861298761549
 20
-148.0808837520423
 30
0.0
 10
89.46413436348466
 20
-147.9816650020671
 30
0.0
 10
89.46000024890236
 20
-147.89691565313
 30
0.0
 10
89.46000024890236
 20
-147.89691565313
 30
0.0
 10
89.68014185040983
 20
-147.89691565313
 30
0.0
 10
89.68014185040983
 20
-147.89691565313
 30
0.0
 10
89.68220890770098
 20
-147.9709852060628
 30
0.0
 10
89.69254419415672
 20
-148.2055962086083
 30
0.0
 10
89.97607555259279
 20
-148.2055962086083
 30
0.0
 10
90.11353486245426
 20
-148.2055962086083
 30
0.0
 10
90.26615259245082
 20
-148.1360052798063
 30
0.0
 10
90.26615259245082
 20
-147.9075954491342
 30
0.0
 10
90.26615259245082
 20
-147.7911512217328
 30
0.0
 10
90.22791203256456
 20
-147.7425753753907
 30
0.0
 10
90.19621715410025
 20
-147.7108804969264
 30
0.0
 10
90.12214760116738
 20
-147.6368109439936
 30
0.0
 10
90.00570337376594
 20
-147.6240640906982
 30
0.0
 10
89.95092635555046
 20
-147.6240640906982
 30
0.0
 10
89.93163382083307
 20
-147.6240640906982
 30
0.0
 10
89.89580482778646
 20
-147.6261311479893
 30
0.0
 10
89.86824406390447
 20
-147.6302652625716
 30
0.0
 10
89.86824406390447
 20
-147.6302652625716
 30
0.0
 10
89.86824406390447
 20
-147.435617367655
 30
0.0
 10
89.86824406390447
 20
-147.435617367655
 30
0.0
 10
89.90648462379075
 20
-147.442163049077
 30
0.0
 10
89.9485147887108
 20
-147.4442301063681
 30
0.0
 10
89.95506047013276
 20
-147.4442301063681
 30
0.0
 10
90.02051728435251
 20
-147.4442301063681
 30
0.0
 10
90.21929929385144
 20
-147.4228705143596
 30
0.0
 10
90.21929929385144
 20
-147.1861924545229
 30
0.0
 10
90.21929929385144
 20
-147.008425527484
 30
0.0
 10
90.08838566541193
 20
-146.95330399972
 30
0.0
 10
89.97814260988395
 20
-146.95330399972
 30
0.0
 10
89.71390378616528
 20
-146.95330399972
 30
0.0
 10
89.70529104745215
 20
-147.1861924545229
 30
0.0
 10
89.70115693286985
 20
-147.2578504406161
 30
0.0
 10
89.70115693286985
 20
-147.2578504406161
 30
0.0
 10
89.49789629924011
 20
-147.2578504406161
 30
0.0
 10
89.49789629924011
 20
-147.2578504406161
 30
0.0
 10
89.50650903795324
 20
-147.1331379840501
 30
0.0
 10
89.53406980183523
 20
-146.7565890475123
 30
0.0
 10
89.99088946317937
 20
-146.7565890475123
 30
0.0
 10
90.21516517926914
 20
-146.7565890475123
 30
0.0
 10
90.45632186323662
 20
-146.883713070918
 30
0.0
 10
90.45632186323662
 20
-147.1796467731009
 30
0.0
 10
90.45632186323662
 20
-147.3660264388529
 30
0.0
 10
90.36123722784372
 20
-147.4483642209504
 30
0.0
 10
90.26167396832
 20
-147.5096869205879
 30
0.0
 10
90.32299666795745
 20
-147.5372476844699
 30
0.0
 10
90.50489770957864
 20
-147.6175184092762
 30
0.0
 10
90.50489770957864
 20
-147.8948485958388
 30
0.0
 10
90.50489770957864
 20
-148.2331569724903
 30
0.0
 10
90.2575398537377
 20
-148.400244103525
 30
0.0
 10
89.98055417672362
 20
-148.400244103525
 30
0.0
  0
HATCH
  5
96
330
91
100
AcDbEntity
  8
_U+30EC_U+30A4_U+30E4_U+30FC 1
 62
   179
420
  2234388
100
AcDbHatch
 10
0.0
 20
0.0
 30
0.0
210
0.0
220
0.0
230
1.0
  2
SOLID
 70
     1
 71
     0
 91
        1
 92
        1
 93
        1
 72
     4
 94
        3
 73
     0
 74
     1
 95
       62
 96
       58
 40
0.0
 40
0.0
 40
0.0
 40
0.0
 40
1.0
 40
1.0
 40
1.0
 40
2.0
 40
2.0
 40
2.0
 40
3.0
 40
3.0
 40
3.0
 40
4.0
 40
4.0
 40
4.0
 40
5.0
 40
5.0
 40
5.0
 40
6.0
 40
6.0
 40
6.0
 40
7.0
 40
7.0
 40
7.0
 40
8.0
 40
8.0
 40
8.0
 40
9.0
 40
9.0
 40
9.0
 40
10.0
 40
10.0
 40
10.0
 40
11.0
 40
11.0
 40
11.0
 40
12.0
 40
12.0
 40
12.0
 40
13.0
 40
13.0
 40
13.0
 40
14.0
 40
14.0
 40
14.0
 40
15.0
 40
15.0
 40
15.0
 40
16.0
 40
16.0
 40
16.0
 40
17.0
 40
17.0
 40
17.0
 40
18.0
 40
18.0
 40
18.0
 40
19.0
 40
19.0
 40
19.0
 40
19.0
 10
89.98055417672362
 20
-148.400244103525
 10
89.8851250317822
 20
-148.400244103525
 10
89.6673949971144
 20
-148.3792290210649
 10
89.54233803099983
 20
-148.1931938648614
 10
89.46861298761549
 20
-148.0808837520423
 10
89.46413436348466
 20
-147.9816650020671
 10
89.46000024890236
 20
-147.89691565313
 10
89.46000024890236
 20
-147.89691565313
 10
89.68014185040983
 20
-147.89691565313
 10
89.68014185040983
 20
-147.89691565313
 10
89.68220890770098
 20
-147.9709852060628
 10
89.69254419415672
 20
-148.2055962086083
 10
89.97607555259279
 20
-148.2055962086083
 10
90.11353486245426
 20
-148.2055962086083
 10
90.26615259245082
 20
-148.1360052798063
 10
90.26615259245082
 20
-147.9075954491342
 10
90.26615259245082
 20
-147.7911512217328
 10
90.22791203256456
 20
-147.7425753753907
 10
90.19621715410025
 20
-147.7108804969264
 10
90.12214760116738
 20
-147.6368109439936
 10
90.00570337376594
 20
-147.6240640906982
 10
89.95092635555046
 20
-147.6240640906982
 10
89.93163382083307
 20
-147.6240640906982
 10
89.89580482778646
 20
-147.6261311479893
 10
89.86824406390447
 20
-147.6302652625716
 10
89.86824406390447
 20
-147.6302652625716
 10
89.86824406390447
 20
-147.435617367655
 10
89.86824406390447
 20
-147.435617367655
 10
89.90648462379075
 20
-147.442163049077
 10
89.9485147887108
 20
-147.4442301063681
 10
89.95506047013276
 20
-147.4442301063681
 10
90.02051728435251
 20
-147.4442301063681
 10
90.21929929385144
 20
-147.4228705143596
 10
90.21929929385144
 20
-147.1861924545229
 10
90.21929929385144
 20
-147.008425527484
 10
90.08838566541193
 20
-146.95330399972
 10
89.97814260988395
 20
-146.95330399972
 10
89.71390378616528
 20
-146.95330399972
 10
89.70529104745215
 20
-147.1861924545229
 10
89.70115693286985
 20
-147.2578504406161
 10
89.70115693286985
 20
-147.2578504406161
 10
89.49789629924011
 20
-147.2578504406161
 10
89.49789629924011
 20
-147.2578504406161
 10
89.50650903795324
 20
-147.1331379840501
 10
89.53406980183523
 20
-146.7565890475123
 10
89.99088946317937
 20
-146.7565890475123
 10
90.21516517926914
 20
-146.7565890475123
 10
90.45632186323662
 20
-146.883713070918
 10
90.45632186323662
 20
-147.1796467731009
 10
90.45632186323662
 20
-147.3660264388529
 10
90.36123722784372
 20
-147.4483642209504
 10
90.26167396832
 20
-147.5096869205879
 10
90.32299666795745
 20
-147.5372476844699
 10
90.50489770957864
 20
-147.6175184092762
 10
90.50489770957864
 20
-147.8948485958388
 10
90.50489770957864
 20
-148.2331569724903
 10
90.2575398537377
 20
-148.400244103525
 10
89.98055417672362
 20
-148.400244103525
 97
        0
 97
        0
 75
     2
 76
     1
 98
        0
  0
SPLINE
  5
97
330
91
100
AcDbEntity
  8
_U+30EC_U+30A4_U+30E4_U+30FC 1
370
     0
100
AcDbSpline
210
0.0
220
0.0
230
1.0
 70
    11
 71
     3
 72
    29
 73
    25
 74
     0
 42
0.0000000001
 43
0.0000000001
 12
1.0
 22
0.0
 32
0.0
 13
1.0
 23
0.0
 33
0.0
 40
0.0
 40
0.0
 40
0.0
 40
0.0
 40
1.0
 40
1.0
 40
1.0
 40
2.0
 40
2.0
 40
2.0
 40
3.0
 40
3.0
 40
3.0
 40
4.0
 40
4.0
 40
4.0
 40
5.0
 40
5.0
 40
5.0
 40
6.0
 40
6.0
 40
6.0
 40
7.0
 40
7.0
 40
7.0
 40
8.0
 40
8.0
 40
8.0
 40
8.0
 10
91.16566702364956
 20
-148.400244103525
 30
0.0
 10
90.89901663309122
 20
-148.400244103525
 30
0.0
 10
90.64545760537683
 20
-148.2627847936635
 30
0.0
 10
90.64545760537683
 20
-147.9137966210077
 30
0.0
 10
90.64545760537683
 20
-147.6578260264536
 30
0.0
 10
90.7870510298206
 20
-147.5627413910607
 30
0.0
 10
90.89281546121778
 20
-147.5014186914233
 30
0.0
 10
90.76810300465173
 20
-147.442163049077
 30
0.0
 10
90.69196639442771
 20
-147.3277858789667
 30
0.0
 10
90.69196639442771
 20
-147.1668999198055
 30
0.0
 10
90.69196639442771
 20
-146.8919813000826
 30
0.0
 10
90.89074840392662
 20
-146.7565890475123
 30
0.0
 10
91.16566702364956
 20
-146.7565890475123
 30
0.0
 10
91.44937063685988
 20
-146.7565890475123
 30
0.0
 10
91.6398844171942
 20
-146.9005940387957
 30
0.0
 10
91.6398844171942
 20
-147.1668999198055
 30
0.0
 10
91.6398844171942
 20
-147.3277858789667
 30
0.0
 10
91.5613362401305
 20
-147.442163049077
 30
0.0
 10
91.43662378356446
 20
-147.5014186914233
 30
0.0
 10
91.52550724708391
 20
-147.5520615950564
 30
0.0
 10
91.68432614895393
 20
-147.6471462304493
 30
0.0
 10
91.68432614895393
 20
-147.9096625064254
 30
0.0
 10
91.68432614895393
 20
-148.284144385672
 30
0.0
 10
91.40492890510016
 20
-148.400244103525
 30
0.0
 10
91.16566702364956
 20
-148.400244103525
 30
0.0
  0
SPLINE
  5
98
330
91
100
AcDbEntity
  8
_U+30EC_U+30A4_U+30E4_U+30FC 1
370
     0
100
AcDbSpline
210
0.0
220
0.0
230
1.0
 70
    11
 71
     3
 72
    17
 73
    13
 74
     0
 42
0.0000000001
 43
0.0000000001
 12
1.0
 22
0.0
 32
0.0
 13
1.0
 23
0.0
 33
0.0
 40
0.0
 40
0.0
 40
0.0
 40
0.0
 40
1.0
 40
1.0
 40
1.0
 40
2.0
 40
2.0
 40
2.0
 40
3.0
 40
3.0
 40
3.0
 40
4.0
 40
4.0
 40
4.0
 40
4.0
 10
91.16566702364956
 20
-147.6092501801116
 30
0.0
 10
91.02200654191464
 20
-147.6092501801116
 30
0.0
 10
90.86938881191807
 20
-147.6960665863399
 30
0.0
 10
90.86938881191807
 20
-147.8989827104211
 30
0.0
 10
90.86938881191807
 20
-148.104310401342
 30
0.0
 10
90.9965128353238
 20
-148.2055962086083
 30
0.0
 10
91.16566702364956
 20
-148.2055962086083
 30
0.0
 10
91.35170217985305
 20
-148.2055962086083
 30
0.0
 10
91.46211749015531
 20
-148.0829508093334
 30
0.0
 10
91.46211749015531
 20
-147.9051838822946
 30
0.0
 10
91.46211749015531
 20
-147.6833197330444
 30
0.0
 10
91.29899221892873
 20
-147.6092501801116
 30
0.0
 10
91.16566702364956
 20
-147.6092501801116
 30
0.0
  0
SPLINE
  5
99
330
91
100
AcDbEntity
  8
_U+30EC_U+30A4_U+30E4_U+30FC 1
370
     0
100
AcDbSpline
210
0.0
220
0.0
230
1.0
 70
    11
 71
     3
 72
    17
 73
    13
 74
     0
 42
0.0000000001
 43
0.0000000001
 12
1.0
 22
0.0
 32
0.0
 13
1.0
 23
0.0
 33
0.0
 40
0.0
 40
0.0
 40
0.0
 40
0.0
 40
1.0
 40
1.0
 40
1.0
 40
2.0
 40
2.0
 40
2.0
 40
3.0
 40
3.0
 40
3.0
 40
4.0
 40
4.0
 40
4.0
 40
4.0
 10
91.16566702364956
 20
-146.9491698851377
 30
0.0
 10
91.0006469499061
 20
-146.9491698851377
 30
0.0
 10
90.91624211051747
 20
-147.0442545205306
 30
0.0
 10
90.91624211051747
 20
-147.1796467731009
 30
0.0
 10
90.91624211051747
 20
-147.3022921723758
 30
0.0
 10
90.98790009661067
 20
-147.4208034570684
 30
0.0
 10
91.16566702364956
 20
-147.4208034570684
 30
0.0
 10
91.34343395068845
 20
-147.4208034570684
 30
0.0
 10
91.41560870110443
 20
-147.3022921723758
 30
0.0
 10
91.41560870110443
 20
-147.1796467731009
 30
0.0
 10
91.41560870110443
 20
-147.0442545205306
 30
0.0
 10
91.32862004010188
 20
-146.9491698851377
 30
0.0
 10
91.16566702364956
 20
-146.9491698851377
 30
0.0
  0
HATCH
  5
9A
330
91
100
AcDbEntity
  8
_U+30EC_U+30A4_U+30E4_U+30FC 1
 62
   179
420
  2234388
100
AcDbHatch
 10
0.0
 20
0.0
 30
0.0
210
0.0
220
0.0
230
1.0
  2
SOLID
 70
     1
 71
     0
 91
        3
 92
        1
 93
        1
 72
     4
 94
        3
 73
     0
 74
     1
 95
       29
 96
       25
 40
0.0
 40
0.0
 40
0.0
 40
0.0
 40
1.0
 40
1.0
 40
1.0
 40
2.0
 40
2.0
 40
2.0
 40
3.0
 40
3.0
 40
3.0
 40
4.0
 40
4.0
 40
4.0
 40
5.0
 40
5.0
 40
5.0
 40
6.0
 40
6.0
 40
6.0
 40
7.0
 40
7.0
 40
7.0
 40
8.0
 40
8.0
 40
8.0
 40
8.0
 10
91.16566702364956
 20
-148.400244103525
 10
90.89901663309122
 20
-148.400244103525
 10
90.64545760537683
 20
-148.2627847936635
 10
90.64545760537683
 20
-147.9137966210077
 10
90.64545760537683
 20
-147.6578260264536
 10
90.7870510298206
 20
-147.5627413910607
 10
90.89281546121778
 20
-147.5014186914233
 10
90.76810300465173
 20
-147.442163049077
 10
90.69196639442771
 20
-147.3277858789667
 10
90.69196639442771
 20
-147.1668999198055
 10
90.69196639442771
 20
-146.8919813000826
 10
90.89074840392662
 20
-146.7565890475123
 10
91.16566702364956
 20
-146.7565890475123
 10
91.44937063685988
 20
-146.7565890475123
 10
91.6398844171942
 20
-146.9005940387957
 10
91.6398844171942
 20
-147.1668999198055
 10
91.6398844171942
 20
-147.3277858789667
 10
91.5613362401305
 20
-147.442163049077
 10
91.43662378356446
 20
-147.5014186914233
 10
91.52550724708391
 20
-147.5520615950564
 10
91.68432614895393
 20
-147.6471462304493
 10
91.68432614895393
 20
-147.9096625064254
 10
91.68432614895393
 20
-148.284144385672
 10
91.40492890510016
 20
-148.400244103525
 10
91.16566702364956
 20
-148.400244103525
 97
        0
 97
        0
 92
        1
 93
        1
 72
     4
 94
        3
 73
     0
 74
     1
 95
       17
 96
       13
 40
0.0
 40
0.0
 40
0.0
 40
0.0
 40
1.0
 40
1.0
 40
1.0
 40
2.0
 40
2.0
 40
2.0
 40
3.0
 40
3.0
 40
3.0
 40
4.0
 40
4.0
 40
4.0
 40
4.0
 10
91.16566702364956
 20
-147.6092501801116
 10
91.02200654191464
 20
-147.6092501801116
 10
90.86938881191807
 20
-147.6960665863399
 10
90.86938881191807
 20
-147.8989827104211
 10
90.86938881191807
 20
-148.104310401342
 10
90.9965128353238
 20
-148.2055962086083
 10
91.16566702364956
 20
-148.2055962086083
 10
91.35170217985305
 20
-148.2055962086083
 10
91.46211749015531
 20
-148.0829508093334
 10
91.46211749015531
 20
-147.9051838822946
 10
91.46211749015531
 20
-147.6833197330444
 10
91.29899221892873
 20
-147.6092501801116
 10
91.16566702364956
 20
-147.6092501801116
 97
        0
 97
        0
 92
        1
 93
        1
 72
     4
 94
        3
 73
     0
 74
     1
 95
       17
 96
       13
 40
0.0
 40
0.0
 40
0.0
 40
0.0
 40
1.0
 40
1.0
 40
1.0
 40
2.0
 40
2.0
 40
2.0
 40
3.0
 40
3.0
 40
3.0
 40
4.0
 40
4.0
 40
4.0
 40
4.0
 10
91.16566702364956
 20
-146.9491698851377
 10
91.0006469499061
 20
-146.9491698851377
 10
90.91624211051747
 20
-147.0442545205306
 10
90.91624211051747
 20
-147.1796467731009
 10
90.91624211051747
 20
-147.3022921723758
 10
90.98790009661067
 20
-147.4208034570684
 10
91.16566702364956
 20
-147.4208034570684
 10
91.34343395068845
 20
-147.4208034570684
 10
91.41560870110443
 20
-147.3022921723758
 10
91.41560870110443
 20
-147.1796467731009
 10
91.41560870110443
 20
-147.0442545205306
 10
91.32862004010188
 20
-146.9491698851377
 10
91.16566702364956
 20
-146.9491698851377
 97
        0
 97
        0
 75
     2
 76
     1
 98
        0
  0
ENDBLK
  5
94
330
91
100
AcDbEntity
  8
0
100
AcDbBlockEnd
  0
BLOCK
  5
A9
330
A7
100
AcDbEntity
  8
0
100
AcDbBlockBegin
  2
block 4
 70
     0
 10
0.0
 20
0.0
 30
0.0
  3
block 4
  1

  0
SPLINE
  5
AB
330
A7
100
AcDbEntity
  8
_U+30EC_U+30A4_U+30E4_U+30FC 1
370
     0
100
AcDbSpline
210
0.0
220
0.0
230
1.0
 70
    11
 71
     3
 72
    62
 73
    58
 74
     0
 42
0.0000000001
 43
0.0000000001
 12
1.0
 22
0.0
 32
0.0
 13
1.0
 23
0.0
 33
0.0
 40
0.0
 40
0.0
 40
0.0
 40
0.0
 40
1.0
 40
1.0
 40
1.0
 40
2.0
 40
2.0
 40
2.0
 40
3.0
 40
3.0
 40
3.0
 40
4.0
 40
4.0
 40
4.0
 40
5.0
 40
5.0
 40
5.0
 40
6.0
 40
6.0
 40
6.0
 40
7.0
 40
7.0
 40
7.0
 40
8.0
 40
8.0
 40
8.0
 40
9.0
 40
9.0
 40
9.0
 40
10.0
 40
10.0
 40
10.0
 40
11.0
 40
11.0
 40
11.0
 40
12.0
 40
12.0
 40
12.0
 40
13.0
 40
13.0
 40
13.0
 40
14.0
 40
14.0
 40
14.0
 40
15.0
 40
15.0
 40
15.0
 40
16.0
 40
16.0
 40
16.0
 40
17.0
 40
17.0
 40
17.0
 40
18.0
 40
18.0
 40
18.0
 40
19.0
 40
19.0
 40
19.0
 40
19.0
 10
68.6950317211075
 20
-126.6189724075814
 30
0.0
 10
68.6950317211075
 20
-126.7144015525228
 30
0.0
 10
68.6738443838732
 20
-126.9321315871906
 30
0.0
 10
68.48763697289546
 20
-127.0571885533052
 30
0.0
 10
68.37549911485057
 20
-127.131258106238
 30
0.0
 10
68.27610811010112
 20
-127.1353922208203
 30
0.0
 10
68.19153101593822
 20
-127.1395263354026
 30
0.0
 10
68.19153101593822
 20
-127.1395263354026
 30
0.0
 10
68.19153101593822
 20
-126.9193847338952
 30
0.0
 10
68.19153101593822
 20
-126.9193847338952
 30
0.0
 10
68.26560056887111
 20
-126.917317676604
 30
0.0
 10
68.50038382619088
 20
-126.9069823901483
 30
0.0
 10
68.50038382619088
 20
-126.6234510317122
 30
0.0
 10
68.50038382619088
 20
-126.4859917218507
 30
0.0
 10
68.43062064261457
 20
-126.3333739918542
 30
0.0
 10
68.20203855716824
 20
-126.3333739918542
 30
0.0
 10
68.08576658454106
 20
-126.3333739918542
 30
0.0
 10
68.03701848342477
 20
-126.3716145517404
 30
0.0
 10
68.00532360496048
 20
-126.4033094302047
 30
0.0
 10
67.93125405202761
 20
-126.4773789831376
 30
0.0
 10
67.91867945350644
 20
-126.5938232105391
 30
0.0
 10
67.91867945350644
 20
-126.6486002287545
 30
0.0
 10
67.91867945350644
 20
-126.6678927634719
 30
0.0
 10
67.9207465107976
 20
-126.7037217565185
 30
0.0
 10
67.9248806253799
 20
-126.7312825204005
 30
0.0
 10
67.9248806253799
 20
-126.7312825204005
 30
0.0
 10
67.73023273046327
 20
-126.7312825204005
 30
0.0
 10
67.73023273046327
 20
-126.7312825204005
 30
0.0
 10
67.73660615711098
 20
-126.6930419605143
 30
0.0
 10
67.7388454691764
 20
-126.6510117955942
 30
0.0
 10
67.7388454691764
 20
-126.6444661141722
 30
0.0
 10
67.7388454691764
 20
-126.5790092999525
 30
0.0
 10
67.71765813194212
 20
-126.3802272904536
 30
0.0
 10
67.48063556255693
 20
-126.3802272904536
 30
0.0
 10
67.3030408902923
 20
-126.3802272904536
 30
0.0
 10
67.24791936252831
 20
-126.511140918893
 30
0.0
 10
67.24791936252831
 20
-126.6213839744211
 30
0.0
 10
67.24791936252831
 20
-126.8856227981397
 30
0.0
 10
67.48063556255693
 20
-126.8942355368528
 30
0.0
 10
67.55263805819865
 20
-126.8983696514351
 30
0.0
 10
67.55263805819865
 20
-126.8983696514351
 30
0.0
 10
67.55263805819865
 20
-127.1016302850649
 30
0.0
 10
67.55263805819865
 20
-127.1016302850649
 30
0.0
 10
67.42775334685834
 20
-127.0930175463517
 30
0.0
 10
67.05120441032054
 20
-127.0654567824698
 30
0.0
 10
67.05120441032054
 20
-126.6086371211256
 30
0.0
 10
67.05120441032054
 20
-126.3843614050359
 30
0.0
 10
67.178156178952
 20
-126.1432047210684
 30
0.0
 10
67.47426213590921
 20
-126.1432047210684
 30
0.0
 10
67.66046954688697
 20
-126.1432047210684
 30
0.0
 10
67.7429795837587
 20
-126.2382893564613
 30
0.0
 10
67.80430228339615
 20
-126.337852615985
 30
0.0
 10
67.83186304727815
 20
-126.2765299163475
 30
0.0
 10
67.91230602685873
 20
-126.0946288747264
 30
0.0
 10
68.18946395864708
 20
-126.0946288747264
 30
0.0
 10
68.52794459007288
 20
-126.0946288747264
 30
0.0
 10
68.6950317211075
 20
-126.3419867305673
 30
0.0
 10
68.6950317211075
 20
-126.6189724075814
 30
0.0
  0
HATCH
  5
AC
330
A7
100
AcDbEntity
  8
_U+30EC_U+30A4_U+30E4_U+30FC 1
 62
   179
420
  2234388
100
AcDbHatch
 10
0.0
 20
0.0
 30
0.0
210
0.0
220
0.0
230
1.0
  2
SOLID
 70
     1
 71
     0
 91
        1
 92
        1
 93
        1
 72
     4
 94
        3
 73
     0
 74
     1
 95
       62
 96
       58
 40
0.0
 40
0.0
 40
0.0
 40
0.0
 40
1.0
 40
1.0
 40
1.0
 40
2.0
 40
2.0
 40
2.0
 40
3.0
 40
3.0
 40
3.0
 40
4.0
 40
4.0
 40
4.0
 40
5.0
 40
5.0
 40
5.0
 40
6.0
 40
6.0
 40
6.0
 40
7.0
 40
7.0
 40
7.0
 40
8.0
 40
8.0
 40
8.0
 40
9.0
 40
9.0
 40
9.0
 40
10.0
 40
10.0
 40
10.0
 40
11.0
 40
11.0
 40
11.0
 40
12.0
 40
12.0
 40
12.0
 40
13.0
 40
13.0
 40
13.0
 40
14.0
 40
14.0
 40
14.0
 40
15.0
 40
15.0
 40
15.0
 40
16.0
 40
16.0
 40
16.0
 40
17.0
 40
17.0
 40
17.0
 40
18.0
 40
18.0
 40
18.0
 40
19.0
 40
19.0
 40
19.0
 40
19.0
 10
68.6950317211075
 20
-126.6189724075814
 10
68.6950317211075
 20
-126.7144015525228
 10
68.6738443838732
 20
-126.9321315871906
 10
68.48763697289546
 20
-127.0571885533052
 10
68.37549911485057
 20
-127.131258106238
 10
68.27610811010112
 20
-127.1353922208203
 10
68.19153101593822
 20
-127.1395263354026
 10
68.19153101593822
 20
-127.1395263354026
 10
68.19153101593822
 20
-126.9193847338952
 10
68.19153101593822
 20
-126.9193847338952
 10
68.26560056887111
 20
-126.917317676604
 10
68.50038382619088
 20
-126.9069823901483
 10
68.50038382619088
 20
-126.6234510317122
 10
68.50038382619088
 20
-126.4859917218507
 10
68.43062064261457
 20
-126.3333739918542
 10
68.20203855716824
 20
-126.3333739918542
 10
68.08576658454106
 20
-126.3333739918542
 10
68.03701848342477
 20
-126.3716145517404
 10
68.00532360496048
 20
-126.4033094302047
 10
67.93125405202761
 20
-126.4773789831376
 10
67.91867945350644
 20
-126.5938232105391
 10
67.91867945350644
 20
-126.6486002287545
 10
67.91867945350644
 20
-126.6678927634719
 10
67.9207465107976
 20
-126.7037217565185
 10
67.9248806253799
 20
-126.7312825204005
 10
67.9248806253799
 20
-126.7312825204005
 10
67.73023273046327
 20
-126.7312825204005
 10
67.73023273046327
 20
-126.7312825204005
 10
67.73660615711098
 20
-126.6930419605143
 10
67.7388454691764
 20
-126.6510117955942
 10
67.7388454691764
 20
-126.6444661141722
 10
67.7388454691764
 20
-126.5790092999525
 10
67.71765813194212
 20
-126.3802272904536
 10
67.48063556255693
 20
-126.3802272904536
 10
67.3030408902923
 20
-126.3802272904536
 10
67.24791936252831
 20
-126.511140918893
 10
67.24791936252831
 20
-126.6213839744211
 10
67.24791936252831
 20
-126.8856227981397
 10
67.48063556255693
 20
-126.8942355368528
 10
67.55263805819865
 20
-126.8983696514351
 10
67.55263805819865
 20
-126.8983696514351
 10
67.55263805819865
 20
-127.1016302850649
 10
67.55263805819865
 20
-127.1016302850649
 10
67.42775334685834
 20
-127.0930175463517
 10
67.05120441032054
 20
-127.0654567824698
 10
67.05120441032054
 20
-126.6086371211256
 10
67.05120441032054
 20
-126.3843614050359
 10
67.178156178952
 20
-126.1432047210684
 10
67.47426213590921
 20
-126.1432047210684
 10
67.66046954688697
 20
-126.1432047210684
 10
67.7429795837587
 20
-126.2382893564613
 10
67.80430228339615
 20
-126.337852615985
 10
67.83186304727815
 20
-126.2765299163475
 10
67.91230602685873
 20
-126.0946288747264
 10
68.18946395864708
 20
-126.0946288747264
 10
68.52794459007288
 20
-126.0946288747264
 10
68.6950317211075
 20
-126.3419867305673
 10
68.6950317211075
 20
-126.6189724075814
 97
        0
 97
        0
 75
     2
 76
     1
 98
        0
  0
SPLINE
  5
AD
330
A7
100
AcDbEntity
  8
_U+30EC_U+30A4_U+30E4_U+30FC 1
370
     0
100
AcDbSpline
210
0.0
220
0.0
230
1.0
 70
    11
 71
     3
 72
    29
 73
    25
 74
     0
 42
0.0000000001
 43
0.0000000001
 12
1.0
 22
0.0
 32
0.0
 13
1.0
 23
0.0
 33
0.0
 40
0.0
 40
0.0
 40
0.0
 40
0.0
 40
1.0
 40
1.0
 40
1.0
 40
2.0
 40
2.0
 40
2.0
 40
3.0
 40
3.0
 40
3.0
 40
4.0
 40
4.0
 40
4.0
 40
5.0
 40
5.0
 40
5.0
 40
6.0
 40
6.0
 40
6.0
 40
7.0
 40
7.0
 40
7.0
 40
8.0
 40
8.0
 40
8.0
 40
8.0
 10
68.6950317211075
 20
-125.4338595606554
 30
0.0
 10
68.6950317211075
 20
-125.7005099512138
 30
0.0
 10
68.55740015647176
 20
-125.9544134884767
 30
0.0
 10
68.20841198381595
 20
-125.9544134884767
 30
0.0
 10
67.95244138926189
 20
-125.9544134884767
 30
0.0
 10
67.85718449909473
 20
-125.8124755544844
 30
0.0
 10
67.79586179945728
 20
-125.7067111230872
 30
0.0
 10
67.73660615711098
 20
-125.8314235796533
 30
0.0
 10
67.62240124177495
 20
-125.9075601898773
 30
0.0
 10
67.46168753738806
 20
-125.9075601898773
 30
0.0
 10
67.18659666289085
 20
-125.9075601898773
 30
0.0
 10
67.05120441032054
 20
-125.7087781803784
 30
0.0
 10
67.05120441032054
 20
-125.4338595606554
 30
0.0
 10
67.05120441032054
 20
-125.1503282022194
 30
0.0
 10
67.19503714682972
 20
-124.9598144218851
 30
0.0
 10
67.46168753738806
 20
-124.9598144218851
 30
0.0
 10
67.62240124177495
 20
-124.9598144218851
 30
0.0
 10
67.73660615711098
 20
-125.0383625989488
 30
0.0
 10
67.79586179945728
 20
-125.1630750555148
 30
0.0
 10
67.84667695786472
 20
-125.0741915919953
 30
0.0
 10
67.94193384803188
 20
-124.9153726901253
 30
0.0
 10
68.20427786923365
 20
-124.9153726901253
 30
0.0
 10
68.57858749370605
 20
-124.9153726901253
 30
0.0
 10
68.6950317211075
 20
-125.1947699339791
 30
0.0
 10
68.6950317211075
 20
-125.4338595606554
 30
0.0
  0
SPLINE
  5
AE
330
A7
100
AcDbEntity
  8
_U+30EC_U+30A4_U+30E4_U+30FC 1
370
     0
100
AcDbSpline
210
0.0
220
0.0
230
1.0
 70
    11
 71
     3
 72
    17
 73
    13
 74
     0
 42
0.0000000001
 43
0.0000000001
 12
1.0
 22
0.0
 32
0.0
 13
1.0
 23
0.0
 33
0.0
 40
0.0
 40
0.0
 40
0.0
 40
0.0
 40
1.0
 40
1.0
 40
1.0
 40
2.0
 40
2.0
 40
2.0
 40
3.0
 40
3.0
 40
3.0
 40
4.0
 40
4.0
 40
4.0
 40
4.0
 10
67.24378524794601
 20
-125.4338595606554
 30
0.0
 10
67.24378524794601
 20
-125.5988796343989
 30
0.0
 10
67.3388698833389
 20
-125.683628983336
 30
0.0
 10
67.47426213590921
 20
-125.683628983336
 30
0.0
 10
67.59707978995837
 20
-125.683628983336
 30
0.0
 10
67.71559107465097
 20
-125.6116264876943
 30
0.0
 10
67.71559107465097
 20
-125.4338595606554
 30
0.0
 10
67.71559107465097
 20
-125.2560926336165
 30
0.0
 10
67.59707978995837
 20
-125.1840901379748
 30
0.0
 10
67.47426213590921
 20
-125.1840901379748
 30
0.0
 10
67.3388698833389
 20
-125.1840901379748
 30
0.0
 10
67.24378524794601
 20
-125.2709065442031
 30
0.0
 10
67.24378524794601
 20
-125.4338595606554
 30
0.0
  0
SPLINE
  5
AF
330
A7
100
AcDbEntity
  8
_U+30EC_U+30A4_U+30E4_U+30FC 1
370
     0
100
AcDbSpline
210
0.0
220
0.0
230
1.0
 70
    11
 71
     3
 72
    17
 73
    13
 74
     0
 42
0.0000000001
 43
0.0000000001
 12
1.0
 22
0.0
 32
0.0
 13
1.0
 23
0.0
 33
0.0
 40
0.0
 40
0.0
 40
0.0
 40
0.0
 40
1.0
 40
1.0
 40
1.0
 40
2.0
 40
2.0
 40
2.0
 40
3.0
 40
3.0
 40
3.0
 40
4.0
 40
4.0
 40
4.0
 40
4.0
 10
67.90386554291987
 20
-125.4338595606554
 30
0.0
 10
67.90386554291987
 20
-125.5775200423903
 30
0.0
 10
67.9905096943739
 20
-125.7301377723869
 30
0.0
 10
68.19359807322938
 20
-125.7301377723869
 30
0.0
 10
68.39875350937601
 20
-125.7301377723869
 30
0.0
 10
68.50038382619088
 20
-125.6030137489812
 30
0.0
 10
68.50038382619088
 20
-125.4338595606554
 30
0.0
 10
68.50038382619088
 20
-125.2478244044519
 30
0.0
 10
68.37773842691598
 20
-125.1375813489239
 30
0.0
 10
68.1999714998771
 20
-125.1375813489239
 30
0.0
 10
67.97776284107847
 20
-125.1375813489239
 30
0.0
 10
67.90386554291987
 20
-125.3005343653763
 30
0.0
 10
67.90386554291987
 20
-125.4338595606554
 30
0.0
  0
HATCH
  5
B0
330
A7
100
AcDbEntity
  8
_U+30EC_U+30A4_U+30E4_U+30FC 1
 62
   179
420
  2234388
100
AcDbHatch
 10
0.0
 20
0.0
 30
0.0
210
0.0
220
0.0
230
1.0
  2
SOLID
 70
     1
 71
     0
 91
        3
 92
        1
 93
        1
 72
     4
 94
        3
 73
     0
 74
     1
 95
       29
 96
       25
 40
0.0
 40
0.0
 40
0.0
 40
0.0
 40
1.0
 40
1.0
 40
1.0
 40
2.0
 40
2.0
 40
2.0
 40
3.0
 40
3.0
 40
3.0
 40
4.0
 40
4.0
 40
4.0
 40
5.0
 40
5.0
 40
5.0
 40
6.0
 40
6.0
 40
6.0
 40
7.0
 40
7.0
 40
7.0
 40
8.0
 40
8.0
 40
8.0
 40
8.0
 10
68.6950317211075
 20
-125.4338595606554
 10
68.6950317211075
 20
-125.7005099512138
 10
68.55740015647176
 20
-125.9544134884767
 10
68.20841198381595
 20
-125.9544134884767
 10
67.95244138926189
 20
-125.9544134884767
 10
67.85718449909473
 20
-125.8124755544844
 10
67.79586179945728
 20
-125.7067111230872
 10
67.73660615711098
 20
-125.8314235796533
 10
67.62240124177495
 20
-125.9075601898773
 10
67.46168753738806
 20
-125.9075601898773
 10
67.18659666289085
 20
-125.9075601898773
 10
67.05120441032054
 20
-125.7087781803784
 10
67.05120441032054
 20
-125.4338595606554
 10
67.05120441032054
 20
-125.1503282022194
 10
67.19503714682972
 20
-124.9598144218851
 10
67.46168753738806
 20
-124.9598144218851
 10
67.62240124177495
 20
-124.9598144218851
 10
67.73660615711098
 20
-125.0383625989488
 10
67.79586179945728
 20
-125.1630750555148
 10
67.84667695786472
 20
-125.0741915919953
 10
67.94193384803188
 20
-124.9153726901253
 10
68.20427786923365
 20
-124.9153726901253
 10
68.57858749370605
 20
-124.9153726901253
 10
68.6950317211075
 20
-125.1947699339791
 10
68.6950317211075
 20
-125.4338595606554
 97
        0
 97
        0
 92
        1
 93
        1
 72
     4
 94
        3
 73
     0
 74
     1
 95
       17
 96
       13
 40
0.0
 40
0.0
 40
0.0
 40
0.0
 40
1.0
 40
1.0
 40
1.0
 40
2.0
 40
2.0
 40
2.0
 40
3.0
 40
3.0
 40
3.0
 40
4.0
 40
4.0
 40
4.0
 40
4.0
 10
67.24378524794601
 20
-125.4338595606554
 10
67.24378524794601
 20
-125.5988796343989
 10
67.3388698833389
 20
-125.683628983336
 10
67.47426213590921
 20
-125.683628983336
 10
67.59707978995837
 20
-125.683628983336
 10
67.71559107465097
 20
-125.6116264876943
 10
67.71559107465097
 20
-125.4338595606554
 10
67.71559107465097
 20
-125.2560926336165
 10
67.59707978995837
 20
-125.1840901379748
 10
67.47426213590921
 20
-125.1840901379748
 10
67.3388698833389
 20
-125.1840901379748
 10
67.24378524794601
 20
-125.2709065442031
 10
67.24378524794601
 20
-125.4338595606554
 97
        0
 97
        0
 92
        1
 93
        1
 72
     4
 94
        3
 73
     0
 74
     1
 95
       17
 96
       13
 40
0.0
 40
0.0
 40
0.0
 40
0.0
 40
1.0
 40
1.0
 40
1.0
 40
2.0
 40
2.0
 40
2.0
 40
3.0
 40
3.0
 40
3.0
 40
4.0
 40
4.0
 40
4.0
 40
4.0
 10
67.90386554291987
 20
-125.4338595606554
 10
67.90386554291987
 20
-125.5775200423903
 10
67.9905096943739
 20
-125.7301377723869
 10
68.19359807322938
 20
-125.7301377723869
 10
68.39875350937601
 20
-125.7301377723869
 10
68.50038382619088
 20
-125.6030137489812
 10
68.50038382619088
 20
-125.4338595606554
 10
68.50038382619088
 20
-125.2478244044519
 10
68.37773842691598
 20
-125.1375813489239
 10
68.1999714998771
 20
-125.1375813489239
 10
67.97776284107847
 20
-125.1375813489239
 10
67.90386554291987
 20
-125.3005343653763
 10
67.90386554291987
 20
-125.4338595606554
 97
        0
 97
        0
 75
     2
 76
     1
 98
        0
  0
ENDBLK
  5
AA
330
A7
100
AcDbEntity
  8
0
100
AcDbBlockEnd
  0
ENDSEC
  0
SECTION
  2
ENTITIES
  0
POLYLINE
  5
41
330
1F
100
AcDbEntity
  8
_U+30EC_U+30A4_U+30E4_U+30FC 1
370
     0
100
AcDb2dPolyline
 66
     1
 10
0.0
 20
0.0
 30
0.0
  0
VERTEX
  5
42
330
41
100
AcDbEntity
  8
_U+30EC_U+30A4_U+30E4_U+30FC 1
370
     0
100
AcDbVertex
100
AcDb2dVertex
 10
73.1536561892503
 20
-106.9457474732636
 30
0.0
  0
VERTEX
  5
43
330
41
100
AcDbEntity
  8
_U+30EC_U+30A4_U+30E4_U+30FC 1
370
     0
100
AcDbVertex
100
AcDb2dVertex
 10
71.65368039418453
 20
-106.9457474732636
 30
0.0
  0
VERTEX
  5
44
330
41
100
AcDbEntity
  8
_U+30EC_U+30A4_U+30E4_U+30FC 1
370
     0
100
AcDbVertex
100
AcDb2dVertex
 10
71.65368039418453
 20
-144.9454880193192
 30
0.0
  0
VERTEX
  5
45
330
41
100
AcDbEntity
  8
_U+30EC_U+30A4_U+30E4_U+30FC 1
370
     0
100
AcDbVertex
100
AcDb2dVertex
 10
109.6532435914016
 20
-144.9454880193192
 30
0.0
  0
VERTEX
  5
46
330
41
100
AcDbEntity
  8
_U+30EC_U+30A4_U+30E4_U+30FC 1
370
     0
100
AcDbVertex
100
AcDb2dVertex
 10
109.6532435914016
 20
-143.4455121863611
 30
0.0
  0
VERTEX
  5
47
330
41
100
AcDbEntity
  8
_U+30EC_U+30A4_U+30E4_U+30FC 1
370
     0
100
AcDbVertex
100
AcDb2dVertex
 10
73.1536561892503
 20
-143.4455121863611
 30
0.0
  0
VERTEX
  5
48
330
41
100
AcDbEntity
  8
_U+30EC_U+30A4_U+30E4_U+30FC 1
370
     0
100
AcDbVertex
100
AcDb2dVertex
 10
73.1536561892503
 20
-106.9457474732636
 30
0.0
  0
SEQEND
  5
4A
330
41
100
AcDbEntity
  8
_U+30EC_U+30A4_U+30E4_U+30FC 1
370
     0
  0
HATCH
  5
49
330
1F
100
AcDbEntity
  8
_U+30EC_U+30A4_U+30E4_U+30FC 1
 62
   253
420
 11711154
100
AcDbHatch
 10
0.0
 20
0.0
 30
0.0
210
0.0
220
0.0
230
1.0
  2
SOLID
 70
     1
 71
     0
 91
        1
 92
        1
 93
        6
 72
     1
 10
73.1536561892503
 20
-106.9457474732636
 11
71.65368039418453
 21
-106.9457474732636
 72
     1
 10
71.65368039418453
 20
-106.9457474732636
 11
71.65368039418453
 21
-144.9454880193192
 72
     1
 10
71.65368039418453
 20
-144.9454880193192
 11
109.6532435914016
 21
-144.9454880193192
 72
     1
 10
109.6532435914016
 20
-144.9454880193192
 11
109.6532435914016
 21
-143.4455121863611
 72
     1
 10
109.6532435914016
 20
-143.4455121863611
 11
73.1536561892503
 21
-143.4455121863611
 72
     1
 10
73.1536561892503
 20
-143.4455121863611
 11
73.1536561892503
 21
-106.9457474732636
 97
        0
 75
     2
 76
     1
 98
        0
  0
POLYLINE
  5
4B
330
1F
100
AcDbEntity
  8
_U+30EC_U+30A4_U+30E4_U+30FC 1
 62
   179
420
  2234388
370
    25
100
AcDb2dPolyline
 66
     1
 10
0.0
 20
0.0
 30
0.0
  0
VERTEX
  5
4C
330
4B
100
AcDbEntity
  8
_U+30EC_U+30A4_U+30E4_U+30FC 1
 62
   179
420
  2234388
370
    25
100
AcDbVertex
100
AcDb2dVertex
 10
71.65368039418453
 20
-144.9454880193192
 30
0.0
  0
VERTEX
  5
4D
330
4B
100
AcDbEntity
  8
_U+30EC_U+30A4_U+30E4_U+30FC 1
 62
   179
420
  2234388
370
    25
100
AcDbVertex
100
AcDb2dVertex
 10
109.6532435914016
 20
-144.9454880193192
 30
0.0
  0
SEQEND
  5
4E
330
4B
100
AcDbEntity
  8
_U+30EC_U+30A4_U+30E4_U+30FC 1
 62
   179
420
  2234388
370
    25
  0
POLYLINE
  5
4F
330
1F
100
AcDbEntity
  8
_U+30EC_U+30A4_U+30E4_U+30FC 1
 62
   179
420
  2234388
370
    25
100
AcDb2dPolyline
 66
     1
 10
0.0
 20
0.0
 30
0.0
  0
VERTEX
  5
50
330
4F
100
AcDbEntity
  8
_U+30EC_U+30A4_U+30E4_U+30FC 1
 62
   179
420
  2234388
370
    25
100
AcDbVertex
100
AcDb2dVertex
 10
71.65368039418453
 20
-106.9457474732636
 30
0.0
  0
VERTEX
  5
51
330
4F
100
AcDbEntity
  8
_U+30EC_U+30A4_U+30E4_U+30FC 1
 62
   179
420
  2234388
370
    25
100
AcDbVertex
100
AcDb2dVertex
 10
71.65368039418453
 20
-144.9454880193192
 30
0.0
  0
SEQEND
  5
52
330
4F
100
AcDbEntity
  8
_U+30EC_U+30A4_U+30E4_U+30FC 1
 62
   179
420
  2234388
370
    25
  0
POLYLINE
  5
53
330
1F
100
AcDbEntity
  8
_U+30EC_U+30A4_U+30E4_U+30FC 1
 62
   179
420
  2234388
370
    25
100
AcDb2dPolyline
 66
     1
 10
0.0
 20
0.0
 30
0.0
  0
VERTEX
  5
54
330
53
100
AcDbEntity
  8
_U+30EC_U+30A4_U+30E4_U+30FC 1
 62
   179
420
  2234388
370
    25
100
AcDbVertex
100
AcDb2dVertex
 10
73.1536561892503
 20
-143.4455121863611
 30
0.0
  0
VERTEX
  5
55
330
53
100
AcDbEntity
  8
_U+30EC_U+30A4_U+30E4_U+30FC 1
 62
   179
420
  2234388
370
    25
100
AcDbVertex
100
AcDb2dVertex
 10
109.6532435914016
 20
-143.4455121863611
 30
0.0
  0
SEQEND
  5
56
330
53
100
AcDbEntity
  8
_U+30EC_U+30A4_U+30E4_U+30FC 1
 62
   179
420
  2234388
370
    25
  0
POLYLINE
  5
57
330
1F
100
AcDbEntity
  8
_U+30EC_U+30A4_U+30E4_U+30FC 1
 62
   179
420
  2234388
370
    25
100
AcDb2dPolyline
 66
     1
 10
0.0
 20
0.0
 30
0.0
  0
VERTEX
  5
58
330
57
100
AcDbEntity
  8
_U+30EC_U+30A4_U+30E4_U+30FC 1
 62
   179
420
  2234388
370
    25
100
AcDbVertex
100
AcDb2dVertex
 10
71.65368039418453
 20
-106.9457474732636
 30
0.0
  0
VERTEX
  5
59
330
57
100
AcDbEntity
  8
_U+30EC_U+30A4_U+30E4_U+30FC 1
 62
   179
420
  2234388
370
    25
100
AcDbVertex
100
AcDb2dVertex
 10
73.1536561892503
 20
-106.9457474732636
 30
0.0
  0
SEQEND
  5
5A
330
57
100
AcDbEntity
  8
_U+30EC_U+30A4_U+30E4_U+30FC 1
 62
   179
420
  2234388
370
    25
  0
POLYLINE
  5
5B
330
1F
100
AcDbEntity
  8
_U+30EC_U+30A4_U+30E4_U+30FC 1
 62
   179
420
  2234388
370
    25
100
AcDb2dPolyline
 66
     1
 10
0.0
 20
0.0
 30
0.0
  0
VERTEX
  5
5C
330
5B
100
AcDbEntity
  8
_U+30EC_U+30A4_U+30E4_U+30FC 1
 62
   179
420
  2234388
370
    25
100
AcDbVertex
100
AcDb2dVertex
 10
109.6532435914016
 20
-143.4455121863611
 30
0.0
  0
VERTEX
  5
5D
330
5B
100
AcDbEntity
  8
_U+30EC_U+30A4_U+30E4_U+30FC 1
 62
   179
420
  2234388
370
    25
100
AcDbVertex
100
AcDb2dVertex
 10
109.6532435914016
 20
-144.9454880193192
 30
0.0
  0
SEQEND
  5
5E
330
5B
100
AcDbEntity
  8
_U+30EC_U+30A4_U+30E4_U+30FC 1
 62
   179
420
  2234388
370
    25
  0
POLYLINE
  5
5F
330
1F
100
AcDbEntity
  8
_U+30EC_U+30A4_U+30E4_U+30FC 1
 62
   179
420
  2234388
370
    25
100
AcDb2dPolyline
 66
     1
 10
0.0
 20
0.0
 30
0.0
  0
VERTEX
  5
60
330
5F
100
AcDbEntity
  8
_U+30EC_U+30A4_U+30E4_U+30FC 1
 62
   179
420
  2234388
370
    25
100
AcDbVertex
100
AcDb2dVertex
 10
73.1536561892503
 20
-106.9457474732636
 30
0.0
  0
VERTEX
  5
61
330
5F
100
AcDbEntity
  8
_U+30EC_U+30A4_U+30E4_U+30FC 1
 62
   179
420
  2234388
370
    25
100
AcDbVertex
100
AcDb2dVertex
 10
73.1536561892503
 20
-143.4455121863611
 30
0.0
  0
SEQEND
  5
62
330
5F
100
AcDbEntity
  8
_U+30EC_U+30A4_U+30E4_U+30FC 1
 62
   179
420
  2234388
370
    25
  0
SPLINE
  5
63
330
1F
100
AcDbEntity
  8
_U+30EC_U+30A4_U+30E4_U+30FC 1
 62
   179
420
  2234388
370
     9
100
AcDbSpline
210
0.0
220
0.0
230
1.0
 70
    11
 71
     3
 72
    17
 73
    13
 74
     0
 42
0.0000000001
 43
0.0000000001
 12
1.0
 22
0.0
 32
0.0
 13
1.0
 23
0.0
 33
0.0
 40
0.0
 40
0.0
 40
0.0
 40
0.0
 40
1.0
 40
1.0
 40
1.0
 40
2.0
 40
2.0
 40
2.0
 40
3.0
 40
3.0
 40
3.0
 40
4.0
 40
4.0
 40
4.0
 40
4.0
 10
111.9573410326192
 20
-144.9454880193192
 30
0.0
 10
111.9573410326192
 20
-144.8903841304442
 30
0.0
 10
111.9125382559844
 20
-144.8455813526775
 30
0.0
 10
111.8574343685013
 20
-144.8455813526775
 30
0.0
 10
111.8022952032414
 20
-144.8455813526775
 30
0.0
 10
111.7575305276161
 20
-144.8903841304442
 30
0.0
 10
111.7575305276161
 20
-144.9454880193192
 30
0.0
 10
111.7575305276161
 20
-145.0012974637496
 30
0.0
 10
111.8022952032414
 20
-145.0461002415163
 30
0.0
 10
111.8574343685013
 20
-145.0461002415163
 30
0.0
 10
111.9125382559844
 20
-145.0461002415163
 30
0.0
 10
111.9573410326192
 20
-145.0012974637496
 30
0.0
 10
111.9573410326192
 20
-144.9454880193192
 30
0.0
  0
SPLINE
  5
64
330
1F
100
AcDbEntity
  8
_U+30EC_U+30A4_U+30E4_U+30FC 1
 62
   179
420
  2234388
370
     9
100
AcDbSpline
210
0.0
220
0.0
230
1.0
 70
    11
 71
     3
 72
    17
 73
    13
 74
     0
 42
0.0000000001
 43
0.0000000001
 12
1.0
 22
0.0
 32
0.0
 13
1.0
 23
0.0
 33
0.0
 40
0.0
 40
0.0
 40
0.0
 40
0.0
 40
1.0
 40
1.0
 40
1.0
 40
2.0
 40
2.0
 40
2.0
 40
3.0
 40
3.0
 40
3.0
 40
4.0
 40
4.0
 40
4.0
 40
4.0
 10
111.9573410326192
 20
-143.4455121863611
 30
0.0
 10
111.9573410326192
 20
-143.390373019708
 30
0.0
 10
111.9125382559844
 20
-143.3456055197194
 30
0.0
 10
111.8574343685013
 20
-143.3456055197194
 30
0.0
 10
111.8022952032414
 20
-143.3456055197194
 30
0.0
 10
111.7575305276161
 20
-143.390373019708
 30
0.0
 10
111.7575305276161
 20
-143.4455121863611
 30
0.0
 10
111.7575305276161
 20
-143.5013216307915
 30
0.0
 10
111.8022952032414
 20
-143.5454188530027
 30
0.0
 10
111.8574343685013
 20
-143.5454188530027
 30
0.0
 10
111.9125382559844
 20
-143.5454188530027
 30
0.0
 10
111.9573410326192
 20
-143.5013216307915
 30
0.0
 10
111.9573410326192
 20
-143.4455121863611
 30
0.0
  0
SPLINE
  5
65
330
1F
100
AcDbEntity
  8
_U+30EC_U+30A4_U+30E4_U+30FC 1
 62
   179
420
  2234388
370
     9
100
AcDbSpline
210
0.0
220
0.0
230
1.0
 70
    11
 71
     3
 72
    17
 73
    13
 74
     0
 42
0.0000000001
 43
0.0000000001
 12
1.0
 22
0.0
 32
0.0
 13
1.0
 23
0.0
 33
0.0
 40
0.0
 40
0.0
 40
0.0
 40
0.0
 40
1.0
 40
1.0
 40
1.0
 40
2.0
 40
2.0
 40
2.0
 40
3.0
 40
3.0
 40
3.0
 40
4.0
 40
4.0
 40
4.0
 40
4.0
 10
109.7531502555194
 20
-148.9459527405416
 30
0.0
 10
109.7531502555194
 20
-148.8908135738885
 30
0.0
 10
109.7083827566615
 20
-148.8460460738999
 30
0.0
 10
109.6532435914016
 20
-148.8460460738999
 30
0.0
 10
109.5981397039185
 20
-148.8460460738999
 30
0.0
 10
109.5533369272838
 20
-148.8908135738885
 30
0.0
 10
109.5533369272838
 20
-148.9459527405416
 30
0.0
 10
109.5533369272838
 20
-149.0010566294165
 30
0.0
 10
109.5981397039185
 20
-149.0458594071832
 30
0.0
 10
109.6532435914016
 20
-149.0458594071832
 30
0.0
 10
109.7083827566615
 20
-149.0458594071832
 30
0.0
 10
109.7531502555194
 20
-149.0010566294165
 30
0.0
 10
109.7531502555194
 20
-148.9459527405416
 30
0.0
  0
SPLINE
  5
66
330
1F
100
AcDbEntity
  8
_U+30EC_U+30A4_U+30E4_U+30FC 1
 62
   179
420
  2234388
370
     9
100
AcDbSpline
210
0.0
220
0.0
230
1.0
 70
    11
 71
     3
 72
    17
 73
    13
 74
     0
 42
0.0000000001
 43
0.0000000001
 12
1.0
 22
0.0
 32
0.0
 13
1.0
 23
0.0
 33
0.0
 40
0.0
 40
0.0
 40
0.0
 40
0.0
 40
1.0
 40
1.0
 40
1.0
 40
2.0
 40
2.0
 40
2.0
 40
3.0
 40
3.0
 40
3.0
 40
4.0
 40
4.0
 40
4.0
 40
4.0
 10
69.34097517540879
 20
-144.9454880193192
 30
0.0
 10
69.34097517540879
 20
-144.8903841304442
 30
0.0
 10
69.2962076765509
 20
-144.8455813526775
 30
0.0
 10
69.24071573352218
 20
-144.8455813526775
 30
0.0
 10
69.18561184603911
 20
-144.8455813526775
 30
0.0
 10
69.14080906940434
 20
-144.8903841304442
 30
0.0
 10
69.14080906940434
 20
-144.9454880193192
 30
0.0
 10
69.14080906940434
 20
-145.0012974637496
 30
0.0
 10
69.18561184603911
 20
-145.0461002415163
 30
0.0
 10
69.24071573352218
 20
-145.0461002415163
 30
0.0
 10
69.2962076765509
 20
-145.0461002415163
 30
0.0
 10
69.34097517540879
 20
-145.0012974637496
 30
0.0
 10
69.34097517540879
 20
-144.9454880193192
 30
0.0
  0
SPLINE
  5
67
330
1F
100
AcDbEntity
  8
_U+30EC_U+30A4_U+30E4_U+30FC 1
 62
   179
420
  2234388
370
     9
100
AcDbSpline
210
0.0
220
0.0
230
1.0
 70
    11
 71
     3
 72
    17
 73
    13
 74
     0
 42
0.0000000001
 43
0.0000000001
 12
1.0
 22
0.0
 32
0.0
 13
1.0
 23
0.0
 33
0.0
 40
0.0
 40
0.0
 40
0.0
 40
0.0
 40
1.0
 40
1.0
 40
1.0
 40
2.0
 40
2.0
 40
2.0
 40
3.0
 40
3.0
 40
3.0
 40
4.0
 40
4.0
 40
4.0
 40
4.0
 10
71.7535888709504
 20
-148.9459527405416
 30
0.0
 10
71.7535888709504
 20
-148.8908135738885
 30
0.0
 10
71.708786093184
 20
-148.8460460738999
 30
0.0
 10
71.65368039418453
 20
-148.8460460738999
 30
0.0
 10
71.5982237289327
 20
-148.8460460738999
 30
0.0
 10
71.55342095229793
 20
-148.8908135738885
 30
0.0
 10
71.55342095229793
 20
-148.9459527405416
 30
0.0
 10
71.55342095229793
 20
-149.0010566294165
 30
0.0
 10
71.5982237289327
 20
-149.0458594071832
 30
0.0
 10
71.65368039418453
 20
-149.0458594071832
 30
0.0
 10
71.708786093184
 20
-149.0458594071832
 30
0.0
 10
71.7535888709504
 20
-149.0010566294165
 30
0.0
 10
71.7535888709504
 20
-148.9459527405416
 30
0.0
  0
SPLINE
  5
68
330
1F
100
AcDbEntity
  8
_U+30EC_U+30A4_U+30E4_U+30FC 1
 62
   179
420
  2234388
370
     9
100
AcDbSpline
210
0.0
220
0.0
230
1.0
 70
    11
 71
     3
 72
    17
 73
    13
 74
     0
 42
0.0000000001
 43
0.0000000001
 12
1.0
 22
0.0
 32
0.0
 13
1.0
 23
0.0
 33
0.0
 40
0.0
 40
0.0
 40
0.0
 40
0.0
 40
1.0
 40
1.0
 40
1.0
 40
2.0
 40
2.0
 40
2.0
 40
3.0
 40
3.0
 40
3.0
 40
4.0
 40
4.0
 40
4.0
 40
4.0
 10
69.34097517540879
 20
-106.9457474732636
 30
0.0
 10
69.34097517540879
 20
-106.8906435843883
 30
0.0
 10
69.2962076765509
 20
-106.8458408066219
 30
0.0
 10
69.24071573352218
 20
-106.8458408066219
 30
0.0
 10
69.18561184603911
 20
-106.8458408066219
 30
0.0
 10
69.14080906940434
 20
-106.8906435843883
 30
0.0
 10
69.14080906940434
 20
-106.9457474732636
 30
0.0
 10
69.14080906940434
 20
-107.0010630288052
 30
0.0
 10
69.18561184603911
 20
-107.0458305287941
 30
0.0
 10
69.24071573352218
 20
-107.0458305287941
 30
0.0
 10
69.2962076765509
 20
-107.0458305287941
 30
0.0
 10
69.34097517540879
 20
-107.0010630288052
 30
0.0
 10
69.34097517540879
 20
-106.9457474732636
 30
0.0
  0
POLYLINE
  5
69
330
1F
100
AcDbEntity
  8
_U+30EC_U+30A4_U+30E4_U+30FC 1
 62
   179
420
  2234388
370
     9
100
AcDb2dPolyline
 66
     1
 10
0.0
 20
0.0
 30
0.0
  0
VERTEX
  5
6A
330
69
100
AcDbEntity
  8
_U+30EC_U+30A4_U+30E4_U+30FC 1
 62
   179
420
  2234388
370
     9
100
AcDbVertex
100
AcDb2dVertex
 10
111.8574343685013
 20
-143.4455121863611
 30
0.0
  0
VERTEX
  5
6B
330
69
100
AcDbEntity
  8
_U+30EC_U+30A4_U+30E4_U+30FC 1
 62
   179
420
  2234388
370
     9
100
AcDbVertex
100
AcDb2dVertex
 10
111.8574343685013
 20
-145.9459657968466
 30
0.0
  0
SEQEND
  5
6C
330
69
100
AcDbEntity
  8
_U+30EC_U+30A4_U+30E4_U+30FC 1
 62
   179
420
  2234388
370
     9
  0
POLYLINE
  5
6D
330
1F
100
AcDbEntity
  8
_U+30EC_U+30A4_U+30E4_U+30FC 1
 62
   179
420
  2234388
370
     9
100
AcDb2dPolyline
 66
     1
 10
0.0
 20
0.0
 30
0.0
  0
VERTEX
  5
6E
330
6D
100
AcDbEntity
  8
_U+30EC_U+30A4_U+30E4_U+30FC 1
 62
   179
420
  2234388
370
     9
100
AcDbVertex
100
AcDb2dVertex
 10
110.3973930168612
 20
-143.4455121863611
 30
0.0
  0
VERTEX
  5
6F
330
6D
100
AcDbEntity
  8
_U+30EC_U+30A4_U+30E4_U+30FC 1
 62
   179
420
  2234388
370
     9
100
AcDbVertex
100
AcDb2dVertex
 10
112.8572065652172
 20
-143.4455121863611
 30
0.0
  0
SEQEND
  5
70
330
6D
100
AcDbEntity
  8
_U+30EC_U+30A4_U+30E4_U+30FC 1
 62
   179
420
  2234388
370
     9
  0
POLYLINE
  5
71
330
1F
100
AcDbEntity
  8
_U+30EC_U+30A4_U+30E4_U+30FC 1
 62
   179
420
  2234388
370
     9
100
AcDb2dPolyline
 66
     1
 10
0.0
 20
0.0
 30
0.0
  0
VERTEX
  5
72
330
71
100
AcDbEntity
  8
_U+30EC_U+30A4_U+30E4_U+30FC 1
 62
   179
420
  2234388
370
     9
100
AcDbVertex
100
AcDb2dVertex
 10
110.3973930168612
 20
-144.9454880193192
 30
0.0
  0
VERTEX
  5
73
330
71
100
AcDbEntity
  8
_U+30EC_U+30A4_U+30E4_U+30FC 1
 62
   179
420
  2234388
370
     9
100
AcDbVertex
100
AcDb2dVertex
 10
112.8572065652172
 20
-144.9454880193192
 30
0.0
  0
SEQEND
  5
74
330
71
100
AcDbEntity
  8
_U+30EC_U+30A4_U+30E4_U+30FC 1
 62
   179
420
  2234388
370
     9
  0
INSERT
  5
76
330
1F
100
AcDbEntity
  8
_U+30EC_U+30A4_U+30E4_U+30FC 1
100
AcDbBlockReference
  2
block 2
 10
0.0
 20
0.0
 30
0.0
  0
POLYLINE
  5
85
330
1F
100
AcDbEntity
  8
_U+30EC_U+30A4_U+30E4_U+30FC 1
 62
   179
420
  2234388
370
     9
100
AcDb2dPolyline
 66
     1
 10
0.0
 20
0.0
 30
0.0
  0
VERTEX
  5
86
330
85
100
AcDbEntity
  8
_U+30EC_U+30A4_U+30E4_U+30FC 1
 62
   179
420
  2234388
370
     9
100
AcDbVertex
100
AcDb2dVertex
 10
71.65368039418453
 20
-148.9459527405416
 30
0.0
  0
VERTEX
  5
87
330
85
100
AcDbEntity
  8
_U+30EC_U+30A4_U+30E4_U+30FC 1
 62
   179
420
  2234388
370
     9
100
AcDbVertex
100
AcDb2dVertex
 10
109.6532435914016
 20
-148.9459527405416
 30
0.0
  0
SEQEND
  5
88
330
85
100
AcDbEntity
  8
_U+30EC_U+30A4_U+30E4_U+30FC 1
 62
   179
420
  2234388
370
     9
  0
POLYLINE
  5
89
330
1F
100
AcDbEntity
  8
_U+30EC_U+30A4_U+30E4_U+30FC 1
 62
   179
420
  2234388
370
     9
100
AcDb2dPolyline
 66
     1
 10
0.0
 20
0.0
 30
0.0
  0
VERTEX
  5
8A
330
89
100
AcDbEntity
  8
_U+30EC_U+30A4_U+30E4_U+30FC 1
 62
   179
420
  2234388
370
     9
100
AcDbVertex
100
AcDb2dVertex
 10
71.65368039418453
 20
-147.4859113520172
 30
0.0
  0
VERTEX
  5
8B
330
89
100
AcDbEntity
  8
_U+30EC_U+30A4_U+30E4_U+30FC 1
 62
   179
420
  2234388
370
     9
100
AcDbVertex
100
AcDb2dVertex
 10
71.65368039418453
 20
-149.9457249625135
 30
0.0
  0
SEQEND
  5
8C
330
89
100
AcDbEntity
  8
_U+30EC_U+30A4_U+30E4_U+30FC 1
 62
   179
420
  2234388
370
     9
  0
POLYLINE
  5
8D
330
1F
100
AcDbEntity
  8
_U+30EC_U+30A4_U+30E4_U+30FC 1
 62
   179
420
  2234388
370
     9
100
AcDb2dPolyline
 66
     1
 10
0.0
 20
0.0
 30
0.0
  0
VERTEX
  5
8E
330
8D
100
AcDbEntity
  8
_U+30EC_U+30A4_U+30E4_U+30FC 1
 62
   179
420
  2234388
370
     9
100
AcDbVertex
100
AcDb2dVertex
 10
109.6532435914016
 20
-147.4859113520172
 30
0.0
  0
VERTEX
  5
8F
330
8D
100
AcDbEntity
  8
_U+30EC_U+30A4_U+30E4_U+30FC 1
 62
   179
420
  2234388
370
     9
100
AcDbVertex
100
AcDb2dVertex
 10
109.6532435914016
 20
-149.9457249625135
 30
0.0
  0
SEQEND
  5
90
330
8D
100
AcDbEntity
  8
_U+30EC_U+30A4_U+30E4_U+30FC 1
 62
   179
420
  2234388
370
     9
  0
INSERT
  5
92
330
1F
100
AcDbEntity
  8
_U+30EC_U+30A4_U+30E4_U+30FC 1
100
AcDbBlockReference
  2
block 3
 10
0.0
 20
0.0
 30
0.0
  0
POLYLINE
  5
9B
330
1F
100
AcDbEntity
  8
_U+30EC_U+30A4_U+30E4_U+30FC 1
 62
   179
420
  2234388
370
     9
100
AcDb2dPolyline
 66
     1
 10
0.0
 20
0.0
 30
0.0
  0
VERTEX
  5
9C
330
9B
100
AcDbEntity
  8
_U+30EC_U+30A4_U+30E4_U+30FC 1
 62
   179
420
  2234388
370
     9
100
AcDbVertex
100
AcDb2dVertex
 10
69.24071573352218
 20
-106.9457474732636
 30
0.0
  0
VERTEX
  5
9D
330
9B
100
AcDbEntity
  8
_U+30EC_U+30A4_U+30E4_U+30FC 1
 62
   179
420
  2234388
370
     9
100
AcDbVertex
100
AcDb2dVertex
 10
69.24071573352218
 20
-144.9454880193192
 30
0.0
  0
SEQEND
  5
9E
330
9B
100
AcDbEntity
  8
_U+30EC_U+30A4_U+30E4_U+30FC 1
 62
   179
420
  2234388
370
     9
  0
POLYLINE
  5
9F
330
1F
100
AcDbEntity
  8
_U+30EC_U+30A4_U+30E4_U+30FC 1
 62
   179
420
  2234388
370
     9
100
AcDb2dPolyline
 66
     1
 10
0.0
 20
0.0
 30
0.0
  0
VERTEX
  5
A0
330
9F
100
AcDbEntity
  8
_U+30EC_U+30A4_U+30E4_U+30FC 1
 62
   179
420
  2234388
370
     9
100
AcDbVertex
100
AcDb2dVertex
 10
70.70075708516231
 20
-106.9457474732636
 30
0.0
  0
VERTEX
  5
A1
330
9F
100
AcDbEntity
  8
_U+30EC_U+30A4_U+30E4_U+30FC 1
 62
   179
420
  2234388
370
     9
100
AcDbVertex
100
AcDb2dVertex
 10
68.24098053849542
 20
-106.9457474732636
 30
0.0
  0
SEQEND
  5
A2
330
9F
100
AcDbEntity
  8
_U+30EC_U+30A4_U+30E4_U+30FC 1
 62
   179
420
  2234388
370
     9
  0
POLYLINE
  5
A3
330
1F
100
AcDbEntity
  8
_U+30EC_U+30A4_U+30E4_U+30FC 1
 62
   179
420
  2234388
370
     9
100
AcDb2dPolyline
 66
     1
 10
0.0
 20
0.0
 30
0.0
  0
VERTEX
  5
A4
330
A3
100
AcDbEntity
  8
_U+30EC_U+30A4_U+30E4_U+30FC 1
 62
   179
420
  2234388
370
     9
100
AcDbVertex
100
AcDb2dVertex
 10
70.70075708516231
 20
-144.9454880193192
 30
0.0
  0
VERTEX
  5
A5
330
A3
100
AcDbEntity
  8
_U+30EC_U+30A4_U+30E4_U+30FC 1
 62
   179
420
  2234388
370
     9
100
AcDbVertex
100
AcDb2dVertex
 10
68.24098053849542
 20
-144.9454880193192
 30
0.0
  0
SEQEND
  5
A6
330
A3
100
AcDbEntity
  8
_U+30EC_U+30A4_U+30E4_U+30FC 1
 62
   179
420
  2234388
370
     9
  0
INSERT
  5
A8
330
1F
100
AcDbEntity
  8
_U+30EC_U+30A4_U+30E4_U+30FC 1
100
AcDbBlockReference
  2
block 4
 10
0.0
 20
0.0
 30
0.0
  0
ENDSEC
  0
SECTION
  2
OBJECTS
  0
DICTIONARY
  5
C
330
0
100
AcDbDictionary
281
     1
  3
ACAD_GROUP
350
D
  3
ACAD_LAYOUT
350
1A
  3
ACAD_MATERIAL
350
3B
  3
ACAD_MLEADERSTYLE
350
B2
  3
ACAD_MLINESTYLE
350
17
  3
ACAD_PLOTSETTINGS
350
19
  3
ACAD_PLOTSTYLENAME
350
E
  3
ACAD_TABLESTYLE
350
B1
  3
ACAD_VISUALSTYLE
350
2A
  0
SUN
  5
3F
330
29
100
AcDbSun
 90
        1
290
     0
 63
     7
421
 16777215
 40
1.0
291
     1
 91
  2455826
 92
 54000000
292
     0
 70
     2
 71
   256
280
     1
  0
DICTIONARY
  5
D
102
{ACAD_REACTORS
330
C
102
}
330
C
100
AcDbDictionary
281
     1
  0
DICTIONARY
  5
1A
102
{ACAD_REACTORS
330
C
102
}
330
C
100
AcDbDictionary
281
     1
  3
Layout1
350
1E
  3
Layout2
350
26
  3
Model
350
22
  0
DICTIONARY
  5
3B
102
{ACAD_REACTORS
330
C
102
}
330
C
100
AcDbDictionary
281
     1
  3
ByBlock
350
3D
  3
ByLayer
350
3C
  3
Global
350
3E
  0
DICTIONARY
  5
B2
102
{ACAD_REACTORS
330
C
102
}
330
C
100
AcDbDictionary
281
     1
  0
DICTIONARY
  5
17
102
{ACAD_REACTORS
330
C
102
}
330
C
100
AcDbDictionary
281
     1
  3
Standard
350
18
  0
DICTIONARY
  5
19
102
{ACAD_REACTORS
330
C
102
}
330
C
100
AcDbDictionary
281
     1
  0
ACDBDICTIONARYWDFLT
  5
E
102
{ACAD_REACTORS
330
C
102
}
330
C
100
AcDbDictionary
281
     1
  3
Normal
350
F
100
AcDbDictionaryWithDefault
340
F
  0
DICTIONARY
  5
B1
102
{ACAD_REACTORS
330
C
102
}
330
C
100
AcDbDictionary
281
     1
  0
DICTIONARY
  5
2A
102
{ACAD_REACTORS
330
C
102
}
330
C
100
AcDbDictionary
281
     1
  3
2dWireframe
350
2F
  3
3D Hidden
350
31
  3
3dWireframe
350
30
  3
Basic
350
32
  3
Brighten
350
36
  3
ColorChange
350
3A
  3
Conceptual
350
34
  3
Dim
350
35
  3
Facepattern
350
39
  3
Flat
350
2B
  3
FlatWithEdges
350
2C
  3
Gouraud
350
2D
  3
GouraudWithEdges
350
2E
  3
Linepattern
350
38
  3
Realistic
350
33
  3
Thicken
350
37
  0
LAYOUT
  5
1E
102
{ACAD_REACTORS
330
1A
102
}
330
1A
100
AcDbPlotSettings
  1

  2
none_device
  4

  6

 40
0.0
 41
0.0
 42
0.0
 43
0.0
 44
0.0
 45
0.0
 46
0.0
 47
0.0
 48
0.0
 49
0.0
140
0.0
141
0.0
142
1.0
143
1.0
 70
   688
 72
     0
 73
     0
 74
     5
  7

 75
    16
 76
     0
 77
     2
 78
   300
147
1.0
148
0.0
149
0.0
100
AcDbLayout
  1
Layout1
 70
     1
 71
     1
 10
0.0
 20
0.0
 11
12.0
 21
9.0
 12
0.0
 22
0.0
 32
0.0
 14
1.000000000000000E+20
 24
1.000000000000000E+20
 34
1.000000000000000E+20
 15
-1.000000000000000E+20
 25
-1.000000000000000E+20
 35
-1.000000000000000E+20
146
0.0
 13
0.0
 23
0.0
 33
0.0
 16
1.0
 26
0.0
 36
0.0
 17
0.0
 27
1.0
 37
0.0
 76
     0
330
1B
  0
LAYOUT
  5
26
102
{ACAD_REACTORS
330
1A
102
}
330
1A
100
AcDbPlotSettings
  1

  2
none_device
  4

  6

 40
0.0
 41
0.0
 42
0.0
 43
0.0
 44
0.0
 45
0.0
 46
0.0
 47
0.0
 48
0.0
 49
0.0
140
0.0
141
0.0
142
1.0
143
1.0
 70
   688
 72
     0
 73
     0
 74
     5
  7

 75
    16
 76
     0
 77
     2
 78
   300
147
1.0
148
0.0
149
0.0
100
AcDbLayout
  1
Layout2
 70
     1
 71
     2
 10
0.0
 20
0.0
 11
0.0
 21
0.0
 12
0.0
 22
0.0
 32
0.0
 14
0.0
 24
0.0
 34
0.0
 15
0.0
 25
0.0
 35
0.0
146
0.0
 13
0.0
 23
0.0
 33
0.0
 16
1.0
 26
0.0
 36
0.0
 17
0.0
 27
1.0
 37
0.0
 76
     0
330
23
  0
LAYOUT
  5
22
102
{ACAD_REACTORS
330
1A
102
}
330
1A
100
AcDbPlotSettings
  1

  2
none_device
  4

  6

 40
0.0
 41
0.0
 42
0.0
 43
0.0
 44
0.0
 45
0.0
 46
0.0
 47
0.0
 48
0.0
 49
0.0
140
0.0
141
0.0
142
1.0
143
1.0
 70
  1712
 72
     0
 73
     0
 74
     0
  7

 75
     0
 76
     0
 77
     2
 78
   300
147
1.0
148
0.0
149
0.0
100
AcDbLayout
  1
Model
 70
     1
 71
     0
 10
0.0
 20
0.0
 11
12.0
 21
9.0
 12
0.0
 22
0.0
 32
0.0
 14
1.000000000000000E+20
 24
1.000000000000000E+20
 34
1.000000000000000E+20
 15
-1.000000000000000E+20
 25
-1.000000000000000E+20
 35
-1.000000000000000E+20
146
0.0
 13
0.0
 23
0.0
 33
0.0
 16
1.0
 26
0.0
 36
0.0
 17
0.0
 27
1.0
 37
0.0
 76
     0
330
1F
331
29
  0
MATERIAL
  5
3D
102
{ACAD_REACTORS
330
3B
102
}
330
3B
100
AcDbMaterial
  1
ByBlock
 72
     1
 94
      127
  0
MATERIAL
  5
3C
102
{ACAD_REACTORS
330
3B
102
}
330
3B
100
AcDbMaterial
  1
ByLayer
 72
     1
 94
      127
  0
MATERIAL
  5
3E
102
{ACAD_REACTORS
330
3B
102
}
330
3B
100
AcDbMaterial
  1
Global
 72
     1
 94
      127
  0
MLINESTYLE
  5
18
102
{ACAD_REACTORS
330
17
102
}
330
17
100
AcDbMlineStyle
  2
Standard
 70
     0
  3

 62
   256
 51
90.0
 52
90.0
 71
     2
 49
0.5
 62
   256
  6
BYLAYER
 49
-0.5
 62
   256
  6
BYLAYER
  0
ACDBPLACEHOLDER
  5
F
102
{ACAD_REACTORS
330
E
102
}
330
E
  0
VISUALSTYLE
  5
2F
102
{ACAD_REACTORS
330
2A
102
}
330
2A
100
AcDbVisualStyle
  2
2dWireframe
 70
     4
177
     2
291
     0
 71
     0
176
     1
 72
     2
176
     1
 73
     0
176
     1
 90
        0
176
     1
 40
-0.6
176
     1
 41
-30.0
176
     1
 62
     5
 63
     7
421
 16777215
176
     1
 74
     1
176
     1
 91
        4
176
     1
 64
     7
176
     1
 65
   257
176
     1
 75
     1
176
     1
175
     1
176
     1
 42
1.0
176
     1
 92
        0
176
     1
 66
   257
176
     1
 43
1.0
176
     1
 76
     1
176
     1
 77
     6
176
     1
 78
     2
176
     1
 67
     7
176
     1
 79
     5
176
     1
170
     0
176
     1
171
     0
176
     1
290
     0
176
     1
 93
        1
176
     1
 44
0.0
176
     1
173
     0
176
     1
  0
VISUALSTYLE
  5
31
102
{ACAD_REACTORS
330
2A
102
}
330
2A
100
AcDbVisualStyle
  2
3D Hidden
 70
     6
177
     2
291
     0
 71
     1
176
     1
 72
     2
176
     1
 73
     2
176
     1
 90
        0
176
     1
 40
-0.6
176
     1
 41
-30.0
176
     1
 62
     5
 63
     7
421
 16777215
176
     1
 74
     2
176
     1
 91
        2
176
     1
 64
     7
176
     1
 65
   257
176
     1
 75
     2
176
     1
175
     1
176
     1
 42
40.0
176
     1
 92
        0
176
     1
 66
   257
176
     1
 43
1.0
176
     1
 76
     1
176
     1
 77
     6
176
     1
 78
     2
176
     1
 67
     7
176
     1
 79
     3
176
     1
170
     0
176
     1
171
     0
176
     1
290
     0
176
     1
 93
        1
176
     1
 44
0.0
176
     1
173
     0
176
     1
  0
VISUALSTYLE
  5
30
102
{ACAD_REACTORS
330
2A
102
}
330
2A
100
AcDbVisualStyle
  2
3dWireframe
 70
     5
177
     2
291
     0
 71
     0
176
     1
 72
     2
176
     1
 73
     0
176
     1
 90
        0
176
     1
 40
-0.6
176
     1
 41
-30.0
176
     1
 62
     5
 63
     7
421
 16777215
176
     1
 74
     1
176
     1
 91
        4
176
     1
 64
     7
176
     1
 65
   257
176
     1
 75
     1
176
     1
175
     1
176
     1
 42
1.0
176
     1
 92
        0
176
     1
 66
   257
176
     1
 43
1.0
176
     1
 76
     1
176
     1
 77
     6
176
     1
 78
     2
176
     1
 67
     7
176
     1
 79
     5
176
     1
170
     0
176
     1
171
     0
176
     1
290
     0
176
     1
 93
        1
176
     1
 44
0.0
176
     1
173
     0
176
     1
  0
VISUALSTYLE
  5
32
102
{ACAD_REACTORS
330
2A
102
}
330
2A
100
AcDbVisualStyle
  2
Basic
 70
     7
177
     2
291
     1
 71
     1
176
     1
 72
     0
176
     1
 73
     1
176
     1
 90
        0
176
     1
 40
-0.6
176
     1
 41
-30.0
176
     1
 62
     5
 63
     7
421
 16777215
176
     1
 74
     0
176
     1
 91
        4
176
     1
 64
     7
176
     1
 65
   257
176
     1
 75
     1
176
     1
175
     1
176
     1
 42
1.0
176
     1
 92
        8
176
     1
 66
     7
176
     1
 43
1.0
176
     1
 76
     1
176
     1
 77
     6
176
     1
 78
     2
176
     1
 67
     7
176
     1
 79
     5
176
     1
170
     0
176
     1
171
     0
176
     1
290
     0
176
     1
 93
        1
176
     1
 44
0.0
176
     1
173
     0
176
     1
  0
VISUALSTYLE
  5
36
102
{ACAD_REACTORS
330
2A
102
}
330
2A
100
AcDbVisualStyle
  2
Brighten
 70
    12
177
     2
291
     1
 71
     2
176
     1
 72
     2
176
     1
 73
     0
176
     1
 90
        0
176
     1
 40
-0.6
176
     1
 41
-30.0
176
     1
 62
     5
 63
     7
421
 16777215
176
     1
 74
     1
176
     1
 91
        4
176
     1
 64
     7
176
     1
 65
   257
176
     1
 75
     1
176
     1
175
     1
176
     1
 42
1.0
176
     1
 92
        8
176
     1
 66
     7
176
     1
 43
1.0
176
     1
 76
     1
176
     1
 77
     6
176
     1
 78
     2
176
     1
 67
     7
176
     1
 79
     5
176
     1
170
     0
176
     1
171
     0
176
     1
290
     0
176
     1
 93
        1
176
     1
 44
50.0
176
     1
173
     0
176
     1
  0
VISUALSTYLE
  5
3A
102
{ACAD_REACTORS
330
2A
102
}
330
2A
100
AcDbVisualStyle
  2
ColorChange
 70
    16
177
     2
291
     1
 71
     2
176
     1
 72
     2
176
     1
 73
     3
176
     1
 90
        0
176
     1
 40
-0.6
176
     1
 41
-30.0
176
     1
 62
     5
 63
     8
421
  8421504
176
     1
 74
     1
176
     1
 91
        4
176
     1
 64
     7
176
     1
 65
   257
176
     1
 75
     1
176
     1
175
     1
176
     1
 42
1.0
176
     1
 92
        8
176
     1
 66
     8
424
  8421504
176
     1
 43
1.0
176
     1
 76
     1
176
     1
 77
     6
176
     1
 78
     2
176
     1
 67
     7
176
     1
 79
     5
176
     1
170
     0
176
     1
171
     0
176
     1
290
     0
176
     1
 93
        1
176
     1
 44
0.0
176
     1
173
     0
176
     1
  0
VISUALSTYLE
  5
34
102
{ACAD_REACTORS
330
2A
102
}
330
2A
100
AcDbVisualStyle
  2
Conceptual
 70
     9
177
     2
291
     0
 71
     3
176
     1
 72
     2
176
     1
 73
     0
176
     1
 90
        0
176
     1
 40
-0.6
176
     1
 41
-30.0
176
     1
 62
     5
 63
     7
421
 16777215
176
     1
 74
     2
176
     1
 91
        2
176
     1
 64
     7
176
     1
 65
   257
176
     1
 75
     1
176
     1
175
     1
176
     1
 42
40.0
176
     1
 92
        8
176
     1
 66
     7
176
     1
 43
1.0
176
     1
 76
     1
176
     1
 77
     6
176
     1
 78
     2
176
     1
 67
     7
176
     1
 79
     3
176
     1
170
     0
176
     1
171
     0
176
     1
290
     0
176
     1
 93
        1
176
     1
 44
0.0
176
     1
173
     0
176
     1
  0
VISUALSTYLE
  5
35
102
{ACAD_REACTORS
330
2A
102
}
330
2A
100
AcDbVisualStyle
  2
Dim
 70
    11
177
     2
291
     1
 71
     2
176
     1
 72
     2
176
     1
 73
     0
176
     1
 90
        0
176
     1
 40
-0.6
176
     1
 41
-30.0
176
     1
 62
     5
 63
     7
421
 16777215
176
     1
 74
     1
176
     1
 91
        4
176
     1
 64
     7
176
     1
 65
   257
176
     1
 75
     1
176
     1
175
     1
176
     1
 42
1.0
176
     1
 92
        8
176
     1
 66
     7
176
     1
 43
1.0
176
     1
 76
     1
176
     1
 77
     6
176
     1
 78
     2
176
     1
 67
     7
176
     1
 79
     5
176
     1
170
     0
176
     1
171
     0
176
     1
290
     0
176
     1
 93
        1
176
     1
 44
-50.0
176
     1
173
     0
176
     1
  0
VISUALSTYLE
  5
39
102
{ACAD_REACTORS
330
2A
102
}
330
2A
100
AcDbVisualStyle
  2
Facepattern
 70
    15
177
     2
291
     1
 71
     2
176
     1
 72
     2
176
     1
 73
     0
176
     1
 90
        0
176
     1
 40
-0.6
176
     1
 41
-30.0
176
     1
 62
     5
 63
     7
421
 16777215
176
     1
 74
     1
176
     1
 91
        4
176
     1
 64
     7
176
     1
 65
   257
176
     1
 75
     1
176
     1
175
     1
176
     1
 42
1.0
176
     1
 92
        8
176
     1
 66
     7
176
     1
 43
1.0
176
     1
 76
     1
176
     1
 77
     6
176
     1
 78
     2
176
     1
 67
     7
176
     1
 79
     5
176
     1
170
     0
176
     1
171
     0
176
     1
290
     0
176
     1
 93
        1
176
     1
 44
0.0
176
     1
173
     0
176
     1
  0
VISUALSTYLE
  5
2B
102
{ACAD_REACTORS
330
2A
102
}
330
2A
100
AcDbVisualStyle
  2
Flat
 70
     0
177
     2
291
     1
 71
     2
176
     1
 72
     1
176
     1
 73
     1
176
     1
 90
        2
176
     1
 40
-0.6
176
     1
 41
30.0
176
     1
 62
     5
 63
     7
421
 16777215
176
     1
 74
     0
176
     1
 91
        4
176
     1
 64
     7
176
     1
 65
   257
176
     1
 75
     1
176
     1
175
     1
176
     1
 42
1.0
176
     1
 92
        8
176
     1
 66
     7
176
     1
 43
1.0
176
     1
 76
     1
176
     1
 77
     6
176
     1
 78
     2
176
     1
 67
     7
176
     1
 79
     5
176
     1
170
     0
176
     1
171
     0
176
     1
290
     0
176
     1
 93
       13
176
     1
 44
0.0
176
     1
173
     0
176
     1
  0
VISUALSTYLE
  5
2C
102
{ACAD_REACTORS
330
2A
102
}
330
2A
100
AcDbVisualStyle
  2
FlatWithEdges
 70
     1
177
     2
291
     1
 71
     2
176
     1
 72
     1
176
     1
 73
     1
176
     1
 90
        2
176
     1
 40
-0.6
176
     1
 41
30.0
176
     1
 62
     5
 63
     7
421
 16777215
176
     1
 74
     1
176
     1
 91
        4
176
     1
 64
     7
176
     1
 65
   257
176
     1
 75
     1
176
     1
175
     1
176
     1
 42
1.0
176
     1
 92
        0
176
     1
 66
   257
176
     1
 43
1.0
176
     1
 76
     1
176
     1
 77
     6
176
     1
 78
     2
176
     1
 67
     7
176
     1
 79
     5
176
     1
170
     0
176
     1
171
     0
176
     1
290
     0
176
     1
 93
       13
176
     1
 44
0.0
176
     1
173
     0
176
     1
  0
VISUALSTYLE
  5
2D
102
{ACAD_REACTORS
330
2A
102
}
330
2A
100
AcDbVisualStyle
  2
Gouraud
 70
     2
177
     2
291
     1
 71
     2
176
     1
 72
     2
176
     1
 73
     1
176
     1
 90
        2
176
     1
 40
-0.6
176
     1
 41
30.0
176
     1
 62
     5
 63
     7
421
 16777215
176
     1
 74
     0
176
     1
 91
        4
176
     1
 64
     7
176
     1
 65
   257
176
     1
 75
     1
176
     1
175
     1
176
     1
 42
1.0
176
     1
 92
        0
176
     1
 66
     7
176
     1
 43
1.0
176
     1
 76
     1
176
     1
 77
     6
176
     1
 78
     2
176
     1
 67
     7
176
     1
 79
     5
176
     1
170
     0
176
     1
171
     0
176
     1
290
     0
176
     1
 93
       13
176
     1
 44
0.0
176
     1
173
     0
176
     1
  0
VISUALSTYLE
  5
2E
102
{ACAD_REACTORS
330
2A
102
}
330
2A
100
AcDbVisualStyle
  2
GouraudWithEdges
 70
     3
177
     2
291
     1
 71
     2
176
     1
 72
     2
176
     1
 73
     1
176
     1
 90
        2
176
     1
 40
-0.6
176
     1
 41
30.0
176
     1
 62
     5
 63
     7
421
 16777215
176
     1
 74
     1
176
     1
 91
        4
176
     1
 64
     7
176
     1
 65
   257
176
     1
 75
     1
176
     1
175
     1
176
     1
 42
1.0
176
     1
 92
        0
176
     1
 66
   257
176
     1
 43
1.0
176
     1
 76
     1
176
     1
 77
     6
176
     1
 78
     2
176
     1
 67
     7
176
     1
 79
     5
176
     1
170
     0
176
     1
171
     0
176
     1
290
     0
176
     1
 93
       13
176
     1
 44
0.0
176
     1
173
     0
176
     1
  0
VISUALSTYLE
  5
38
102
{ACAD_REACTORS
330
2A
102
}
330
2A
100
AcDbVisualStyle
  2
Linepattern
 70
    14
177
     2
291
     1
 71
     2
176
     1
 72
     2
176
     1
 73
     0
176
     1
 90
        0
176
     1
 40
-0.6
176
     1
 41
-30.0
176
     1
 62
     5
 63
     7
421
 16777215
176
     1
 74
     1
176
     1
 91
        4
176
     1
 64
     7
176
     1
 65
   257
176
     1
 75
     7
176
     1
175
     7
176
     1
 42
1.0
176
     1
 92
        8
176
     1
 66
     7
176
     1
 43
1.0
176
     1
 76
     1
176
     1
 77
     6
176
     1
 78
     2
176
     1
 67
     7
176
     1
 79
     5
176
     1
170
     0
176
     1
171
     0
176
     1
290
     0
176
     1
 93
        1
176
     1
 44
0.0
176
     1
173
     0
176
     1
  0
VISUALSTYLE
  5
33
102
{ACAD_REACTORS
330
2A
102
}
330
2A
100
AcDbVisualStyle
  2
Realistic
 70
     8
177
     2
291
     0
 71
     2
176
     1
 72
     2
176
     1
 73
     0
176
     1
 90
        0
176
     1
 40
-0.6
176
     1
 41
-30.0
176
     1
 62
     5
 63
     7
421
 16777215
176
     1
 74
     1
176
     1
 91
        0
176
     1
 64
     7
176
     1
 65
   257
176
     1
 75
     1
176
     1
175
     1
176
     1
 42
1.0
176
     1
 92
        8
176
     1
 66
     8
424
  7895160
176
     1
 43
1.0
176
     1
 76
     1
176
     1
 77
     6
176
     1
 78
     2
176
     1
 67
     7
176
     1
 79
     5
176
     1
170
     0
176
     1
171
     0
176
     1
290
     0
176
     1
 93
       13
176
     1
 44
0.0
176
     1
173
     0
176
     1
  0
VISUALSTYLE
  5
37
102
{ACAD_REACTORS
330
2A
102
}
330
2A
100
AcDbVisualStyle
  2
Thicken
 70
    13
177
     2
291
     1
 71
     2
176
     1
 72
     2
176
     1
 73
     0
176
     1
 90
        0
176
     1
 40
-0.6
176
     1
 41
-30.0
176
     1
 62
     5
 63
     7
421
 16777215
176
     1
 74
     1
176
     1
 91
        4
176
     1
 64
     7
176
     1
 65
   257
176
     1
 75
     1
176
     1
175
     1
176
     1
 42
1.0
176
     1
 92
       12
176
     1
 66
     7
176
     1
 43
1.0
176
     1
 76
     1
176
     1
 77
     6
176
     1
 78
     2
176
     1
 67
     7
176
     1
 79
     5
176
     1
170
     0
176
     1
171
     0
176
     1
290
     0
176
     1
 93
        1
176
     1
 44
0.0
176
     1
173
     0
176
     1
  0
ENDSEC
  0
EOF
