  0
SECTION
  2
HEADER
  9
$ACADVER
  1
AC1024
  9
$ACADMAINTVER
 70
     6
  9
$DWGCODEPAGE
  3
UNDEFINED
  9
$INSBASE
 10
0.0
 20
0.0
 30
0.0
  9
$EXTMIN
 10
1.000000000000000E+20
 20
1.000000000000000E+20
 30
1.000000000000000E+20
  9
$EXTMAX
 10
-1.000000000000000E+20
 20
-1.000000000000000E+20
 30
-1.000000000000000E+20
  9
$LIMMIN
 10
0.0
 20
0.0
  9
$LIMMAX
 10
12.0
 20
9.0
  9
$ORTHOMODE
 70
     0
  9
$REGENMODE
 70
     1
  9
$FILLMODE
 70
     1
  9
$QTEXTMODE
 70
     0
  9
$MIRRTEXT
 70
     1
  9
$LTSCALE
 40
1.0
  9
$ATTMODE
 70
     1
  9
$TEXTSIZE
 40
0.2
  9
$TRACEWID
 40
0.05
  9
$TEXTSTYLE
  7
Standard
  9
$CLAYER
  8
0
  9
$CELTYPE
  6
ByLayer
  9
$CECOLOR
 62
   256
  9
$CELTSCALE
 40
1.0
  9
$DISPSILH
 70
     0
  9
$DIMSCALE
 40
1.0
  9
$DIMASZ
 40
0.18
  9
$DIMEXO
 40
0.0625
  9
$DIMDLI
 40
0.38
  9
$DIMRND
 40
0.0
  9
$DIMDLE
 40
0.0
  9
$DIMEXE
 40
0.18
  9
$DIMTP
 40
0.0
  9
$DIMTM
 40
0.0
  9
$DIMTXT
 40
0.18
  9
$DIMCEN
 40
0.09
  9
$DIMTSZ
 40
0.0
  9
$DIMTOL
 70
     0
  9
$DIMLIM
 70
     0
  9
$DIMTIH
 70
     1
  9
$DIMTOH
 70
     1
  9
$DIMSE1
 70
     0
  9
$DIMSE2
 70
     0
  9
$DIMTAD
 70
     0
  9
$DIMZIN
 70
     0
  9
$DIMBLK
  1

  9
$DIMASO
 70
     1
  9
$DIMSHO
 70
     1
  9
$DIMPOST
  1

  9
$DIMAPOST
  1

  9
$DIMALT
 70
     0
  9
$DIMALTD
 70
     2
  9
$DIMALTF
 40
25.4
  9
$DIMLFAC
 40
1.0
  9
$DIMTOFL
 70
     0
  9
$DIMTVP
 40
0.0
  9
$DIMTIX
 70
     0
  9
$DIMSOXD
 70
     0
  9
$DIMSAH
 70
     0
  9
$DIMBLK1
  1

  9
$DIMBLK2
  1

  9
$DIMSTYLE
  2
Standard
  9
$DIMCLRD
 70
     0
  9
$DIMCLRE
 70
     0
  9
$DIMCLRT
 70
     0
  9
$DIMTFAC
 40
1.0
  9
$DIMGAP
 40
0.09
  9
$DIMJUST
 70
     0
  9
$DIMSD1
 70
     0
  9
$DIMSD2
 70
     0
  9
$DIMTOLJ
 70
     1
  9
$DIMTZIN
 70
     0
  9
$DIMALTZ
 70
     0
  9
$DIMALTTZ
 70
     0
  9
$DIMUPT
 70
     0
  9
$DIMDEC
 70
     4
  9
$DIMTDEC
 70
     4
  9
$DIMALTU
 70
     2
  9
$DIMALTTD
 70
     2
  9
$DIMTXSTY
  7
Standard
  9
$DIMAUNIT
 70
     0
  9
$DIMADEC
 70
     0
  9
$DIMALTRND
 40
0.0
  9
$DIMAZIN
 70
     0
  9
$DIMDSEP
 70
    46
  9
$DIMATFIT
 70
     3
  9
$DIMFRAC
 70
     0
  9
$DIMLDRBLK
  1

  9
$DIMLUNIT
 70
     2
  9
$DIMLWD
 70
    -2
  9
$DIMLWE
 70
    -2
  9
$DIMTMOVE
 70
     0
  9
$DIMFXL
 40
1.0
  9
$DIMFXLON
 70
     0
  9
$DIMJOGANG
 40
0.7853981633974483
  9
$DIMTFILL
 70
     0
  9
$DIMTFILLCLR
 70
     0
  9
$DIMARCSYM
 70
     0
  9
$DIMLTYPE
  6

  9
$DIMLTEX1
  6

  9
$DIMLTEX2
  6

  9
$DIMTXTDIRECTION
 70
     0
  9
$LUNITS
 70
     2
  9
$LUPREC
 70
     4
  9
$SKETCHINC
 40
0.1
  9
$FILLETRAD
 40
0.5
  9
$AUNITS
 70
     0
  9
$AUPREC
 70
     0
  9
$MENU
  1
.
  9
$ELEVATION
 40
0.0
  9
$PELEVATION
 40
0.0
  9
$THICKNESS
 40
0.0
  9
$LIMCHECK
 70
     0
  9
$CHAMFERA
 40
0.5
  9
$CHAMFERB
 40
0.5
  9
$CHAMFERC
 40
1.0
  9
$CHAMFERD
 40
0.0
  9
$SKPOLY
 70
     0
  9
$TDCREATE
 40
2457917.620497685
  9
$TDUCREATE
 40
2457917.245497685
  9
$TDUPDATE
 40
2457917.620509259
  9
$TDUUPDATE
 40
2457917.245509259
  9
$TDINDWG
 40
0.0000000116
  9
$TDUSRTIMER
 40
0.0000000116
  9
$USRTIMER
 70
     1
  9
$ANGBASE
 50
0.0
  9
$ANGDIR
 70
     0
  9
$PDMODE
 70
     0
  9
$PDSIZE
 40
0.0
  9
$PLINEWID
 40
0.0
  9
$SPLFRAME
 70
     0
  9
$SPLINETYPE
 70
     6
  9
$SPLINESEGS
 70
     8
  9
$HANDSEED
  5
B1
  9
$SURFTAB1
 70
     6
  9
$SURFTAB2
 70
     6
  9
$SURFTYPE
 70
     6
  9
$SURFU
 70
     6
  9
$SURFV
 70
     6
  9
$UCSBASE
  2

  9
$UCSNAME
  2

  9
$UCSORG
 10
0.0
 20
0.0
 30
0.0
  9
$UCSXDIR
 10
1.0
 20
0.0
 30
0.0
  9
$UCSYDIR
 10
0.0
 20
1.0
 30
0.0
  9
$UCSORTHOREF
  2

  9
$UCSORTHOVIEW
 70
     0
  9
$UCSORGTOP
 10
0.0
 20
0.0
 30
0.0
  9
$UCSORGBOTTOM
 10
0.0
 20
0.0
 30
0.0
  9
$UCSORGLEFT
 10
0.0
 20
0.0
 30
0.0
  9
$UCSORGRIGHT
 10
0.0
 20
0.0
 30
0.0
  9
$UCSORGFRONT
 10
0.0
 20
0.0
 30
0.0
  9
$UCSORGBACK
 10
0.0
 20
0.0
 30
0.0
  9
$PUCSBASE
  2

  9
$PUCSNAME
  2

  9
$PUCSORG
 10
0.0
 20
0.0
 30
0.0
  9
$PUCSXDIR
 10
1.0
 20
0.0
 30
0.0
  9
$PUCSYDIR
 10
0.0
 20
1.0
 30
0.0
  9
$PUCSORTHOREF
  2

  9
$PUCSORTHOVIEW
 70
     0
  9
$PUCSORGTOP
 10
0.0
 20
0.0
 30
0.0
  9
$PUCSORGBOTTOM
 10
0.0
 20
0.0
 30
0.0
  9
$PUCSORGLEFT
 10
0.0
 20
0.0
 30
0.0
  9
$PUCSORGRIGHT
 10
0.0
 20
0.0
 30
0.0
  9
$PUCSORGFRONT
 10
0.0
 20
0.0
 30
0.0
  9
$PUCSORGBACK
 10
0.0
 20
0.0
 30
0.0
  9
$USERI1
 70
     0
  9
$USERI2
 70
     0
  9
$USERI3
 70
     0
  9
$USERI4
 70
     0
  9
$USERI5
 70
     0
  9
$USERR1
 40
0.0
  9
$USERR2
 40
0.0
  9
$USERR3
 40
0.0
  9
$USERR4
 40
0.0
  9
$USERR5
 40
0.0
  9
$WORLDVIEW
 70
     1
  9
$SHADEDGE
 70
     3
  9
$SHADEDIF
 70
    70
  9
$TILEMODE
 70
     1
  9
$MAXACTVP
 70
    64
  9
$PINSBASE
 10
0.0
 20
0.0
 30
0.0
  9
$PLIMCHECK
 70
     0
  9
$PEXTMIN
 10
1.000000000000000E+20
 20
1.000000000000000E+20
 30
1.000000000000000E+20
  9
$PEXTMAX
 10
-1.000000000000000E+20
 20
-1.000000000000000E+20
 30
-1.000000000000000E+20
  9
$PLIMMIN
 10
0.0
 20
0.0
  9
$PLIMMAX
 10
12.0
 20
9.0
  9
$UNITMODE
 70
     0
  9
$VISRETAIN
 70
     1
  9
$PLINEGEN
 70
     0
  9
$PSLTSCALE
 70
     1
  9
$TREEDEPTH
 70
  3020
  9
$CMLSTYLE
  2
Standard
  9
$CMLJUST
 70
     0
  9
$CMLSCALE
 40
1.0
  9
$PROXYGRAPHICS
 70
     1
  9
$MEASUREMENT
 70
     0
  9
$CELWEIGHT
370
    -1
  9
$ENDCAPS
280
     0
  9
$JOINSTYLE
280
     0
  9
$LWDISPLAY
290
     1
  9
$INSUNITS
 70
     1
  9
$HYPERLINKBASE
  1

  9
$STYLESHEET
  1

  9
$XEDIT
290
     1
  9
$CEPSNTYPE
380
     0
  9
$PSTYLEMODE
290
     1
  9
$FINGERPRINTGUID
  2
{0225B361-DF65-B6BB-5780-B7D5FFC3880C}
  9
$VERSIONGUID
  2
{FAEB1C32-E019-11D5-929B-00C0DF256EC4}
  9
$EXTNAMES
290
     1
  9
$PSVPSCALE
 40
0.0
  9
$OLESTARTUP
290
     0
  9
$SORTENTS
280
   127
  9
$INDEXCTL
280
     0
  9
$HIDETEXT
280
     1
  9
$XCLIPFRAME
280
     2
  9
$HALOGAP
280
     0
  9
$OBSCOLOR
 70
   257
  9
$OBSLTYPE
280
     0
  9
$INTERSECTIONDISPLAY
280
     0
  9
$INTERSECTIONCOLOR
 70
   257
  9
$DIMASSOC
280
     2
  9
$PROJECTNAME
  1

  9
$CAMERADISPLAY
290
     0
  9
$LENSLENGTH
 40
50.0
  9
$CAMERAHEIGHT
 40
0.0
  9
$STEPSPERSEC
 40
2.0
  9
$STEPSIZE
 40
6.0
  9
$3DDWFPREC
 40
2.0
  9
$PSOLWIDTH
 40
0.25
  9
$PSOLHEIGHT
 40
4.0
  9
$LOFTANG1
 40
1.570796326794897
  9
$LOFTANG2
 40
1.570796326794897
  9
$LOFTMAG1
 40
0.0
  9
$LOFTMAG2
 40
0.0
  9
$LOFTPARAM
 70
     7
  9
$LOFTNORMALS
280
     1
  9
$LATITUDE
 40
37.795
  9
$LONGITUDE
 40
-122.394
  9
$NORTHDIRECTION
 40
0.0
  9
$TIMEZONE
 70
 -8000
  9
$LIGHTGLYPHDISPLAY
280
     1
  9
$TILEMODELIGHTSYNCH
280
     1
  9
$CMATERIAL
347
3C
  9
$SOLIDHIST
280
     1
  9
$SHOWHIST
280
     1
  9
$DWFFRAME
280
     2
  9
$DGNFRAME
280
     2
  9
$REALWORLDSCALE
290
     1
  9
$INTERFERECOLOR
 62
   256
  9
$CSHADOW
280
     0
  9
$SHADOWPLANELOCATION
 40
0.0
  0
ENDSEC
  0
SECTION
  2
CLASSES
  0
CLASS
  1
ACDBDICTIONARYWDFLT
  2
AcDbDictionaryWithDefault
  3
ObjectDBX Classes
 90
        0
 91
        4
280
     0
281
     0
  0
CLASS
  1
VISUALSTYLE
  2
AcDbVisualStyle
  3
ObjectDBX Classes
 90
     4095
 91
        4
280
     0
281
     0
  0
CLASS
  1
MATERIAL
  2
AcDbMaterial
  3
ObjectDBX Classes
 90
     1153
 91
        4
280
     0
281
     0
  0
CLASS
  1
SUN
  2
AcDbSun
  3
SCENEOE
 90
     1024
 91
        4
280
     0
281
     0
  0
ENDSEC
  0
SECTION
  2
TABLES
  0
TABLE
  2
VPORT
  5
8
330
0
100
AcDbSymbolTable
 70
     1
  0
VPORT
  5
29
330
8
100
AcDbSymbolTableRecord
100
AcDbViewportTableRecord
  2
*Active
 70
     0
 10
0.0
 20
0.0
 11
1.0
 21
1.0
 12
0.0
 22
0.0
 13
0.0
 23
0.0
 14
0.5
 24
0.5
 15
0.5
 25
0.5
 16
0.0
 26
0.0
 36
1.0
 17
91.00082462281999
 27
-128.4993055234307
 37
0.0
 40
256.9986110468615
 41
0.7081814508812795
 42
50.0
 43
0.0
 44
0.0
 50
0.0
 51
0.0
 71
     0
 72
   100
 73
     1
 74
     3
 75
     0
 76
     0
 77
     0
 78
     0
281
     0
 65
     1
110
0.0
120
0.0
130
0.0
111
1.0
121
0.0
131
0.0
112
0.0
122
1.0
132
0.0
 79
     0
146
0.0
 60
     3
 61
     5
292
     1
282
     1
141
0.0
142
0.0
 63
   250
361
3F
  0
ENDTAB
  0
TABLE
  2
LTYPE
  5
5
330
0
100
AcDbSymbolTable
 70
     1
  0
LTYPE
  5
14
330
5
100
AcDbSymbolTableRecord
100
AcDbLinetypeTableRecord
  2
ByBlock
 70
     0
  3

 72
    65
 73
     0
 40
0.0
  0
LTYPE
  5
15
330
5
100
AcDbSymbolTableRecord
100
AcDbLinetypeTableRecord
  2
ByLayer
 70
     0
  3

 72
    65
 73
     0
 40
0.0
  0
LTYPE
  5
16
330
5
100
AcDbSymbolTableRecord
100
AcDbLinetypeTableRecord
  2
Continuous
 70
     0
  3
Solid line
 72
    65
 73
     0
 40
0.0
  0
ENDTAB
  0
TABLE
  2
LAYER
  5
2
330
0
100
AcDbSymbolTable
 70
     2
  0
LAYER
  5
10
330
2
100
AcDbSymbolTableRecord
100
AcDbLayerTableRecord
  2
0
 70
     0
 62
     7
  6
Continuous
370
    -3
390
F
347
3E
  0
LAYER
  5
40
330
2
100
AcDbSymbolTableRecord
100
AcDbLayerTableRecord
  2
_U+30EC_U+30A4_U+30E4_U+30FC 1
 70
     0
 62
     7
  6
Continuous
370
    -3
390
F
347
3E
  0
ENDTAB
  0
TABLE
  2
STYLE
  5
3
330
0
100
AcDbSymbolTable
 70
     1
  0
STYLE
  5
11
330
3
100
AcDbSymbolTableRecord
100
AcDbTextStyleTableRecord
  2
Standard
 70
     0
 40
0.0
 41
1.0
 50
0.0
 71
     0
 42
0.2
  3
txt
  4

  0
ENDTAB
  0
TABLE
  2
VIEW
  5
6
330
0
100
AcDbSymbolTable
 70
     0
  0
ENDTAB
  0
TABLE
  2
UCS
  5
7
330
0
100
AcDbSymbolTable
 70
     0
  0
ENDTAB
  0
TABLE
  2
APPID
  5
9
330
0
100
AcDbSymbolTable
 70
     1
  0
APPID
  5
12
330
9
100
AcDbSymbolTableRecord
100
AcDbRegAppTableRecord
  2
ACAD
 70
     0
  0
ENDTAB
  0
TABLE
  2
DIMSTYLE
  5
A
330
0
100
AcDbSymbolTable
 70
     1
100
AcDbDimStyleTable
  0
DIMSTYLE
105
27
330
A
100
AcDbSymbolTableRecord
100
AcDbDimStyleTableRecord
  2
Standard
 70
     0
178
     0
340
11
  0
ENDTAB
  0
TABLE
  2
BLOCK_RECORD
  5
1
330
0
100
AcDbSymbolTable
 70
     4
  0
BLOCK_RECORD
  5
1F
330
1
100
AcDbSymbolTableRecord
100
AcDbBlockTableRecord
  2
*Model_Space
340
22
 70
     0
280
     1
281
     0
  0
BLOCK_RECORD
  5
1B
330
1
100
AcDbSymbolTableRecord
100
AcDbBlockTableRecord
  2
*Paper_Space
340
1E
 70
     0
280
     1
281
     0
  0
BLOCK_RECORD
  5
23
330
1
100
AcDbSymbolTableRecord
100
AcDbBlockTableRecord
  2
*Paper_Space0
340
26
 70
     0
280
     1
281
     0
  0
BLOCK_RECORD
  5
75
330
1
100
AcDbSymbolTableRecord
100
AcDbBlockTableRecord
  2
block 2
340
0
102
{BLKREFS
331
76
102
}
 70
     0
280
     1
281
     0
  0
BLOCK_RECORD
  5
91
330
1
100
AcDbSymbolTableRecord
100
AcDbBlockTableRecord
  2
block 3
340
0
102
{BLKREFS
331
92
102
}
 70
     0
280
     1
281
     0
  0
BLOCK_RECORD
  5
A6
330
1
100
AcDbSymbolTableRecord
100
AcDbBlockTableRecord
  2
block 4
340
0
102
{BLKREFS
331
A7
102
}
 70
     0
280
     1
281
     0
  0
ENDTAB
  0
ENDSEC
  0
SECTION
  2
BLOCKS
  0
BLOCK
  5
20
330
1F
100
AcDbEntity
  8
0
100
AcDbBlockBegin
  2
*Model_Space
 70
     0
 10
0.0
 20
0.0
 30
0.0
  3
*Model_Space
  1

  0
ENDBLK
  5
21
330
1F
100
AcDbEntity
  8
0
100
AcDbBlockEnd
  0
BLOCK
  5
1C
330
1B
100
AcDbEntity
 67
     1
  8
0
100
AcDbBlockBegin
  2
*Paper_Space
 70
     0
 10
0.0
 20
0.0
 30
0.0
  3
*Paper_Space
  1

  0
ENDBLK
  5
1D
330
1B
100
AcDbEntity
 67
     1
  8
0
100
AcDbBlockEnd
  0
BLOCK
  5
24
330
23
100
AcDbEntity
  8
0
100
AcDbBlockBegin
  2
*Paper_Space0
 70
     0
 10
0.0
 20
0.0
 30
0.0
  3
*Paper_Space0
  1

  0
ENDBLK
  5
25
330
23
100
AcDbEntity
  8
0
100
AcDbBlockEnd
  0
BLOCK
  5
77
330
75
100
AcDbEntity
  8
0
100
AcDbBlockBegin
  2
block 2
 70
     0
 10
0.0
 20
0.0
 30
0.0
  3
block 2
  1

  0
SPLINE
  5
79
330
75
100
AcDbEntity
  8
_U+30EC_U+30A4_U+30E4_U+30FC 1
370
     0
100
AcDbSpline
210
0.0
220
0.0
230
1.0
 70
    11
 71
     3
 72
    26
 73
    22
 74
     0
 42
0.0000000001
 43
0.0000000001
 12
1.0
 22
0.0
 32
0.0
 13
1.0
 23
0.0
 33
0.0
 40
0.0
 40
0.0
 40
0.0
 40
0.0
 40
1.0
 40
1.0
 40
1.0
 40
2.0
 40
2.0
 40
2.0
 40
3.0
 40
3.0
 40
3.0
 40
4.0
 40
4.0
 40
4.0
 40
5.0
 40
5.0
 40
5.0
 40
6.0
 40
6.0
 40
6.0
 40
7.0
 40
7.0
 40
7.0
 40
7.0
 10
111.8029947637159
 20
-141.3102375948808
 30
0.0
 10
111.8029947637159
 20
-141.3102375948808
 30
0.0
 10
110.6988416606933
 20
-141.3102375948808
 30
0.0
 10
110.6988416606933
 20
-141.3102375948808
 30
0.0
 10
110.6988416606933
 20
-141.3102375948808
 30
0.0
 10
110.6988416606933
 20
-141.6402777423677
 30
0.0
 10
110.6988416606933
 20
-141.6402777423677
 30
0.0
 10
110.6988416606933
 20
-141.6402777423677
 30
0.0
 10
110.5507025548276
 20
-141.6402777423677
 30
0.0
 10
110.5507025548276
 20
-141.6402777423677
 30
0.0
 10
110.535888644241
 20
-141.3081705375896
 30
0.0
 10
110.3729356277887
 20
-141.2613172389902
 30
0.0
 10
110.2585584576784
 20
-141.2316894178171
 30
0.0
 10
110.2585584576784
 20
-141.2316894178171
 30
0.0
 10
110.2585584576784
 20
-141.0856173692425
 30
0.0
 10
110.2585584576784
 20
-141.0856173692425
 30
0.0
 10
110.2585584576784
 20
-141.0856173692425
 30
0.0
 10
111.8029947637159
 20
-141.0856173692425
 30
0.0
 10
111.8029947637159
 20
-141.0856173692425
 30
0.0
 10
111.8029947637159
 20
-141.0856173692425
 30
0.0
 10
111.8029947637159
 20
-141.3102375948808
 30
0.0
 10
111.8029947637159
 20
-141.3102375948808
 30
0.0
  0
HATCH
  5
7A
330
75
100
AcDbEntity
  8
_U+30EC_U+30A4_U+30E4_U+30FC 1
 62
   179
420
  2234388
100
AcDbHatch
 10
0.0
 20
0.0
 30
0.0
210
0.0
220
0.0
230
1.0
  2
SOLID
 70
     1
 71
     0
 91
        1
 92
        1
 93
        1
 72
     4
 94
        3
 73
     0
 74
     1
 95
       26
 96
       22
 40
0.0
 40
0.0
 40
0.0
 40
0.0
 40
1.0
 40
1.0
 40
1.0
 40
2.0
 40
2.0
 40
2.0
 40
3.0
 40
3.0
 40
3.0
 40
4.0
 40
4.0
 40
4.0
 40
5.0
 40
5.0
 40
5.0
 40
6.0
 40
6.0
 40
6.0
 40
7.0
 40
7.0
 40
7.0
 40
7.0
 10
111.8029947637159
 20
-141.3102375948808
 10
111.8029947637159
 20
-141.3102375948808
 10
110.6988416606933
 20
-141.3102375948808
 10
110.6988416606933
 20
-141.3102375948808
 10
110.6988416606933
 20
-141.3102375948808
 10
110.6988416606933
 20
-141.6402777423677
 10
110.6988416606933
 20
-141.6402777423677
 10
110.6988416606933
 20
-141.6402777423677
 10
110.5507025548276
 20
-141.6402777423677
 10
110.5507025548276
 20
-141.6402777423677
 10
110.535888644241
 20
-141.3081705375896
 10
110.3729356277887
 20
-141.2613172389902
 10
110.2585584576784
 20
-141.2316894178171
 10
110.2585584576784
 20
-141.2316894178171
 10
110.2585584576784
 20
-141.0856173692425
 10
110.2585584576784
 20
-141.0856173692425
 10
110.2585584576784
 20
-141.0856173692425
 10
111.8029947637159
 20
-141.0856173692425
 10
111.8029947637159
 20
-141.0856173692425
 10
111.8029947637159
 20
-141.0856173692425
 10
111.8029947637159
 20
-141.3102375948808
 10
111.8029947637159
 20
-141.3102375948808
 97
        0
 97
        0
 75
     2
 76
     1
 98
        0
  0
POLYLINE
  5
7B
330
75
100
AcDbEntity
  8
_U+30EC_U+30A4_U+30E4_U+30FC 1
370
     0
100
AcDb2dPolyline
 66
     1
 10
0.0
 20
0.0
 30
0.0
  0
VERTEX
  5
7C
330
7B
100
AcDbEntity
  8
_U+30EC_U+30A4_U+30E4_U+30FC 1
370
     0
100
AcDbVertex
100
AcDb2dVertex
 10
111.8029947637159
 20
-140.5247558242438
 30
0.0
  0
VERTEX
  5
7D
330
7B
100
AcDbEntity
  8
_U+30EC_U+30A4_U+30E4_U+30FC 1
370
     0
100
AcDbVertex
100
AcDb2dVertex
 10
111.5511582837442
 20
-140.5247558242438
 30
0.0
  0
VERTEX
  5
7E
330
7B
100
AcDbEntity
  8
_U+30EC_U+30A4_U+30E4_U+30FC 1
370
     0
100
AcDbVertex
100
AcDb2dVertex
 10
111.5511582837442
 20
-140.2725748347235
 30
0.0
  0
VERTEX
  5
7F
330
7B
100
AcDbEntity
  8
_U+30EC_U+30A4_U+30E4_U+30FC 1
370
     0
100
AcDbVertex
100
AcDb2dVertex
 10
111.8029947637159
 20
-140.2725748347235
 30
0.0
  0
VERTEX
  5
80
330
7B
100
AcDbEntity
  8
_U+30EC_U+30A4_U+30E4_U+30FC 1
370
     0
100
AcDbVertex
100
AcDb2dVertex
 10
111.8029947637159
 20
-140.5247558242438
 30
0.0
  0
SEQEND
  5
81
330
7B
100
AcDbEntity
  8
_U+30EC_U+30A4_U+30E4_U+30FC 1
370
     0
  0
HATCH
  5
82
330
75
100
AcDbEntity
  8
_U+30EC_U+30A4_U+30E4_U+30FC 1
 62
   179
420
  2234388
100
AcDbHatch
 10
0.0
 20
0.0
 30
0.0
210
0.0
220
0.0
230
1.0
  2
SOLID
 70
     1
 71
     0
 91
        1
 92
        1
 93
        4
 72
     1
 10
111.8029947637159
 20
-140.5247558242438
 11
111.5511582837442
 21
-140.5247558242438
 72
     1
 10
111.5511582837442
 20
-140.5247558242438
 11
111.5511582837442
 21
-140.2725748347235
 72
     1
 10
111.5511582837442
 20
-140.2725748347235
 11
111.8029947637159
 21
-140.2725748347235
 72
     1
 10
111.8029947637159
 20
-140.2725748347235
 11
111.8029947637159
 21
-140.5247558242438
 97
        0
 75
     2
 76
     1
 98
        0
  0
SPLINE
  5
83
330
75
100
AcDbEntity
  8
_U+30EC_U+30A4_U+30E4_U+30FC 1
370
     0
100
AcDbSpline
210
0.0
220
0.0
230
1.0
 70
    11
 71
     3
 72
    53
 73
    49
 74
     0
 42
0.0000000001
 43
0.0000000001
 12
1.0
 22
0.0
 32
0.0
 13
1.0
 23
0.0
 33
0.0
 40
0.0
 40
0.0
 40
0.0
 40
0.0
 40
1.0
 40
1.0
 40
1.0
 40
2.0
 40
2.0
 40
2.0
 40
3.0
 40
3.0
 40
3.0
 40
4.0
 40
4.0
 40
4.0
 40
5.0
 40
5.0
 40
5.0
 40
6.0
 40
6.0
 40
6.0
 40
7.0
 40
7.0
 40
7.0
 40
8.0
 40
8.0
 40
8.0
 40
9.0
 40
9.0
 40
9.0
 40
10.0
 40
10.0
 40
10.0
 40
11.0
 40
11.0
 40
11.0
 40
12.0
 40
12.0
 40
12.0
 40
13.0
 40
13.0
 40
13.0
 40
14.0
 40
14.0
 40
14.0
 40
15.0
 40
15.0
 40
15.0
 40
16.0
 40
16.0
 40
16.0
 40
16.0
 10
111.8536376673491
 20
-139.5553059546945
 30
0.0
 10
111.8536376673491
 20
-139.6338541317582
 30
0.0
 10
111.8367566994714
 20
-139.7351399390245
 30
0.0
 10
111.7733669425428
 20
-139.837114765388
 30
0.0
 10
111.6634683965633
 20
-140.0100585587475
 30
0.0
 10
111.5322102585753
 20
-140.0314181507561
 30
0.0
 10
111.424378769887
 20
-140.0507106854734
 30
0.0
 10
111.424378769887
 20
-140.0507106854734
 30
0.0
 10
111.424378769887
 20
-139.8281575171263
 30
0.0
 10
111.424378769887
 20
-139.8281575171263
 30
0.0
 10
111.6231607793859
 20
-139.7737250084594
 30
0.0
 10
111.652788600559
 20
-139.6462564755051
 30
0.0
 10
111.652788600559
 20
-139.5532388974034
 30
0.0
 10
111.652788600559
 20
-139.4140570397993
 30
0.0
 10
111.5532253410353
 20
-139.2617838193512
 30
0.0
 10
111.320681395781
 20
-139.2617838193512
 30
0.0
 10
111.0647108012269
 20
-139.2617838193512
 30
0.0
 10
110.9947753628763
 20
-139.4416178036813
 30
0.0
 10
110.9947753628763
 20
-139.562196145665
 30
0.0
 10
110.9947753628763
 20
-139.5938910241293
 30
0.0
 10
110.9947753628763
 20
-139.7351399390245
 30
0.0
 10
111.1239664435732
 20
-139.824023402544
 30
0.0
 10
111.1239664435732
 20
-139.824023402544
 30
0.0
 10
111.1050184184043
 20
-139.9997232722917
 30
0.0
 10
111.1050184184043
 20
-139.9997232722917
 30
0.0
 10
111.1050184184043
 20
-139.9997232722917
 30
0.0
 10
110.2585584576784
 20
-139.879144930308
 30
0.0
 10
110.2585584576784
 20
-139.879144930308
 30
0.0
 10
110.2585584576784
 20
-139.879144930308
 30
0.0
 10
110.2585584576784
 20
-139.1005533506415
 30
0.0
 10
110.2585584576784
 20
-139.1005533506415
 30
0.0
 10
110.2585584576784
 20
-139.1005533506415
 30
0.0
 10
110.453206352595
 20
-139.1005533506415
 30
0.0
 10
110.453206352595
 20
-139.1005533506415
 30
0.0
 10
110.453206352595
 20
-139.1005533506415
 30
0.0
 10
110.453206352595
 20
-139.7165364234042
 30
0.0
 10
110.453206352595
 20
-139.7165364234042
 30
0.0
 10
110.453206352595
 20
-139.7165364234042
 30
0.0
 10
110.8762640781837
 20
-139.781993237624
 30
0.0
 10
110.8762640781837
 20
-139.781993237624
 30
0.0
 10
110.8425021424283
 20
-139.7206705379865
 30
0.0
 10
110.8021945252508
 20
-139.6379882463405
 30
0.0
 10
110.8021945252508
 20
-139.5194769616479
 30
0.0
 10
110.8021945252508
 20
-139.2659179339335
 30
0.0
 10
110.9885741910029
 20
-139.0288953645483
 30
0.0
 10
111.3017333706121
 20
-139.0288953645483
 30
0.0
 10
111.6190266648036
 20
-139.0288953645483
 30
0.0
 10
111.8536376673491
 20
-139.2528265710896
 30
0.0
 10
111.8536376673491
 20
-139.5553059546945
 30
0.0
  0
HATCH
  5
84
330
75
100
AcDbEntity
  8
_U+30EC_U+30A4_U+30E4_U+30FC 1
 62
   179
420
  2234388
100
AcDbHatch
 10
0.0
 20
0.0
 30
0.0
210
0.0
220
0.0
230
1.0
  2
SOLID
 70
     1
 71
     0
 91
        1
 92
        1
 93
        1
 72
     4
 94
        3
 73
     0
 74
     1
 95
       53
 96
       49
 40
0.0
 40
0.0
 40
0.0
 40
0.0
 40
1.0
 40
1.0
 40
1.0
 40
2.0
 40
2.0
 40
2.0
 40
3.0
 40
3.0
 40
3.0
 40
4.0
 40
4.0
 40
4.0
 40
5.0
 40
5.0
 40
5.0
 40
6.0
 40
6.0
 40
6.0
 40
7.0
 40
7.0
 40
7.0
 40
8.0
 40
8.0
 40
8.0
 40
9.0
 40
9.0
 40
9.0
 40
10.0
 40
10.0
 40
10.0
 40
11.0
 40
11.0
 40
11.0
 40
12.0
 40
12.0
 40
12.0
 40
13.0
 40
13.0
 40
13.0
 40
14.0
 40
14.0
 40
14.0
 40
15.0
 40
15.0
 40
15.0
 40
16.0
 40
16.0
 40
16.0
 40
16.0
 10
111.8536376673491
 20
-139.5553059546945
 10
111.8536376673491
 20
-139.6338541317582
 10
111.8367566994714
 20
-139.7351399390245
 10
111.7733669425428
 20
-139.837114765388
 10
111.6634683965633
 20
-140.0100585587475
 10
111.5322102585753
 20
-140.0314181507561
 10
111.424378769887
 20
-140.0507106854734
 10
111.424378769887
 20
-140.0507106854734
 10
111.424378769887
 20
-139.8281575171263
 10
111.424378769887
 20
-139.8281575171263
 10
111.6231607793859
 20
-139.7737250084594
 10
111.652788600559
 20
-139.6462564755051
 10
111.652788600559
 20
-139.5532388974034
 10
111.652788600559
 20
-139.4140570397993
 10
111.5532253410353
 20
-139.2617838193512
 10
111.320681395781
 20
-139.2617838193512
 10
111.0647108012269
 20
-139.2617838193512
 10
110.9947753628763
 20
-139.4416178036813
 10
110.9947753628763
 20
-139.562196145665
 10
110.9947753628763
 20
-139.5938910241293
 10
110.9947753628763
 20
-139.7351399390245
 10
111.1239664435732
 20
-139.824023402544
 10
111.1239664435732
 20
-139.824023402544
 10
111.1050184184043
 20
-139.9997232722917
 10
111.1050184184043
 20
-139.9997232722917
 10
111.1050184184043
 20
-139.9997232722917
 10
110.2585584576784
 20
-139.879144930308
 10
110.2585584576784
 20
-139.879144930308
 10
110.2585584576784
 20
-139.879144930308
 10
110.2585584576784
 20
-139.1005533506415
 10
110.2585584576784
 20
-139.1005533506415
 10
110.2585584576784
 20
-139.1005533506415
 10
110.453206352595
 20
-139.1005533506415
 10
110.453206352595
 20
-139.1005533506415
 10
110.453206352595
 20
-139.1005533506415
 10
110.453206352595
 20
-139.7165364234042
 10
110.453206352595
 20
-139.7165364234042
 10
110.453206352595
 20
-139.7165364234042
 10
110.8762640781837
 20
-139.781993237624
 10
110.8762640781837
 20
-139.781993237624
 10
110.8425021424283
 20
-139.7206705379865
 10
110.8021945252508
 20
-139.6379882463405
 10
110.8021945252508
 20
-139.5194769616479
 10
110.8021945252508
 20
-139.2659179339335
 10
110.9885741910029
 20
-139.0288953645483
 10
111.3017333706121
 20
-139.0288953645483
 10
111.6190266648036
 20
-139.0288953645483
 10
111.8536376673491
 20
-139.2528265710896
 10
111.8536376673491
 20
-139.5553059546945
 97
        0
 97
        0
 75
     2
 76
     1
 98
        0
  0
ENDBLK
  5
78
330
75
100
AcDbEntity
  8
0
100
AcDbBlockEnd
  0
BLOCK
  5
93
330
91
100
AcDbEntity
  8
0
100
AcDbBlockBegin
  2
block 3
 70
     0
 10
0.0
 20
0.0
 30
0.0
  3
block 3
  1

  0
SPLINE
  5
95
330
91
100
AcDbEntity
  8
_U+30EC_U+30A4_U+30E4_U+30FC 1
370
     0
100
AcDbSpline
210
0.0
220
0.0
230
1.0
 70
    11
 71
     3
 72
    62
 73
    58
 74
     0
 42
0.0000000001
 43
0.0000000001
 12
1.0
 22
0.0
 32
0.0
 13
1.0
 23
0.0
 33
0.0
 40
0.0
 40
0.0
 40
0.0
 40
0.0
 40
1.0
 40
1.0
 40
1.0
 40
2.0
 40
2.0
 40
2.0
 40
3.0
 40
3.0
 40
3.0
 40
4.0
 40
4.0
 40
4.0
 40
5.0
 40
5.0
 40
5.0
 40
6.0
 40
6.0
 40
6.0
 40
7.0
 40
7.0
 40
7.0
 40
8.0
 40
8.0
 40
8.0
 40
9.0
 40
9.0
 40
9.0
 40
10.0
 40
10.0
 40
10.0
 40
11.0
 40
11.0
 40
11.0
 40
12.0
 40
12.0
 40
12.0
 40
13.0
 40
13.0
 40
13.0
 40
14.0
 40
14.0
 40
14.0
 40
15.0
 40
15.0
 40
15.0
 40
16.0
 40
16.0
 40
16.0
 40
17.0
 40
17.0
 40
17.0
 40
18.0
 40
18.0
 40
18.0
 40
19.0
 40
19.0
 40
19.0
 40
19.0
 10
71.67865666610811
 20
-126.6212117196468
 30
0.0
 10
71.67865666610811
 20
-126.7166408645882
 30
0.0
 10
71.65746932887383
 20
-126.934370899256
 30
0.0
 10
71.47126191789607
 20
-127.0594278653706
 30
0.0
 10
71.3591240598512
 20
-127.1334974183034
 30
0.0
 10
71.25973305510173
 20
-127.1376315328857
 30
0.0
 10
71.17515596093885
 20
-127.141765647468
 30
0.0
 10
71.17515596093885
 20
-127.141765647468
 30
0.0
 10
71.17515596093885
 20
-126.9216240459606
 30
0.0
 10
71.17515596093885
 20
-126.9216240459606
 30
0.0
 10
71.24922551387172
 20
-126.9195569886694
 30
0.0
 10
71.4840087711915
 20
-126.9092217022137
 30
0.0
 10
71.4840087711915
 20
-126.6256903437776
 30
0.0
 10
71.4840087711915
 20
-126.4882310339161
 30
0.0
 10
71.4142455876152
 20
-126.3356133039196
 30
0.0
 10
71.18566350216886
 20
-126.3356133039196
 30
0.0
 10
71.06939152954169
 20
-126.3356133039196
 30
0.0
 10
71.0206434284254
 20
-126.3738538638058
 30
0.0
 10
70.9889485499611
 20
-126.4055487422701
 30
0.0
 10
70.91487899702823
 20
-126.479618295203
 30
0.0
 10
70.90230439850707
 20
-126.5960625226045
 30
0.0
 10
70.90230439850707
 20
-126.6508395408199
 30
0.0
 10
70.90230439850707
 20
-126.6701320755373
 30
0.0
 10
70.90437145579821
 20
-126.7059610685839
 30
0.0
 10
70.90850557038051
 20
-126.7335218324659
 30
0.0
 10
70.90850557038051
 20
-126.7335218324659
 30
0.0
 10
70.71402993023817
 20
-126.7335218324659
 30
0.0
 10
70.71402993023817
 20
-126.7335218324659
 30
0.0
 10
70.72023110211161
 20
-126.6952812725797
 30
0.0
 10
70.72247041417702
 20
-126.6532511076596
 30
0.0
 10
70.72247041417702
 20
-126.6467054262376
 30
0.0
 10
70.72247041417702
 20
-126.5812486120179
 30
0.0
 10
70.70128307694274
 20
-126.382466602519
 30
0.0
 10
70.46426050755755
 20
-126.382466602519
 30
0.0
 10
70.28666583529292
 20
-126.382466602519
 30
0.0
 10
70.23154430752892
 20
-126.5133802309585
 30
0.0
 10
70.23154430752892
 20
-126.6236232864865
 30
0.0
 10
70.23154430752892
 20
-126.8878621102051
 30
0.0
 10
70.46426050755755
 20
-126.8964748489182
 30
0.0
 10
70.53626300319927
 20
-126.9006089635005
 30
0.0
 10
70.53626300319927
 20
-126.9006089635005
 30
0.0
 10
70.53626300319927
 20
-127.1038695971303
 30
0.0
 10
70.53626300319927
 20
-127.1038695971303
 30
0.0
 10
70.41137829185897
 20
-127.0952568584172
 30
0.0
 10
70.03482935532115
 20
-127.0676960945352
 30
0.0
 10
70.03482935532115
 20
-126.610876433191
 30
0.0
 10
70.03482935532115
 20
-126.3866007171013
 30
0.0
 10
70.16178112395261
 20
-126.1454440331338
 30
0.0
 10
70.45788708090984
 20
-126.1454440331338
 30
0.0
 10
70.64409449188759
 20
-126.1454440331338
 30
0.0
 10
70.72660452875932
 20
-126.2405286685267
 30
0.0
 10
70.78792722839677
 20
-126.3400919280504
 30
0.0
 10
70.81548799227878
 20
-126.278769228413
 30
0.0
 10
70.89593097185936
 20
-126.0968681867918
 30
0.0
 10
71.17308890364771
 20
-126.0968681867918
 30
0.0
 10
71.5115695350735
 20
-126.0968681867918
 30
0.0
 10
71.67865666610811
 20
-126.3442260426327
 30
0.0
 10
71.67865666610811
 20
-126.6212117196468
 30
0.0
  0
HATCH
  5
96
330
91
100
AcDbEntity
  8
_U+30EC_U+30A4_U+30E4_U+30FC 1
 62
   179
420
  2234388
100
AcDbHatch
 10
0.0
 20
0.0
 30
0.0
210
0.0
220
0.0
230
1.0
  2
SOLID
 70
     1
 71
     0
 91
        1
 92
        1
 93
        1
 72
     4
 94
        3
 73
     0
 74
     1
 95
       62
 96
       58
 40
0.0
 40
0.0
 40
0.0
 40
0.0
 40
1.0
 40
1.0
 40
1.0
 40
2.0
 40
2.0
 40
2.0
 40
3.0
 40
3.0
 40
3.0
 40
4.0
 40
4.0
 40
4.0
 40
5.0
 40
5.0
 40
5.0
 40
6.0
 40
6.0
 40
6.0
 40
7.0
 40
7.0
 40
7.0
 40
8.0
 40
8.0
 40
8.0
 40
9.0
 40
9.0
 40
9.0
 40
10.0
 40
10.0
 40
10.0
 40
11.0
 40
11.0
 40
11.0
 40
12.0
 40
12.0
 40
12.0
 40
13.0
 40
13.0
 40
13.0
 40
14.0
 40
14.0
 40
14.0
 40
15.0
 40
15.0
 40
15.0
 40
16.0
 40
16.0
 40
16.0
 40
17.0
 40
17.0
 40
17.0
 40
18.0
 40
18.0
 40
18.0
 40
19.0
 40
19.0
 40
19.0
 40
19.0
 10
71.67865666610811
 20
-126.6212117196468
 10
71.67865666610811
 20
-126.7166408645882
 10
71.65746932887383
 20
-126.934370899256
 10
71.47126191789607
 20
-127.0594278653706
 10
71.3591240598512
 20
-127.1334974183034
 10
71.25973305510173
 20
-127.1376315328857
 10
71.17515596093885
 20
-127.141765647468
 10
71.17515596093885
 20
-127.141765647468
 10
71.17515596093885
 20
-126.9216240459606
 10
71.17515596093885
 20
-126.9216240459606
 10
71.24922551387172
 20
-126.9195569886694
 10
71.4840087711915
 20
-126.9092217022137
 10
71.4840087711915
 20
-126.6256903437776
 10
71.4840087711915
 20
-126.4882310339161
 10
71.4142455876152
 20
-126.3356133039196
 10
71.18566350216886
 20
-126.3356133039196
 10
71.06939152954169
 20
-126.3356133039196
 10
71.0206434284254
 20
-126.3738538638058
 10
70.9889485499611
 20
-126.4055487422701
 10
70.91487899702823
 20
-126.479618295203
 10
70.90230439850707
 20
-126.5960625226045
 10
70.90230439850707
 20
-126.6508395408199
 10
70.90230439850707
 20
-126.6701320755373
 10
70.90437145579821
 20
-126.7059610685839
 10
70.90850557038051
 20
-126.7335218324659
 10
70.90850557038051
 20
-126.7335218324659
 10
70.71402993023817
 20
-126.7335218324659
 10
70.71402993023817
 20
-126.7335218324659
 10
70.72023110211161
 20
-126.6952812725797
 10
70.72247041417702
 20
-126.6532511076596
 10
70.72247041417702
 20
-126.6467054262376
 10
70.72247041417702
 20
-126.5812486120179
 10
70.70128307694274
 20
-126.382466602519
 10
70.46426050755755
 20
-126.382466602519
 10
70.28666583529292
 20
-126.382466602519
 10
70.23154430752892
 20
-126.5133802309585
 10
70.23154430752892
 20
-126.6236232864865
 10
70.23154430752892
 20
-126.8878621102051
 10
70.46426050755755
 20
-126.8964748489182
 10
70.53626300319927
 20
-126.9006089635005
 10
70.53626300319927
 20
-126.9006089635005
 10
70.53626300319927
 20
-127.1038695971303
 10
70.53626300319927
 20
-127.1038695971303
 10
70.41137829185897
 20
-127.0952568584172
 10
70.03482935532115
 20
-127.0676960945352
 10
70.03482935532115
 20
-126.610876433191
 10
70.03482935532115
 20
-126.3866007171013
 10
70.16178112395261
 20
-126.1454440331338
 10
70.45788708090984
 20
-126.1454440331338
 10
70.64409449188759
 20
-126.1454440331338
 10
70.72660452875932
 20
-126.2405286685267
 10
70.78792722839677
 20
-126.3400919280504
 10
70.81548799227878
 20
-126.278769228413
 10
70.89593097185936
 20
-126.0968681867918
 10
71.17308890364771
 20
-126.0968681867918
 10
71.5115695350735
 20
-126.0968681867918
 10
71.67865666610811
 20
-126.3442260426327
 10
71.67865666610811
 20
-126.6212117196468
 97
        0
 97
        0
 75
     2
 76
     1
 98
        0
  0
SPLINE
  5
97
330
91
100
AcDbEntity
  8
_U+30EC_U+30A4_U+30E4_U+30FC 1
370
     0
100
AcDbSpline
210
0.0
220
0.0
230
1.0
 70
    11
 71
     3
 72
    29
 73
    25
 74
     0
 42
0.0000000001
 43
0.0000000001
 12
1.0
 22
0.0
 32
0.0
 13
1.0
 23
0.0
 33
0.0
 40
0.0
 40
0.0
 40
0.0
 40
0.0
 40
1.0
 40
1.0
 40
1.0
 40
2.0
 40
2.0
 40
2.0
 40
3.0
 40
3.0
 40
3.0
 40
4.0
 40
4.0
 40
4.0
 40
5.0
 40
5.0
 40
5.0
 40
6.0
 40
6.0
 40
6.0
 40
7.0
 40
7.0
 40
7.0
 40
8.0
 40
8.0
 40
8.0
 40
8.0
 10
71.45007458066179
 20
-125.0381903441745
 30
0.0
 10
71.65953638616499
 20
-125.1463663424113
 30
0.0
 10
71.67865666610811
 20
-125.3196546453194
 30
0.0
 10
71.67865666610811
 20
-125.4360988727208
 30
0.0
 10
71.67865666610811
 20
-125.596984831882
 30
0.0
 10
71.63214787705725
 20
-125.7385782563258
 30
0.0
 10
71.45007458066179
 20
-125.8336628917187
 30
0.0
 10
71.25559894051943
 20
-125.9373602658247
 30
0.0
 10
71.01857637113424
 20
-125.9566528005421
 30
0.0
 10
70.85562335468192
 20
-125.9566528005421
 30
0.0
 10
70.71179061817276
 20
-125.9566528005421
 30
0.0
 10
70.46012639297525
 20
-125.9394273231158
 30
0.0
 10
70.26117212870207
 20
-125.8336628917187
 30
0.0
 10
70.05808374984659
 20
-125.7258314030304
 30
0.0
 10
70.03482935532115
 20
-125.5649454438692
 30
0.0
 10
70.03482935532115
 20
-125.4360988727208
 30
0.0
 10
70.03482935532115
 20
-125.2772799708508
 30
0.0
 10
70.07927108708088
 20
-125.1336194891159
 30
0.0
 10
70.26117212870207
 20
-125.0381903441745
 30
0.0
 10
70.45375296632754
 20
-124.9389715941993
 30
0.0
 10
70.6821627969996
 20
-124.9155449448996
 30
0.0
 10
70.85562335468192
 20
-124.9155449448996
 30
0.0
 10
71.02701685507311
 20
-124.9155449448996
 30
0.0
 10
71.25766599781059
 20
-124.9369045369081
 30
0.0
 10
71.45007458066179
 20
-125.0381903441745
 30
0.0
  0
SPLINE
  5
98
330
91
100
AcDbEntity
  8
_U+30EC_U+30A4_U+30E4_U+30FC 1
370
     0
100
AcDbSpline
210
0.0
220
0.0
230
1.0
 70
    11
 71
     3
 72
    17
 73
    13
 74
     0
 42
0.0000000001
 43
0.0000000001
 12
1.0
 22
0.0
 32
0.0
 13
1.0
 23
0.0
 33
0.0
 40
0.0
 40
0.0
 40
0.0
 40
0.0
 40
1.0
 40
1.0
 40
1.0
 40
2.0
 40
2.0
 40
2.0
 40
3.0
 40
3.0
 40
3.0
 40
4.0
 40
4.0
 40
4.0
 40
4.0
 10
70.22741019294662
 20
-125.4360988727208
 30
0.0
 10
70.22741019294662
 20
-125.6858682954014
 30
0.0
 10
70.51076929660842
 20
-125.7323770844523
 30
0.0
 10
70.85562335468192
 20
-125.7323770844523
 30
0.0
 10
71.17515596093885
 20
-125.7323770844523
 30
0.0
 10
71.4840087711915
 20
-125.6962035818572
 30
0.0
 10
71.4840087711915
 20
-125.4360988727208
 30
0.0
 10
71.4840087711915
 20
-125.1883965073314
 30
0.0
 10
71.20254447004659
 20
-125.1398206609894
 30
0.0
 10
70.85562335468192
 20
-125.1398206609894
 30
0.0
 10
70.53626300319927
 20
-125.1398206609894
 30
0.0
 10
70.22741019294662
 20
-125.1780612208756
 30
0.0
 10
70.22741019294662
 20
-125.4360988727208
 30
0.0
  0
HATCH
  5
99
330
91
100
AcDbEntity
  8
_U+30EC_U+30A4_U+30E4_U+30FC 1
 62
   179
420
  2234388
100
AcDbHatch
 10
0.0
 20
0.0
 30
0.0
210
0.0
220
0.0
230
1.0
  2
SOLID
 70
     1
 71
     0
 91
        2
 92
        1
 93
        1
 72
     4
 94
        3
 73
     0
 74
     1
 95
       29
 96
       25
 40
0.0
 40
0.0
 40
0.0
 40
0.0
 40
1.0
 40
1.0
 40
1.0
 40
2.0
 40
2.0
 40
2.0
 40
3.0
 40
3.0
 40
3.0
 40
4.0
 40
4.0
 40
4.0
 40
5.0
 40
5.0
 40
5.0
 40
6.0
 40
6.0
 40
6.0
 40
7.0
 40
7.0
 40
7.0
 40
8.0
 40
8.0
 40
8.0
 40
8.0
 10
71.45007458066179
 20
-125.0381903441745
 10
71.65953638616499
 20
-125.1463663424113
 10
71.67865666610811
 20
-125.3196546453194
 10
71.67865666610811
 20
-125.4360988727208
 10
71.67865666610811
 20
-125.596984831882
 10
71.63214787705725
 20
-125.7385782563258
 10
71.45007458066179
 20
-125.8336628917187
 10
71.25559894051943
 20
-125.9373602658247
 10
71.01857637113424
 20
-125.9566528005421
 10
70.85562335468192
 20
-125.9566528005421
 10
70.71179061817276
 20
-125.9566528005421
 10
70.46012639297525
 20
-125.9394273231158
 10
70.26117212870207
 20
-125.8336628917187
 10
70.05808374984659
 20
-125.7258314030304
 10
70.03482935532115
 20
-125.5649454438692
 10
70.03482935532115
 20
-125.4360988727208
 10
70.03482935532115
 20
-125.2772799708508
 10
70.07927108708088
 20
-125.1336194891159
 10
70.26117212870207
 20
-125.0381903441745
 10
70.45375296632754
 20
-124.9389715941993
 10
70.6821627969996
 20
-124.9155449448996
 10
70.85562335468192
 20
-124.9155449448996
 10
71.02701685507311
 20
-124.9155449448996
 10
71.25766599781059
 20
-124.9369045369081
 10
71.45007458066179
 20
-125.0381903441745
 97
        0
 97
        0
 92
        1
 93
        1
 72
     4
 94
        3
 73
     0
 74
     1
 95
       17
 96
       13
 40
0.0
 40
0.0
 40
0.0
 40
0.0
 40
1.0
 40
1.0
 40
1.0
 40
2.0
 40
2.0
 40
2.0
 40
3.0
 40
3.0
 40
3.0
 40
4.0
 40
4.0
 40
4.0
 40
4.0
 10
70.22741019294662
 20
-125.4360988727208
 10
70.22741019294662
 20
-125.6858682954014
 10
70.51076929660842
 20
-125.7323770844523
 10
70.85562335468192
 20
-125.7323770844523
 10
71.17515596093885
 20
-125.7323770844523
 10
71.4840087711915
 20
-125.6962035818572
 10
71.4840087711915
 20
-125.4360988727208
 10
71.4840087711915
 20
-125.1883965073314
 10
71.20254447004659
 20
-125.1398206609894
 10
70.85562335468192
 20
-125.1398206609894
 10
70.53626300319927
 20
-125.1398206609894
 10
70.22741019294662
 20
-125.1780612208756
 10
70.22741019294662
 20
-125.4360988727208
 97
        0
 97
        0
 75
     2
 76
     1
 98
        0
  0
ENDBLK
  5
94
330
91
100
AcDbEntity
  8
0
100
AcDbBlockEnd
  0
BLOCK
  5
A8
330
A6
100
AcDbEntity
  8
0
100
AcDbBlockBegin
  2
block 4
 70
     0
 10
0.0
 20
0.0
 30
0.0
  3
block 4
  1

  0
SPLINE
  5
AA
330
A6
100
AcDbEntity
  8
_U+30EC_U+30A4_U+30E4_U+30FC 1
370
     0
100
AcDbSpline
210
0.0
220
0.0
230
1.0
 70
    11
 71
     3
 72
    62
 73
    58
 74
     0
 42
0.0000000001
 43
0.0000000001
 12
1.0
 22
0.0
 32
0.0
 13
1.0
 23
0.0
 33
0.0
 40
0.0
 40
0.0
 40
0.0
 40
0.0
 40
1.0
 40
1.0
 40
1.0
 40
2.0
 40
2.0
 40
2.0
 40
3.0
 40
3.0
 40
3.0
 40
4.0
 40
4.0
 40
4.0
 40
5.0
 40
5.0
 40
5.0
 40
6.0
 40
6.0
 40
6.0
 40
7.0
 40
7.0
 40
7.0
 40
8.0
 40
8.0
 40
8.0
 40
9.0
 40
9.0
 40
9.0
 40
10.0
 40
10.0
 40
10.0
 40
11.0
 40
11.0
 40
11.0
 40
12.0
 40
12.0
 40
12.0
 40
13.0
 40
13.0
 40
13.0
 40
14.0
 40
14.0
 40
14.0
 40
15.0
 40
15.0
 40
15.0
 40
16.0
 40
16.0
 40
16.0
 40
17.0
 40
17.0
 40
17.0
 40
18.0
 40
18.0
 40
18.0
 40
19.0
 40
19.0
 40
19.0
 40
19.0
 10
90.55157875340377
 20
-144.4028998119896
 30
0.0
 10
90.45614960846235
 20
-144.4028998119896
 30
0.0
 10
90.23841957379456
 20
-144.3818847295295
 30
0.0
 10
90.11336260768
 20
-144.1958495733261
 30
0.0
 10
90.03929305474712
 20
-144.0835394605069
 30
0.0
 10
90.03515894016482
 20
-143.9843207105317
 30
0.0
 10
90.03102482558252
 20
-143.8995713615946
 30
0.0
 10
90.03102482558252
 20
-143.8995713615946
 30
0.0
 10
90.25116642708998
 20
-143.8995713615946
 30
0.0
 10
90.25116642708998
 20
-143.8995713615946
 30
0.0
 10
90.25323348438114
 20
-143.9736409145274
 30
0.0
 10
90.26356877083688
 20
-144.2082519170729
 30
0.0
 10
90.54710012927295
 20
-144.2082519170729
 30
0.0
 10
90.68455943913442
 20
-144.2082519170729
 30
0.0
 10
90.83717716913098
 20
-144.1386609882709
 30
0.0
 10
90.83717716913098
 20
-143.9102511575988
 30
0.0
 10
90.83717716913098
 20
-143.7938069301974
 30
0.0
 10
90.79893660924472
 20
-143.7452310838554
 30
0.0
 10
90.76724173078041
 20
-143.7135362053911
 30
0.0
 10
90.69317217784754
 20
-143.6394666524582
 30
0.0
 10
90.5767279504461
 20
-143.6267197991628
 30
0.0
 10
90.52195093223062
 20
-143.6267197991628
 30
0.0
 10
90.50265839751323
 20
-143.6267197991628
 30
0.0
 10
90.46682940446664
 20
-143.6287868564539
 30
0.0
 10
90.43926864058463
 20
-143.6329209710362
 30
0.0
 10
90.43926864058463
 20
-143.6329209710362
 30
0.0
 10
90.43926864058463
 20
-143.4382730761196
 30
0.0
 10
90.43926864058463
 20
-143.4382730761196
 30
0.0
 10
90.4775092004709
 20
-143.4448187575416
 30
0.0
 10
90.51953936539095
 20
-143.4468858148327
 30
0.0
 10
90.52608504681292
 20
-143.4468858148327
 30
0.0
 10
90.59154186103268
 20
-143.4468858148327
 30
0.0
 10
90.7903238705316
 20
-143.4255262228242
 30
0.0
 10
90.7903238705316
 20
-143.1888481629875
 30
0.0
 10
90.7903238705316
 20
-143.0110812359486
 30
0.0
 10
90.6594102420921
 20
-142.9559597081846
 30
0.0
 10
90.5491671865641
 20
-142.9559597081846
 30
0.0
 10
90.28492836284543
 20
-142.9559597081846
 30
0.0
 10
90.27631562413231
 20
-143.1888481629875
 30
0.0
 10
90.27218150955001
 20
-143.2605061490807
 30
0.0
 10
90.27218150955001
 20
-143.2605061490807
 30
0.0
 10
90.06892087592027
 20
-143.2605061490807
 30
0.0
 10
90.06892087592027
 20
-143.2605061490807
 30
0.0
 10
90.0775336146334
 20
-143.1357936925147
 30
0.0
 10
90.1050943785154
 20
-142.7592447559769
 30
0.0
 10
90.56191403985953
 20
-142.7592447559769
 30
0.0
 10
90.7861897559493
 20
-142.7592447559769
 30
0.0
 10
91.02734643991678
 20
-142.8863687793826
 30
0.0
 10
91.02734643991678
 20
-143.1823024815655
 30
0.0
 10
91.02734643991678
 20
-143.3686821473176
 30
0.0
 10
90.93226180452389
 20
-143.451019929415
 30
0.0
 10
90.83269854500016
 20
-143.5123426290525
 30
0.0
 10
90.89402124463761
 20
-143.5399033929345
 30
0.0
 10
91.0759222862588
 20
-143.6201741177408
 30
0.0
 10
91.0759222862588
 20
-143.8975043043034
 30
0.0
 10
91.0759222862588
 20
-144.235812680955
 30
0.0
 10
90.82856443041786
 20
-144.4028998119896
 30
0.0
 10
90.55157875340377
 20
-144.4028998119896
 30
0.0
  0
HATCH
  5
AB
330
A6
100
AcDbEntity
  8
_U+30EC_U+30A4_U+30E4_U+30FC 1
 62
   179
420
  2234388
100
AcDbHatch
 10
0.0
 20
0.0
 30
0.0
210
0.0
220
0.0
230
1.0
  2
SOLID
 70
     1
 71
     0
 91
        1
 92
        1
 93
        1
 72
     4
 94
        3
 73
     0
 74
     1
 95
       62
 96
       58
 40
0.0
 40
0.0
 40
0.0
 40
0.0
 40
1.0
 40
1.0
 40
1.0
 40
2.0
 40
2.0
 40
2.0
 40
3.0
 40
3.0
 40
3.0
 40
4.0
 40
4.0
 40
4.0
 40
5.0
 40
5.0
 40
5.0
 40
6.0
 40
6.0
 40
6.0
 40
7.0
 40
7.0
 40
7.0
 40
8.0
 40
8.0
 40
8.0
 40
9.0
 40
9.0
 40
9.0
 40
10.0
 40
10.0
 40
10.0
 40
11.0
 40
11.0
 40
11.0
 40
12.0
 40
12.0
 40
12.0
 40
13.0
 40
13.0
 40
13.0
 40
14.0
 40
14.0
 40
14.0
 40
15.0
 40
15.0
 40
15.0
 40
16.0
 40
16.0
 40
16.0
 40
17.0
 40
17.0
 40
17.0
 40
18.0
 40
18.0
 40
18.0
 40
19.0
 40
19.0
 40
19.0
 40
19.0
 10
90.55157875340377
 20
-144.4028998119896
 10
90.45614960846235
 20
-144.4028998119896
 10
90.23841957379456
 20
-144.3818847295295
 10
90.11336260768
 20
-144.1958495733261
 10
90.03929305474712
 20
-144.0835394605069
 10
90.03515894016482
 20
-143.9843207105317
 10
90.03102482558252
 20
-143.8995713615946
 10
90.03102482558252
 20
-143.8995713615946
 10
90.25116642708998
 20
-143.8995713615946
 10
90.25116642708998
 20
-143.8995713615946
 10
90.25323348438114
 20
-143.9736409145274
 10
90.26356877083688
 20
-144.2082519170729
 10
90.54710012927295
 20
-144.2082519170729
 10
90.68455943913442
 20
-144.2082519170729
 10
90.83717716913098
 20
-144.1386609882709
 10
90.83717716913098
 20
-143.9102511575988
 10
90.83717716913098
 20
-143.7938069301974
 10
90.79893660924472
 20
-143.7452310838554
 10
90.76724173078041
 20
-143.7135362053911
 10
90.69317217784754
 20
-143.6394666524582
 10
90.5767279504461
 20
-143.6267197991628
 10
90.52195093223062
 20
-143.6267197991628
 10
90.50265839751323
 20
-143.6267197991628
 10
90.46682940446664
 20
-143.6287868564539
 10
90.43926864058463
 20
-143.6329209710362
 10
90.43926864058463
 20
-143.6329209710362
 10
90.43926864058463
 20
-143.4382730761196
 10
90.43926864058463
 20
-143.4382730761196
 10
90.4775092004709
 20
-143.4448187575416
 10
90.51953936539095
 20
-143.4468858148327
 10
90.52608504681292
 20
-143.4468858148327
 10
90.59154186103268
 20
-143.4468858148327
 10
90.7903238705316
 20
-143.4255262228242
 10
90.7903238705316
 20
-143.1888481629875
 10
90.7903238705316
 20
-143.0110812359486
 10
90.6594102420921
 20
-142.9559597081846
 10
90.5491671865641
 20
-142.9559597081846
 10
90.28492836284543
 20
-142.9559597081846
 10
90.27631562413231
 20
-143.1888481629875
 10
90.27218150955001
 20
-143.2605061490807
 10
90.27218150955001
 20
-143.2605061490807
 10
90.06892087592027
 20
-143.2605061490807
 10
90.06892087592027
 20
-143.2605061490807
 10
90.0775336146334
 20
-143.1357936925147
 10
90.1050943785154
 20
-142.7592447559769
 10
90.56191403985953
 20
-142.7592447559769
 10
90.7861897559493
 20
-142.7592447559769
 10
91.02734643991678
 20
-142.8863687793826
 10
91.02734643991678
 20
-143.1823024815655
 10
91.02734643991678
 20
-143.3686821473176
 10
90.93226180452389
 20
-143.451019929415
 10
90.83269854500016
 20
-143.5123426290525
 10
90.89402124463761
 20
-143.5399033929345
 10
91.0759222862588
 20
-143.6201741177408
 10
91.0759222862588
 20
-143.8975043043034
 10
91.0759222862588
 20
-144.235812680955
 10
90.82856443041786
 20
-144.4028998119896
 10
90.55157875340377
 20
-144.4028998119896
 97
        0
 97
        0
 75
     2
 76
     1
 98
        0
  0
SPLINE
  5
AC
330
A6
100
AcDbEntity
  8
_U+30EC_U+30A4_U+30E4_U+30FC 1
370
     0
100
AcDbSpline
210
0.0
220
0.0
230
1.0
 70
    11
 71
     3
 72
    29
 73
    25
 74
     0
 42
0.0000000001
 43
0.0000000001
 12
1.0
 22
0.0
 32
0.0
 13
1.0
 23
0.0
 33
0.0
 40
0.0
 40
0.0
 40
0.0
 40
0.0
 40
1.0
 40
1.0
 40
1.0
 40
2.0
 40
2.0
 40
2.0
 40
3.0
 40
3.0
 40
3.0
 40
4.0
 40
4.0
 40
4.0
 40
5.0
 40
5.0
 40
5.0
 40
6.0
 40
6.0
 40
6.0
 40
7.0
 40
7.0
 40
7.0
 40
8.0
 40
8.0
 40
8.0
 40
8.0
 10
92.13460012887607
 20
-144.1744899813175
 30
0.0
 10
92.02642413063923
 20
-144.3839517868207
 30
0.0
 10
91.85313582773117
 20
-144.4028998119896
 30
0.0
 10
91.73669160032972
 20
-144.4028998119896
 30
0.0
 10
91.57580564116856
 20
-144.4028998119896
 30
0.0
 10
91.43421221672479
 20
-144.3563910229387
 30
0.0
 10
91.3391275813319
 20
-144.1744899813175
 30
0.0
 10
91.23543020722587
 20
-143.9798420864009
 30
0.0
 10
91.21613767250847
 20
-143.7431640265642
 30
0.0
 10
91.21613767250847
 20
-143.5802110101119
 30
0.0
 10
91.21613767250847
 20
-143.4362060188284
 30
0.0
 10
91.23336314993472
 20
-143.1843695388567
 30
0.0
 10
91.3391275813319
 20
-142.9855875293578
 30
0.0
 10
91.44695907002021
 20
-142.7826714052766
 30
0.0
 10
91.60784502918138
 20
-142.7592447559769
 30
0.0
 10
91.73669160032972
 20
-142.7592447559769
 30
0.0
 10
91.89551050219974
 20
-142.7592447559769
 30
0.0
 10
92.03917098393465
 20
-142.8036864877366
 30
0.0
 10
92.13460012887607
 20
-142.9855875293578
 30
0.0
 10
92.23381887885127
 20
-143.1781683669832
 30
0.0
 10
92.25724552815097
 20
-143.4065781976553
 30
0.0
 10
92.25724552815097
 20
-143.5802110101119
 30
0.0
 10
92.25724552815097
 20
-143.7514322557288
 30
0.0
 10
92.23588593614242
 20
-143.981909143692
 30
0.0
 10
92.13460012887607
 20
-144.1744899813175
 30
0.0
  0
SPLINE
  5
AD
330
A6
100
AcDbEntity
  8
_U+30EC_U+30A4_U+30E4_U+30FC 1
370
     0
100
AcDbSpline
210
0.0
220
0.0
230
1.0
 70
    11
 71
     3
 72
    17
 73
    13
 74
     0
 42
0.0000000001
 43
0.0000000001
 12
1.0
 22
0.0
 32
0.0
 13
1.0
 23
0.0
 33
0.0
 40
0.0
 40
0.0
 40
0.0
 40
0.0
 40
1.0
 40
1.0
 40
1.0
 40
2.0
 40
2.0
 40
2.0
 40
3.0
 40
3.0
 40
3.0
 40
4.0
 40
4.0
 40
4.0
 40
4.0
 10
91.73669160032972
 20
-142.9518255936023
 30
0.0
 10
91.4869221776491
 20
-142.9518255936023
 30
0.0
 10
91.44041338859823
 20
-143.2353569520384
 30
0.0
 10
91.44041338859823
 20
-143.5802110101119
 30
0.0
 10
91.44041338859823
 20
-143.8995713615946
 30
0.0
 10
91.47658689119336
 20
-144.2082519170729
 30
0.0
 10
91.73669160032972
 20
-144.2082519170729
 30
0.0
 10
91.98439396571918
 20
-144.2082519170729
 30
0.0
 10
92.03296981206121
 20
-143.9271321254766
 30
0.0
 10
92.03296981206121
 20
-143.5802110101119
 30
0.0
 10
92.03296981206121
 20
-143.2605061490807
 30
0.0
 10
91.99472925217493
 20
-142.9518255936023
 30
0.0
 10
91.73669160032972
 20
-142.9518255936023
 30
0.0
  0
HATCH
  5
AE
330
A6
100
AcDbEntity
  8
_U+30EC_U+30A4_U+30E4_U+30FC 1
 62
   179
420
  2234388
100
AcDbHatch
 10
0.0
 20
0.0
 30
0.0
210
0.0
220
0.0
230
1.0
  2
SOLID
 70
     1
 71
     0
 91
        2
 92
        1
 93
        1
 72
     4
 94
        3
 73
     0
 74
     1
 95
       29
 96
       25
 40
0.0
 40
0.0
 40
0.0
 40
0.0
 40
1.0
 40
1.0
 40
1.0
 40
2.0
 40
2.0
 40
2.0
 40
3.0
 40
3.0
 40
3.0
 40
4.0
 40
4.0
 40
4.0
 40
5.0
 40
5.0
 40
5.0
 40
6.0
 40
6.0
 40
6.0
 40
7.0
 40
7.0
 40
7.0
 40
8.0
 40
8.0
 40
8.0
 40
8.0
 10
92.13460012887607
 20
-144.1744899813175
 10
92.02642413063923
 20
-144.3839517868207
 10
91.85313582773117
 20
-144.4028998119896
 10
91.73669160032972
 20
-144.4028998119896
 10
91.57580564116856
 20
-144.4028998119896
 10
91.43421221672479
 20
-144.3563910229387
 10
91.3391275813319
 20
-144.1744899813175
 10
91.23543020722587
 20
-143.9798420864009
 10
91.21613767250847
 20
-143.7431640265642
 10
91.21613767250847
 20
-143.5802110101119
 10
91.21613767250847
 20
-143.4362060188284
 10
91.23336314993472
 20
-143.1843695388567
 10
91.3391275813319
 20
-142.9855875293578
 10
91.44695907002021
 20
-142.7826714052766
 10
91.60784502918138
 20
-142.7592447559769
 10
91.73669160032972
 20
-142.7592447559769
 10
91.89551050219974
 20
-142.7592447559769
 10
92.03917098393465
 20
-142.8036864877366
 10
92.13460012887607
 20
-142.9855875293578
 10
92.23381887885127
 20
-143.1781683669832
 10
92.25724552815097
 20
-143.4065781976553
 10
92.25724552815097
 20
-143.5802110101119
 10
92.25724552815097
 20
-143.7514322557288
 10
92.23588593614242
 20
-143.981909143692
 10
92.13460012887607
 20
-144.1744899813175
 97
        0
 97
        0
 92
        1
 93
        1
 72
     4
 94
        3
 73
     0
 74
     1
 95
       17
 96
       13
 40
0.0
 40
0.0
 40
0.0
 40
0.0
 40
1.0
 40
1.0
 40
1.0
 40
2.0
 40
2.0
 40
2.0
 40
3.0
 40
3.0
 40
3.0
 40
4.0
 40
4.0
 40
4.0
 40
4.0
 10
91.73669160032972
 20
-142.9518255936023
 10
91.4869221776491
 20
-142.9518255936023
 10
91.44041338859823
 20
-143.2353569520384
 10
91.44041338859823
 20
-143.5802110101119
 10
91.44041338859823
 20
-143.8995713615946
 10
91.47658689119336
 20
-144.2082519170729
 10
91.73669160032972
 20
-144.2082519170729
 10
91.98439396571918
 20
-144.2082519170729
 10
92.03296981206121
 20
-143.9271321254766
 10
92.03296981206121
 20
-143.5802110101119
 10
92.03296981206121
 20
-143.2605061490807
 10
91.99472925217493
 20
-142.9518255936023
 10
91.73669160032972
 20
-142.9518255936023
 97
        0
 97
        0
 75
     2
 76
     1
 98
        0
  0
ENDBLK
  5
A9
330
A6
100
AcDbEntity
  8
0
100
AcDbBlockEnd
  0
ENDSEC
  0
SECTION
  2
ENTITIES
  0
POLYLINE
  5
41
330
1F
100
AcDbEntity
  8
_U+30EC_U+30A4_U+30E4_U+30FC 1
370
     0
100
AcDb2dPolyline
 66
     1
 10
0.0
 20
0.0
 30
0.0
  0
VERTEX
  5
42
330
41
100
AcDbEntity
  8
_U+30EC_U+30A4_U+30E4_U+30FC 1
370
     0
100
AcDbVertex
100
AcDb2dVertex
 10
77.72375107265746
 20
-110.948611083374
 30
0.0
  0
VERTEX
  5
43
330
41
100
AcDbEntity
  8
_U+30EC_U+30A4_U+30E4_U+30FC 1
370
     0
100
AcDbVertex
100
AcDb2dVertex
 10
76.22377527759171
 20
-110.948611083374
 30
0.0
  0
VERTEX
  5
44
330
41
100
AcDbEntity
  8
_U+30EC_U+30A4_U+30E4_U+30FC 1
370
     0
100
AcDbVertex
100
AcDb2dVertex
 10
76.22377527759171
 20
-140.9488332980964
 30
0.0
  0
VERTEX
  5
45
330
41
100
AcDbEntity
  8
_U+30EC_U+30A4_U+30E4_U+30FC 1
370
     0
100
AcDbVertex
100
AcDb2dVertex
 10
106.2243495122133
 20
-140.9488332980964
 30
0.0
  0
VERTEX
  5
46
330
41
100
AcDbEntity
  8
_U+30EC_U+30A4_U+30E4_U+30FC 1
370
     0
100
AcDbVertex
100
AcDb2dVertex
 10
106.2243495122133
 20
-139.4488574651377
 30
0.0
  0
VERTEX
  5
47
330
41
100
AcDbEntity
  8
_U+30EC_U+30A4_U+30E4_U+30FC 1
370
     0
100
AcDbVertex
100
AcDb2dVertex
 10
77.72375107265746
 20
-139.4488574651377
 30
0.0
  0
VERTEX
  5
48
330
41
100
AcDbEntity
  8
_U+30EC_U+30A4_U+30E4_U+30FC 1
370
     0
100
AcDbVertex
100
AcDb2dVertex
 10
77.72375107265746
 20
-110.948611083374
 30
0.0
  0
SEQEND
  5
4A
330
41
100
AcDbEntity
  8
_U+30EC_U+30A4_U+30E4_U+30FC 1
370
     0
  0
HATCH
  5
49
330
1F
100
AcDbEntity
  8
_U+30EC_U+30A4_U+30E4_U+30FC 1
 62
   253
420
 11711154
100
AcDbHatch
 10
0.0
 20
0.0
 30
0.0
210
0.0
220
0.0
230
1.0
  2
SOLID
 70
     1
 71
     0
 91
        1
 92
        1
 93
        6
 72
     1
 10
77.72375107265746
 20
-110.948611083374
 11
76.22377527759171
 21
-110.948611083374
 72
     1
 10
76.22377527759171
 20
-110.948611083374
 11
76.22377527759171
 21
-140.9488332980964
 72
     1
 10
76.22377527759171
 20
-140.9488332980964
 11
106.2243495122133
 21
-140.9488332980964
 72
     1
 10
106.2243495122133
 20
-140.9488332980964
 11
106.2243495122133
 21
-139.4488574651377
 72
     1
 10
106.2243495122133
 20
-139.4488574651377
 11
77.72375107265746
 21
-139.4488574651377
 72
     1
 10
77.72375107265746
 20
-139.4488574651377
 11
77.72375107265746
 21
-110.948611083374
 97
        0
 75
     2
 76
     1
 98
        0
  0
POLYLINE
  5
4B
330
1F
100
AcDbEntity
  8
_U+30EC_U+30A4_U+30E4_U+30FC 1
 62
   179
420
  2234388
370
    25
100
AcDb2dPolyline
 66
     1
 10
0.0
 20
0.0
 30
0.0
  0
VERTEX
  5
4C
330
4B
100
AcDbEntity
  8
_U+30EC_U+30A4_U+30E4_U+30FC 1
 62
   179
420
  2234388
370
    25
100
AcDbVertex
100
AcDb2dVertex
 10
76.22377527759171
 20
-140.9488332980964
 30
0.0
  0
VERTEX
  5
4D
330
4B
100
AcDbEntity
  8
_U+30EC_U+30A4_U+30E4_U+30FC 1
 62
   179
420
  2234388
370
    25
100
AcDbVertex
100
AcDb2dVertex
 10
106.2243495122133
 20
-140.9488332980964
 30
0.0
  0
SEQEND
  5
4E
330
4B
100
AcDbEntity
  8
_U+30EC_U+30A4_U+30E4_U+30FC 1
 62
   179
420
  2234388
370
    25
  0
POLYLINE
  5
4F
330
1F
100
AcDbEntity
  8
_U+30EC_U+30A4_U+30E4_U+30FC 1
 62
   179
420
  2234388
370
    25
100
AcDb2dPolyline
 66
     1
 10
0.0
 20
0.0
 30
0.0
  0
VERTEX
  5
50
330
4F
100
AcDbEntity
  8
_U+30EC_U+30A4_U+30E4_U+30FC 1
 62
   179
420
  2234388
370
    25
100
AcDbVertex
100
AcDb2dVertex
 10
76.22377527759171
 20
-110.948611083374
 30
0.0
  0
VERTEX
  5
51
330
4F
100
AcDbEntity
  8
_U+30EC_U+30A4_U+30E4_U+30FC 1
 62
   179
420
  2234388
370
    25
100
AcDbVertex
100
AcDb2dVertex
 10
76.22377527759171
 20
-140.9488332980964
 30
0.0
  0
SEQEND
  5
52
330
4F
100
AcDbEntity
  8
_U+30EC_U+30A4_U+30E4_U+30FC 1
 62
   179
420
  2234388
370
    25
  0
POLYLINE
  5
53
330
1F
100
AcDbEntity
  8
_U+30EC_U+30A4_U+30E4_U+30FC 1
 62
   179
420
  2234388
370
    25
100
AcDb2dPolyline
 66
     1
 10
0.0
 20
0.0
 30
0.0
  0
VERTEX
  5
54
330
53
100
AcDbEntity
  8
_U+30EC_U+30A4_U+30E4_U+30FC 1
 62
   179
420
  2234388
370
    25
100
AcDbVertex
100
AcDb2dVertex
 10
77.72375107265746
 20
-139.4488574651377
 30
0.0
  0
VERTEX
  5
55
330
53
100
AcDbEntity
  8
_U+30EC_U+30A4_U+30E4_U+30FC 1
 62
   179
420
  2234388
370
    25
100
AcDbVertex
100
AcDb2dVertex
 10
106.2243495122133
 20
-139.4488574651377
 30
0.0
  0
SEQEND
  5
56
330
53
100
AcDbEntity
  8
_U+30EC_U+30A4_U+30E4_U+30FC 1
 62
   179
420
  2234388
370
    25
  0
POLYLINE
  5
57
330
1F
100
AcDbEntity
  8
_U+30EC_U+30A4_U+30E4_U+30FC 1
 62
   179
420
  2234388
370
    25
100
AcDb2dPolyline
 66
     1
 10
0.0
 20
0.0
 30
0.0
  0
VERTEX
  5
58
330
57
100
AcDbEntity
  8
_U+30EC_U+30A4_U+30E4_U+30FC 1
 62
   179
420
  2234388
370
    25
100
AcDbVertex
100
AcDb2dVertex
 10
76.22377527759171
 20
-110.948611083374
 30
0.0
  0
VERTEX
  5
59
330
57
100
AcDbEntity
  8
_U+30EC_U+30A4_U+30E4_U+30FC 1
 62
   179
420
  2234388
370
    25
100
AcDbVertex
100
AcDb2dVertex
 10
77.72375107265746
 20
-110.948611083374
 30
0.0
  0
SEQEND
  5
5A
330
57
100
AcDbEntity
  8
_U+30EC_U+30A4_U+30E4_U+30FC 1
 62
   179
420
  2234388
370
    25
  0
POLYLINE
  5
5B
330
1F
100
AcDbEntity
  8
_U+30EC_U+30A4_U+30E4_U+30FC 1
 62
   179
420
  2234388
370
    25
100
AcDb2dPolyline
 66
     1
 10
0.0
 20
0.0
 30
0.0
  0
VERTEX
  5
5C
330
5B
100
AcDbEntity
  8
_U+30EC_U+30A4_U+30E4_U+30FC 1
 62
   179
420
  2234388
370
    25
100
AcDbVertex
100
AcDb2dVertex
 10
106.2243495122133
 20
-139.4488574651377
 30
0.0
  0
VERTEX
  5
5D
330
5B
100
AcDbEntity
  8
_U+30EC_U+30A4_U+30E4_U+30FC 1
 62
   179
420
  2234388
370
    25
100
AcDbVertex
100
AcDb2dVertex
 10
106.2243495122133
 20
-140.9488332980964
 30
0.0
  0
SEQEND
  5
5E
330
5B
100
AcDbEntity
  8
_U+30EC_U+30A4_U+30E4_U+30FC 1
 62
   179
420
  2234388
370
    25
  0
POLYLINE
  5
5F
330
1F
100
AcDbEntity
  8
_U+30EC_U+30A4_U+30E4_U+30FC 1
 62
   179
420
  2234388
370
    25
100
AcDb2dPolyline
 66
     1
 10
0.0
 20
0.0
 30
0.0
  0
VERTEX
  5
60
330
5F
100
AcDbEntity
  8
_U+30EC_U+30A4_U+30E4_U+30FC 1
 62
   179
420
  2234388
370
    25
100
AcDbVertex
100
AcDb2dVertex
 10
77.72375107265746
 20
-110.948611083374
 30
0.0
  0
VERTEX
  5
61
330
5F
100
AcDbEntity
  8
_U+30EC_U+30A4_U+30E4_U+30FC 1
 62
   179
420
  2234388
370
    25
100
AcDbVertex
100
AcDb2dVertex
 10
77.72375107265746
 20
-139.4488574651377
 30
0.0
  0
SEQEND
  5
62
330
5F
100
AcDbEntity
  8
_U+30EC_U+30A4_U+30E4_U+30FC 1
 62
   179
420
  2234388
370
    25
  0
SPLINE
  5
63
330
1F
100
AcDbEntity
  8
_U+30EC_U+30A4_U+30E4_U+30FC 1
 62
   179
420
  2234388
370
     9
100
AcDbSpline
210
0.0
220
0.0
230
1.0
 70
    11
 71
     3
 72
    17
 73
    13
 74
     0
 42
0.0000000001
 43
0.0000000001
 12
1.0
 22
0.0
 32
0.0
 13
1.0
 23
0.0
 33
0.0
 40
0.0
 40
0.0
 40
0.0
 40
0.0
 40
1.0
 40
1.0
 40
1.0
 40
2.0
 40
2.0
 40
2.0
 40
3.0
 40
3.0
 40
3.0
 40
4.0
 40
4.0
 40
4.0
 40
4.0
 10
108.8639738893153
 20
-140.9488332980964
 30
0.0
 10
108.8639738893153
 20
-140.8937294092209
 30
0.0
 10
108.8192063904574
 20
-140.8489266314542
 30
0.0
 10
108.7640672251975
 20
-140.8489266314542
 30
0.0
 10
108.7089633377144
 20
-140.8489266314542
 30
0.0
 10
108.6641605610796
 20
-140.8937294092209
 30
0.0
 10
108.6641605610796
 20
-140.9488332980964
 30
0.0
 10
108.6641605610796
 20
-141.0039724647489
 30
0.0
 10
108.7089633377144
 20
-141.0487399647381
 30
0.0
 10
108.7640672251975
 20
-141.0487399647381
 30
0.0
 10
108.8192063904574
 20
-141.0487399647381
 30
0.0
 10
108.8639738893153
 20
-141.0039724647489
 30
0.0
 10
108.8639738893153
 20
-140.9488332980964
 30
0.0
  0
SPLINE
  5
64
330
1F
100
AcDbEntity
  8
_U+30EC_U+30A4_U+30E4_U+30FC 1
 62
   179
420
  2234388
370
     9
100
AcDbSpline
210
0.0
220
0.0
230
1.0
 70
    11
 71
     3
 72
    17
 73
    13
 74
     0
 42
0.0000000001
 43
0.0000000001
 12
1.0
 22
0.0
 32
0.0
 13
1.0
 23
0.0
 33
0.0
 40
0.0
 40
0.0
 40
0.0
 40
0.0
 40
1.0
 40
1.0
 40
1.0
 40
2.0
 40
2.0
 40
2.0
 40
3.0
 40
3.0
 40
3.0
 40
4.0
 40
4.0
 40
4.0
 40
4.0
 10
108.8639738893153
 20
-139.4488574651377
 30
0.0
 10
108.8639738893153
 20
-139.3937182984846
 30
0.0
 10
108.8192063904574
 20
-139.3489507984961
 30
0.0
 10
108.7640672251975
 20
-139.3489507984961
 30
0.0
 10
108.7089633377144
 20
-139.3489507984961
 30
0.0
 10
108.6641605610796
 20
-139.3937182984846
 30
0.0
 10
108.6641605610796
 20
-139.4488574651377
 30
0.0
 10
108.6641605610796
 20
-139.5039613540126
 30
0.0
 10
108.7089633377144
 20
-139.5487641317793
 30
0.0
 10
108.7640672251975
 20
-139.5487641317793
 30
0.0
 10
108.8192063904574
 20
-139.5487641317793
 30
0.0
 10
108.8639738893153
 20
-139.5039613540126
 30
0.0
 10
108.8639738893153
 20
-139.4488574651377
 30
0.0
  0
SPLINE
  5
65
330
1F
100
AcDbEntity
  8
_U+30EC_U+30A4_U+30E4_U+30FC 1
 62
   179
420
  2234388
370
     9
100
AcDbSpline
210
0.0
220
0.0
230
1.0
 70
    11
 71
     3
 72
    17
 73
    13
 74
     0
 42
0.0000000001
 43
0.0000000001
 12
1.0
 22
0.0
 32
0.0
 13
1.0
 23
0.0
 33
0.0
 40
0.0
 40
0.0
 40
0.0
 40
0.0
 40
1.0
 40
1.0
 40
1.0
 40
2.0
 40
2.0
 40
2.0
 40
3.0
 40
3.0
 40
3.0
 40
4.0
 40
4.0
 40
4.0
 40
4.0
 10
106.3242561763311
 20
-144.9485924637627
 30
0.0
 10
106.3242561763311
 20
-144.8934885748878
 30
0.0
 10
106.2794533996964
 20
-144.848685797121
 30
0.0
 10
106.2243495122133
 20
-144.848685797121
 30
0.0
 10
106.1685400691927
 20
-144.848685797121
 30
0.0
 10
106.1237372925579
 20
-144.8934885748878
 30
0.0
 10
106.1237372925579
 20
-144.9485924637627
 30
0.0
 10
106.1237372925579
 20
-145.0037316304158
 30
0.0
 10
106.1685400691927
 20
-145.0484991304043
 30
0.0
 10
106.2243495122133
 20
-145.0484991304043
 30
0.0
 10
106.2794533996964
 20
-145.0484991304043
 30
0.0
 10
106.3242561763311
 20
-145.0037316304158
 30
0.0
 10
106.3242561763311
 20
-144.9485924637627
 30
0.0
  0
SPLINE
  5
66
330
1F
100
AcDbEntity
  8
_U+30EC_U+30A4_U+30E4_U+30FC 1
 62
   179
420
  2234388
370
     9
100
AcDbSpline
210
0.0
220
0.0
230
1.0
 70
    11
 71
     3
 72
    17
 73
    13
 74
     0
 42
0.0000000001
 43
0.0000000001
 12
1.0
 22
0.0
 32
0.0
 13
1.0
 23
0.0
 33
0.0
 40
0.0
 40
0.0
 40
0.0
 40
0.0
 40
1.0
 40
1.0
 40
1.0
 40
2.0
 40
2.0
 40
2.0
 40
3.0
 40
3.0
 40
3.0
 40
4.0
 40
4.0
 40
4.0
 40
4.0
 10
72.32392287708522
 20
-140.9488332980964
 30
0.0
 10
72.32392287708522
 20
-140.8937294092209
 30
0.0
 10
72.27912010045047
 20
-140.8489266314542
 30
0.0
 10
72.2240162129674
 20
-140.8489266314542
 30
0.0
 10
72.16887704770744
 20
-140.8489266314542
 30
0.0
 10
72.12410954884956
 20
-140.8937294092209
 30
0.0
 10
72.12410954884956
 20
-140.9488332980964
 30
0.0
 10
72.12410954884956
 20
-141.0039724647489
 30
0.0
 10
72.16887704770744
 20
-141.0487399647381
 30
0.0
 10
72.2240162129674
 20
-141.0487399647381
 30
0.0
 10
72.27912010045047
 20
-141.0487399647381
 30
0.0
 10
72.32392287708522
 20
-141.0039724647489
 30
0.0
 10
72.32392287708522
 20
-140.9488332980964
 30
0.0
  0
SPLINE
  5
67
330
1F
100
AcDbEntity
  8
_U+30EC_U+30A4_U+30E4_U+30FC 1
 62
   179
420
  2234388
370
     9
100
AcDbSpline
210
0.0
220
0.0
230
1.0
 70
    11
 71
     3
 72
    17
 73
    13
 74
     0
 42
0.0000000001
 43
0.0000000001
 12
1.0
 22
0.0
 32
0.0
 13
1.0
 23
0.0
 33
0.0
 40
0.0
 40
0.0
 40
0.0
 40
0.0
 40
1.0
 40
1.0
 40
1.0
 40
2.0
 40
2.0
 40
2.0
 40
3.0
 40
3.0
 40
3.0
 40
4.0
 40
4.0
 40
4.0
 40
4.0
 10
76.32368194170954
 20
-144.9485924637627
 30
0.0
 10
76.32368194170954
 20
-144.8934885748878
 30
0.0
 10
76.27887916507478
 20
-144.848685797121
 30
0.0
 10
76.22377527759171
 20
-144.848685797121
 30
0.0
 10
76.16863611233175
 20
-144.848685797121
 30
0.0
 10
76.12386861347387
 20
-144.8934885748878
 30
0.0
 10
76.12386861347387
 20
-144.9485924637627
 30
0.0
 10
76.12386861347387
 20
-145.0037316304158
 30
0.0
 10
76.16863611233175
 20
-145.0484991304043
 30
0.0
 10
76.22377527759171
 20
-145.0484991304043
 30
0.0
 10
76.27887916507478
 20
-145.0484991304043
 30
0.0
 10
76.32368194170954
 20
-145.0037316304158
 30
0.0
 10
76.32368194170954
 20
-144.9485924637627
 30
0.0
  0
SPLINE
  5
68
330
1F
100
AcDbEntity
  8
_U+30EC_U+30A4_U+30E4_U+30FC 1
 62
   179
420
  2234388
370
     9
100
AcDbSpline
210
0.0
220
0.0
230
1.0
 70
    11
 71
     3
 72
    17
 73
    13
 74
     0
 42
0.0000000001
 43
0.0000000001
 12
1.0
 22
0.0
 32
0.0
 13
1.0
 23
0.0
 33
0.0
 40
0.0
 40
0.0
 40
0.0
 40
0.0
 40
1.0
 40
1.0
 40
1.0
 40
2.0
 40
2.0
 40
2.0
 40
3.0
 40
3.0
 40
3.0
 40
4.0
 40
4.0
 40
4.0
 40
4.0
 10
72.32392287708522
 20
-110.948611083374
 30
0.0
 10
72.32392287708522
 20
-110.8935071944987
 30
0.0
 10
72.27912010045047
 20
-110.8487044167323
 30
0.0
 10
72.2240162129674
 20
-110.8487044167323
 30
0.0
 10
72.16887704770744
 20
-110.8487044167323
 30
0.0
 10
72.12410954884956
 20
-110.8935071944987
 30
0.0
 10
72.12410954884956
 20
-110.948611083374
 30
0.0
 10
72.12410954884956
 20
-111.0040677500266
 30
0.0
 10
72.16887704770744
 20
-111.0488705277934
 30
0.0
 10
72.2240162129674
 20
-111.0488705277934
 30
0.0
 10
72.27912010045047
 20
-111.0488705277934
 30
0.0
 10
72.32392287708522
 20
-111.0040677500266
 30
0.0
 10
72.32392287708522
 20
-110.948611083374
 30
0.0
  0
POLYLINE
  5
69
330
1F
100
AcDbEntity
  8
_U+30EC_U+30A4_U+30E4_U+30FC 1
 62
   179
420
  2234388
370
     9
100
AcDb2dPolyline
 66
     1
 10
0.0
 20
0.0
 30
0.0
  0
VERTEX
  5
6A
330
69
100
AcDbEntity
  8
_U+30EC_U+30A4_U+30E4_U+30FC 1
 62
   179
420
  2234388
370
     9
100
AcDbVertex
100
AcDb2dVertex
 10
108.7640672251975
 20
-139.4488574651377
 30
0.0
  0
VERTEX
  5
6B
330
69
100
AcDbEntity
  8
_U+30EC_U+30A4_U+30E4_U+30FC 1
 62
   179
420
  2234388
370
     9
100
AcDbVertex
100
AcDb2dVertex
 10
108.7640672251975
 20
-141.9486055200683
 30
0.0
  0
SEQEND
  5
6C
330
69
100
AcDbEntity
  8
_U+30EC_U+30A4_U+30E4_U+30FC 1
 62
   179
420
  2234388
370
     9
  0
POLYLINE
  5
6D
330
1F
100
AcDbEntity
  8
_U+30EC_U+30A4_U+30E4_U+30FC 1
 62
   179
420
  2234388
370
     9
100
AcDb2dPolyline
 66
     1
 10
0.0
 20
0.0
 30
0.0
  0
VERTEX
  5
6E
330
6D
100
AcDbEntity
  8
_U+30EC_U+30A4_U+30E4_U+30FC 1
 62
   179
420
  2234388
370
     9
100
AcDbVertex
100
AcDb2dVertex
 10
107.3040258735574
 20
-139.4488574651377
 30
0.0
  0
VERTEX
  5
6F
330
6D
100
AcDbEntity
  8
_U+30EC_U+30A4_U+30E4_U+30FC 1
 62
   179
420
  2234388
370
     9
100
AcDbVertex
100
AcDb2dVertex
 10
109.7638394219134
 20
-139.4488574651377
 30
0.0
  0
SEQEND
  5
70
330
6D
100
AcDbEntity
  8
_U+30EC_U+30A4_U+30E4_U+30FC 1
 62
   179
420
  2234388
370
     9
  0
POLYLINE
  5
71
330
1F
100
AcDbEntity
  8
_U+30EC_U+30A4_U+30E4_U+30FC 1
 62
   179
420
  2234388
370
     9
100
AcDb2dPolyline
 66
     1
 10
0.0
 20
0.0
 30
0.0
  0
VERTEX
  5
72
330
71
100
AcDbEntity
  8
_U+30EC_U+30A4_U+30E4_U+30FC 1
 62
   179
420
  2234388
370
     9
100
AcDbVertex
100
AcDb2dVertex
 10
107.3040258735574
 20
-140.9488332980964
 30
0.0
  0
VERTEX
  5
73
330
71
100
AcDbEntity
  8
_U+30EC_U+30A4_U+30E4_U+30FC 1
 62
   179
420
  2234388
370
     9
100
AcDbVertex
100
AcDb2dVertex
 10
109.7638394219134
 20
-140.9488332980964
 30
0.0
  0
SEQEND
  5
74
330
71
100
AcDbEntity
  8
_U+30EC_U+30A4_U+30E4_U+30FC 1
 62
   179
420
  2234388
370
     9
  0
INSERT
  5
76
330
1F
100
AcDbEntity
  8
_U+30EC_U+30A4_U+30E4_U+30FC 1
100
AcDbBlockReference
  2
block 2
 10
0.0
 20
0.0
 30
0.0
  0
POLYLINE
  5
85
330
1F
100
AcDbEntity
  8
_U+30EC_U+30A4_U+30E4_U+30FC 1
 62
   179
420
  2234388
370
     9
100
AcDb2dPolyline
 66
     1
 10
0.0
 20
0.0
 30
0.0
  0
VERTEX
  5
86
330
85
100
AcDbEntity
  8
_U+30EC_U+30A4_U+30E4_U+30FC 1
 62
   179
420
  2234388
370
     9
100
AcDbVertex
100
AcDb2dVertex
 10
72.2240162129674
 20
-110.948611083374
 30
0.0
  0
VERTEX
  5
87
330
85
100
AcDbEntity
  8
_U+30EC_U+30A4_U+30E4_U+30FC 1
 62
   179
420
  2234388
370
     9
100
AcDbVertex
100
AcDb2dVertex
 10
72.2240162129674
 20
-140.9488332980964
 30
0.0
  0
SEQEND
  5
88
330
85
100
AcDbEntity
  8
_U+30EC_U+30A4_U+30E4_U+30FC 1
 62
   179
420
  2234388
370
     9
  0
POLYLINE
  5
89
330
1F
100
AcDbEntity
  8
_U+30EC_U+30A4_U+30E4_U+30FC 1
 62
   179
420
  2234388
370
     9
100
AcDb2dPolyline
 66
     1
 10
0.0
 20
0.0
 30
0.0
  0
VERTEX
  5
8A
330
89
100
AcDbEntity
  8
_U+30EC_U+30A4_U+30E4_U+30FC 1
 62
   179
420
  2234388
370
     9
100
AcDbVertex
100
AcDb2dVertex
 10
73.68405756460753
 20
-110.948611083374
 30
0.0
  0
VERTEX
  5
8B
330
89
100
AcDbEntity
  8
_U+30EC_U+30A4_U+30E4_U+30FC 1
 62
   179
420
  2234388
370
     9
100
AcDbVertex
100
AcDb2dVertex
 10
71.22424401625149
 20
-110.948611083374
 30
0.0
  0
SEQEND
  5
8C
330
89
100
AcDbEntity
  8
_U+30EC_U+30A4_U+30E4_U+30FC 1
 62
   179
420
  2234388
370
     9
  0
POLYLINE
  5
8D
330
1F
100
AcDbEntity
  8
_U+30EC_U+30A4_U+30E4_U+30FC 1
 62
   179
420
  2234388
370
     9
100
AcDb2dPolyline
 66
     1
 10
0.0
 20
0.0
 30
0.0
  0
VERTEX
  5
8E
330
8D
100
AcDbEntity
  8
_U+30EC_U+30A4_U+30E4_U+30FC 1
 62
   179
420
  2234388
370
     9
100
AcDbVertex
100
AcDb2dVertex
 10
73.68405756460753
 20
-140.9488332980964
 30
0.0
  0
VERTEX
  5
8F
330
8D
100
AcDbEntity
  8
_U+30EC_U+30A4_U+30E4_U+30FC 1
 62
   179
420
  2234388
370
     9
100
AcDbVertex
100
AcDb2dVertex
 10
71.22424401625149
 20
-140.9488332980964
 30
0.0
  0
SEQEND
  5
90
330
8D
100
AcDbEntity
  8
_U+30EC_U+30A4_U+30E4_U+30FC 1
 62
   179
420
  2234388
370
     9
  0
INSERT
  5
92
330
1F
100
AcDbEntity
  8
_U+30EC_U+30A4_U+30E4_U+30FC 1
100
AcDbBlockReference
  2
block 3
 10
0.0
 20
0.0
 30
0.0
  0
POLYLINE
  5
9A
330
1F
100
AcDbEntity
  8
_U+30EC_U+30A4_U+30E4_U+30FC 1
 62
   179
420
  2234388
370
     9
100
AcDb2dPolyline
 66
     1
 10
0.0
 20
0.0
 30
0.0
  0
VERTEX
  5
9B
330
9A
100
AcDbEntity
  8
_U+30EC_U+30A4_U+30E4_U+30FC 1
 62
   179
420
  2234388
370
     9
100
AcDbVertex
100
AcDb2dVertex
 10
76.22377527759171
 20
-144.9485924637627
 30
0.0
  0
VERTEX
  5
9C
330
9A
100
AcDbEntity
  8
_U+30EC_U+30A4_U+30E4_U+30FC 1
 62
   179
420
  2234388
370
     9
100
AcDbVertex
100
AcDb2dVertex
 10
106.2243495122133
 20
-144.9485924637627
 30
0.0
  0
SEQEND
  5
9D
330
9A
100
AcDbEntity
  8
_U+30EC_U+30A4_U+30E4_U+30FC 1
 62
   179
420
  2234388
370
     9
  0
POLYLINE
  5
9E
330
1F
100
AcDbEntity
  8
_U+30EC_U+30A4_U+30E4_U+30FC 1
 62
   179
420
  2234388
370
     9
100
AcDb2dPolyline
 66
     1
 10
0.0
 20
0.0
 30
0.0
  0
VERTEX
  5
9F
330
9E
100
AcDbEntity
  8
_U+30EC_U+30A4_U+30E4_U+30FC 1
 62
   179
420
  2234388
370
     9
100
AcDbVertex
100
AcDb2dVertex
 10
76.22377527759171
 20
-143.4885863530165
 30
0.0
  0
VERTEX
  5
A0
330
9E
100
AcDbEntity
  8
_U+30EC_U+30A4_U+30E4_U+30FC 1
 62
   179
420
  2234388
370
     9
100
AcDbVertex
100
AcDb2dVertex
 10
76.22377527759171
 20
-145.9490702412907
 30
0.0
  0
SEQEND
  5
A1
330
9E
100
AcDbEntity
  8
_U+30EC_U+30A4_U+30E4_U+30FC 1
 62
   179
420
  2234388
370
     9
  0
POLYLINE
  5
A2
330
1F
100
AcDbEntity
  8
_U+30EC_U+30A4_U+30E4_U+30FC 1
 62
   179
420
  2234388
370
     9
100
AcDb2dPolyline
 66
     1
 10
0.0
 20
0.0
 30
0.0
  0
VERTEX
  5
A3
330
A2
100
AcDbEntity
  8
_U+30EC_U+30A4_U+30E4_U+30FC 1
 62
   179
420
  2234388
370
     9
100
AcDbVertex
100
AcDb2dVertex
 10
106.2243495122133
 20
-143.4885863530165
 30
0.0
  0
VERTEX
  5
A4
330
A2
100
AcDbEntity
  8
_U+30EC_U+30A4_U+30E4_U+30FC 1
 62
   179
420
  2234388
370
     9
100
AcDbVertex
100
AcDb2dVertex
 10
106.2243495122133
 20
-145.9490702412907
 30
0.0
  0
SEQEND
  5
A5
330
A2
100
AcDbEntity
  8
_U+30EC_U+30A4_U+30E4_U+30FC 1
 62
   179
420
  2234388
370
     9
  0
INSERT
  5
A7
330
1F
100
AcDbEntity
  8
_U+30EC_U+30A4_U+30E4_U+30FC 1
100
AcDbBlockReference
  2
block 4
 10
0.0
 20
0.0
 30
0.0
  0
ENDSEC
  0
SECTION
  2
OBJECTS
  0
DICTIONARY
  5
C
330
0
100
AcDbDictionary
281
     1
  3
ACAD_GROUP
350
D
  3
ACAD_LAYOUT
350
1A
  3
ACAD_MATERIAL
350
3B
  3
ACAD_MLEADERSTYLE
350
B0
  3
ACAD_MLINESTYLE
350
17
  3
ACAD_PLOTSETTINGS
350
19
  3
ACAD_PLOTSTYLENAME
350
E
  3
ACAD_TABLESTYLE
350
AF
  3
ACAD_VISUALSTYLE
350
2A
  0
SUN
  5
3F
330
29
100
AcDbSun
 90
        1
290
     0
 63
     7
421
 16777215
 40
1.0
291
     1
 91
  2455826
 92
 54000000
292
     0
 70
     2
 71
   256
280
     1
  0
DICTIONARY
  5
D
102
{ACAD_REACTORS
330
C
102
}
330
C
100
AcDbDictionary
281
     1
  0
DICTIONARY
  5
1A
102
{ACAD_REACTORS
330
C
102
}
330
C
100
AcDbDictionary
281
     1
  3
Layout1
350
1E
  3
Layout2
350
26
  3
Model
350
22
  0
DICTIONARY
  5
3B
102
{ACAD_REACTORS
330
C
102
}
330
C
100
AcDbDictionary
281
     1
  3
ByBlock
350
3D
  3
ByLayer
350
3C
  3
Global
350
3E
  0
DICTIONARY
  5
B0
102
{ACAD_REACTORS
330
C
102
}
330
C
100
AcDbDictionary
281
     1
  0
DICTIONARY
  5
17
102
{ACAD_REACTORS
330
C
102
}
330
C
100
AcDbDictionary
281
     1
  3
Standard
350
18
  0
DICTIONARY
  5
19
102
{ACAD_REACTORS
330
C
102
}
330
C
100
AcDbDictionary
281
     1
  0
ACDBDICTIONARYWDFLT
  5
E
102
{ACAD_REACTORS
330
C
102
}
330
C
100
AcDbDictionary
281
     1
  3
Normal
350
F
100
AcDbDictionaryWithDefault
340
F
  0
DICTIONARY
  5
AF
102
{ACAD_REACTORS
330
C
102
}
330
C
100
AcDbDictionary
281
     1
  0
DICTIONARY
  5
2A
102
{ACAD_REACTORS
330
C
102
}
330
C
100
AcDbDictionary
281
     1
  3
2dWireframe
350
2F
  3
3D Hidden
350
31
  3
3dWireframe
350
30
  3
Basic
350
32
  3
Brighten
350
36
  3
ColorChange
350
3A
  3
Conceptual
350
34
  3
Dim
350
35
  3
Facepattern
350
39
  3
Flat
350
2B
  3
FlatWithEdges
350
2C
  3
Gouraud
350
2D
  3
GouraudWithEdges
350
2E
  3
Linepattern
350
38
  3
Realistic
350
33
  3
Thicken
350
37
  0
LAYOUT
  5
1E
102
{ACAD_REACTORS
330
1A
102
}
330
1A
100
AcDbPlotSettings
  1

  2
none_device
  4

  6

 40
0.0
 41
0.0
 42
0.0
 43
0.0
 44
0.0
 45
0.0
 46
0.0
 47
0.0
 48
0.0
 49
0.0
140
0.0
141
0.0
142
1.0
143
1.0
 70
   688
 72
     0
 73
     0
 74
     5
  7

 75
    16
 76
     0
 77
     2
 78
   300
147
1.0
148
0.0
149
0.0
100
AcDbLayout
  1
Layout1
 70
     1
 71
     1
 10
0.0
 20
0.0
 11
12.0
 21
9.0
 12
0.0
 22
0.0
 32
0.0
 14
1.000000000000000E+20
 24
1.000000000000000E+20
 34
1.000000000000000E+20
 15
-1.000000000000000E+20
 25
-1.000000000000000E+20
 35
-1.000000000000000E+20
146
0.0
 13
0.0
 23
0.0
 33
0.0
 16
1.0
 26
0.0
 36
0.0
 17
0.0
 27
1.0
 37
0.0
 76
     0
330
1B
  0
LAYOUT
  5
26
102
{ACAD_REACTORS
330
1A
102
}
330
1A
100
AcDbPlotSettings
  1

  2
none_device
  4

  6

 40
0.0
 41
0.0
 42
0.0
 43
0.0
 44
0.0
 45
0.0
 46
0.0
 47
0.0
 48
0.0
 49
0.0
140
0.0
141
0.0
142
1.0
143
1.0
 70
   688
 72
     0
 73
     0
 74
     5
  7

 75
    16
 76
     0
 77
     2
 78
   300
147
1.0
148
0.0
149
0.0
100
AcDbLayout
  1
Layout2
 70
     1
 71
     2
 10
0.0
 20
0.0
 11
0.0
 21
0.0
 12
0.0
 22
0.0
 32
0.0
 14
0.0
 24
0.0
 34
0.0
 15
0.0
 25
0.0
 35
0.0
146
0.0
 13
0.0
 23
0.0
 33
0.0
 16
1.0
 26
0.0
 36
0.0
 17
0.0
 27
1.0
 37
0.0
 76
     0
330
23
  0
LAYOUT
  5
22
102
{ACAD_REACTORS
330
1A
102
}
330
1A
100
AcDbPlotSettings
  1

  2
none_device
  4

  6

 40
0.0
 41
0.0
 42
0.0
 43
0.0
 44
0.0
 45
0.0
 46
0.0
 47
0.0
 48
0.0
 49
0.0
140
0.0
141
0.0
142
1.0
143
1.0
 70
  1712
 72
     0
 73
     0
 74
     0
  7

 75
     0
 76
     0
 77
     2
 78
   300
147
1.0
148
0.0
149
0.0
100
AcDbLayout
  1
Model
 70
     1
 71
     0
 10
0.0
 20
0.0
 11
12.0
 21
9.0
 12
0.0
 22
0.0
 32
0.0
 14
1.000000000000000E+20
 24
1.000000000000000E+20
 34
1.000000000000000E+20
 15
-1.000000000000000E+20
 25
-1.000000000000000E+20
 35
-1.000000000000000E+20
146
0.0
 13
0.0
 23
0.0
 33
0.0
 16
1.0
 26
0.0
 36
0.0
 17
0.0
 27
1.0
 37
0.0
 76
     0
330
1F
331
29
  0
MATERIAL
  5
3D
102
{ACAD_REACTORS
330
3B
102
}
330
3B
100
AcDbMaterial
  1
ByBlock
 72
     1
 94
      127
  0
MATERIAL
  5
3C
102
{ACAD_REACTORS
330
3B
102
}
330
3B
100
AcDbMaterial
  1
ByLayer
 72
     1
 94
      127
  0
MATERIAL
  5
3E
102
{ACAD_REACTORS
330
3B
102
}
330
3B
100
AcDbMaterial
  1
Global
 72
     1
 94
      127
  0
MLINESTYLE
  5
18
102
{ACAD_REACTORS
330
17
102
}
330
17
100
AcDbMlineStyle
  2
Standard
 70
     0
  3

 62
   256
 51
90.0
 52
90.0
 71
     2
 49
0.5
 62
   256
  6
BYLAYER
 49
-0.5
 62
   256
  6
BYLAYER
  0
ACDBPLACEHOLDER
  5
F
102
{ACAD_REACTORS
330
E
102
}
330
E
  0
VISUALSTYLE
  5
2F
102
{ACAD_REACTORS
330
2A
102
}
330
2A
100
AcDbVisualStyle
  2
2dWireframe
 70
     4
177
     2
291
     0
 71
     0
176
     1
 72
     2
176
     1
 73
     0
176
     1
 90
        0
176
     1
 40
-0.6
176
     1
 41
-30.0
176
     1
 62
     5
 63
     7
421
 16777215
176
     1
 74
     1
176
     1
 91
        4
176
     1
 64
     7
176
     1
 65
   257
176
     1
 75
     1
176
     1
175
     1
176
     1
 42
1.0
176
     1
 92
        0
176
     1
 66
   257
176
     1
 43
1.0
176
     1
 76
     1
176
     1
 77
     6
176
     1
 78
     2
176
     1
 67
     7
176
     1
 79
     5
176
     1
170
     0
176
     1
171
     0
176
     1
290
     0
176
     1
 93
        1
176
     1
 44
0.0
176
     1
173
     0
176
     1
  0
VISUALSTYLE
  5
31
102
{ACAD_REACTORS
330
2A
102
}
330
2A
100
AcDbVisualStyle
  2
3D Hidden
 70
     6
177
     2
291
     0
 71
     1
176
     1
 72
     2
176
     1
 73
     2
176
     1
 90
        0
176
     1
 40
-0.6
176
     1
 41
-30.0
176
     1
 62
     5
 63
     7
421
 16777215
176
     1
 74
     2
176
     1
 91
        2
176
     1
 64
     7
176
     1
 65
   257
176
     1
 75
     2
176
     1
175
     1
176
     1
 42
40.0
176
     1
 92
        0
176
     1
 66
   257
176
     1
 43
1.0
176
     1
 76
     1
176
     1
 77
     6
176
     1
 78
     2
176
     1
 67
     7
176
     1
 79
     3
176
     1
170
     0
176
     1
171
     0
176
     1
290
     0
176
     1
 93
        1
176
     1
 44
0.0
176
     1
173
     0
176
     1
  0
VISUALSTYLE
  5
30
102
{ACAD_REACTORS
330
2A
102
}
330
2A
100
AcDbVisualStyle
  2
3dWireframe
 70
     5
177
     2
291
     0
 71
     0
176
     1
 72
     2
176
     1
 73
     0
176
     1
 90
        0
176
     1
 40
-0.6
176
     1
 41
-30.0
176
     1
 62
     5
 63
     7
421
 16777215
176
     1
 74
     1
176
     1
 91
        4
176
     1
 64
     7
176
     1
 65
   257
176
     1
 75
     1
176
     1
175
     1
176
     1
 42
1.0
176
     1
 92
        0
176
     1
 66
   257
176
     1
 43
1.0
176
     1
 76
     1
176
     1
 77
     6
176
     1
 78
     2
176
     1
 67
     7
176
     1
 79
     5
176
     1
170
     0
176
     1
171
     0
176
     1
290
     0
176
     1
 93
        1
176
     1
 44
0.0
176
     1
173
     0
176
     1
  0
VISUALSTYLE
  5
32
102
{ACAD_REACTORS
330
2A
102
}
330
2A
100
AcDbVisualStyle
  2
Basic
 70
     7
177
     2
291
     1
 71
     1
176
     1
 72
     0
176
     1
 73
     1
176
     1
 90
        0
176
     1
 40
-0.6
176
     1
 41
-30.0
176
     1
 62
     5
 63
     7
421
 16777215
176
     1
 74
     0
176
     1
 91
        4
176
     1
 64
     7
176
     1
 65
   257
176
     1
 75
     1
176
     1
175
     1
176
     1
 42
1.0
176
     1
 92
        8
176
     1
 66
     7
176
     1
 43
1.0
176
     1
 76
     1
176
     1
 77
     6
176
     1
 78
     2
176
     1
 67
     7
176
     1
 79
     5
176
     1
170
     0
176
     1
171
     0
176
     1
290
     0
176
     1
 93
        1
176
     1
 44
0.0
176
     1
173
     0
176
     1
  0
VISUALSTYLE
  5
36
102
{ACAD_REACTORS
330
2A
102
}
330
2A
100
AcDbVisualStyle
  2
Brighten
 70
    12
177
     2
291
     1
 71
     2
176
     1
 72
     2
176
     1
 73
     0
176
     1
 90
        0
176
     1
 40
-0.6
176
     1
 41
-30.0
176
     1
 62
     5
 63
     7
421
 16777215
176
     1
 74
     1
176
     1
 91
        4
176
     1
 64
     7
176
     1
 65
   257
176
     1
 75
     1
176
     1
175
     1
176
     1
 42
1.0
176
     1
 92
        8
176
     1
 66
     7
176
     1
 43
1.0
176
     1
 76
     1
176
     1
 77
     6
176
     1
 78
     2
176
     1
 67
     7
176
     1
 79
     5
176
     1
170
     0
176
     1
171
     0
176
     1
290
     0
176
     1
 93
        1
176
     1
 44
50.0
176
     1
173
     0
176
     1
  0
VISUALSTYLE
  5
3A
102
{ACAD_REACTORS
330
2A
102
}
330
2A
100
AcDbVisualStyle
  2
ColorChange
 70
    16
177
     2
291
     1
 71
     2
176
     1
 72
     2
176
     1
 73
     3
176
     1
 90
        0
176
     1
 40
-0.6
176
     1
 41
-30.0
176
     1
 62
     5
 63
     8
421
  8421504
176
     1
 74
     1
176
     1
 91
        4
176
     1
 64
     7
176
     1
 65
   257
176
     1
 75
     1
176
     1
175
     1
176
     1
 42
1.0
176
     1
 92
        8
176
     1
 66
     8
424
  8421504
176
     1
 43
1.0
176
     1
 76
     1
176
     1
 77
     6
176
     1
 78
     2
176
     1
 67
     7
176
     1
 79
     5
176
     1
170
     0
176
     1
171
     0
176
     1
290
     0
176
     1
 93
        1
176
     1
 44
0.0
176
     1
173
     0
176
     1
  0
VISUALSTYLE
  5
34
102
{ACAD_REACTORS
330
2A
102
}
330
2A
100
AcDbVisualStyle
  2
Conceptual
 70
     9
177
     2
291
     0
 71
     3
176
     1
 72
     2
176
     1
 73
     0
176
     1
 90
        0
176
     1
 40
-0.6
176
     1
 41
-30.0
176
     1
 62
     5
 63
     7
421
 16777215
176
     1
 74
     2
176
     1
 91
        2
176
     1
 64
     7
176
     1
 65
   257
176
     1
 75
     1
176
     1
175
     1
176
     1
 42
40.0
176
     1
 92
        8
176
     1
 66
     7
176
     1
 43
1.0
176
     1
 76
     1
176
     1
 77
     6
176
     1
 78
     2
176
     1
 67
     7
176
     1
 79
     3
176
     1
170
     0
176
     1
171
     0
176
     1
290
     0
176
     1
 93
        1
176
     1
 44
0.0
176
     1
173
     0
176
     1
  0
VISUALSTYLE
  5
35
102
{ACAD_REACTORS
330
2A
102
}
330
2A
100
AcDbVisualStyle
  2
Dim
 70
    11
177
     2
291
     1
 71
     2
176
     1
 72
     2
176
     1
 73
     0
176
     1
 90
        0
176
     1
 40
-0.6
176
     1
 41
-30.0
176
     1
 62
     5
 63
     7
421
 16777215
176
     1
 74
     1
176
     1
 91
        4
176
     1
 64
     7
176
     1
 65
   257
176
     1
 75
     1
176
     1
175
     1
176
     1
 42
1.0
176
     1
 92
        8
176
     1
 66
     7
176
     1
 43
1.0
176
     1
 76
     1
176
     1
 77
     6
176
     1
 78
     2
176
     1
 67
     7
176
     1
 79
     5
176
     1
170
     0
176
     1
171
     0
176
     1
290
     0
176
     1
 93
        1
176
     1
 44
-50.0
176
     1
173
     0
176
     1
  0
VISUALSTYLE
  5
39
102
{ACAD_REACTORS
330
2A
102
}
330
2A
100
AcDbVisualStyle
  2
Facepattern
 70
    15
177
     2
291
     1
 71
     2
176
     1
 72
     2
176
     1
 73
     0
176
     1
 90
        0
176
     1
 40
-0.6
176
     1
 41
-30.0
176
     1
 62
     5
 63
     7
421
 16777215
176
     1
 74
     1
176
     1
 91
        4
176
     1
 64
     7
176
     1
 65
   257
176
     1
 75
     1
176
     1
175
     1
176
     1
 42
1.0
176
     1
 92
        8
176
     1
 66
     7
176
     1
 43
1.0
176
     1
 76
     1
176
     1
 77
     6
176
     1
 78
     2
176
     1
 67
     7
176
     1
 79
     5
176
     1
170
     0
176
     1
171
     0
176
     1
290
     0
176
     1
 93
        1
176
     1
 44
0.0
176
     1
173
     0
176
     1
  0
VISUALSTYLE
  5
2B
102
{ACAD_REACTORS
330
2A
102
}
330
2A
100
AcDbVisualStyle
  2
Flat
 70
     0
177
     2
291
     1
 71
     2
176
     1
 72
     1
176
     1
 73
     1
176
     1
 90
        2
176
     1
 40
-0.6
176
     1
 41
30.0
176
     1
 62
     5
 63
     7
421
 16777215
176
     1
 74
     0
176
     1
 91
        4
176
     1
 64
     7
176
     1
 65
   257
176
     1
 75
     1
176
     1
175
     1
176
     1
 42
1.0
176
     1
 92
        8
176
     1
 66
     7
176
     1
 43
1.0
176
     1
 76
     1
176
     1
 77
     6
176
     1
 78
     2
176
     1
 67
     7
176
     1
 79
     5
176
     1
170
     0
176
     1
171
     0
176
     1
290
     0
176
     1
 93
       13
176
     1
 44
0.0
176
     1
173
     0
176
     1
  0
VISUALSTYLE
  5
2C
102
{ACAD_REACTORS
330
2A
102
}
330
2A
100
AcDbVisualStyle
  2
FlatWithEdges
 70
     1
177
     2
291
     1
 71
     2
176
     1
 72
     1
176
     1
 73
     1
176
     1
 90
        2
176
     1
 40
-0.6
176
     1
 41
30.0
176
     1
 62
     5
 63
     7
421
 16777215
176
     1
 74
     1
176
     1
 91
        4
176
     1
 64
     7
176
     1
 65
   257
176
     1
 75
     1
176
     1
175
     1
176
     1
 42
1.0
176
     1
 92
        0
176
     1
 66
   257
176
     1
 43
1.0
176
     1
 76
     1
176
     1
 77
     6
176
     1
 78
     2
176
     1
 67
     7
176
     1
 79
     5
176
     1
170
     0
176
     1
171
     0
176
     1
290
     0
176
     1
 93
       13
176
     1
 44
0.0
176
     1
173
     0
176
     1
  0
VISUALSTYLE
  5
2D
102
{ACAD_REACTORS
330
2A
102
}
330
2A
100
AcDbVisualStyle
  2
Gouraud
 70
     2
177
     2
291
     1
 71
     2
176
     1
 72
     2
176
     1
 73
     1
176
     1
 90
        2
176
     1
 40
-0.6
176
     1
 41
30.0
176
     1
 62
     5
 63
     7
421
 16777215
176
     1
 74
     0
176
     1
 91
        4
176
     1
 64
     7
176
     1
 65
   257
176
     1
 75
     1
176
     1
175
     1
176
     1
 42
1.0
176
     1
 92
        0
176
     1
 66
     7
176
     1
 43
1.0
176
     1
 76
     1
176
     1
 77
     6
176
     1
 78
     2
176
     1
 67
     7
176
     1
 79
     5
176
     1
170
     0
176
     1
171
     0
176
     1
290
     0
176
     1
 93
       13
176
     1
 44
0.0
176
     1
173
     0
176
     1
  0
VISUALSTYLE
  5
2E
102
{ACAD_REACTORS
330
2A
102
}
330
2A
100
AcDbVisualStyle
  2
GouraudWithEdges
 70
     3
177
     2
291
     1
 71
     2
176
     1
 72
     2
176
     1
 73
     1
176
     1
 90
        2
176
     1
 40
-0.6
176
     1
 41
30.0
176
     1
 62
     5
 63
     7
421
 16777215
176
     1
 74
     1
176
     1
 91
        4
176
     1
 64
     7
176
     1
 65
   257
176
     1
 75
     1
176
     1
175
     1
176
     1
 42
1.0
176
     1
 92
        0
176
     1
 66
   257
176
     1
 43
1.0
176
     1
 76
     1
176
     1
 77
     6
176
     1
 78
     2
176
     1
 67
     7
176
     1
 79
     5
176
     1
170
     0
176
     1
171
     0
176
     1
290
     0
176
     1
 93
       13
176
     1
 44
0.0
176
     1
173
     0
176
     1
  0
VISUALSTYLE
  5
38
102
{ACAD_REACTORS
330
2A
102
}
330
2A
100
AcDbVisualStyle
  2
Linepattern
 70
    14
177
     2
291
     1
 71
     2
176
     1
 72
     2
176
     1
 73
     0
176
     1
 90
        0
176
     1
 40
-0.6
176
     1
 41
-30.0
176
     1
 62
     5
 63
     7
421
 16777215
176
     1
 74
     1
176
     1
 91
        4
176
     1
 64
     7
176
     1
 65
   257
176
     1
 75
     7
176
     1
175
     7
176
     1
 42
1.0
176
     1
 92
        8
176
     1
 66
     7
176
     1
 43
1.0
176
     1
 76
     1
176
     1
 77
     6
176
     1
 78
     2
176
     1
 67
     7
176
     1
 79
     5
176
     1
170
     0
176
     1
171
     0
176
     1
290
     0
176
     1
 93
        1
176
     1
 44
0.0
176
     1
173
     0
176
     1
  0
VISUALSTYLE
  5
33
102
{ACAD_REACTORS
330
2A
102
}
330
2A
100
AcDbVisualStyle
  2
Realistic
 70
     8
177
     2
291
     0
 71
     2
176
     1
 72
     2
176
     1
 73
     0
176
     1
 90
        0
176
     1
 40
-0.6
176
     1
 41
-30.0
176
     1
 62
     5
 63
     7
421
 16777215
176
     1
 74
     1
176
     1
 91
        0
176
     1
 64
     7
176
     1
 65
   257
176
     1
 75
     1
176
     1
175
     1
176
     1
 42
1.0
176
     1
 92
        8
176
     1
 66
     8
424
  7895160
176
     1
 43
1.0
176
     1
 76
     1
176
     1
 77
     6
176
     1
 78
     2
176
     1
 67
     7
176
     1
 79
     5
176
     1
170
     0
176
     1
171
     0
176
     1
290
     0
176
     1
 93
       13
176
     1
 44
0.0
176
     1
173
     0
176
     1
  0
VISUALSTYLE
  5
37
102
{ACAD_REACTORS
330
2A
102
}
330
2A
100
AcDbVisualStyle
  2
Thicken
 70
    13
177
     2
291
     1
 71
     2
176
     1
 72
     2
176
     1
 73
     0
176
     1
 90
        0
176
     1
 40
-0.6
176
     1
 41
-30.0
176
     1
 62
     5
 63
     7
421
 16777215
176
     1
 74
     1
176
     1
 91
        4
176
     1
 64
     7
176
     1
 65
   257
176
     1
 75
     1
176
     1
175
     1
176
     1
 42
1.0
176
     1
 92
       12
176
     1
 66
     7
176
     1
 43
1.0
176
     1
 76
     1
176
     1
 77
     6
176
     1
 78
     2
176
     1
 67
     7
176
     1
 79
     5
176
     1
170
     0
176
     1
171
     0
176
     1
290
     0
176
     1
 93
        1
176
     1
 44
0.0
176
     1
173
     0
176
     1
  0
ENDSEC
  0
EOF
