  0
SECTION
  2
HEADER
  9
$ACADVER
  1
AC1024
  9
$ACADMAINTVER
 70
     6
  9
$DWGCODEPAGE
  3
UNDEFINED
  9
$INSBASE
 10
0.0
 20
0.0
 30
0.0
  9
$EXTMIN
 10
1.000000000000000E+20
 20
1.000000000000000E+20
 30
1.000000000000000E+20
  9
$EXTMAX
 10
-1.000000000000000E+20
 20
-1.000000000000000E+20
 30
-1.000000000000000E+20
  9
$LIMMIN
 10
0.0
 20
0.0
  9
$LIMMAX
 10
12.0
 20
9.0
  9
$ORTHOMODE
 70
     0
  9
$REGENMODE
 70
     1
  9
$FILLMODE
 70
     1
  9
$QTEXTMODE
 70
     0
  9
$MIRRTEXT
 70
     1
  9
$LTSCALE
 40
1.0
  9
$ATTMODE
 70
     1
  9
$TEXTSIZE
 40
0.2
  9
$TRACEWID
 40
0.05
  9
$TEXTSTYLE
  7
Standard
  9
$CLAYER
  8
0
  9
$CELTYPE
  6
ByLayer
  9
$CECOLOR
 62
   256
  9
$CELTSCALE
 40
1.0
  9
$DISPSILH
 70
     0
  9
$DIMSCALE
 40
1.0
  9
$DIMASZ
 40
0.18
  9
$DIMEXO
 40
0.0625
  9
$DIMDLI
 40
0.38
  9
$DIMRND
 40
0.0
  9
$DIMDLE
 40
0.0
  9
$DIMEXE
 40
0.18
  9
$DIMTP
 40
0.0
  9
$DIMTM
 40
0.0
  9
$DIMTXT
 40
0.18
  9
$DIMCEN
 40
0.09
  9
$DIMTSZ
 40
0.0
  9
$DIMTOL
 70
     0
  9
$DIMLIM
 70
     0
  9
$DIMTIH
 70
     1
  9
$DIMTOH
 70
     1
  9
$DIMSE1
 70
     0
  9
$DIMSE2
 70
     0
  9
$DIMTAD
 70
     0
  9
$DIMZIN
 70
     0
  9
$DIMBLK
  1

  9
$DIMASO
 70
     1
  9
$DIMSHO
 70
     1
  9
$DIMPOST
  1

  9
$DIMAPOST
  1

  9
$DIMALT
 70
     0
  9
$DIMALTD
 70
     2
  9
$DIMALTF
 40
25.4
  9
$DIMLFAC
 40
1.0
  9
$DIMTOFL
 70
     0
  9
$DIMTVP
 40
0.0
  9
$DIMTIX
 70
     0
  9
$DIMSOXD
 70
     0
  9
$DIMSAH
 70
     0
  9
$DIMBLK1
  1

  9
$DIMBLK2
  1

  9
$DIMSTYLE
  2
Standard
  9
$DIMCLRD
 70
     0
  9
$DIMCLRE
 70
     0
  9
$DIMCLRT
 70
     0
  9
$DIMTFAC
 40
1.0
  9
$DIMGAP
 40
0.09
  9
$DIMJUST
 70
     0
  9
$DIMSD1
 70
     0
  9
$DIMSD2
 70
     0
  9
$DIMTOLJ
 70
     1
  9
$DIMTZIN
 70
     0
  9
$DIMALTZ
 70
     0
  9
$DIMALTTZ
 70
     0
  9
$DIMUPT
 70
     0
  9
$DIMDEC
 70
     4
  9
$DIMTDEC
 70
     4
  9
$DIMALTU
 70
     2
  9
$DIMALTTD
 70
     2
  9
$DIMTXSTY
  7
Standard
  9
$DIMAUNIT
 70
     0
  9
$DIMADEC
 70
     0
  9
$DIMALTRND
 40
0.0
  9
$DIMAZIN
 70
     0
  9
$DIMDSEP
 70
    46
  9
$DIMATFIT
 70
     3
  9
$DIMFRAC
 70
     0
  9
$DIMLDRBLK
  1

  9
$DIMLUNIT
 70
     2
  9
$DIMLWD
 70
    -2
  9
$DIMLWE
 70
    -2
  9
$DIMTMOVE
 70
     0
  9
$DIMFXL
 40
1.0
  9
$DIMFXLON
 70
     0
  9
$DIMJOGANG
 40
0.7853981633974483
  9
$DIMTFILL
 70
     0
  9
$DIMTFILLCLR
 70
     0
  9
$DIMARCSYM
 70
     0
  9
$DIMLTYPE
  6

  9
$DIMLTEX1
  6

  9
$DIMLTEX2
  6

  9
$DIMTXTDIRECTION
 70
     0
  9
$LUNITS
 70
     2
  9
$LUPREC
 70
     4
  9
$SKETCHINC
 40
0.1
  9
$FILLETRAD
 40
0.5
  9
$AUNITS
 70
     0
  9
$AUPREC
 70
     0
  9
$MENU
  1
.
  9
$ELEVATION
 40
0.0
  9
$PELEVATION
 40
0.0
  9
$THICKNESS
 40
0.0
  9
$LIMCHECK
 70
     0
  9
$CHAMFERA
 40
0.5
  9
$CHAMFERB
 40
0.5
  9
$CHAMFERC
 40
1.0
  9
$CHAMFERD
 40
0.0
  9
$SKPOLY
 70
     0
  9
$TDCREATE
 40
2457917.6204861
  9
$TDUCREATE
 40
2457917.245486111
  9
$TDUPDATE
 40
2457917.6204861
  9
$TDUUPDATE
 40
2457917.245486111
  9
$TDINDWG
 40
0.0000000116
  9
$TDUSRTIMER
 40
0.0000000116
  9
$USRTIMER
 70
     1
  9
$ANGBASE
 50
0.0
  9
$ANGDIR
 70
     0
  9
$PDMODE
 70
     0
  9
$PDSIZE
 40
0.0
  9
$PLINEWID
 40
0.0
  9
$SPLFRAME
 70
     0
  9
$SPLINETYPE
 70
     6
  9
$SPLINESEGS
 70
     8
  9
$HANDSEED
  5
AF
  9
$SURFTAB1
 70
     6
  9
$SURFTAB2
 70
     6
  9
$SURFTYPE
 70
     6
  9
$SURFU
 70
     6
  9
$SURFV
 70
     6
  9
$UCSBASE
  2

  9
$UCSNAME
  2

  9
$UCSORG
 10
0.0
 20
0.0
 30
0.0
  9
$UCSXDIR
 10
1.0
 20
0.0
 30
0.0
  9
$UCSYDIR
 10
0.0
 20
1.0
 30
0.0
  9
$UCSORTHOREF
  2

  9
$UCSORTHOVIEW
 70
     0
  9
$UCSORGTOP
 10
0.0
 20
0.0
 30
0.0
  9
$UCSORGBOTTOM
 10
0.0
 20
0.0
 30
0.0
  9
$UCSORGLEFT
 10
0.0
 20
0.0
 30
0.0
  9
$UCSORGRIGHT
 10
0.0
 20
0.0
 30
0.0
  9
$UCSORGFRONT
 10
0.0
 20
0.0
 30
0.0
  9
$UCSORGBACK
 10
0.0
 20
0.0
 30
0.0
  9
$PUCSBASE
  2

  9
$PUCSNAME
  2

  9
$PUCSORG
 10
0.0
 20
0.0
 30
0.0
  9
$PUCSXDIR
 10
1.0
 20
0.0
 30
0.0
  9
$PUCSYDIR
 10
0.0
 20
1.0
 30
0.0
  9
$PUCSORTHOREF
  2

  9
$PUCSORTHOVIEW
 70
     0
  9
$PUCSORGTOP
 10
0.0
 20
0.0
 30
0.0
  9
$PUCSORGBOTTOM
 10
0.0
 20
0.0
 30
0.0
  9
$PUCSORGLEFT
 10
0.0
 20
0.0
 30
0.0
  9
$PUCSORGRIGHT
 10
0.0
 20
0.0
 30
0.0
  9
$PUCSORGFRONT
 10
0.0
 20
0.0
 30
0.0
  9
$PUCSORGBACK
 10
0.0
 20
0.0
 30
0.0
  9
$USERI1
 70
     0
  9
$USERI2
 70
     0
  9
$USERI3
 70
     0
  9
$USERI4
 70
     0
  9
$USERI5
 70
     0
  9
$USERR1
 40
0.0
  9
$USERR2
 40
0.0
  9
$USERR3
 40
0.0
  9
$USERR4
 40
0.0
  9
$USERR5
 40
0.0
  9
$WORLDVIEW
 70
     1
  9
$SHADEDGE
 70
     3
  9
$SHADEDIF
 70
    70
  9
$TILEMODE
 70
     1
  9
$MAXACTVP
 70
    64
  9
$PINSBASE
 10
0.0
 20
0.0
 30
0.0
  9
$PLIMCHECK
 70
     0
  9
$PEXTMIN
 10
1.000000000000000E+20
 20
1.000000000000000E+20
 30
1.000000000000000E+20
  9
$PEXTMAX
 10
-1.000000000000000E+20
 20
-1.000000000000000E+20
 30
-1.000000000000000E+20
  9
$PLIMMIN
 10
0.0
 20
0.0
  9
$PLIMMAX
 10
12.0
 20
9.0
  9
$UNITMODE
 70
     0
  9
$VISRETAIN
 70
     1
  9
$PLINEGEN
 70
     0
  9
$PSLTSCALE
 70
     1
  9
$TREEDEPTH
 70
  3020
  9
$CMLSTYLE
  2
Standard
  9
$CMLJUST
 70
     0
  9
$CMLSCALE
 40
1.0
  9
$PROXYGRAPHICS
 70
     1
  9
$MEASUREMENT
 70
     0
  9
$CELWEIGHT
370
    -1
  9
$ENDCAPS
280
     0
  9
$JOINSTYLE
280
     0
  9
$LWDISPLAY
290
     1
  9
$INSUNITS
 70
     1
  9
$HYPERLINKBASE
  1

  9
$STYLESHEET
  1

  9
$XEDIT
290
     1
  9
$CEPSNTYPE
380
     0
  9
$PSTYLEMODE
290
     1
  9
$FINGERPRINTGUID
  2
{7474F019-9FE6-F680-BC65-5A694A69AA7D}
  9
$VERSIONGUID
  2
{FAEB1C32-E019-11D5-929B-00C0DF256EC4}
  9
$EXTNAMES
290
     1
  9
$PSVPSCALE
 40
0.0
  9
$OLESTARTUP
290
     0
  9
$SORTENTS
280
   127
  9
$INDEXCTL
280
     0
  9
$HIDETEXT
280
     1
  9
$XCLIPFRAME
280
     2
  9
$HALOGAP
280
     0
  9
$OBSCOLOR
 70
   257
  9
$OBSLTYPE
280
     0
  9
$INTERSECTIONDISPLAY
280
     0
  9
$INTERSECTIONCOLOR
 70
   257
  9
$DIMASSOC
280
     2
  9
$PROJECTNAME
  1

  9
$CAMERADISPLAY
290
     0
  9
$LENSLENGTH
 40
50.0
  9
$CAMERAHEIGHT
 40
0.0
  9
$STEPSPERSEC
 40
2.0
  9
$STEPSIZE
 40
6.0
  9
$3DDWFPREC
 40
2.0
  9
$PSOLWIDTH
 40
0.25
  9
$PSOLHEIGHT
 40
4.0
  9
$LOFTANG1
 40
1.570796326794897
  9
$LOFTANG2
 40
1.570796326794897
  9
$LOFTMAG1
 40
0.0
  9
$LOFTMAG2
 40
0.0
  9
$LOFTPARAM
 70
     7
  9
$LOFTNORMALS
280
     1
  9
$LATITUDE
 40
37.795
  9
$LONGITUDE
 40
-122.394
  9
$NORTHDIRECTION
 40
0.0
  9
$TIMEZONE
 70
 -8000
  9
$LIGHTGLYPHDISPLAY
280
     1
  9
$TILEMODELIGHTSYNCH
280
     1
  9
$CMATERIAL
347
3C
  9
$SOLIDHIST
280
     1
  9
$SHOWHIST
280
     1
  9
$DWFFRAME
280
     2
  9
$DGNFRAME
280
     2
  9
$REALWORLDSCALE
290
     1
  9
$INTERFERECOLOR
 62
   256
  9
$CSHADOW
280
     0
  9
$SHADOWPLANELOCATION
 40
0.0
  0
ENDSEC
  0
SECTION
  2
CLASSES
  0
CLASS
  1
ACDBDICTIONARYWDFLT
  2
AcDbDictionaryWithDefault
  3
ObjectDBX Classes
 90
        0
 91
        4
280
     0
281
     0
  0
CLASS
  1
VISUALSTYLE
  2
AcDbVisualStyle
  3
ObjectDBX Classes
 90
     4095
 91
        4
280
     0
281
     0
  0
CLASS
  1
MATERIAL
  2
AcDbMaterial
  3
ObjectDBX Classes
 90
     1153
 91
        4
280
     0
281
     0
  0
CLASS
  1
SUN
  2
AcDbSun
  3
SCENEOE
 90
     1024
 91
        4
280
     0
281
     0
  0
ENDSEC
  0
SECTION
  2
TABLES
  0
TABLE
  2
VPORT
  5
8
330
0
100
AcDbSymbolTable
 70
     1
  0
VPORT
  5
29
330
8
100
AcDbSymbolTableRecord
100
AcDbViewportTableRecord
  2
*Active
 70
     0
 10
0.0
 20
0.0
 11
1.0
 21
1.0
 12
0.0
 22
0.0
 13
0.0
 23
0.0
 14
0.5
 24
0.5
 15
0.5
 25
0.5
 16
0.0
 26
0.0
 36
1.0
 17
91.00082462281999
 27
-128.4993055234307
 37
0.0
 40
256.9986110468615
 41
0.7081814508812795
 42
50.0
 43
0.0
 44
0.0
 50
0.0
 51
0.0
 71
     0
 72
   100
 73
     1
 74
     3
 75
     0
 76
     0
 77
     0
 78
     0
281
     0
 65
     1
110
0.0
120
0.0
130
0.0
111
1.0
121
0.0
131
0.0
112
0.0
122
1.0
132
0.0
 79
     0
146
0.0
 60
     3
 61
     5
292
     1
282
     1
141
0.0
142
0.0
 63
   250
361
3F
  0
ENDTAB
  0
TABLE
  2
LTYPE
  5
5
330
0
100
AcDbSymbolTable
 70
     1
  0
LTYPE
  5
14
330
5
100
AcDbSymbolTableRecord
100
AcDbLinetypeTableRecord
  2
ByBlock
 70
     0
  3

 72
    65
 73
     0
 40
0.0
  0
LTYPE
  5
15
330
5
100
AcDbSymbolTableRecord
100
AcDbLinetypeTableRecord
  2
ByLayer
 70
     0
  3

 72
    65
 73
     0
 40
0.0
  0
LTYPE
  5
16
330
5
100
AcDbSymbolTableRecord
100
AcDbLinetypeTableRecord
  2
Continuous
 70
     0
  3
Solid line
 72
    65
 73
     0
 40
0.0
  0
ENDTAB
  0
TABLE
  2
LAYER
  5
2
330
0
100
AcDbSymbolTable
 70
     2
  0
LAYER
  5
10
330
2
100
AcDbSymbolTableRecord
100
AcDbLayerTableRecord
  2
0
 70
     0
 62
     7
  6
Continuous
370
    -3
390
F
347
3E
  0
LAYER
  5
40
330
2
100
AcDbSymbolTableRecord
100
AcDbLayerTableRecord
  2
_U+30EC_U+30A4_U+30E4_U+30FC 1
 70
     0
 62
     7
  6
Continuous
370
    -3
390
F
347
3E
  0
ENDTAB
  0
TABLE
  2
STYLE
  5
3
330
0
100
AcDbSymbolTable
 70
     1
  0
STYLE
  5
11
330
3
100
AcDbSymbolTableRecord
100
AcDbTextStyleTableRecord
  2
Standard
 70
     0
 40
0.0
 41
1.0
 50
0.0
 71
     0
 42
0.2
  3
txt
  4

  0
ENDTAB
  0
TABLE
  2
VIEW
  5
6
330
0
100
AcDbSymbolTable
 70
     0
  0
ENDTAB
  0
TABLE
  2
UCS
  5
7
330
0
100
AcDbSymbolTable
 70
     0
  0
ENDTAB
  0
TABLE
  2
APPID
  5
9
330
0
100
AcDbSymbolTable
 70
     1
  0
APPID
  5
12
330
9
100
AcDbSymbolTableRecord
100
AcDbRegAppTableRecord
  2
ACAD
 70
     0
  0
ENDTAB
  0
TABLE
  2
DIMSTYLE
  5
A
330
0
100
AcDbSymbolTable
 70
     1
100
AcDbDimStyleTable
  0
DIMSTYLE
105
27
330
A
100
AcDbSymbolTableRecord
100
AcDbDimStyleTableRecord
  2
Standard
 70
     0
178
     0
340
11
  0
ENDTAB
  0
TABLE
  2
BLOCK_RECORD
  5
1
330
0
100
AcDbSymbolTable
 70
     4
  0
BLOCK_RECORD
  5
1F
330
1
100
AcDbSymbolTableRecord
100
AcDbBlockTableRecord
  2
*Model_Space
340
22
 70
     0
280
     1
281
     0
  0
BLOCK_RECORD
  5
1B
330
1
100
AcDbSymbolTableRecord
100
AcDbBlockTableRecord
  2
*Paper_Space
340
1E
 70
     0
280
     1
281
     0
  0
BLOCK_RECORD
  5
23
330
1
100
AcDbSymbolTableRecord
100
AcDbBlockTableRecord
  2
*Paper_Space0
340
26
 70
     0
280
     1
281
     0
  0
BLOCK_RECORD
  5
75
330
1
100
AcDbSymbolTableRecord
100
AcDbBlockTableRecord
  2
block 2
340
0
102
{BLKREFS
331
76
102
}
 70
     0
280
     1
281
     0
  0
BLOCK_RECORD
  5
91
330
1
100
AcDbSymbolTableRecord
100
AcDbBlockTableRecord
  2
block 3
340
0
102
{BLKREFS
331
92
102
}
 70
     0
280
     1
281
     0
  0
BLOCK_RECORD
  5
A5
330
1
100
AcDbSymbolTableRecord
100
AcDbBlockTableRecord
  2
block 4
340
0
102
{BLKREFS
331
A6
102
}
 70
     0
280
     1
281
     0
  0
ENDTAB
  0
ENDSEC
  0
SECTION
  2
BLOCKS
  0
BLOCK
  5
20
330
1F
100
AcDbEntity
  8
0
100
AcDbBlockBegin
  2
*Model_Space
 70
     0
 10
0.0
 20
0.0
 30
0.0
  3
*Model_Space
  1

  0
ENDBLK
  5
21
330
1F
100
AcDbEntity
  8
0
100
AcDbBlockEnd
  0
BLOCK
  5
1C
330
1B
100
AcDbEntity
 67
     1
  8
0
100
AcDbBlockBegin
  2
*Paper_Space
 70
     0
 10
0.0
 20
0.0
 30
0.0
  3
*Paper_Space
  1

  0
ENDBLK
  5
1D
330
1B
100
AcDbEntity
 67
     1
  8
0
100
AcDbBlockEnd
  0
BLOCK
  5
24
330
23
100
AcDbEntity
  8
0
100
AcDbBlockBegin
  2
*Paper_Space0
 70
     0
 10
0.0
 20
0.0
 30
0.0
  3
*Paper_Space0
  1

  0
ENDBLK
  5
25
330
23
100
AcDbEntity
  8
0
100
AcDbBlockEnd
  0
BLOCK
  5
77
330
75
100
AcDbEntity
  8
0
100
AcDbBlockBegin
  2
block 2
 70
     0
 10
0.0
 20
0.0
 30
0.0
  3
block 2
  1

  0
SPLINE
  5
79
330
75
100
AcDbEntity
  8
_U+30EC_U+30A4_U+30E4_U+30FC 1
370
     0
100
AcDbSpline
210
0.0
220
0.0
230
1.0
 70
    11
 71
     3
 72
    26
 73
    22
 74
     0
 42
0.0000000001
 43
0.0000000001
 12
1.0
 22
0.0
 32
0.0
 13
1.0
 23
0.0
 33
0.0
 40
0.0
 40
0.0
 40
0.0
 40
0.0
 40
1.0
 40
1.0
 40
1.0
 40
2.0
 40
2.0
 40
2.0
 40
3.0
 40
3.0
 40
3.0
 40
4.0
 40
4.0
 40
4.0
 40
5.0
 40
5.0
 40
5.0
 40
6.0
 40
6.0
 40
6.0
 40
7.0
 40
7.0
 40
7.0
 40
7.0
 10
110.0704562441838
 20
-138.6423556511033
 30
0.0
 10
110.0704562441838
 20
-138.6423556511033
 30
0.0
 10
108.9663031411612
 20
-138.6423556511033
 30
0.0
 10
108.9663031411612
 20
-138.6423556511033
 30
0.0
 10
108.9663031411612
 20
-138.6423556511033
 30
0.0
 10
108.9663031411612
 20
-138.9723957985902
 30
0.0
 10
108.9663031411612
 20
-138.9723957985902
 30
0.0
 10
108.9663031411612
 20
-138.9723957985902
 30
0.0
 10
108.8181640352955
 20
-138.9723957985902
 30
0.0
 10
108.8181640352955
 20
-138.9723957985902
 30
0.0
 10
108.8033501247089
 20
-138.6402885938122
 30
0.0
 10
108.6403971082566
 20
-138.5937798047613
 30
0.0
 10
108.5260199381463
 20
-138.5641519835881
 30
0.0
 10
108.5260199381463
 20
-138.5641519835881
 30
0.0
 10
108.5260199381463
 20
-138.4180799350135
 30
0.0
 10
108.5260199381463
 20
-138.4180799350135
 30
0.0
 10
108.5260199381463
 20
-138.4180799350135
 30
0.0
 10
110.0704562441838
 20
-138.4180799350135
 30
0.0
 10
110.0704562441838
 20
-138.4180799350135
 30
0.0
 10
110.0704562441838
 20
-138.4180799350135
 30
0.0
 10
110.0704562441838
 20
-138.6423556511033
 30
0.0
 10
110.0704562441838
 20
-138.6423556511033
 30
0.0
  0
HATCH
  5
7A
330
75
100
AcDbEntity
  8
_U+30EC_U+30A4_U+30E4_U+30FC 1
 62
   179
420
  2234388
100
AcDbHatch
 10
0.0
 20
0.0
 30
0.0
210
0.0
220
0.0
230
1.0
  2
SOLID
 70
     1
 71
     0
 91
        1
 92
        1
 93
        1
 72
     4
 94
        3
 73
     0
 74
     1
 95
       26
 96
       22
 40
0.0
 40
0.0
 40
0.0
 40
0.0
 40
1.0
 40
1.0
 40
1.0
 40
2.0
 40
2.0
 40
2.0
 40
3.0
 40
3.0
 40
3.0
 40
4.0
 40
4.0
 40
4.0
 40
5.0
 40
5.0
 40
5.0
 40
6.0
 40
6.0
 40
6.0
 40
7.0
 40
7.0
 40
7.0
 40
7.0
 10
110.0704562441838
 20
-138.6423556511033
 10
110.0704562441838
 20
-138.6423556511033
 10
108.9663031411612
 20
-138.6423556511033
 10
108.9663031411612
 20
-138.6423556511033
 10
108.9663031411612
 20
-138.6423556511033
 10
108.9663031411612
 20
-138.9723957985902
 10
108.9663031411612
 20
-138.9723957985902
 10
108.9663031411612
 20
-138.9723957985902
 10
108.8181640352955
 20
-138.9723957985902
 10
108.8181640352955
 20
-138.9723957985902
 10
108.8033501247089
 20
-138.6402885938122
 10
108.6403971082566
 20
-138.5937798047613
 10
108.5260199381463
 20
-138.5641519835881
 10
108.5260199381463
 20
-138.5641519835881
 10
108.5260199381463
 20
-138.4180799350135
 10
108.5260199381463
 20
-138.4180799350135
 10
108.5260199381463
 20
-138.4180799350135
 10
110.0704562441838
 20
-138.4180799350135
 10
110.0704562441838
 20
-138.4180799350135
 10
110.0704562441838
 20
-138.4180799350135
 10
110.0704562441838
 20
-138.6423556511033
 10
110.0704562441838
 20
-138.6423556511033
 97
        0
 97
        0
 75
     2
 76
     1
 98
        0
  0
POLYLINE
  5
7B
330
75
100
AcDbEntity
  8
_U+30EC_U+30A4_U+30E4_U+30FC 1
370
     0
100
AcDb2dPolyline
 66
     1
 10
0.0
 20
0.0
 30
0.0
  0
VERTEX
  5
7C
330
7B
100
AcDbEntity
  8
_U+30EC_U+30A4_U+30E4_U+30FC 1
370
     0
100
AcDbVertex
100
AcDb2dVertex
 10
110.0704562441838
 20
-137.8568738804663
 30
0.0
  0
VERTEX
  5
7D
330
7B
100
AcDbEntity
  8
_U+30EC_U+30A4_U+30E4_U+30FC 1
370
     0
100
AcDbVertex
100
AcDb2dVertex
 10
109.818619764212
 20
-137.8568738804663
 30
0.0
  0
VERTEX
  5
7E
330
7B
100
AcDbEntity
  8
_U+30EC_U+30A4_U+30E4_U+30FC 1
370
     0
100
AcDbVertex
100
AcDb2dVertex
 10
109.818619764212
 20
-137.6050374004946
 30
0.0
  0
VERTEX
  5
7F
330
7B
100
AcDbEntity
  8
_U+30EC_U+30A4_U+30E4_U+30FC 1
370
     0
100
AcDbVertex
100
AcDb2dVertex
 10
110.0704562441838
 20
-137.6050374004946
 30
0.0
  0
VERTEX
  5
80
330
7B
100
AcDbEntity
  8
_U+30EC_U+30A4_U+30E4_U+30FC 1
370
     0
100
AcDbVertex
100
AcDb2dVertex
 10
110.0704562441838
 20
-137.8568738804663
 30
0.0
  0
SEQEND
  5
81
330
7B
100
AcDbEntity
  8
_U+30EC_U+30A4_U+30E4_U+30FC 1
370
     0
  0
HATCH
  5
82
330
75
100
AcDbEntity
  8
_U+30EC_U+30A4_U+30E4_U+30FC 1
 62
   179
420
  2234388
100
AcDbHatch
 10
0.0
 20
0.0
 30
0.0
210
0.0
220
0.0
230
1.0
  2
SOLID
 70
     1
 71
     0
 91
        1
 92
        1
 93
        4
 72
     1
 10
110.0704562441838
 20
-137.8568738804663
 11
109.818619764212
 21
-137.8568738804663
 72
     1
 10
109.818619764212
 20
-137.8568738804663
 11
109.818619764212
 21
-137.6050374004946
 72
     1
 10
109.818619764212
 20
-137.6050374004946
 11
110.0704562441838
 21
-137.6050374004946
 72
     1
 10
110.0704562441838
 20
-137.6050374004946
 11
110.0704562441838
 21
-137.8568738804663
 97
        0
 75
     2
 76
     1
 98
        0
  0
SPLINE
  5
83
330
75
100
AcDbEntity
  8
_U+30EC_U+30A4_U+30E4_U+30FC 1
370
     0
100
AcDbSpline
210
0.0
220
0.0
230
1.0
 70
    11
 71
     3
 72
    53
 73
    49
 74
     0
 42
0.0000000001
 43
0.0000000001
 12
1.0
 22
0.0
 32
0.0
 13
1.0
 23
0.0
 33
0.0
 40
0.0
 40
0.0
 40
0.0
 40
0.0
 40
1.0
 40
1.0
 40
1.0
 40
2.0
 40
2.0
 40
2.0
 40
3.0
 40
3.0
 40
3.0
 40
4.0
 40
4.0
 40
4.0
 40
5.0
 40
5.0
 40
5.0
 40
6.0
 40
6.0
 40
6.0
 40
7.0
 40
7.0
 40
7.0
 40
8.0
 40
8.0
 40
8.0
 40
9.0
 40
9.0
 40
9.0
 40
10.0
 40
10.0
 40
10.0
 40
11.0
 40
11.0
 40
11.0
 40
12.0
 40
12.0
 40
12.0
 40
13.0
 40
13.0
 40
13.0
 40
14.0
 40
14.0
 40
14.0
 40
15.0
 40
15.0
 40
15.0
 40
16.0
 40
16.0
 40
16.0
 40
16.0
 10
110.1210991478169
 20
-136.8877685204656
 30
0.0
 10
110.1210991478169
 20
-136.9659721879807
 30
0.0
 10
110.1042181799392
 20
-137.0676025047956
 30
0.0
 10
110.0408284230106
 20
-137.1692328216105
 30
0.0
 10
109.9309298770312
 20
-137.3425211245186
 30
0.0
 10
109.7996717390431
 20
-137.3638807165271
 30
0.0
 10
109.6918402503548
 20
-137.382828741696
 30
0.0
 10
109.6918402503548
 20
-137.382828741696
 30
0.0
 10
109.6918402503548
 20
-137.1606200828973
 30
0.0
 10
109.6918402503548
 20
-137.1606200828973
 30
0.0
 10
109.8906222598537
 20
-137.1058430646819
 30
0.0
 10
109.9202500810269
 20
-136.9787190412762
 30
0.0
 10
109.9202500810269
 20
-136.8857014631744
 30
0.0
 10
109.9202500810269
 20
-136.7461750960218
 30
0.0
 10
109.8206868215032
 20
-136.5939018755737
 30
0.0
 10
109.5881428762488
 20
-136.5939018755737
 30
0.0
 10
109.3321722816947
 20
-136.5939018755737
 30
0.0
 10
109.2622368433442
 20
-136.7737358599038
 30
0.0
 10
109.2622368433442
 20
-136.8943142018875
 30
0.0
 10
109.2622368433442
 20
-136.9260090803518
 30
0.0
 10
109.2622368433442
 20
-137.0676025047956
 30
0.0
 10
109.391427924041
 20
-137.1564859683151
 30
0.0
 10
109.391427924041
 20
-137.1564859683151
 30
0.0
 10
109.3724798988722
 20
-137.3321858380628
 30
0.0
 10
109.3724798988722
 20
-137.3321858380628
 30
0.0
 10
109.3724798988722
 20
-137.3321858380628
 30
0.0
 10
108.5260199381463
 20
-137.211607496079
 30
0.0
 10
108.5260199381463
 20
-137.211607496079
 30
0.0
 10
108.5260199381463
 20
-137.211607496079
 30
0.0
 10
108.5260199381463
 20
-136.4330159164126
 30
0.0
 10
108.5260199381463
 20
-136.4330159164126
 30
0.0
 10
108.5260199381463
 20
-136.4330159164126
 30
0.0
 10
108.7206678330629
 20
-136.4330159164126
 30
0.0
 10
108.7206678330629
 20
-136.4330159164126
 30
0.0
 10
108.7206678330629
 20
-136.4330159164126
 30
0.0
 10
108.7206678330629
 20
-137.0486544796267
 30
0.0
 10
108.7206678330629
 20
-137.0486544796267
 30
0.0
 10
108.7206678330629
 20
-137.0486544796267
 30
0.0
 10
109.1437255586516
 20
-137.1141112938465
 30
0.0
 10
109.1437255586516
 20
-137.1141112938465
 30
0.0
 10
109.1099636228961
 20
-137.052788594209
 30
0.0
 10
109.0696560057187
 20
-136.9704508121116
 30
0.0
 10
109.0696560057187
 20
-136.851939527419
 30
0.0
 10
109.0696560057187
 20
-136.5980359901561
 30
0.0
 10
109.2560356714707
 20
-136.3610134207709
 30
0.0
 10
109.5691948510799
 20
-136.3610134207709
 30
0.0
 10
109.8864881452714
 20
-136.3610134207709
 30
0.0
 10
110.1210991478169
 20
-136.5852891368606
 30
0.0
 10
110.1210991478169
 20
-136.8877685204656
 30
0.0
  0
HATCH
  5
84
330
75
100
AcDbEntity
  8
_U+30EC_U+30A4_U+30E4_U+30FC 1
 62
   179
420
  2234388
100
AcDbHatch
 10
0.0
 20
0.0
 30
0.0
210
0.0
220
0.0
230
1.0
  2
SOLID
 70
     1
 71
     0
 91
        1
 92
        1
 93
        1
 72
     4
 94
        3
 73
     0
 74
     1
 95
       53
 96
       49
 40
0.0
 40
0.0
 40
0.0
 40
0.0
 40
1.0
 40
1.0
 40
1.0
 40
2.0
 40
2.0
 40
2.0
 40
3.0
 40
3.0
 40
3.0
 40
4.0
 40
4.0
 40
4.0
 40
5.0
 40
5.0
 40
5.0
 40
6.0
 40
6.0
 40
6.0
 40
7.0
 40
7.0
 40
7.0
 40
8.0
 40
8.0
 40
8.0
 40
9.0
 40
9.0
 40
9.0
 40
10.0
 40
10.0
 40
10.0
 40
11.0
 40
11.0
 40
11.0
 40
12.0
 40
12.0
 40
12.0
 40
13.0
 40
13.0
 40
13.0
 40
14.0
 40
14.0
 40
14.0
 40
15.0
 40
15.0
 40
15.0
 40
16.0
 40
16.0
 40
16.0
 40
16.0
 10
110.1210991478169
 20
-136.8877685204656
 10
110.1210991478169
 20
-136.9659721879807
 10
110.1042181799392
 20
-137.0676025047956
 10
110.0408284230106
 20
-137.1692328216105
 10
109.9309298770312
 20
-137.3425211245186
 10
109.7996717390431
 20
-137.3638807165271
 10
109.6918402503548
 20
-137.382828741696
 10
109.6918402503548
 20
-137.382828741696
 10
109.6918402503548
 20
-137.1606200828973
 10
109.6918402503548
 20
-137.1606200828973
 10
109.8906222598537
 20
-137.1058430646819
 10
109.9202500810269
 20
-136.9787190412762
 10
109.9202500810269
 20
-136.8857014631744
 10
109.9202500810269
 20
-136.7461750960218
 10
109.8206868215032
 20
-136.5939018755737
 10
109.5881428762488
 20
-136.5939018755737
 10
109.3321722816947
 20
-136.5939018755737
 10
109.2622368433442
 20
-136.7737358599038
 10
109.2622368433442
 20
-136.8943142018875
 10
109.2622368433442
 20
-136.9260090803518
 10
109.2622368433442
 20
-137.0676025047956
 10
109.391427924041
 20
-137.1564859683151
 10
109.391427924041
 20
-137.1564859683151
 10
109.3724798988722
 20
-137.3321858380628
 10
109.3724798988722
 20
-137.3321858380628
 10
109.3724798988722
 20
-137.3321858380628
 10
108.5260199381463
 20
-137.211607496079
 10
108.5260199381463
 20
-137.211607496079
 10
108.5260199381463
 20
-137.211607496079
 10
108.5260199381463
 20
-136.4330159164126
 10
108.5260199381463
 20
-136.4330159164126
 10
108.5260199381463
 20
-136.4330159164126
 10
108.7206678330629
 20
-136.4330159164126
 10
108.7206678330629
 20
-136.4330159164126
 10
108.7206678330629
 20
-136.4330159164126
 10
108.7206678330629
 20
-137.0486544796267
 10
108.7206678330629
 20
-137.0486544796267
 10
108.7206678330629
 20
-137.0486544796267
 10
109.1437255586516
 20
-137.1141112938465
 10
109.1437255586516
 20
-137.1141112938465
 10
109.1099636228961
 20
-137.052788594209
 10
109.0696560057187
 20
-136.9704508121116
 10
109.0696560057187
 20
-136.851939527419
 10
109.0696560057187
 20
-136.5980359901561
 10
109.2560356714707
 20
-136.3610134207709
 10
109.5691948510799
 20
-136.3610134207709
 10
109.8864881452714
 20
-136.3610134207709
 10
110.1210991478169
 20
-136.5852891368606
 10
110.1210991478169
 20
-136.8877685204656
 97
        0
 97
        0
 75
     2
 76
     1
 98
        0
  0
ENDBLK
  5
78
330
75
100
AcDbEntity
  8
0
100
AcDbBlockEnd
  0
BLOCK
  5
93
330
91
100
AcDbEntity
  8
0
100
AcDbBlockBegin
  2
block 3
 70
     0
 10
0.0
 20
0.0
 30
0.0
  3
block 3
  1

  0
SPLINE
  5
95
330
91
100
AcDbEntity
  8
_U+30EC_U+30A4_U+30E4_U+30FC 1
370
     0
100
AcDbSpline
210
0.0
220
0.0
230
1.0
 70
    11
 71
     3
 72
    44
 73
    40
 74
     0
 42
0.0000000001
 43
0.0000000001
 12
1.0
 22
0.0
 32
0.0
 13
1.0
 23
0.0
 33
0.0
 40
0.0
 40
0.0
 40
0.0
 40
0.0
 40
1.0
 40
1.0
 40
1.0
 40
2.0
 40
2.0
 40
2.0
 40
3.0
 40
3.0
 40
3.0
 40
4.0
 40
4.0
 40
4.0
 40
5.0
 40
5.0
 40
5.0
 40
6.0
 40
6.0
 40
6.0
 40
7.0
 40
7.0
 40
7.0
 40
8.0
 40
8.0
 40
8.0
 40
9.0
 40
9.0
 40
9.0
 40
10.0
 40
10.0
 40
10.0
 40
11.0
 40
11.0
 40
11.0
 40
12.0
 40
12.0
 40
12.0
 40
13.0
 40
13.0
 40
13.0
 40
13.0
 10
89.94989282690489
 20
-141.2199760931672
 30
0.0
 10
89.7321627922371
 20
-141.3791395045858
 30
0.0
 10
89.63914521413535
 20
-141.4528645479701
 30
0.0
 10
89.59022485824481
 20
-141.5968695392536
 30
0.0
 10
89.59022485824481
 20
-141.5968695392536
 30
0.0
 10
90.36881643791128
 20
-141.5968695392536
 30
0.0
 10
90.36881643791128
 20
-141.5968695392536
 30
0.0
 10
90.36881643791128
 20
-141.5968695392536
 30
0.0
 10
90.36881643791128
 20
-141.8021972301745
 30
0.0
 10
90.36881643791128
 20
-141.8021972301745
 30
0.0
 10
90.36881643791128
 20
-141.8021972301745
 30
0.0
 10
89.34079994511272
 20
-141.8021972301745
 30
0.0
 10
89.34079994511272
 20
-141.8021972301745
 30
0.0
 10
89.37249482357701
 20
-141.4445963188055
 30
0.0
 10
89.43795163779677
 20
-141.3660481417418
 30
0.0
 10
89.8231133130477
 20
-141.0677028727192
 30
0.0
 10
90.07908390760176
 20
-140.8692653727688
 30
0.0
 10
90.14454072182151
 20
-140.8010524821609
 30
0.0
 10
90.14454072182151
 20
-140.6639376818479
 30
0.0
 10
90.14454072182151
 20
-140.5454263971553
 30
0.0
 10
90.07253822617979
 20
-140.4145127687158
 30
0.0
 10
89.87582327397202
 20
-140.4145127687158
 30
0.0
 10
89.61571856483566
 20
-140.4145127687158
 30
0.0
 10
89.60710582612253
 20
-140.6446451471305
 30
0.0
 10
89.60297171154023
 20
-140.761089374532
 30
0.0
 10
89.60297171154023
 20
-140.761089374532
 30
0.0
 10
89.37869599545047
 20
-140.761089374532
 30
0.0
 10
89.37869599545047
 20
-140.761089374532
 30
0.0
 10
89.3873087341636
 20
-140.6343098606748
 30
0.0
 10
89.39798853016786
 20
-140.5219997478556
 30
0.0
 10
89.47825925497419
 20
-140.403488463163
 30
0.0
 10
89.58815780095365
 20
-140.2429470135504
 30
0.0
 10
89.77453746670568
 20
-140.2091850777949
 30
0.0
 10
89.8906371845586
 20
-140.2091850777949
 30
0.0
 10
90.16796737112121
 20
-140.2091850777949
 30
0.0
 10
90.37536211933325
 20
-140.3931531767073
 30
0.0
 10
90.37536211933325
 20
-140.6660047391391
 30
0.0
 10
90.37536211933325
 20
-140.8947590793597
 30
0.0
 10
90.2589178919318
 20
-140.9939778293349
 30
0.0
 10
89.94989282690489
 20
-141.2199760931672
 30
0.0
  0
HATCH
  5
96
330
91
100
AcDbEntity
  8
_U+30EC_U+30A4_U+30E4_U+30FC 1
 62
   179
420
  2234388
100
AcDbHatch
 10
0.0
 20
0.0
 30
0.0
210
0.0
220
0.0
230
1.0
  2
SOLID
 70
     1
 71
     0
 91
        1
 92
        1
 93
        1
 72
     4
 94
        3
 73
     0
 74
     1
 95
       44
 96
       40
 40
0.0
 40
0.0
 40
0.0
 40
0.0
 40
1.0
 40
1.0
 40
1.0
 40
2.0
 40
2.0
 40
2.0
 40
3.0
 40
3.0
 40
3.0
 40
4.0
 40
4.0
 40
4.0
 40
5.0
 40
5.0
 40
5.0
 40
6.0
 40
6.0
 40
6.0
 40
7.0
 40
7.0
 40
7.0
 40
8.0
 40
8.0
 40
8.0
 40
9.0
 40
9.0
 40
9.0
 40
10.0
 40
10.0
 40
10.0
 40
11.0
 40
11.0
 40
11.0
 40
12.0
 40
12.0
 40
12.0
 40
13.0
 40
13.0
 40
13.0
 40
13.0
 10
89.94989282690489
 20
-141.2199760931672
 10
89.7321627922371
 20
-141.3791395045858
 10
89.63914521413535
 20
-141.4528645479701
 10
89.59022485824481
 20
-141.5968695392536
 10
89.59022485824481
 20
-141.5968695392536
 10
90.36881643791128
 20
-141.5968695392536
 10
90.36881643791128
 20
-141.5968695392536
 10
90.36881643791128
 20
-141.5968695392536
 10
90.36881643791128
 20
-141.8021972301745
 10
90.36881643791128
 20
-141.8021972301745
 10
90.36881643791128
 20
-141.8021972301745
 10
89.34079994511272
 20
-141.8021972301745
 10
89.34079994511272
 20
-141.8021972301745
 10
89.37249482357701
 20
-141.4445963188055
 10
89.43795163779677
 20
-141.3660481417418
 10
89.8231133130477
 20
-141.0677028727192
 10
90.07908390760176
 20
-140.8692653727688
 10
90.14454072182151
 20
-140.8010524821609
 10
90.14454072182151
 20
-140.6639376818479
 10
90.14454072182151
 20
-140.5454263971553
 10
90.07253822617979
 20
-140.4145127687158
 10
89.87582327397202
 20
-140.4145127687158
 10
89.61571856483566
 20
-140.4145127687158
 10
89.60710582612253
 20
-140.6446451471305
 10
89.60297171154023
 20
-140.761089374532
 10
89.60297171154023
 20
-140.761089374532
 10
89.37869599545047
 20
-140.761089374532
 10
89.37869599545047
 20
-140.761089374532
 10
89.3873087341636
 20
-140.6343098606748
 10
89.39798853016786
 20
-140.5219997478556
 10
89.47825925497419
 20
-140.403488463163
 10
89.58815780095365
 20
-140.2429470135504
 10
89.77453746670568
 20
-140.2091850777949
 10
89.8906371845586
 20
-140.2091850777949
 10
90.16796737112121
 20
-140.2091850777949
 10
90.37536211933325
 20
-140.3931531767073
 10
90.37536211933325
 20
-140.6660047391391
 10
90.37536211933325
 20
-140.8947590793597
 10
90.2589178919318
 20
-140.9939778293349
 10
89.94989282690489
 20
-141.2199760931672
 97
        0
 97
        0
 75
     2
 76
     1
 98
        0
  0
SPLINE
  5
97
330
91
100
AcDbEntity
  8
_U+30EC_U+30A4_U+30E4_U+30FC 1
370
     0
100
AcDbSpline
210
0.0
220
0.0
230
1.0
 70
    11
 71
     3
 72
    53
 73
    49
 74
     0
 42
0.0000000001
 43
0.0000000001
 12
1.0
 22
0.0
 32
0.0
 13
1.0
 23
0.0
 33
0.0
 40
0.0
 40
0.0
 40
0.0
 40
0.0
 40
1.0
 40
1.0
 40
1.0
 40
2.0
 40
2.0
 40
2.0
 40
3.0
 40
3.0
 40
3.0
 40
4.0
 40
4.0
 40
4.0
 40
5.0
 40
5.0
 40
5.0
 40
6.0
 40
6.0
 40
6.0
 40
7.0
 40
7.0
 40
7.0
 40
8.0
 40
8.0
 40
8.0
 40
9.0
 40
9.0
 40
9.0
 40
10.0
 40
10.0
 40
10.0
 40
11.0
 40
11.0
 40
11.0
 40
12.0
 40
12.0
 40
12.0
 40
13.0
 40
13.0
 40
13.0
 40
14.0
 40
14.0
 40
14.0
 40
15.0
 40
15.0
 40
15.0
 40
16.0
 40
16.0
 40
16.0
 40
16.0
 10
91.01477184139561
 20
-141.8524956242591
 30
0.0
 10
90.93656817388045
 20
-141.8524956242591
 30
0.0
 10
90.83493785706557
 20
-141.8359591659299
 30
0.0
 10
90.7333075402507
 20
-141.7725694090013
 30
0.0
 10
90.56001923734264
 20
-141.6623263534733
 30
0.0
 10
90.53865964533409
 20
-141.5314127250338
 30
0.0
 10
90.51971162016521
 20
-141.423236726797
 30
0.0
 10
90.51971162016521
 20
-141.423236726797
 30
0.0
 10
90.74192027896383
 20
-141.423236726797
 30
0.0
 10
90.74192027896383
 20
-141.423236726797
 30
0.0
 10
90.7966972971793
 20
-141.6223632458444
 30
0.0
 10
90.92382132058502
 20
-141.6519910670176
 30
0.0
 10
91.01683889868677
 20
-141.6519910670176
 30
0.0
 10
91.15636526583938
 20
-141.6519910670176
 30
0.0
 10
91.30863848628742
 20
-141.5520832979453
 30
0.0
 10
91.30863848628742
 20
-141.3198838622395
 30
0.0
 10
91.30863848628742
 20
-141.0635687581369
 30
0.0
 10
91.12880450195739
 20
-140.9939778293349
 30
0.0
 10
91.00822615997365
 20
-140.9939778293349
 30
0.0
 10
90.97653128150934
 20
-140.9939778293349
 30
0.0
 10
90.83493785706557
 20
-140.9939778293349
 30
0.0
 10
90.74605439354613
 20
-141.1228244004832
 30
0.0
 10
90.74605439354613
 20
-141.1228244004832
 30
0.0
 10
90.57035452379839
 20
-141.1042208848628
 30
0.0
 10
90.57035452379839
 20
-141.1042208848628
 30
0.0
 10
90.57035452379839
 20
-141.1042208848628
 30
0.0
 10
90.69093286578213
 20
-140.2574164145884
 30
0.0
 10
90.69093286578213
 20
-140.2574164145884
 30
0.0
 10
90.69093286578213
 20
-140.2574164145884
 30
0.0
 10
91.46969670022285
 20
-140.2574164145884
 30
0.0
 10
91.46969670022285
 20
-140.2574164145884
 30
0.0
 10
91.46969670022285
 20
-140.2574164145884
 30
0.0
 10
91.46969670022285
 20
-140.4524088190536
 30
0.0
 10
91.46969670022285
 20
-140.4524088190536
 30
0.0
 10
91.46969670022285
 20
-140.4524088190536
 30
0.0
 10
90.85388588223445
 20
-140.4524088190536
 30
0.0
 10
90.85388588223445
 20
-140.4524088190536
 30
0.0
 10
90.85388588223445
 20
-140.4524088190536
 30
0.0
 10
90.78842906801471
 20
-140.8754665446423
 30
0.0
 10
90.78842906801471
 20
-140.8754665446423
 30
0.0
 10
90.84975176765215
 20
-140.8417046088868
 30
0.0
 10
90.93208954974962
 20
-140.8010524821609
 30
0.0
 10
91.05060083444222
 20
-140.8010524821609
 30
0.0
 10
91.30450437170512
 20
-140.8010524821609
 30
0.0
 10
91.54169919586458
 20
-140.9877766574614
 30
0.0
 10
91.54169919586458
 20
-141.3005913275221
 30
0.0
 10
91.54169919586458
 20
-141.6182291312621
 30
0.0
 10
91.31725122500055
 20
-141.8524956242591
 30
0.0
 10
91.01477184139561
 20
-141.8524956242591
 30
0.0
  0
HATCH
  5
98
330
91
100
AcDbEntity
  8
_U+30EC_U+30A4_U+30E4_U+30FC 1
 62
   179
420
  2234388
100
AcDbHatch
 10
0.0
 20
0.0
 30
0.0
210
0.0
220
0.0
230
1.0
  2
SOLID
 70
     1
 71
     0
 91
        1
 92
        1
 93
        1
 72
     4
 94
        3
 73
     0
 74
     1
 95
       53
 96
       49
 40
0.0
 40
0.0
 40
0.0
 40
0.0
 40
1.0
 40
1.0
 40
1.0
 40
2.0
 40
2.0
 40
2.0
 40
3.0
 40
3.0
 40
3.0
 40
4.0
 40
4.0
 40
4.0
 40
5.0
 40
5.0
 40
5.0
 40
6.0
 40
6.0
 40
6.0
 40
7.0
 40
7.0
 40
7.0
 40
8.0
 40
8.0
 40
8.0
 40
9.0
 40
9.0
 40
9.0
 40
10.0
 40
10.0
 40
10.0
 40
11.0
 40
11.0
 40
11.0
 40
12.0
 40
12.0
 40
12.0
 40
13.0
 40
13.0
 40
13.0
 40
14.0
 40
14.0
 40
14.0
 40
15.0
 40
15.0
 40
15.0
 40
16.0
 40
16.0
 40
16.0
 40
16.0
 10
91.01477184139561
 20
-141.8524956242591
 10
90.93656817388045
 20
-141.8524956242591
 10
90.83493785706557
 20
-141.8359591659299
 10
90.7333075402507
 20
-141.7725694090013
 10
90.56001923734264
 20
-141.6623263534733
 10
90.53865964533409
 20
-141.5314127250338
 10
90.51971162016521
 20
-141.423236726797
 10
90.51971162016521
 20
-141.423236726797
 10
90.74192027896383
 20
-141.423236726797
 10
90.74192027896383
 20
-141.423236726797
 10
90.7966972971793
 20
-141.6223632458444
 10
90.92382132058502
 20
-141.6519910670176
 10
91.01683889868677
 20
-141.6519910670176
 10
91.15636526583938
 20
-141.6519910670176
 10
91.30863848628742
 20
-141.5520832979453
 10
91.30863848628742
 20
-141.3198838622395
 10
91.30863848628742
 20
-141.0635687581369
 10
91.12880450195739
 20
-140.9939778293349
 10
91.00822615997365
 20
-140.9939778293349
 10
90.97653128150934
 20
-140.9939778293349
 10
90.83493785706557
 20
-140.9939778293349
 10
90.74605439354613
 20
-141.1228244004832
 10
90.74605439354613
 20
-141.1228244004832
 10
90.57035452379839
 20
-141.1042208848628
 10
90.57035452379839
 20
-141.1042208848628
 10
90.57035452379839
 20
-141.1042208848628
 10
90.69093286578213
 20
-140.2574164145884
 10
90.69093286578213
 20
-140.2574164145884
 10
90.69093286578213
 20
-140.2574164145884
 10
91.46969670022285
 20
-140.2574164145884
 10
91.46969670022285
 20
-140.2574164145884
 10
91.46969670022285
 20
-140.2574164145884
 10
91.46969670022285
 20
-140.4524088190536
 10
91.46969670022285
 20
-140.4524088190536
 10
91.46969670022285
 20
-140.4524088190536
 10
90.85388588223445
 20
-140.4524088190536
 10
90.85388588223445
 20
-140.4524088190536
 10
90.85388588223445
 20
-140.4524088190536
 10
90.78842906801471
 20
-140.8754665446423
 10
90.78842906801471
 20
-140.8754665446423
 10
90.84975176765215
 20
-140.8417046088868
 10
90.93208954974962
 20
-140.8010524821609
 10
91.05060083444222
 20
-140.8010524821609
 10
91.30450437170512
 20
-140.8010524821609
 10
91.54169919586458
 20
-140.9877766574614
 10
91.54169919586458
 20
-141.3005913275221
 10
91.54169919586458
 20
-141.6182291312621
 10
91.31725122500055
 20
-141.8524956242591
 10
91.01477184139561
 20
-141.8524956242591
 97
        0
 97
        0
 75
     2
 76
     1
 98
        0
  0
ENDBLK
  5
94
330
91
100
AcDbEntity
  8
0
100
AcDbBlockEnd
  0
BLOCK
  5
A7
330
A5
100
AcDbEntity
  8
0
100
AcDbBlockBegin
  2
block 4
 70
     0
 10
0.0
 20
0.0
 30
0.0
  3
block 4
  1

  0
SPLINE
  5
A9
330
A5
100
AcDbEntity
  8
_U+30EC_U+30A4_U+30E4_U+30FC 1
370
     0
100
AcDbSpline
210
0.0
220
0.0
230
1.0
 70
    11
 71
     3
 72
    44
 73
    40
 74
     0
 42
0.0000000001
 43
0.0000000001
 12
1.0
 22
0.0
 32
0.0
 13
1.0
 23
0.0
 33
0.0
 40
0.0
 40
0.0
 40
0.0
 40
0.0
 40
1.0
 40
1.0
 40
1.0
 40
2.0
 40
2.0
 40
2.0
 40
3.0
 40
3.0
 40
3.0
 40
4.0
 40
4.0
 40
4.0
 40
5.0
 40
5.0
 40
5.0
 40
6.0
 40
6.0
 40
6.0
 40
7.0
 40
7.0
 40
7.0
 40
8.0
 40
8.0
 40
8.0
 40
9.0
 40
9.0
 40
9.0
 40
10.0
 40
10.0
 40
10.0
 40
11.0
 40
11.0
 40
11.0
 40
12.0
 40
12.0
 40
12.0
 40
13.0
 40
13.0
 40
13.0
 40
13.0
 10
72.8429266853483
 20
-126.4696275182958
 30
0.0
 10
73.00157333244405
 20
-126.6873575529636
 30
0.0
 10
73.07564288537692
 20
-126.7803751310653
 30
0.0
 10
73.2194756218861
 20
-126.8292954869559
 30
0.0
 10
73.2194756218861
 20
-126.8292954869559
 30
0.0
 10
73.2194756218861
 20
-126.0507039072894
 30
0.0
 10
73.2194756218861
 20
-126.0507039072894
 30
0.0
 10
73.2194756218861
 20
-126.0507039072894
 30
0.0
 10
73.42463105803273
 20
-126.0507039072894
 30
0.0
 10
73.42463105803273
 20
-126.0507039072894
 30
0.0
 10
73.42463105803273
 20
-126.0507039072894
 30
0.0
 10
73.42463105803273
 20
-127.078720400088
 30
0.0
 10
73.42463105803273
 20
-127.078720400088
 30
0.0
 10
73.0670301466638
 20
-127.0470255216237
 30
0.0
 10
72.98882647914863
 20
-126.9815687074039
 30
0.0
 10
72.690481210126
 20
-126.596407032153
 30
0.0
 10
72.49169920062708
 20
-126.3404364375989
 30
0.0
 10
72.42400307434193
 20
-126.2749796233792
 30
0.0
 10
72.28654376448046
 20
-126.2749796233792
 30
0.0
 10
72.16803247978785
 20
-126.2749796233792
 30
0.0
 10
72.03677434179984
 20
-126.3469821190209
 30
0.0
 10
72.03677434179984
 20
-126.5436970712287
 30
0.0
 10
72.03677434179984
 20
-126.803801780365
 30
0.0
 10
72.26742348453732
 20
-126.8124145190781
 30
0.0
 10
72.38386771193876
 20
-126.8165486336604
 30
0.0
 10
72.38386771193876
 20
-126.8165486336604
 30
0.0
 10
72.38386771193876
 20
-127.0408243497502
 30
0.0
 10
72.38386771193876
 20
-127.0408243497502
 30
0.0
 10
72.2569159433073
 20
-127.0322116110371
 30
0.0
 10
72.14477808526242
 20
-127.0215318150328
 30
0.0
 10
72.02626680056983
 20
-126.9412610902265
 30
0.0
 10
71.86555309618292
 20
-126.831362544247
 30
0.0
 10
71.83161890565322
 20
-126.644982878495
 30
0.0
 10
71.83161890565322
 20
-126.5288831606421
 30
0.0
 10
71.83161890565322
 20
-126.2515529740795
 30
0.0
 10
72.01575925933982
 20
-126.0441582258674
 30
0.0
 10
72.2886108217716
 20
-126.0441582258674
 30
0.0
 10
72.51702065244366
 20
-126.0441582258674
 30
0.0
 10
72.61658391196738
 20
-126.1606024532689
 30
0.0
 10
72.8429266853483
 20
-126.4696275182958
 30
0.0
  0
HATCH
  5
AA
330
A5
100
AcDbEntity
  8
_U+30EC_U+30A4_U+30E4_U+30FC 1
 62
   179
420
  2234388
100
AcDbHatch
 10
0.0
 20
0.0
 30
0.0
210
0.0
220
0.0
230
1.0
  2
SOLID
 70
     1
 71
     0
 91
        1
 92
        1
 93
        1
 72
     4
 94
        3
 73
     0
 74
     1
 95
       44
 96
       40
 40
0.0
 40
0.0
 40
0.0
 40
0.0
 40
1.0
 40
1.0
 40
1.0
 40
2.0
 40
2.0
 40
2.0
 40
3.0
 40
3.0
 40
3.0
 40
4.0
 40
4.0
 40
4.0
 40
5.0
 40
5.0
 40
5.0
 40
6.0
 40
6.0
 40
6.0
 40
7.0
 40
7.0
 40
7.0
 40
8.0
 40
8.0
 40
8.0
 40
9.0
 40
9.0
 40
9.0
 40
10.0
 40
10.0
 40
10.0
 40
11.0
 40
11.0
 40
11.0
 40
12.0
 40
12.0
 40
12.0
 40
13.0
 40
13.0
 40
13.0
 40
13.0
 10
72.8429266853483
 20
-126.4696275182958
 10
73.00157333244405
 20
-126.6873575529636
 10
73.07564288537692
 20
-126.7803751310653
 10
73.2194756218861
 20
-126.8292954869559
 10
73.2194756218861
 20
-126.8292954869559
 10
73.2194756218861
 20
-126.0507039072894
 10
73.2194756218861
 20
-126.0507039072894
 10
73.2194756218861
 20
-126.0507039072894
 10
73.42463105803273
 20
-126.0507039072894
 10
73.42463105803273
 20
-126.0507039072894
 10
73.42463105803273
 20
-126.0507039072894
 10
73.42463105803273
 20
-127.078720400088
 10
73.42463105803273
 20
-127.078720400088
 10
73.0670301466638
 20
-127.0470255216237
 10
72.98882647914863
 20
-126.9815687074039
 10
72.690481210126
 20
-126.596407032153
 10
72.49169920062708
 20
-126.3404364375989
 10
72.42400307434193
 20
-126.2749796233792
 10
72.28654376448046
 20
-126.2749796233792
 10
72.16803247978785
 20
-126.2749796233792
 10
72.03677434179984
 20
-126.3469821190209
 10
72.03677434179984
 20
-126.5436970712287
 10
72.03677434179984
 20
-126.803801780365
 10
72.26742348453732
 20
-126.8124145190781
 10
72.38386771193876
 20
-126.8165486336604
 10
72.38386771193876
 20
-126.8165486336604
 10
72.38386771193876
 20
-127.0408243497502
 10
72.38386771193876
 20
-127.0408243497502
 10
72.2569159433073
 20
-127.0322116110371
 10
72.14477808526242
 20
-127.0215318150328
 10
72.02626680056983
 20
-126.9412610902265
 10
71.86555309618292
 20
-126.831362544247
 10
71.83161890565322
 20
-126.644982878495
 10
71.83161890565322
 20
-126.5288831606421
 10
71.83161890565322
 20
-126.2515529740795
 10
72.01575925933982
 20
-126.0441582258674
 10
72.2886108217716
 20
-126.0441582258674
 10
72.51702065244366
 20
-126.0441582258674
 10
72.61658391196738
 20
-126.1606024532689
 10
72.8429266853483
 20
-126.4696275182958
 97
        0
 97
        0
 75
     2
 76
     1
 98
        0
  0
SPLINE
  5
AB
330
A5
100
AcDbEntity
  8
_U+30EC_U+30A4_U+30E4_U+30FC 1
370
     0
100
AcDbSpline
210
0.0
220
0.0
230
1.0
 70
    11
 71
     3
 72
    53
 73
    49
 74
     0
 42
0.0000000001
 43
0.0000000001
 12
1.0
 22
0.0
 32
0.0
 13
1.0
 23
0.0
 33
0.0
 40
0.0
 40
0.0
 40
0.0
 40
0.0
 40
1.0
 40
1.0
 40
1.0
 40
2.0
 40
2.0
 40
2.0
 40
3.0
 40
3.0
 40
3.0
 40
4.0
 40
4.0
 40
4.0
 40
5.0
 40
5.0
 40
5.0
 40
6.0
 40
6.0
 40
6.0
 40
7.0
 40
7.0
 40
7.0
 40
8.0
 40
8.0
 40
8.0
 40
9.0
 40
9.0
 40
9.0
 40
10.0
 40
10.0
 40
10.0
 40
11.0
 40
11.0
 40
11.0
 40
12.0
 40
12.0
 40
12.0
 40
13.0
 40
13.0
 40
13.0
 40
14.0
 40
14.0
 40
14.0
 40
15.0
 40
15.0
 40
15.0
 40
16.0
 40
16.0
 40
16.0
 40
16.0
 10
73.47544621644018
 20
-125.4047485038051
 30
0.0
 10
73.47544621644018
 20
-125.4829521713202
 30
0.0
 10
73.45856524856245
 20
-125.5845824881351
 30
0.0
 10
73.39500323685958
 20
-125.68621280495
 30
0.0
 10
73.28493243610585
 20
-125.8595011078581
 30
0.0
 10
73.15384655289209
 20
-125.8808606998666
 30
0.0
 10
73.04601506420377
 20
-125.8998087250355
 30
0.0
 10
73.04601506420377
 20
-125.8998087250355
 30
0.0
 10
73.04601506420377
 20
-125.6776000662368
 30
0.0
 10
73.04601506420377
 20
-125.6776000662368
 30
0.0
 10
73.2447970737027
 20
-125.6228230480214
 30
0.0
 10
73.27442489487584
 20
-125.4956990246157
 30
0.0
 10
73.27442489487584
 20
-125.4026814465139
 30
0.0
 10
73.27442489487584
 20
-125.2631550793613
 30
0.0
 10
73.17503389012639
 20
-125.1108818589133
 30
0.0
 10
72.94231769009775
 20
-125.1108818589133
 30
0.0
 10
72.6863470955437
 20
-125.1108818589133
 30
0.0
 10
72.61658391196738
 20
-125.2907158432433
 30
0.0
 10
72.61658391196738
 20
-125.411294185227
 30
0.0
 10
72.61658391196738
 20
-125.4429890636913
 30
0.0
 10
72.61658391196738
 20
-125.5845824881351
 30
0.0
 10
72.74560273789
 20
-125.6734659516545
 30
0.0
 10
72.74560273789
 20
-125.6734659516545
 30
0.0
 10
72.72648245794686
 20
-125.8491658214023
 30
0.0
 10
72.72648245794686
 20
-125.8491658214023
 30
0.0
 10
72.72648245794686
 20
-125.8491658214023
 30
0.0
 10
71.88036700676949
 20
-125.7285874794186
 30
0.0
 10
71.88036700676949
 20
-125.7285874794186
 30
0.0
 10
71.88036700676949
 20
-125.7285874794186
 30
0.0
 10
71.88036700676949
 20
-124.9499958997521
 30
0.0
 10
71.88036700676949
 20
-124.9499958997521
 30
0.0
 10
71.88036700676949
 20
-124.9499958997521
 30
0.0
 10
72.07501490168612
 20
-124.9499958997521
 30
0.0
 10
72.07501490168612
 20
-124.9499958997521
 30
0.0
 10
72.07501490168612
 20
-124.9499958997521
 30
0.0
 10
72.07501490168612
 20
-125.5656344629662
 30
0.0
 10
72.07501490168612
 20
-125.5656344629662
 30
0.0
 10
72.07501490168612
 20
-125.5656344629662
 30
0.0
 10
72.4980726272748
 20
-125.631091277186
 30
0.0
 10
72.4980726272748
 20
-125.631091277186
 30
0.0
 10
72.46413843674507
 20
-125.5697685775485
 30
0.0
 10
72.42400307434193
 20
-125.4874307954511
 30
0.0
 10
72.42400307434193
 20
-125.3689195107585
 30
0.0
 10
72.42400307434193
 20
-125.1150159734956
 30
0.0
 10
72.61021048531967
 20
-124.8779934041104
 30
0.0
 10
72.92319741015461
 20
-124.8779934041104
 30
0.0
 10
73.2406629591204
 20
-124.8779934041104
 30
0.0
 10
73.47544621644018
 20
-125.1022691202001
 30
0.0
 10
73.47544621644018
 20
-125.4047485038051
 30
0.0
  0
HATCH
  5
AC
330
A5
100
AcDbEntity
  8
_U+30EC_U+30A4_U+30E4_U+30FC 1
 62
   179
420
  2234388
100
AcDbHatch
 10
0.0
 20
0.0
 30
0.0
210
0.0
220
0.0
230
1.0
  2
SOLID
 70
     1
 71
     0
 91
        1
 92
        1
 93
        1
 72
     4
 94
        3
 73
     0
 74
     1
 95
       53
 96
       49
 40
0.0
 40
0.0
 40
0.0
 40
0.0
 40
1.0
 40
1.0
 40
1.0
 40
2.0
 40
2.0
 40
2.0
 40
3.0
 40
3.0
 40
3.0
 40
4.0
 40
4.0
 40
4.0
 40
5.0
 40
5.0
 40
5.0
 40
6.0
 40
6.0
 40
6.0
 40
7.0
 40
7.0
 40
7.0
 40
8.0
 40
8.0
 40
8.0
 40
9.0
 40
9.0
 40
9.0
 40
10.0
 40
10.0
 40
10.0
 40
11.0
 40
11.0
 40
11.0
 40
12.0
 40
12.0
 40
12.0
 40
13.0
 40
13.0
 40
13.0
 40
14.0
 40
14.0
 40
14.0
 40
15.0
 40
15.0
 40
15.0
 40
16.0
 40
16.0
 40
16.0
 40
16.0
 10
73.47544621644018
 20
-125.4047485038051
 10
73.47544621644018
 20
-125.4829521713202
 10
73.45856524856245
 20
-125.5845824881351
 10
73.39500323685958
 20
-125.68621280495
 10
73.28493243610585
 20
-125.8595011078581
 10
73.15384655289209
 20
-125.8808606998666
 10
73.04601506420377
 20
-125.8998087250355
 10
73.04601506420377
 20
-125.8998087250355
 10
73.04601506420377
 20
-125.6776000662368
 10
73.04601506420377
 20
-125.6776000662368
 10
73.2447970737027
 20
-125.6228230480214
 10
73.27442489487584
 20
-125.4956990246157
 10
73.27442489487584
 20
-125.4026814465139
 10
73.27442489487584
 20
-125.2631550793613
 10
73.17503389012639
 20
-125.1108818589133
 10
72.94231769009775
 20
-125.1108818589133
 10
72.6863470955437
 20
-125.1108818589133
 10
72.61658391196738
 20
-125.2907158432433
 10
72.61658391196738
 20
-125.411294185227
 10
72.61658391196738
 20
-125.4429890636913
 10
72.61658391196738
 20
-125.5845824881351
 10
72.74560273789
 20
-125.6734659516545
 10
72.74560273789
 20
-125.6734659516545
 10
72.72648245794686
 20
-125.8491658214023
 10
72.72648245794686
 20
-125.8491658214023
 10
72.72648245794686
 20
-125.8491658214023
 10
71.88036700676949
 20
-125.7285874794186
 10
71.88036700676949
 20
-125.7285874794186
 10
71.88036700676949
 20
-125.7285874794186
 10
71.88036700676949
 20
-124.9499958997521
 10
71.88036700676949
 20
-124.9499958997521
 10
71.88036700676949
 20
-124.9499958997521
 10
72.07501490168612
 20
-124.9499958997521
 10
72.07501490168612
 20
-124.9499958997521
 10
72.07501490168612
 20
-124.9499958997521
 10
72.07501490168612
 20
-125.5656344629662
 10
72.07501490168612
 20
-125.5656344629662
 10
72.07501490168612
 20
-125.5656344629662
 10
72.4980726272748
 20
-125.631091277186
 10
72.4980726272748
 20
-125.631091277186
 10
72.46413843674507
 20
-125.5697685775485
 10
72.42400307434193
 20
-125.4874307954511
 10
72.42400307434193
 20
-125.3689195107585
 10
72.42400307434193
 20
-125.1150159734956
 10
72.61021048531967
 20
-124.8779934041104
 10
72.92319741015461
 20
-124.8779934041104
 10
73.2406629591204
 20
-124.8779934041104
 10
73.47544621644018
 20
-125.1022691202001
 10
73.47544621644018
 20
-125.4047485038051
 97
        0
 97
        0
 75
     2
 76
     1
 98
        0
  0
ENDBLK
  5
A8
330
A5
100
AcDbEntity
  8
0
100
AcDbBlockEnd
  0
ENDSEC
  0
SECTION
  2
ENTITIES
  0
POLYLINE
  5
41
330
1F
100
AcDbEntity
  8
_U+30EC_U+30A4_U+30E4_U+30FC 1
370
     0
100
AcDb2dPolyline
 66
     1
 10
0.0
 20
0.0
 30
0.0
  0
VERTEX
  5
42
330
41
100
AcDbEntity
  8
_U+30EC_U+30A4_U+30E4_U+30FC 1
370
     0
100
AcDbVertex
100
AcDb2dVertex
 10
79.52073047125715
 20
-113.397911916095
 30
0.0
  0
VERTEX
  5
43
330
41
100
AcDbEntity
  8
_U+30EC_U+30A4_U+30E4_U+30FC 1
370
     0
100
AcDbVertex
100
AcDb2dVertex
 10
78.02071939841451
 20
-113.397911916095
 30
0.0
  0
VERTEX
  5
44
330
41
100
AcDbEntity
  8
_U+30EC_U+30A4_U+30E4_U+30FC 1
370
     0
100
AcDbVertex
100
AcDb2dVertex
 10
78.02071939841451
 20
-138.3977560765118
 30
0.0
  0
VERTEX
  5
45
330
41
100
AcDbEntity
  8
_U+30EC_U+30A4_U+30E4_U+30FC 1
370
     0
100
AcDbVertex
100
AcDb2dVertex
 10
103.0207393161664
 20
-138.3977560765118
 30
0.0
  0
VERTEX
  5
46
330
41
100
AcDbEntity
  8
_U+30EC_U+30A4_U+30E4_U+30FC 1
370
     0
100
AcDbVertex
100
AcDb2dVertex
 10
103.0207393161664
 20
-136.8977449657755
 30
0.0
  0
VERTEX
  5
47
330
41
100
AcDbEntity
  8
_U+30EC_U+30A4_U+30E4_U+30FC 1
370
     0
100
AcDbVertex
100
AcDb2dVertex
 10
79.52073047125715
 20
-136.8977449657755
 30
0.0
  0
VERTEX
  5
48
330
41
100
AcDbEntity
  8
_U+30EC_U+30A4_U+30E4_U+30FC 1
370
     0
100
AcDbVertex
100
AcDb2dVertex
 10
79.52073047125715
 20
-113.397911916095
 30
0.0
  0
SEQEND
  5
4A
330
41
100
AcDbEntity
  8
_U+30EC_U+30A4_U+30E4_U+30FC 1
370
     0
  0
HATCH
  5
49
330
1F
100
AcDbEntity
  8
_U+30EC_U+30A4_U+30E4_U+30FC 1
 62
   253
420
 11711154
100
AcDbHatch
 10
0.0
 20
0.0
 30
0.0
210
0.0
220
0.0
230
1.0
  2
SOLID
 70
     1
 71
     0
 91
        1
 92
        1
 93
        6
 72
     1
 10
79.52073047125715
 20
-113.397911916095
 11
78.02071939841451
 21
-113.397911916095
 72
     1
 10
78.02071939841451
 20
-113.397911916095
 11
78.02071939841451
 21
-138.3977560765118
 72
     1
 10
78.02071939841451
 20
-138.3977560765118
 11
103.0207393161664
 21
-138.3977560765118
 72
     1
 10
103.0207393161664
 20
-138.3977560765118
 11
103.0207393161664
 21
-136.8977449657755
 72
     1
 10
103.0207393161664
 20
-136.8977449657755
 11
79.52073047125715
 21
-136.8977449657755
 72
     1
 10
79.52073047125715
 20
-136.8977449657755
 11
79.52073047125715
 21
-113.397911916095
 97
        0
 75
     2
 76
     1
 98
        0
  0
POLYLINE
  5
4B
330
1F
100
AcDbEntity
  8
_U+30EC_U+30A4_U+30E4_U+30FC 1
 62
   179
420
  2234388
370
    25
100
AcDb2dPolyline
 66
     1
 10
0.0
 20
0.0
 30
0.0
  0
VERTEX
  5
4C
330
4B
100
AcDbEntity
  8
_U+30EC_U+30A4_U+30E4_U+30FC 1
 62
   179
420
  2234388
370
    25
100
AcDbVertex
100
AcDb2dVertex
 10
78.02071939841451
 20
-138.3977560765118
 30
0.0
  0
VERTEX
  5
4D
330
4B
100
AcDbEntity
  8
_U+30EC_U+30A4_U+30E4_U+30FC 1
 62
   179
420
  2234388
370
    25
100
AcDbVertex
100
AcDb2dVertex
 10
103.0207393161664
 20
-138.3977560765118
 30
0.0
  0
SEQEND
  5
4E
330
4B
100
AcDbEntity
  8
_U+30EC_U+30A4_U+30E4_U+30FC 1
 62
   179
420
  2234388
370
    25
  0
POLYLINE
  5
4F
330
1F
100
AcDbEntity
  8
_U+30EC_U+30A4_U+30E4_U+30FC 1
 62
   179
420
  2234388
370
    25
100
AcDb2dPolyline
 66
     1
 10
0.0
 20
0.0
 30
0.0
  0
VERTEX
  5
50
330
4F
100
AcDbEntity
  8
_U+30EC_U+30A4_U+30E4_U+30FC 1
 62
   179
420
  2234388
370
    25
100
AcDbVertex
100
AcDb2dVertex
 10
78.02071939841451
 20
-113.397911916095
 30
0.0
  0
VERTEX
  5
51
330
4F
100
AcDbEntity
  8
_U+30EC_U+30A4_U+30E4_U+30FC 1
 62
   179
420
  2234388
370
    25
100
AcDbVertex
100
AcDb2dVertex
 10
78.02071939841451
 20
-138.3977560765118
 30
0.0
  0
SEQEND
  5
52
330
4F
100
AcDbEntity
  8
_U+30EC_U+30A4_U+30E4_U+30FC 1
 62
   179
420
  2234388
370
    25
  0
POLYLINE
  5
53
330
1F
100
AcDbEntity
  8
_U+30EC_U+30A4_U+30E4_U+30FC 1
 62
   179
420
  2234388
370
    25
100
AcDb2dPolyline
 66
     1
 10
0.0
 20
0.0
 30
0.0
  0
VERTEX
  5
54
330
53
100
AcDbEntity
  8
_U+30EC_U+30A4_U+30E4_U+30FC 1
 62
   179
420
  2234388
370
    25
100
AcDbVertex
100
AcDb2dVertex
 10
79.52073047125715
 20
-136.8977449657755
 30
0.0
  0
VERTEX
  5
55
330
53
100
AcDbEntity
  8
_U+30EC_U+30A4_U+30E4_U+30FC 1
 62
   179
420
  2234388
370
    25
100
AcDbVertex
100
AcDb2dVertex
 10
103.0207393161664
 20
-136.8977449657755
 30
0.0
  0
SEQEND
  5
56
330
53
100
AcDbEntity
  8
_U+30EC_U+30A4_U+30E4_U+30FC 1
 62
   179
420
  2234388
370
    25
  0
POLYLINE
  5
57
330
1F
100
AcDbEntity
  8
_U+30EC_U+30A4_U+30E4_U+30FC 1
 62
   179
420
  2234388
370
    25
100
AcDb2dPolyline
 66
     1
 10
0.0
 20
0.0
 30
0.0
  0
VERTEX
  5
58
330
57
100
AcDbEntity
  8
_U+30EC_U+30A4_U+30E4_U+30FC 1
 62
   179
420
  2234388
370
    25
100
AcDbVertex
100
AcDb2dVertex
 10
78.02071939841451
 20
-113.397911916095
 30
0.0
  0
VERTEX
  5
59
330
57
100
AcDbEntity
  8
_U+30EC_U+30A4_U+30E4_U+30FC 1
 62
   179
420
  2234388
370
    25
100
AcDbVertex
100
AcDb2dVertex
 10
79.52073047125715
 20
-113.397911916095
 30
0.0
  0
SEQEND
  5
5A
330
57
100
AcDbEntity
  8
_U+30EC_U+30A4_U+30E4_U+30FC 1
 62
   179
420
  2234388
370
    25
  0
POLYLINE
  5
5B
330
1F
100
AcDbEntity
  8
_U+30EC_U+30A4_U+30E4_U+30FC 1
 62
   179
420
  2234388
370
    25
100
AcDb2dPolyline
 66
     1
 10
0.0
 20
0.0
 30
0.0
  0
VERTEX
  5
5C
330
5B
100
AcDbEntity
  8
_U+30EC_U+30A4_U+30E4_U+30FC 1
 62
   179
420
  2234388
370
    25
100
AcDbVertex
100
AcDb2dVertex
 10
103.0207393161664
 20
-136.8977449657755
 30
0.0
  0
VERTEX
  5
5D
330
5B
100
AcDbEntity
  8
_U+30EC_U+30A4_U+30E4_U+30FC 1
 62
   179
420
  2234388
370
    25
100
AcDbVertex
100
AcDb2dVertex
 10
103.0207393161664
 20
-138.3977560765118
 30
0.0
  0
SEQEND
  5
5E
330
5B
100
AcDbEntity
  8
_U+30EC_U+30A4_U+30E4_U+30FC 1
 62
   179
420
  2234388
370
    25
  0
POLYLINE
  5
5F
330
1F
100
AcDbEntity
  8
_U+30EC_U+30A4_U+30E4_U+30FC 1
 62
   179
420
  2234388
370
    25
100
AcDb2dPolyline
 66
     1
 10
0.0
 20
0.0
 30
0.0
  0
VERTEX
  5
60
330
5F
100
AcDbEntity
  8
_U+30EC_U+30A4_U+30E4_U+30FC 1
 62
   179
420
  2234388
370
    25
100
AcDbVertex
100
AcDb2dVertex
 10
79.52073047125715
 20
-113.397911916095
 30
0.0
  0
VERTEX
  5
61
330
5F
100
AcDbEntity
  8
_U+30EC_U+30A4_U+30E4_U+30FC 1
 62
   179
420
  2234388
370
    25
100
AcDbVertex
100
AcDb2dVertex
 10
79.52073047125715
 20
-136.8977449657755
 30
0.0
  0
SEQEND
  5
62
330
5F
100
AcDbEntity
  8
_U+30EC_U+30A4_U+30E4_U+30FC 1
 62
   179
420
  2234388
370
    25
  0
SPLINE
  5
63
330
1F
100
AcDbEntity
  8
_U+30EC_U+30A4_U+30E4_U+30FC 1
 62
   179
420
  2234388
370
     9
100
AcDbSpline
210
0.0
220
0.0
230
1.0
 70
    11
 71
     3
 72
    17
 73
    13
 74
     0
 42
0.0000000001
 43
0.0000000001
 12
1.0
 22
0.0
 32
0.0
 13
1.0
 23
0.0
 33
0.0
 40
0.0
 40
0.0
 40
0.0
 40
0.0
 40
1.0
 40
1.0
 40
1.0
 40
2.0
 40
2.0
 40
2.0
 40
3.0
 40
3.0
 40
3.0
 40
4.0
 40
4.0
 40
4.0
 40
4.0
 10
107.1207578226773
 20
-138.3977560765118
 30
0.0
 10
107.1207578226773
 20
-138.3426169098587
 30
0.0
 10
107.0759903238195
 20
-138.2978494098701
 30
0.0
 10
107.0208511585595
 20
-138.2978494098701
 30
0.0
 10
106.9657499732583
 20
-138.2978494098701
 30
0.0
 10
106.9209471954922
 20
-138.3426169098587
 30
0.0
 10
106.9209471954922
 20
-138.3977560765118
 30
0.0
 10
106.9209471954922
 20
-138.4528599653867
 30
0.0
 10
106.9657499732583
 20
-138.4976627431534
 30
0.0
 10
107.0208511585595
 20
-138.4976627431534
 30
0.0
 10
107.0759903238195
 20
-138.4976627431534
 30
0.0
 10
107.1207578226773
 20
-138.4528599653867
 30
0.0
 10
107.1207578226773
 20
-138.3977560765118
 30
0.0
  0
SPLINE
  5
64
330
1F
100
AcDbEntity
  8
_U+30EC_U+30A4_U+30E4_U+30FC 1
 62
   179
420
  2234388
370
     9
100
AcDbSpline
210
0.0
220
0.0
230
1.0
 70
    11
 71
     3
 72
    17
 73
    13
 74
     0
 42
0.0000000001
 43
0.0000000001
 12
1.0
 22
0.0
 32
0.0
 13
1.0
 23
0.0
 33
0.0
 40
0.0
 40
0.0
 40
0.0
 40
0.0
 40
1.0
 40
1.0
 40
1.0
 40
2.0
 40
2.0
 40
2.0
 40
3.0
 40
3.0
 40
3.0
 40
4.0
 40
4.0
 40
4.0
 40
4.0
 10
107.1207578226773
 20
-136.8977449657755
 30
0.0
 10
107.1207578226773
 20
-136.8426410769006
 30
0.0
 10
107.0759903238195
 20
-136.7978382991339
 30
0.0
 10
107.0208511585595
 20
-136.7978382991339
 30
0.0
 10
106.9657499732583
 20
-136.7978382991339
 30
0.0
 10
106.9209471954922
 20
-136.8426410769006
 30
0.0
 10
106.9209471954922
 20
-136.8977449657755
 30
0.0
 10
106.9209471954922
 20
-136.9528841324286
 30
0.0
 10
106.9657499732583
 20
-136.9976516324172
 30
0.0
 10
107.0208511585595
 20
-136.9976516324172
 30
0.0
 10
107.0759903238195
 20
-136.9976516324172
 30
0.0
 10
107.1207578226773
 20
-136.9528841324286
 30
0.0
 10
107.1207578226773
 20
-136.8977449657755
 30
0.0
  0
SPLINE
  5
65
330
1F
100
AcDbEntity
  8
_U+30EC_U+30A4_U+30E4_U+30FC 1
 62
   179
420
  2234388
370
     9
100
AcDbSpline
210
0.0
220
0.0
230
1.0
 70
    11
 71
     3
 72
    17
 73
    13
 74
     0
 42
0.0000000001
 43
0.0000000001
 12
1.0
 22
0.0
 32
0.0
 13
1.0
 23
0.0
 33
0.0
 40
0.0
 40
0.0
 40
0.0
 40
0.0
 40
1.0
 40
1.0
 40
1.0
 40
2.0
 40
2.0
 40
2.0
 40
3.0
 40
3.0
 40
3.0
 40
4.0
 40
4.0
 40
4.0
 40
4.0
 10
103.120998758053
 20
-142.3975152421787
 30
0.0
 10
103.120998758053
 20
-142.3423760755256
 30
0.0
 10
103.0762312591952
 20
-142.297608575537
 30
0.0
 10
103.0207393161664
 20
-142.297608575537
 30
0.0
 10
102.9656354286833
 20
-142.297608575537
 30
0.0
 10
102.9208326520486
 20
-142.3423760755256
 30
0.0
 10
102.9208326520486
 20
-142.3975152421787
 30
0.0
 10
102.9208326520486
 20
-142.4526191310536
 30
0.0
 10
102.9656354286833
 20
-142.4974219088203
 30
0.0
 10
103.0207393161664
 20
-142.4974219088203
 30
0.0
 10
103.0762312591952
 20
-142.4974219088203
 30
0.0
 10
103.120998758053
 20
-142.4526191310536
 30
0.0
 10
103.120998758053
 20
-142.3975152421787
 30
0.0
  0
SPLINE
  5
66
330
1F
100
AcDbEntity
  8
_U+30EC_U+30A4_U+30E4_U+30FC 1
 62
   179
420
  2234388
370
     9
100
AcDbSpline
210
0.0
220
0.0
230
1.0
 70
    11
 71
     3
 72
    17
 73
    13
 74
     0
 42
0.0000000001
 43
0.0000000001
 12
1.0
 22
0.0
 32
0.0
 13
1.0
 23
0.0
 33
0.0
 40
0.0
 40
0.0
 40
0.0
 40
0.0
 40
1.0
 40
1.0
 40
1.0
 40
2.0
 40
2.0
 40
2.0
 40
3.0
 40
3.0
 40
3.0
 40
4.0
 40
4.0
 40
4.0
 40
4.0
 10
74.12086699790804
 20
-138.3977560765118
 30
0.0
 10
74.12086699790804
 20
-138.3426169098587
 30
0.0
 10
74.07609949905014
 20
-138.2978494098701
 30
0.0
 10
74.02064283379829
 20
-138.2978494098701
 30
0.0
 10
73.96550553706425
 20
-138.2978494098701
 30
0.0
 10
73.92073616968047
 20
-138.3426169098587
 30
0.0
 10
73.92073616968047
 20
-138.3977560765118
 30
0.0
 10
73.92073616968047
 20
-138.4528599653867
 30
0.0
 10
73.96550553706425
 20
-138.4976627431534
 30
0.0
 10
74.02064283379829
 20
-138.4976627431534
 30
0.0
 10
74.07609949905014
 20
-138.4976627431534
 30
0.0
 10
74.12086699790804
 20
-138.4528599653867
 30
0.0
 10
74.12086699790804
 20
-138.3977560765118
 30
0.0
  0
SPLINE
  5
67
330
1F
100
AcDbEntity
  8
_U+30EC_U+30A4_U+30E4_U+30FC 1
 62
   179
420
  2234388
370
     9
100
AcDbSpline
210
0.0
220
0.0
230
1.0
 70
    11
 71
     3
 72
    17
 73
    13
 74
     0
 42
0.0000000001
 43
0.0000000001
 12
1.0
 22
0.0
 32
0.0
 13
1.0
 23
0.0
 33
0.0
 40
0.0
 40
0.0
 40
0.0
 40
0.0
 40
1.0
 40
1.0
 40
1.0
 40
2.0
 40
2.0
 40
2.0
 40
3.0
 40
3.0
 40
3.0
 40
4.0
 40
4.0
 40
4.0
 40
4.0
 10
78.12062606253234
 20
-142.3975152421787
 30
0.0
 10
78.12062606253234
 20
-142.3423760755256
 30
0.0
 10
78.07585856367446
 20
-142.297608575537
 30
0.0
 10
78.02071939841451
 20
-142.297608575537
 30
0.0
 10
77.96561551093144
 20
-142.297608575537
 30
0.0
 10
77.92081273429667
 20
-142.3423760755256
 30
0.0
 10
77.92081273429667
 20
-142.3975152421787
 30
0.0
 10
77.92081273429667
 20
-142.4526191310536
 30
0.0
 10
77.96561551093144
 20
-142.4974219088203
 30
0.0
 10
78.02071939841451
 20
-142.4974219088203
 30
0.0
 10
78.07585856367446
 20
-142.4974219088203
 30
0.0
 10
78.12062606253234
 20
-142.4526191310536
 30
0.0
 10
78.12062606253234
 20
-142.3975152421787
 30
0.0
  0
SPLINE
  5
68
330
1F
100
AcDbEntity
  8
_U+30EC_U+30A4_U+30E4_U+30FC 1
 62
   179
420
  2234388
370
     9
100
AcDbSpline
210
0.0
220
0.0
230
1.0
 70
    11
 71
     3
 72
    17
 73
    13
 74
     0
 42
0.0000000001
 43
0.0000000001
 12
1.0
 22
0.0
 32
0.0
 13
1.0
 23
0.0
 33
0.0
 40
0.0
 40
0.0
 40
0.0
 40
0.0
 40
1.0
 40
1.0
 40
1.0
 40
2.0
 40
2.0
 40
2.0
 40
3.0
 40
3.0
 40
3.0
 40
4.0
 40
4.0
 40
4.0
 40
4.0
 10
74.12086699790804
 20
-113.397911916095
 30
0.0
 10
74.12086699790804
 20
-113.3424199716645
 30
0.0
 10
74.07609949905014
 20
-113.2976524716756
 30
0.0
 10
74.02064283379829
 20
-113.2976524716756
 30
0.0
 10
73.96550553706425
 20
-113.2976524716756
 30
0.0
 10
73.92073616968047
 20
-113.3424199716645
 30
0.0
 10
73.92073616968047
 20
-113.397911916095
 30
0.0
 10
73.92073616968047
 20
-113.4533685827477
 30
0.0
 10
73.96550553706425
 20
-113.4981713605144
 30
0.0
 10
74.02064283379829
 20
-113.4981713605144
 30
0.0
 10
74.07609949905014
 20
-113.4981713605144
 30
0.0
 10
74.12086699790804
 20
-113.4533685827477
 30
0.0
 10
74.12086699790804
 20
-113.397911916095
 30
0.0
  0
POLYLINE
  5
69
330
1F
100
AcDbEntity
  8
_U+30EC_U+30A4_U+30E4_U+30FC 1
 62
   179
420
  2234388
370
     9
100
AcDb2dPolyline
 66
     1
 10
0.0
 20
0.0
 30
0.0
  0
VERTEX
  5
6A
330
69
100
AcDbEntity
  8
_U+30EC_U+30A4_U+30E4_U+30FC 1
 62
   179
420
  2234388
370
     9
100
AcDbVertex
100
AcDb2dVertex
 10
107.0208511585595
 20
-136.8977449657755
 30
0.0
  0
VERTEX
  5
6B
330
69
100
AcDbEntity
  8
_U+30EC_U+30A4_U+30E4_U+30FC 1
 62
   179
420
  2234388
370
     9
100
AcDbVertex
100
AcDb2dVertex
 10
107.0208511585595
 20
-139.3975282984837
 30
0.0
  0
SEQEND
  5
6C
330
69
100
AcDbEntity
  8
_U+30EC_U+30A4_U+30E4_U+30FC 1
 62
   179
420
  2234388
370
     9
  0
POLYLINE
  5
6D
330
1F
100
AcDbEntity
  8
_U+30EC_U+30A4_U+30E4_U+30FC 1
 62
   179
420
  2234388
370
     9
100
AcDb2dPolyline
 66
     1
 10
0.0
 20
0.0
 30
0.0
  0
VERTEX
  5
6E
330
6D
100
AcDbEntity
  8
_U+30EC_U+30A4_U+30E4_U+30FC 1
 62
   179
420
  2234388
370
     9
100
AcDbVertex
100
AcDb2dVertex
 10
105.5608098069194
 20
-136.8977449657755
 30
0.0
  0
VERTEX
  5
6F
330
6D
100
AcDbEntity
  8
_U+30EC_U+30A4_U+30E4_U+30FC 1
 62
   179
420
  2234388
370
     9
100
AcDbVertex
100
AcDb2dVertex
 10
108.0209761330442
 20
-136.8977449657755
 30
0.0
  0
SEQEND
  5
70
330
6D
100
AcDbEntity
  8
_U+30EC_U+30A4_U+30E4_U+30FC 1
 62
   179
420
  2234388
370
     9
  0
POLYLINE
  5
71
330
1F
100
AcDbEntity
  8
_U+30EC_U+30A4_U+30E4_U+30FC 1
 62
   179
420
  2234388
370
     9
100
AcDb2dPolyline
 66
     1
 10
0.0
 20
0.0
 30
0.0
  0
VERTEX
  5
72
330
71
100
AcDbEntity
  8
_U+30EC_U+30A4_U+30E4_U+30FC 1
 62
   179
420
  2234388
370
     9
100
AcDbVertex
100
AcDb2dVertex
 10
105.5608098069194
 20
-138.3977560765118
 30
0.0
  0
VERTEX
  5
73
330
71
100
AcDbEntity
  8
_U+30EC_U+30A4_U+30E4_U+30FC 1
 62
   179
420
  2234388
370
     9
100
AcDbVertex
100
AcDb2dVertex
 10
108.0209761330442
 20
-138.3977560765118
 30
0.0
  0
SEQEND
  5
74
330
71
100
AcDbEntity
  8
_U+30EC_U+30A4_U+30E4_U+30FC 1
 62
   179
420
  2234388
370
     9
  0
INSERT
  5
76
330
1F
100
AcDbEntity
  8
_U+30EC_U+30A4_U+30E4_U+30FC 1
100
AcDbBlockReference
  2
block 2
 10
0.0
 20
0.0
 30
0.0
  0
POLYLINE
  5
85
330
1F
100
AcDbEntity
  8
_U+30EC_U+30A4_U+30E4_U+30FC 1
 62
   179
420
  2234388
370
     9
100
AcDb2dPolyline
 66
     1
 10
0.0
 20
0.0
 30
0.0
  0
VERTEX
  5
86
330
85
100
AcDbEntity
  8
_U+30EC_U+30A4_U+30E4_U+30FC 1
 62
   179
420
  2234388
370
     9
100
AcDbVertex
100
AcDb2dVertex
 10
78.02071939841451
 20
-142.3975152421787
 30
0.0
  0
VERTEX
  5
87
330
85
100
AcDbEntity
  8
_U+30EC_U+30A4_U+30E4_U+30FC 1
 62
   179
420
  2234388
370
     9
100
AcDbVertex
100
AcDb2dVertex
 10
103.0207393161664
 20
-142.3975152421787
 30
0.0
  0
SEQEND
  5
88
330
85
100
AcDbEntity
  8
_U+30EC_U+30A4_U+30E4_U+30FC 1
 62
   179
420
  2234388
370
     9
  0
POLYLINE
  5
89
330
1F
100
AcDbEntity
  8
_U+30EC_U+30A4_U+30E4_U+30FC 1
 62
   179
420
  2234388
370
     9
100
AcDb2dPolyline
 66
     1
 10
0.0
 20
0.0
 30
0.0
  0
VERTEX
  5
8A
330
89
100
AcDbEntity
  8
_U+30EC_U+30A4_U+30E4_U+30FC 1
 62
   179
420
  2234388
370
     9
100
AcDbVertex
100
AcDb2dVertex
 10
78.02071939841451
 20
-140.9374738536543
 30
0.0
  0
VERTEX
  5
8B
330
89
100
AcDbEntity
  8
_U+30EC_U+30A4_U+30E4_U+30FC 1
 62
   179
420
  2234388
370
     9
100
AcDbVertex
100
AcDb2dVertex
 10
78.02071939841451
 20
-143.3979577419286
 30
0.0
  0
SEQEND
  5
8C
330
89
100
AcDbEntity
  8
_U+30EC_U+30A4_U+30E4_U+30FC 1
 62
   179
420
  2234388
370
     9
  0
POLYLINE
  5
8D
330
1F
100
AcDbEntity
  8
_U+30EC_U+30A4_U+30E4_U+30FC 1
 62
   179
420
  2234388
370
     9
100
AcDb2dPolyline
 66
     1
 10
0.0
 20
0.0
 30
0.0
  0
VERTEX
  5
8E
330
8D
100
AcDbEntity
  8
_U+30EC_U+30A4_U+30E4_U+30FC 1
 62
   179
420
  2234388
370
     9
100
AcDbVertex
100
AcDb2dVertex
 10
103.0207393161664
 20
-140.9374738536543
 30
0.0
  0
VERTEX
  5
8F
330
8D
100
AcDbEntity
  8
_U+30EC_U+30A4_U+30E4_U+30FC 1
 62
   179
420
  2234388
370
     9
100
AcDbVertex
100
AcDb2dVertex
 10
103.0207393161664
 20
-143.3979577419286
 30
0.0
  0
SEQEND
  5
90
330
8D
100
AcDbEntity
  8
_U+30EC_U+30A4_U+30E4_U+30FC 1
 62
   179
420
  2234388
370
     9
  0
INSERT
  5
92
330
1F
100
AcDbEntity
  8
_U+30EC_U+30A4_U+30E4_U+30FC 1
100
AcDbBlockReference
  2
block 3
 10
0.0
 20
0.0
 30
0.0
  0
POLYLINE
  5
99
330
1F
100
AcDbEntity
  8
_U+30EC_U+30A4_U+30E4_U+30FC 1
 62
   179
420
  2234388
370
     9
100
AcDb2dPolyline
 66
     1
 10
0.0
 20
0.0
 30
0.0
  0
VERTEX
  5
9A
330
99
100
AcDbEntity
  8
_U+30EC_U+30A4_U+30E4_U+30FC 1
 62
   179
420
  2234388
370
     9
100
AcDbVertex
100
AcDb2dVertex
 10
74.02064283379829
 20
-113.397911916095
 30
0.0
  0
VERTEX
  5
9B
330
99
100
AcDbEntity
  8
_U+30EC_U+30A4_U+30E4_U+30FC 1
 62
   179
420
  2234388
370
     9
100
AcDbVertex
100
AcDb2dVertex
 10
74.02064283379829
 20
-138.3977560765118
 30
0.0
  0
SEQEND
  5
9C
330
99
100
AcDbEntity
  8
_U+30EC_U+30A4_U+30E4_U+30FC 1
 62
   179
420
  2234388
370
     9
  0
POLYLINE
  5
9D
330
1F
100
AcDbEntity
  8
_U+30EC_U+30A4_U+30E4_U+30FC 1
 62
   179
420
  2234388
370
     9
100
AcDb2dPolyline
 66
     1
 10
0.0
 20
0.0
 30
0.0
  0
VERTEX
  5
9E
330
9D
100
AcDbEntity
  8
_U+30EC_U+30A4_U+30E4_U+30FC 1
 62
   179
420
  2234388
370
     9
100
AcDbVertex
100
AcDb2dVertex
 10
75.48100168543033
 20
-113.397911916095
 30
0.0
  0
VERTEX
  5
9F
330
9D
100
AcDbEntity
  8
_U+30EC_U+30A4_U+30E4_U+30FC 1
 62
   179
420
  2234388
370
     9
100
AcDbVertex
100
AcDb2dVertex
 10
73.02087063708238
 20
-113.397911916095
 30
0.0
  0
SEQEND
  5
A0
330
9D
100
AcDbEntity
  8
_U+30EC_U+30A4_U+30E4_U+30FC 1
 62
   179
420
  2234388
370
     9
  0
POLYLINE
  5
A1
330
1F
100
AcDbEntity
  8
_U+30EC_U+30A4_U+30E4_U+30FC 1
 62
   179
420
  2234388
370
     9
100
AcDb2dPolyline
 66
     1
 10
0.0
 20
0.0
 30
0.0
  0
VERTEX
  5
A2
330
A1
100
AcDbEntity
  8
_U+30EC_U+30A4_U+30E4_U+30FC 1
 62
   179
420
  2234388
370
     9
100
AcDbVertex
100
AcDb2dVertex
 10
75.48100168543033
 20
-138.3977560765118
 30
0.0
  0
VERTEX
  5
A3
330
A1
100
AcDbEntity
  8
_U+30EC_U+30A4_U+30E4_U+30FC 1
 62
   179
420
  2234388
370
     9
100
AcDbVertex
100
AcDb2dVertex
 10
73.02087063708238
 20
-138.3977560765118
 30
0.0
  0
SEQEND
  5
A4
330
A1
100
AcDbEntity
  8
_U+30EC_U+30A4_U+30E4_U+30FC 1
 62
   179
420
  2234388
370
     9
  0
INSERT
  5
A6
330
1F
100
AcDbEntity
  8
_U+30EC_U+30A4_U+30E4_U+30FC 1
100
AcDbBlockReference
  2
block 4
 10
0.0
 20
0.0
 30
0.0
  0
ENDSEC
  0
SECTION
  2
OBJECTS
  0
DICTIONARY
  5
C
330
0
100
AcDbDictionary
281
     1
  3
ACAD_GROUP
350
D
  3
ACAD_LAYOUT
350
1A
  3
ACAD_MATERIAL
350
3B
  3
ACAD_MLEADERSTYLE
350
AE
  3
ACAD_MLINESTYLE
350
17
  3
ACAD_PLOTSETTINGS
350
19
  3
ACAD_PLOTSTYLENAME
350
E
  3
ACAD_TABLESTYLE
350
AD
  3
ACAD_VISUALSTYLE
350
2A
  0
SUN
  5
3F
330
29
100
AcDbSun
 90
        1
290
     0
 63
     7
421
 16777215
 40
1.0
291
     1
 91
  2455826
 92
 54000000
292
     0
 70
     2
 71
   256
280
     1
  0
DICTIONARY
  5
D
102
{ACAD_REACTORS
330
C
102
}
330
C
100
AcDbDictionary
281
     1
  0
DICTIONARY
  5
1A
102
{ACAD_REACTORS
330
C
102
}
330
C
100
AcDbDictionary
281
     1
  3
Layout1
350
1E
  3
Layout2
350
26
  3
Model
350
22
  0
DICTIONARY
  5
3B
102
{ACAD_REACTORS
330
C
102
}
330
C
100
AcDbDictionary
281
     1
  3
ByBlock
350
3D
  3
ByLayer
350
3C
  3
Global
350
3E
  0
DICTIONARY
  5
AE
102
{ACAD_REACTORS
330
C
102
}
330
C
100
AcDbDictionary
281
     1
  0
DICTIONARY
  5
17
102
{ACAD_REACTORS
330
C
102
}
330
C
100
AcDbDictionary
281
     1
  3
Standard
350
18
  0
DICTIONARY
  5
19
102
{ACAD_REACTORS
330
C
102
}
330
C
100
AcDbDictionary
281
     1
  0
ACDBDICTIONARYWDFLT
  5
E
102
{ACAD_REACTORS
330
C
102
}
330
C
100
AcDbDictionary
281
     1
  3
Normal
350
F
100
AcDbDictionaryWithDefault
340
F
  0
DICTIONARY
  5
AD
102
{ACAD_REACTORS
330
C
102
}
330
C
100
AcDbDictionary
281
     1
  0
DICTIONARY
  5
2A
102
{ACAD_REACTORS
330
C
102
}
330
C
100
AcDbDictionary
281
     1
  3
2dWireframe
350
2F
  3
3D Hidden
350
31
  3
3dWireframe
350
30
  3
Basic
350
32
  3
Brighten
350
36
  3
ColorChange
350
3A
  3
Conceptual
350
34
  3
Dim
350
35
  3
Facepattern
350
39
  3
Flat
350
2B
  3
FlatWithEdges
350
2C
  3
Gouraud
350
2D
  3
GouraudWithEdges
350
2E
  3
Linepattern
350
38
  3
Realistic
350
33
  3
Thicken
350
37
  0
LAYOUT
  5
1E
102
{ACAD_REACTORS
330
1A
102
}
330
1A
100
AcDbPlotSettings
  1

  2
none_device
  4

  6

 40
0.0
 41
0.0
 42
0.0
 43
0.0
 44
0.0
 45
0.0
 46
0.0
 47
0.0
 48
0.0
 49
0.0
140
0.0
141
0.0
142
1.0
143
1.0
 70
   688
 72
     0
 73
     0
 74
     5
  7

 75
    16
 76
     0
 77
     2
 78
   300
147
1.0
148
0.0
149
0.0
100
AcDbLayout
  1
Layout1
 70
     1
 71
     1
 10
0.0
 20
0.0
 11
12.0
 21
9.0
 12
0.0
 22
0.0
 32
0.0
 14
1.000000000000000E+20
 24
1.000000000000000E+20
 34
1.000000000000000E+20
 15
-1.000000000000000E+20
 25
-1.000000000000000E+20
 35
-1.000000000000000E+20
146
0.0
 13
0.0
 23
0.0
 33
0.0
 16
1.0
 26
0.0
 36
0.0
 17
0.0
 27
1.0
 37
0.0
 76
     0
330
1B
  0
LAYOUT
  5
26
102
{ACAD_REACTORS
330
1A
102
}
330
1A
100
AcDbPlotSettings
  1

  2
none_device
  4

  6

 40
0.0
 41
0.0
 42
0.0
 43
0.0
 44
0.0
 45
0.0
 46
0.0
 47
0.0
 48
0.0
 49
0.0
140
0.0
141
0.0
142
1.0
143
1.0
 70
   688
 72
     0
 73
     0
 74
     5
  7

 75
    16
 76
     0
 77
     2
 78
   300
147
1.0
148
0.0
149
0.0
100
AcDbLayout
  1
Layout2
 70
     1
 71
     2
 10
0.0
 20
0.0
 11
0.0
 21
0.0
 12
0.0
 22
0.0
 32
0.0
 14
0.0
 24
0.0
 34
0.0
 15
0.0
 25
0.0
 35
0.0
146
0.0
 13
0.0
 23
0.0
 33
0.0
 16
1.0
 26
0.0
 36
0.0
 17
0.0
 27
1.0
 37
0.0
 76
     0
330
23
  0
LAYOUT
  5
22
102
{ACAD_REACTORS
330
1A
102
}
330
1A
100
AcDbPlotSettings
  1

  2
none_device
  4

  6

 40
0.0
 41
0.0
 42
0.0
 43
0.0
 44
0.0
 45
0.0
 46
0.0
 47
0.0
 48
0.0
 49
0.0
140
0.0
141
0.0
142
1.0
143
1.0
 70
  1712
 72
     0
 73
     0
 74
     0
  7

 75
     0
 76
     0
 77
     2
 78
   300
147
1.0
148
0.0
149
0.0
100
AcDbLayout
  1
Model
 70
     1
 71
     0
 10
0.0
 20
0.0
 11
12.0
 21
9.0
 12
0.0
 22
0.0
 32
0.0
 14
1.000000000000000E+20
 24
1.000000000000000E+20
 34
1.000000000000000E+20
 15
-1.000000000000000E+20
 25
-1.000000000000000E+20
 35
-1.000000000000000E+20
146
0.0
 13
0.0
 23
0.0
 33
0.0
 16
1.0
 26
0.0
 36
0.0
 17
0.0
 27
1.0
 37
0.0
 76
     0
330
1F
331
29
  0
MATERIAL
  5
3D
102
{ACAD_REACTORS
330
3B
102
}
330
3B
100
AcDbMaterial
  1
ByBlock
 72
     1
 94
      127
  0
MATERIAL
  5
3C
102
{ACAD_REACTORS
330
3B
102
}
330
3B
100
AcDbMaterial
  1
ByLayer
 72
     1
 94
      127
  0
MATERIAL
  5
3E
102
{ACAD_REACTORS
330
3B
102
}
330
3B
100
AcDbMaterial
  1
Global
 72
     1
 94
      127
  0
MLINESTYLE
  5
18
102
{ACAD_REACTORS
330
17
102
}
330
17
100
AcDbMlineStyle
  2
Standard
 70
     0
  3

 62
   256
 51
90.0
 52
90.0
 71
     2
 49
0.5
 62
   256
  6
BYLAYER
 49
-0.5
 62
   256
  6
BYLAYER
  0
ACDBPLACEHOLDER
  5
F
102
{ACAD_REACTORS
330
E
102
}
330
E
  0
VISUALSTYLE
  5
2F
102
{ACAD_REACTORS
330
2A
102
}
330
2A
100
AcDbVisualStyle
  2
2dWireframe
 70
     4
177
     2
291
     0
 71
     0
176
     1
 72
     2
176
     1
 73
     0
176
     1
 90
        0
176
     1
 40
-0.6
176
     1
 41
-30.0
176
     1
 62
     5
 63
     7
421
 16777215
176
     1
 74
     1
176
     1
 91
        4
176
     1
 64
     7
176
     1
 65
   257
176
     1
 75
     1
176
     1
175
     1
176
     1
 42
1.0
176
     1
 92
        0
176
     1
 66
   257
176
     1
 43
1.0
176
     1
 76
     1
176
     1
 77
     6
176
     1
 78
     2
176
     1
 67
     7
176
     1
 79
     5
176
     1
170
     0
176
     1
171
     0
176
     1
290
     0
176
     1
 93
        1
176
     1
 44
0.0
176
     1
173
     0
176
     1
  0
VISUALSTYLE
  5
31
102
{ACAD_REACTORS
330
2A
102
}
330
2A
100
AcDbVisualStyle
  2
3D Hidden
 70
     6
177
     2
291
     0
 71
     1
176
     1
 72
     2
176
     1
 73
     2
176
     1
 90
        0
176
     1
 40
-0.6
176
     1
 41
-30.0
176
     1
 62
     5
 63
     7
421
 16777215
176
     1
 74
     2
176
     1
 91
        2
176
     1
 64
     7
176
     1
 65
   257
176
     1
 75
     2
176
     1
175
     1
176
     1
 42
40.0
176
     1
 92
        0
176
     1
 66
   257
176
     1
 43
1.0
176
     1
 76
     1
176
     1
 77
     6
176
     1
 78
     2
176
     1
 67
     7
176
     1
 79
     3
176
     1
170
     0
176
     1
171
     0
176
     1
290
     0
176
     1
 93
        1
176
     1
 44
0.0
176
     1
173
     0
176
     1
  0
VISUALSTYLE
  5
30
102
{ACAD_REACTORS
330
2A
102
}
330
2A
100
AcDbVisualStyle
  2
3dWireframe
 70
     5
177
     2
291
     0
 71
     0
176
     1
 72
     2
176
     1
 73
     0
176
     1
 90
        0
176
     1
 40
-0.6
176
     1
 41
-30.0
176
     1
 62
     5
 63
     7
421
 16777215
176
     1
 74
     1
176
     1
 91
        4
176
     1
 64
     7
176
     1
 65
   257
176
     1
 75
     1
176
     1
175
     1
176
     1
 42
1.0
176
     1
 92
        0
176
     1
 66
   257
176
     1
 43
1.0
176
     1
 76
     1
176
     1
 77
     6
176
     1
 78
     2
176
     1
 67
     7
176
     1
 79
     5
176
     1
170
     0
176
     1
171
     0
176
     1
290
     0
176
     1
 93
        1
176
     1
 44
0.0
176
     1
173
     0
176
     1
  0
VISUALSTYLE
  5
32
102
{ACAD_REACTORS
330
2A
102
}
330
2A
100
AcDbVisualStyle
  2
Basic
 70
     7
177
     2
291
     1
 71
     1
176
     1
 72
     0
176
     1
 73
     1
176
     1
 90
        0
176
     1
 40
-0.6
176
     1
 41
-30.0
176
     1
 62
     5
 63
     7
421
 16777215
176
     1
 74
     0
176
     1
 91
        4
176
     1
 64
     7
176
     1
 65
   257
176
     1
 75
     1
176
     1
175
     1
176
     1
 42
1.0
176
     1
 92
        8
176
     1
 66
     7
176
     1
 43
1.0
176
     1
 76
     1
176
     1
 77
     6
176
     1
 78
     2
176
     1
 67
     7
176
     1
 79
     5
176
     1
170
     0
176
     1
171
     0
176
     1
290
     0
176
     1
 93
        1
176
     1
 44
0.0
176
     1
173
     0
176
     1
  0
VISUALSTYLE
  5
36
102
{ACAD_REACTORS
330
2A
102
}
330
2A
100
AcDbVisualStyle
  2
Brighten
 70
    12
177
     2
291
     1
 71
     2
176
     1
 72
     2
176
     1
 73
     0
176
     1
 90
        0
176
     1
 40
-0.6
176
     1
 41
-30.0
176
     1
 62
     5
 63
     7
421
 16777215
176
     1
 74
     1
176
     1
 91
        4
176
     1
 64
     7
176
     1
 65
   257
176
     1
 75
     1
176
     1
175
     1
176
     1
 42
1.0
176
     1
 92
        8
176
     1
 66
     7
176
     1
 43
1.0
176
     1
 76
     1
176
     1
 77
     6
176
     1
 78
     2
176
     1
 67
     7
176
     1
 79
     5
176
     1
170
     0
176
     1
171
     0
176
     1
290
     0
176
     1
 93
        1
176
     1
 44
50.0
176
     1
173
     0
176
     1
  0
VISUALSTYLE
  5
3A
102
{ACAD_REACTORS
330
2A
102
}
330
2A
100
AcDbVisualStyle
  2
ColorChange
 70
    16
177
     2
291
     1
 71
     2
176
     1
 72
     2
176
     1
 73
     3
176
     1
 90
        0
176
     1
 40
-0.6
176
     1
 41
-30.0
176
     1
 62
     5
 63
     8
421
  8421504
176
     1
 74
     1
176
     1
 91
        4
176
     1
 64
     7
176
     1
 65
   257
176
     1
 75
     1
176
     1
175
     1
176
     1
 42
1.0
176
     1
 92
        8
176
     1
 66
     8
424
  8421504
176
     1
 43
1.0
176
     1
 76
     1
176
     1
 77
     6
176
     1
 78
     2
176
     1
 67
     7
176
     1
 79
     5
176
     1
170
     0
176
     1
171
     0
176
     1
290
     0
176
     1
 93
        1
176
     1
 44
0.0
176
     1
173
     0
176
     1
  0
VISUALSTYLE
  5
34
102
{ACAD_REACTORS
330
2A
102
}
330
2A
100
AcDbVisualStyle
  2
Conceptual
 70
     9
177
     2
291
     0
 71
     3
176
     1
 72
     2
176
     1
 73
     0
176
     1
 90
        0
176
     1
 40
-0.6
176
     1
 41
-30.0
176
     1
 62
     5
 63
     7
421
 16777215
176
     1
 74
     2
176
     1
 91
        2
176
     1
 64
     7
176
     1
 65
   257
176
     1
 75
     1
176
     1
175
     1
176
     1
 42
40.0
176
     1
 92
        8
176
     1
 66
     7
176
     1
 43
1.0
176
     1
 76
     1
176
     1
 77
     6
176
     1
 78
     2
176
     1
 67
     7
176
     1
 79
     3
176
     1
170
     0
176
     1
171
     0
176
     1
290
     0
176
     1
 93
        1
176
     1
 44
0.0
176
     1
173
     0
176
     1
  0
VISUALSTYLE
  5
35
102
{ACAD_REACTORS
330
2A
102
}
330
2A
100
AcDbVisualStyle
  2
Dim
 70
    11
177
     2
291
     1
 71
     2
176
     1
 72
     2
176
     1
 73
     0
176
     1
 90
        0
176
     1
 40
-0.6
176
     1
 41
-30.0
176
     1
 62
     5
 63
     7
421
 16777215
176
     1
 74
     1
176
     1
 91
        4
176
     1
 64
     7
176
     1
 65
   257
176
     1
 75
     1
176
     1
175
     1
176
     1
 42
1.0
176
     1
 92
        8
176
     1
 66
     7
176
     1
 43
1.0
176
     1
 76
     1
176
     1
 77
     6
176
     1
 78
     2
176
     1
 67
     7
176
     1
 79
     5
176
     1
170
     0
176
     1
171
     0
176
     1
290
     0
176
     1
 93
        1
176
     1
 44
-50.0
176
     1
173
     0
176
     1
  0
VISUALSTYLE
  5
39
102
{ACAD_REACTORS
330
2A
102
}
330
2A
100
AcDbVisualStyle
  2
Facepattern
 70
    15
177
     2
291
     1
 71
     2
176
     1
 72
     2
176
     1
 73
     0
176
     1
 90
        0
176
     1
 40
-0.6
176
     1
 41
-30.0
176
     1
 62
     5
 63
     7
421
 16777215
176
     1
 74
     1
176
     1
 91
        4
176
     1
 64
     7
176
     1
 65
   257
176
     1
 75
     1
176
     1
175
     1
176
     1
 42
1.0
176
     1
 92
        8
176
     1
 66
     7
176
     1
 43
1.0
176
     1
 76
     1
176
     1
 77
     6
176
     1
 78
     2
176
     1
 67
     7
176
     1
 79
     5
176
     1
170
     0
176
     1
171
     0
176
     1
290
     0
176
     1
 93
        1
176
     1
 44
0.0
176
     1
173
     0
176
     1
  0
VISUALSTYLE
  5
2B
102
{ACAD_REACTORS
330
2A
102
}
330
2A
100
AcDbVisualStyle
  2
Flat
 70
     0
177
     2
291
     1
 71
     2
176
     1
 72
     1
176
     1
 73
     1
176
     1
 90
        2
176
     1
 40
-0.6
176
     1
 41
30.0
176
     1
 62
     5
 63
     7
421
 16777215
176
     1
 74
     0
176
     1
 91
        4
176
     1
 64
     7
176
     1
 65
   257
176
     1
 75
     1
176
     1
175
     1
176
     1
 42
1.0
176
     1
 92
        8
176
     1
 66
     7
176
     1
 43
1.0
176
     1
 76
     1
176
     1
 77
     6
176
     1
 78
     2
176
     1
 67
     7
176
     1
 79
     5
176
     1
170
     0
176
     1
171
     0
176
     1
290
     0
176
     1
 93
       13
176
     1
 44
0.0
176
     1
173
     0
176
     1
  0
VISUALSTYLE
  5
2C
102
{ACAD_REACTORS
330
2A
102
}
330
2A
100
AcDbVisualStyle
  2
FlatWithEdges
 70
     1
177
     2
291
     1
 71
     2
176
     1
 72
     1
176
     1
 73
     1
176
     1
 90
        2
176
     1
 40
-0.6
176
     1
 41
30.0
176
     1
 62
     5
 63
     7
421
 16777215
176
     1
 74
     1
176
     1
 91
        4
176
     1
 64
     7
176
     1
 65
   257
176
     1
 75
     1
176
     1
175
     1
176
     1
 42
1.0
176
     1
 92
        0
176
     1
 66
   257
176
     1
 43
1.0
176
     1
 76
     1
176
     1
 77
     6
176
     1
 78
     2
176
     1
 67
     7
176
     1
 79
     5
176
     1
170
     0
176
     1
171
     0
176
     1
290
     0
176
     1
 93
       13
176
     1
 44
0.0
176
     1
173
     0
176
     1
  0
VISUALSTYLE
  5
2D
102
{ACAD_REACTORS
330
2A
102
}
330
2A
100
AcDbVisualStyle
  2
Gouraud
 70
     2
177
     2
291
     1
 71
     2
176
     1
 72
     2
176
     1
 73
     1
176
     1
 90
        2
176
     1
 40
-0.6
176
     1
 41
30.0
176
     1
 62
     5
 63
     7
421
 16777215
176
     1
 74
     0
176
     1
 91
        4
176
     1
 64
     7
176
     1
 65
   257
176
     1
 75
     1
176
     1
175
     1
176
     1
 42
1.0
176
     1
 92
        0
176
     1
 66
     7
176
     1
 43
1.0
176
     1
 76
     1
176
     1
 77
     6
176
     1
 78
     2
176
     1
 67
     7
176
     1
 79
     5
176
     1
170
     0
176
     1
171
     0
176
     1
290
     0
176
     1
 93
       13
176
     1
 44
0.0
176
     1
173
     0
176
     1
  0
VISUALSTYLE
  5
2E
102
{ACAD_REACTORS
330
2A
102
}
330
2A
100
AcDbVisualStyle
  2
GouraudWithEdges
 70
     3
177
     2
291
     1
 71
     2
176
     1
 72
     2
176
     1
 73
     1
176
     1
 90
        2
176
     1
 40
-0.6
176
     1
 41
30.0
176
     1
 62
     5
 63
     7
421
 16777215
176
     1
 74
     1
176
     1
 91
        4
176
     1
 64
     7
176
     1
 65
   257
176
     1
 75
     1
176
     1
175
     1
176
     1
 42
1.0
176
     1
 92
        0
176
     1
 66
   257
176
     1
 43
1.0
176
     1
 76
     1
176
     1
 77
     6
176
     1
 78
     2
176
     1
 67
     7
176
     1
 79
     5
176
     1
170
     0
176
     1
171
     0
176
     1
290
     0
176
     1
 93
       13
176
     1
 44
0.0
176
     1
173
     0
176
     1
  0
VISUALSTYLE
  5
38
102
{ACAD_REACTORS
330
2A
102
}
330
2A
100
AcDbVisualStyle
  2
Linepattern
 70
    14
177
     2
291
     1
 71
     2
176
     1
 72
     2
176
     1
 73
     0
176
     1
 90
        0
176
     1
 40
-0.6
176
     1
 41
-30.0
176
     1
 62
     5
 63
     7
421
 16777215
176
     1
 74
     1
176
     1
 91
        4
176
     1
 64
     7
176
     1
 65
   257
176
     1
 75
     7
176
     1
175
     7
176
     1
 42
1.0
176
     1
 92
        8
176
     1
 66
     7
176
     1
 43
1.0
176
     1
 76
     1
176
     1
 77
     6
176
     1
 78
     2
176
     1
 67
     7
176
     1
 79
     5
176
     1
170
     0
176
     1
171
     0
176
     1
290
     0
176
     1
 93
        1
176
     1
 44
0.0
176
     1
173
     0
176
     1
  0
VISUALSTYLE
  5
33
102
{ACAD_REACTORS
330
2A
102
}
330
2A
100
AcDbVisualStyle
  2
Realistic
 70
     8
177
     2
291
     0
 71
     2
176
     1
 72
     2
176
     1
 73
     0
176
     1
 90
        0
176
     1
 40
-0.6
176
     1
 41
-30.0
176
     1
 62
     5
 63
     7
421
 16777215
176
     1
 74
     1
176
     1
 91
        0
176
     1
 64
     7
176
     1
 65
   257
176
     1
 75
     1
176
     1
175
     1
176
     1
 42
1.0
176
     1
 92
        8
176
     1
 66
     8
424
  7895160
176
     1
 43
1.0
176
     1
 76
     1
176
     1
 77
     6
176
     1
 78
     2
176
     1
 67
     7
176
     1
 79
     5
176
     1
170
     0
176
     1
171
     0
176
     1
290
     0
176
     1
 93
       13
176
     1
 44
0.0
176
     1
173
     0
176
     1
  0
VISUALSTYLE
  5
37
102
{ACAD_REACTORS
330
2A
102
}
330
2A
100
AcDbVisualStyle
  2
Thicken
 70
    13
177
     2
291
     1
 71
     2
176
     1
 72
     2
176
     1
 73
     0
176
     1
 90
        0
176
     1
 40
-0.6
176
     1
 41
-30.0
176
     1
 62
     5
 63
     7
421
 16777215
176
     1
 74
     1
176
     1
 91
        4
176
     1
 64
     7
176
     1
 65
   257
176
     1
 75
     1
176
     1
175
     1
176
     1
 42
1.0
176
     1
 92
       12
176
     1
 66
     7
176
     1
 43
1.0
176
     1
 76
     1
176
     1
 77
     6
176
     1
 78
     2
176
     1
 67
     7
176
     1
 79
     5
176
     1
170
     0
176
     1
171
     0
176
     1
290
     0
176
     1
 93
        1
176
     1
 44
0.0
176
     1
173
     0
176
     1
  0
ENDSEC
  0
EOF
