  0
SECTION
  2
HEADER
  9
$ACADVER
  1
AC1024
  9
$ACADMAINTVER
 70
     6
  9
$DWGCODEPAGE
  3
UNDEFINED
  9
$INSBASE
 10
0.0
 20
0.0
 30
0.0
  9
$EXTMIN
 10
1.000000000000000E+20
 20
1.000000000000000E+20
 30
1.000000000000000E+20
  9
$EXTMAX
 10
-1.000000000000000E+20
 20
-1.000000000000000E+20
 30
-1.000000000000000E+20
  9
$LIMMIN
 10
0.0
 20
0.0
  9
$LIMMAX
 10
12.0
 20
9.0
  9
$ORTHOMODE
 70
     0
  9
$REGENMODE
 70
     1
  9
$FILLMODE
 70
     1
  9
$QTEXTMODE
 70
     0
  9
$MIRRTEXT
 70
     1
  9
$LTSCALE
 40
1.0
  9
$ATTMODE
 70
     1
  9
$TEXTSIZE
 40
0.2
  9
$TRACEWID
 40
0.05
  9
$TEXTSTYLE
  7
Standard
  9
$CLAYER
  8
0
  9
$CELTYPE
  6
ByLayer
  9
$CECOLOR
 62
   256
  9
$CELTSCALE
 40
1.0
  9
$DISPSILH
 70
     0
  9
$DIMSCALE
 40
1.0
  9
$DIMASZ
 40
0.18
  9
$DIMEXO
 40
0.0625
  9
$DIMDLI
 40
0.38
  9
$DIMRND
 40
0.0
  9
$DIMDLE
 40
0.0
  9
$DIMEXE
 40
0.18
  9
$DIMTP
 40
0.0
  9
$DIMTM
 40
0.0
  9
$DIMTXT
 40
0.18
  9
$DIMCEN
 40
0.09
  9
$DIMTSZ
 40
0.0
  9
$DIMTOL
 70
     0
  9
$DIMLIM
 70
     0
  9
$DIMTIH
 70
     1
  9
$DIMTOH
 70
     1
  9
$DIMSE1
 70
     0
  9
$DIMSE2
 70
     0
  9
$DIMTAD
 70
     0
  9
$DIMZIN
 70
     0
  9
$DIMBLK
  1

  9
$DIMASO
 70
     1
  9
$DIMSHO
 70
     1
  9
$DIMPOST
  1

  9
$DIMAPOST
  1

  9
$DIMALT
 70
     0
  9
$DIMALTD
 70
     2
  9
$DIMALTF
 40
25.4
  9
$DIMLFAC
 40
1.0
  9
$DIMTOFL
 70
     0
  9
$DIMTVP
 40
0.0
  9
$DIMTIX
 70
     0
  9
$DIMSOXD
 70
     0
  9
$DIMSAH
 70
     0
  9
$DIMBLK1
  1

  9
$DIMBLK2
  1

  9
$DIMSTYLE
  2
Standard
  9
$DIMCLRD
 70
     0
  9
$DIMCLRE
 70
     0
  9
$DIMCLRT
 70
     0
  9
$DIMTFAC
 40
1.0
  9
$DIMGAP
 40
0.09
  9
$DIMJUST
 70
     0
  9
$DIMSD1
 70
     0
  9
$DIMSD2
 70
     0
  9
$DIMTOLJ
 70
     1
  9
$DIMTZIN
 70
     0
  9
$DIMALTZ
 70
     0
  9
$DIMALTTZ
 70
     0
  9
$DIMUPT
 70
     0
  9
$DIMDEC
 70
     4
  9
$DIMTDEC
 70
     4
  9
$DIMALTU
 70
     2
  9
$DIMALTTD
 70
     2
  9
$DIMTXSTY
  7
Standard
  9
$DIMAUNIT
 70
     0
  9
$DIMADEC
 70
     0
  9
$DIMALTRND
 40
0.0
  9
$DIMAZIN
 70
     0
  9
$DIMDSEP
 70
    46
  9
$DIMATFIT
 70
     3
  9
$DIMFRAC
 70
     0
  9
$DIMLDRBLK
  1

  9
$DIMLUNIT
 70
     2
  9
$DIMLWD
 70
    -2
  9
$DIMLWE
 70
    -2
  9
$DIMTMOVE
 70
     0
  9
$DIMFXL
 40
1.0
  9
$DIMFXLON
 70
     0
  9
$DIMJOGANG
 40
0.7853981633974483
  9
$DIMTFILL
 70
     0
  9
$DIMTFILLCLR
 70
     0
  9
$DIMARCSYM
 70
     0
  9
$DIMLTYPE
  6

  9
$DIMLTEX1
  6

  9
$DIMLTEX2
  6

  9
$DIMTXTDIRECTION
 70
     0
  9
$LUNITS
 70
     2
  9
$LUPREC
 70
     4
  9
$SKETCHINC
 40
0.1
  9
$FILLETRAD
 40
0.5
  9
$AUNITS
 70
     0
  9
$AUPREC
 70
     0
  9
$MENU
  1
.
  9
$ELEVATION
 40
0.0
  9
$PELEVATION
 40
0.0
  9
$THICKNESS
 40
0.0
  9
$LIMCHECK
 70
     0
  9
$CHAMFERA
 40
0.5
  9
$CHAMFERB
 40
0.5
  9
$CHAMFERC
 40
1.0
  9
$CHAMFERD
 40
0.0
  9
$SKPOLY
 70
     0
  9
$TDCREATE
 40
2457917.620717581
  9
$TDUCREATE
 40
2457917.245717593
  9
$TDUPDATE
 40
2457917.620717581
  9
$TDUUPDATE
 40
2457917.245717593
  9
$TDINDWG
 40
0.0000000116
  9
$TDUSRTIMER
 40
0.0000000116
  9
$USRTIMER
 70
     1
  9
$ANGBASE
 50
0.0
  9
$ANGDIR
 70
     0
  9
$PDMODE
 70
     0
  9
$PDSIZE
 40
0.0
  9
$PLINEWID
 40
0.0
  9
$SPLFRAME
 70
     0
  9
$SPLINETYPE
 70
     6
  9
$SPLINESEGS
 70
     8
  9
$HANDSEED
  5
FE
  9
$SURFTAB1
 70
     6
  9
$SURFTAB2
 70
     6
  9
$SURFTYPE
 70
     6
  9
$SURFU
 70
     6
  9
$SURFV
 70
     6
  9
$UCSBASE
  2

  9
$UCSNAME
  2

  9
$UCSORG
 10
0.0
 20
0.0
 30
0.0
  9
$UCSXDIR
 10
1.0
 20
0.0
 30
0.0
  9
$UCSYDIR
 10
0.0
 20
1.0
 30
0.0
  9
$UCSORTHOREF
  2

  9
$UCSORTHOVIEW
 70
     0
  9
$UCSORGTOP
 10
0.0
 20
0.0
 30
0.0
  9
$UCSORGBOTTOM
 10
0.0
 20
0.0
 30
0.0
  9
$UCSORGLEFT
 10
0.0
 20
0.0
 30
0.0
  9
$UCSORGRIGHT
 10
0.0
 20
0.0
 30
0.0
  9
$UCSORGFRONT
 10
0.0
 20
0.0
 30
0.0
  9
$UCSORGBACK
 10
0.0
 20
0.0
 30
0.0
  9
$PUCSBASE
  2

  9
$PUCSNAME
  2

  9
$PUCSORG
 10
0.0
 20
0.0
 30
0.0
  9
$PUCSXDIR
 10
1.0
 20
0.0
 30
0.0
  9
$PUCSYDIR
 10
0.0
 20
1.0
 30
0.0
  9
$PUCSORTHOREF
  2

  9
$PUCSORTHOVIEW
 70
     0
  9
$PUCSORGTOP
 10
0.0
 20
0.0
 30
0.0
  9
$PUCSORGBOTTOM
 10
0.0
 20
0.0
 30
0.0
  9
$PUCSORGLEFT
 10
0.0
 20
0.0
 30
0.0
  9
$PUCSORGRIGHT
 10
0.0
 20
0.0
 30
0.0
  9
$PUCSORGFRONT
 10
0.0
 20
0.0
 30
0.0
  9
$PUCSORGBACK
 10
0.0
 20
0.0
 30
0.0
  9
$USERI1
 70
     0
  9
$USERI2
 70
     0
  9
$USERI3
 70
     0
  9
$USERI4
 70
     0
  9
$USERI5
 70
     0
  9
$USERR1
 40
0.0
  9
$USERR2
 40
0.0
  9
$USERR3
 40
0.0
  9
$USERR4
 40
0.0
  9
$USERR5
 40
0.0
  9
$WORLDVIEW
 70
     1
  9
$SHADEDGE
 70
     3
  9
$SHADEDIF
 70
    70
  9
$TILEMODE
 70
     1
  9
$MAXACTVP
 70
    64
  9
$PINSBASE
 10
0.0
 20
0.0
 30
0.0
  9
$PLIMCHECK
 70
     0
  9
$PEXTMIN
 10
1.000000000000000E+20
 20
1.000000000000000E+20
 30
1.000000000000000E+20
  9
$PEXTMAX
 10
-1.000000000000000E+20
 20
-1.000000000000000E+20
 30
-1.000000000000000E+20
  9
$PLIMMIN
 10
0.0
 20
0.0
  9
$PLIMMAX
 10
12.0
 20
9.0
  9
$UNITMODE
 70
     0
  9
$VISRETAIN
 70
     1
  9
$PLINEGEN
 70
     0
  9
$PSLTSCALE
 70
     1
  9
$TREEDEPTH
 70
  3020
  9
$CMLSTYLE
  2
Standard
  9
$CMLJUST
 70
     0
  9
$CMLSCALE
 40
1.0
  9
$PROXYGRAPHICS
 70
     1
  9
$MEASUREMENT
 70
     0
  9
$CELWEIGHT
370
    -1
  9
$ENDCAPS
280
     0
  9
$JOINSTYLE
280
     0
  9
$LWDISPLAY
290
     1
  9
$INSUNITS
 70
     1
  9
$HYPERLINKBASE
  1

  9
$STYLESHEET
  1

  9
$XEDIT
290
     1
  9
$CEPSNTYPE
380
     0
  9
$PSTYLEMODE
290
     1
  9
$FINGERPRINTGUID
  2
{D288E621-4E8C-C4FE-E71A-2292FB27B30B}
  9
$VERSIONGUID
  2
{FAEB1C32-E019-11D5-929B-00C0DF256EC4}
  9
$EXTNAMES
290
     1
  9
$PSVPSCALE
 40
0.0
  9
$OLESTARTUP
290
     0
  9
$SORTENTS
280
   127
  9
$INDEXCTL
280
     0
  9
$HIDETEXT
280
     1
  9
$XCLIPFRAME
280
     2
  9
$HALOGAP
280
     0
  9
$OBSCOLOR
 70
   257
  9
$OBSLTYPE
280
     0
  9
$INTERSECTIONDISPLAY
280
     0
  9
$INTERSECTIONCOLOR
 70
   257
  9
$DIMASSOC
280
     2
  9
$PROJECTNAME
  1

  9
$CAMERADISPLAY
290
     0
  9
$LENSLENGTH
 40
50.0
  9
$CAMERAHEIGHT
 40
0.0
  9
$STEPSPERSEC
 40
2.0
  9
$STEPSIZE
 40
6.0
  9
$3DDWFPREC
 40
2.0
  9
$PSOLWIDTH
 40
0.25
  9
$PSOLHEIGHT
 40
4.0
  9
$LOFTANG1
 40
1.570796326794897
  9
$LOFTANG2
 40
1.570796326794897
  9
$LOFTMAG1
 40
0.0
  9
$LOFTMAG2
 40
0.0
  9
$LOFTPARAM
 70
     7
  9
$LOFTNORMALS
280
     1
  9
$LATITUDE
 40
37.795
  9
$LONGITUDE
 40
-122.394
  9
$NORTHDIRECTION
 40
0.0
  9
$TIMEZONE
 70
 -8000
  9
$LIGHTGLYPHDISPLAY
280
     1
  9
$TILEMODELIGHTSYNCH
280
     1
  9
$CMATERIAL
347
3C
  9
$SOLIDHIST
280
     1
  9
$SHOWHIST
280
     1
  9
$DWFFRAME
280
     2
  9
$DGNFRAME
280
     2
  9
$REALWORLDSCALE
290
     1
  9
$INTERFERECOLOR
 62
   256
  9
$CSHADOW
280
     0
  9
$SHADOWPLANELOCATION
 40
0.0
  0
ENDSEC
  0
SECTION
  2
CLASSES
  0
CLASS
  1
ACDBDICTIONARYWDFLT
  2
AcDbDictionaryWithDefault
  3
ObjectDBX Classes
 90
        0
 91
        4
280
     0
281
     0
  0
CLASS
  1
VISUALSTYLE
  2
AcDbVisualStyle
  3
ObjectDBX Classes
 90
     4095
 91
        4
280
     0
281
     0
  0
CLASS
  1
MATERIAL
  2
AcDbMaterial
  3
ObjectDBX Classes
 90
     1153
 91
        4
280
     0
281
     0
  0
CLASS
  1
SUN
  2
AcDbSun
  3
SCENEOE
 90
     1024
 91
        4
280
     0
281
     0
  0
ENDSEC
  0
SECTION
  2
TABLES
  0
TABLE
  2
VPORT
  5
8
330
0
100
AcDbSymbolTable
 70
     1
  0
VPORT
  5
29
330
8
100
AcDbSymbolTableRecord
100
AcDbViewportTableRecord
  2
*Active
 70
     0
 10
0.0
 20
0.0
 11
1.0
 21
1.0
 12
0.0
 22
0.0
 13
0.0
 23
0.0
 14
0.5
 24
0.5
 15
0.5
 25
0.5
 16
0.0
 26
0.0
 36
1.0
 17
91.00082462281999
 27
-128.4993055234307
 37
0.0
 40
256.9986110468615
 41
0.7081814508812795
 42
50.0
 43
0.0
 44
0.0
 50
0.0
 51
0.0
 71
     0
 72
   100
 73
     1
 74
     3
 75
     0
 76
     0
 77
     0
 78
     0
281
     0
 65
     1
110
0.0
120
0.0
130
0.0
111
1.0
121
0.0
131
0.0
112
0.0
122
1.0
132
0.0
 79
     0
146
0.0
 60
     3
 61
     5
292
     1
282
     1
141
0.0
142
0.0
 63
   250
361
3F
  0
ENDTAB
  0
TABLE
  2
LTYPE
  5
5
330
0
100
AcDbSymbolTable
 70
     3
  0
LTYPE
  5
14
330
5
100
AcDbSymbolTableRecord
100
AcDbLinetypeTableRecord
  2
ByBlock
 70
     0
  3

 72
    65
 73
     0
 40
0.0
  0
LTYPE
  5
15
330
5
100
AcDbSymbolTableRecord
100
AcDbLinetypeTableRecord
  2
ByLayer
 70
     0
  3

 72
    65
 73
     0
 40
0.0
  0
LTYPE
  5
16
330
5
100
AcDbSymbolTableRecord
100
AcDbLinetypeTableRecord
  2
Continuous
 70
     0
  3
Solid line
 72
    65
 73
     0
 40
0.0
  0
LTYPE
  5
B5
330
5
100
AcDbSymbolTableRecord
100
AcDbLinetypeTableRecord
  2
AI-Linetype-1
 70
     0
  3
Adobe Illustrator Linetype No. 1
 72
    65
 73
     2
 40
1.411111110758333
 49
0.7055555553791667
 74
     0
 49
-0.7055555553791667
 74
     0
  0
LTYPE
  5
BA
330
5
100
AcDbSymbolTableRecord
100
AcDbLinetypeTableRecord
  2
AI-Linetype-2
 70
     0
  3
Adobe Illustrator Linetype No. 2
 72
    65
 73
     2
 40
1.411111110758333
 49
0.7055555553791667
 74
     0
 49
-0.7055555553791667
 74
     0
  0
ENDTAB
  0
TABLE
  2
LAYER
  5
2
330
0
100
AcDbSymbolTable
 70
     2
  0
LAYER
  5
10
330
2
100
AcDbSymbolTableRecord
100
AcDbLayerTableRecord
  2
0
 70
     0
 62
     7
  6
Continuous
370
    -3
390
F
347
3E
  0
LAYER
  5
40
330
2
100
AcDbSymbolTableRecord
100
AcDbLayerTableRecord
  2
_U+30EC_U+30A4_U+30E4_U+30FC 1
 70
     0
 62
     7
  6
Continuous
370
    -3
390
F
347
3E
  0
ENDTAB
  0
TABLE
  2
STYLE
  5
3
330
0
100
AcDbSymbolTable
 70
     1
  0
STYLE
  5
11
330
3
100
AcDbSymbolTableRecord
100
AcDbTextStyleTableRecord
  2
Standard
 70
     0
 40
0.0
 41
1.0
 50
0.0
 71
     0
 42
0.2
  3
txt
  4

  0
ENDTAB
  0
TABLE
  2
VIEW
  5
6
330
0
100
AcDbSymbolTable
 70
     0
  0
ENDTAB
  0
TABLE
  2
UCS
  5
7
330
0
100
AcDbSymbolTable
 70
     0
  0
ENDTAB
  0
TABLE
  2
APPID
  5
9
330
0
100
AcDbSymbolTable
 70
     1
  0
APPID
  5
12
330
9
100
AcDbSymbolTableRecord
100
AcDbRegAppTableRecord
  2
ACAD
 70
     0
  0
ENDTAB
  0
TABLE
  2
DIMSTYLE
  5
A
330
0
100
AcDbSymbolTable
 70
     1
100
AcDbDimStyleTable
  0
DIMSTYLE
105
27
330
A
100
AcDbSymbolTableRecord
100
AcDbDimStyleTableRecord
  2
Standard
 70
     0
178
     0
340
11
  0
ENDTAB
  0
TABLE
  2
BLOCK_RECORD
  5
1
330
0
100
AcDbSymbolTable
 70
     5
  0
BLOCK_RECORD
  5
1F
330
1
100
AcDbSymbolTableRecord
100
AcDbBlockTableRecord
  2
*Model_Space
340
22
 70
     0
280
     1
281
     0
  0
BLOCK_RECORD
  5
1B
330
1
100
AcDbSymbolTableRecord
100
AcDbBlockTableRecord
  2
*Paper_Space
340
1E
 70
     0
280
     1
281
     0
  0
BLOCK_RECORD
  5
23
330
1
100
AcDbSymbolTableRecord
100
AcDbBlockTableRecord
  2
*Paper_Space0
340
26
 70
     0
280
     1
281
     0
  0
BLOCK_RECORD
  5
75
330
1
100
AcDbSymbolTableRecord
100
AcDbBlockTableRecord
  2
block 2
340
0
102
{BLKREFS
331
76
102
}
 70
     0
280
     1
281
     0
  0
BLOCK_RECORD
  5
94
330
1
100
AcDbSymbolTableRecord
100
AcDbBlockTableRecord
  2
block 3
340
0
102
{BLKREFS
331
95
102
}
 70
     0
280
     1
281
     0
  0
BLOCK_RECORD
  5
A9
330
1
100
AcDbSymbolTableRecord
100
AcDbBlockTableRecord
  2
block 4
340
0
102
{BLKREFS
331
AA
102
}
 70
     0
280
     1
281
     0
  0
BLOCK_RECORD
  5
C8
330
1
100
AcDbSymbolTableRecord
100
AcDbBlockTableRecord
  2
block 5
340
0
102
{BLKREFS
331
C9
102
}
 70
     0
280
     1
281
     0
  0
ENDTAB
  0
ENDSEC
  0
SECTION
  2
BLOCKS
  0
BLOCK
  5
20
330
1F
100
AcDbEntity
  8
0
100
AcDbBlockBegin
  2
*Model_Space
 70
     0
 10
0.0
 20
0.0
 30
0.0
  3
*Model_Space
  1

  0
ENDBLK
  5
21
330
1F
100
AcDbEntity
  8
0
100
AcDbBlockEnd
  0
BLOCK
  5
1C
330
1B
100
AcDbEntity
 67
     1
  8
0
100
AcDbBlockBegin
  2
*Paper_Space
 70
     0
 10
0.0
 20
0.0
 30
0.0
  3
*Paper_Space
  1

  0
ENDBLK
  5
1D
330
1B
100
AcDbEntity
 67
     1
  8
0
100
AcDbBlockEnd
  0
BLOCK
  5
24
330
23
100
AcDbEntity
  8
0
100
AcDbBlockBegin
  2
*Paper_Space0
 70
     0
 10
0.0
 20
0.0
 30
0.0
  3
*Paper_Space0
  1

  0
ENDBLK
  5
25
330
23
100
AcDbEntity
  8
0
100
AcDbBlockEnd
  0
BLOCK
  5
77
330
75
100
AcDbEntity
  8
0
100
AcDbBlockBegin
  2
block 2
 70
     0
 10
0.0
 20
0.0
 30
0.0
  3
block 2
  1

  0
SPLINE
  5
79
330
75
100
AcDbEntity
  8
_U+30EC_U+30A4_U+30E4_U+30FC 1
370
     0
100
AcDbSpline
210
0.0
220
0.0
230
1.0
 70
    11
 71
     3
 72
    29
 73
    25
 74
     0
 42
0.0000000001
 43
0.0000000001
 12
1.0
 22
0.0
 32
0.0
 13
1.0
 23
0.0
 33
0.0
 40
0.0
 40
0.0
 40
0.0
 40
0.0
 40
1.0
 40
1.0
 40
1.0
 40
2.0
 40
2.0
 40
2.0
 40
3.0
 40
3.0
 40
3.0
 40
4.0
 40
4.0
 40
4.0
 40
5.0
 40
5.0
 40
5.0
 40
6.0
 40
6.0
 40
6.0
 40
7.0
 40
7.0
 40
7.0
 40
8.0
 40
8.0
 40
8.0
 40
8.0
 10
107.0391167267125
 20
-135.8308132255909
 30
0.0
 10
107.2485785322156
 20
-135.9389892238277
 30
0.0
 10
107.267182047836
 20
-136.1122775267358
 30
0.0
 10
107.267182047836
 20
-136.2287217541373
 30
0.0
 10
107.267182047836
 20
-136.3896077132984
 30
0.0
 10
107.2210177683336
 20
-136.5312011377422
 30
0.0
 10
107.0391167267125
 20
-136.6262857731351
 30
0.0
 10
106.8441243222473
 20
-136.7299831472411
 30
0.0
 10
106.6071017528621
 20
-136.7492756819585
 30
0.0
 10
106.4444932459583
 20
-136.7492756819585
 30
0.0
 10
106.3004882546749
 20
-136.7492756819585
 30
0.0
 10
106.0489962842516
 20
-136.7320502045323
 30
0.0
 10
105.8498697652042
 20
-136.6262857731351
 30
0.0
 10
105.6472981506715
 20
-136.5184542844468
 30
0.0
 10
105.6238715013718
 20
-136.3575683252856
 30
0.0
 10
105.6238715013718
 20
-136.2287217541373
 30
0.0
 10
105.6238715013718
 20
-136.0699028522673
 30
0.0
 10
105.667968723583
 20
-135.9262423705323
 30
0.0
 10
105.8498697652042
 20
-135.8308132255909
 30
0.0
 10
106.0427951123782
 20
-135.7315944756157
 30
0.0
 10
106.2708604335017
 20
-135.708167826316
 30
0.0
 10
106.4444932459583
 20
-135.708167826316
 30
0.0
 10
106.6160590011238
 20
-135.708167826316
 30
0.0
 10
106.8461913795385
 20
-135.7295274183246
 30
0.0
 10
107.0391167267125
 20
-135.8308132255909
 30
0.0
  0
SPLINE
  5
7A
330
75
100
AcDbEntity
  8
_U+30EC_U+30A4_U+30E4_U+30FC 1
370
     0
100
AcDbSpline
210
0.0
220
0.0
230
1.0
 70
    11
 71
     3
 72
    17
 73
    13
 74
     0
 42
0.0000000001
 43
0.0000000001
 12
1.0
 22
0.0
 32
0.0
 13
1.0
 23
0.0
 33
0.0
 40
0.0
 40
0.0
 40
0.0
 40
0.0
 40
1.0
 40
1.0
 40
1.0
 40
2.0
 40
2.0
 40
2.0
 40
3.0
 40
3.0
 40
3.0
 40
4.0
 40
4.0
 40
4.0
 40
4.0
 10
105.8161078294488
 20
-136.2287217541373
 30
0.0
 10
105.8161078294488
 20
-136.4784911768179
 30
0.0
 10
106.0999836974333
 20
-136.5249999658687
 30
0.0
 10
106.4444932459583
 20
-136.5249999658687
 30
0.0
 10
106.7641981069895
 20
-136.5249999658687
 30
0.0
 10
107.0728786624679
 20
-136.4888264632736
 30
0.0
 10
107.0728786624679
 20
-136.2287217541373
 30
0.0
 10
107.0728786624679
 20
-135.9810193887478
 30
0.0
 10
106.7917588708715
 20
-135.9324435424058
 30
0.0
 10
106.4444932459583
 20
-135.9324435424058
 30
0.0
 10
106.1247883849271
 20
-135.9324435424058
 30
0.0
 10
105.8161078294488
 20
-135.9706841022921
 30
0.0
 10
105.8161078294488
 20
-136.2287217541373
 30
0.0
  0
HATCH
  5
7B
330
75
100
AcDbEntity
  8
_U+30EC_U+30A4_U+30E4_U+30FC 1
 62
   179
420
  2234388
100
AcDbHatch
 10
0.0
 20
0.0
 30
0.0
210
0.0
220
0.0
230
1.0
  2
SOLID
 70
     1
 71
     0
 91
        2
 92
        1
 93
        1
 72
     4
 94
        3
 73
     0
 74
     1
 95
       29
 96
       25
 40
0.0
 40
0.0
 40
0.0
 40
0.0
 40
1.0
 40
1.0
 40
1.0
 40
2.0
 40
2.0
 40
2.0
 40
3.0
 40
3.0
 40
3.0
 40
4.0
 40
4.0
 40
4.0
 40
5.0
 40
5.0
 40
5.0
 40
6.0
 40
6.0
 40
6.0
 40
7.0
 40
7.0
 40
7.0
 40
8.0
 40
8.0
 40
8.0
 40
8.0
 10
107.0391167267125
 20
-135.8308132255909
 10
107.2485785322156
 20
-135.9389892238277
 10
107.267182047836
 20
-136.1122775267358
 10
107.267182047836
 20
-136.2287217541373
 10
107.267182047836
 20
-136.3896077132984
 10
107.2210177683336
 20
-136.5312011377422
 10
107.0391167267125
 20
-136.6262857731351
 10
106.8441243222473
 20
-136.7299831472411
 10
106.6071017528621
 20
-136.7492756819585
 10
106.4444932459583
 20
-136.7492756819585
 10
106.3004882546749
 20
-136.7492756819585
 10
106.0489962842516
 20
-136.7320502045323
 10
105.8498697652042
 20
-136.6262857731351
 10
105.6472981506715
 20
-136.5184542844468
 10
105.6238715013718
 20
-136.3575683252856
 10
105.6238715013718
 20
-136.2287217541373
 10
105.6238715013718
 20
-136.0699028522673
 10
105.667968723583
 20
-135.9262423705323
 10
105.8498697652042
 20
-135.8308132255909
 10
106.0427951123782
 20
-135.7315944756157
 10
106.2708604335017
 20
-135.708167826316
 10
106.4444932459583
 20
-135.708167826316
 10
106.6160590011238
 20
-135.708167826316
 10
106.8461913795385
 20
-135.7295274183246
 10
107.0391167267125
 20
-135.8308132255909
 97
        0
 97
        0
 92
        1
 93
        1
 72
     4
 94
        3
 73
     0
 74
     1
 95
       17
 96
       13
 40
0.0
 40
0.0
 40
0.0
 40
0.0
 40
1.0
 40
1.0
 40
1.0
 40
2.0
 40
2.0
 40
2.0
 40
3.0
 40
3.0
 40
3.0
 40
4.0
 40
4.0
 40
4.0
 40
4.0
 10
105.8161078294488
 20
-136.2287217541373
 10
105.8161078294488
 20
-136.4784911768179
 10
106.0999836974333
 20
-136.5249999658687
 10
106.4444932459583
 20
-136.5249999658687
 10
106.7641981069895
 20
-136.5249999658687
 10
107.0728786624679
 20
-136.4888264632736
 10
107.0728786624679
 20
-136.2287217541373
 10
107.0728786624679
 20
-135.9810193887478
 10
106.7917588708715
 20
-135.9324435424058
 10
106.4444932459583
 20
-135.9324435424058
 10
106.1247883849271
 20
-135.9324435424058
 10
105.8161078294488
 20
-135.9706841022921
 10
105.8161078294488
 20
-136.2287217541373
 97
        0
 97
        0
 75
     2
 76
     1
 98
        0
  0
POLYLINE
  5
7C
330
75
100
AcDbEntity
  8
_U+30EC_U+30A4_U+30E4_U+30FC 1
370
     0
100
AcDb2dPolyline
 66
     1
 10
0.0
 20
0.0
 30
0.0
  0
VERTEX
  5
7D
330
7C
100
AcDbEntity
  8
_U+30EC_U+30A4_U+30E4_U+30FC 1
370
     0
100
AcDbVertex
100
AcDb2dVertex
 10
107.2168836537513
 20
-135.4918158298423
 30
0.0
  0
VERTEX
  5
7E
330
7C
100
AcDbEntity
  8
_U+30EC_U+30A4_U+30E4_U+30FC 1
370
     0
100
AcDbVertex
100
AcDb2dVertex
 10
106.9647026642311
 20
-135.4918158298423
 30
0.0
  0
VERTEX
  5
7F
330
7C
100
AcDbEntity
  8
_U+30EC_U+30A4_U+30E4_U+30FC 1
370
     0
100
AcDbVertex
100
AcDb2dVertex
 10
106.9647026642311
 20
-135.2399793498706
 30
0.0
  0
VERTEX
  5
80
330
7C
100
AcDbEntity
  8
_U+30EC_U+30A4_U+30E4_U+30FC 1
370
     0
100
AcDbVertex
100
AcDb2dVertex
 10
107.2168836537513
 20
-135.2399793498706
 30
0.0
  0
VERTEX
  5
81
330
7C
100
AcDbEntity
  8
_U+30EC_U+30A4_U+30E4_U+30FC 1
370
     0
100
AcDbVertex
100
AcDb2dVertex
 10
107.2168836537513
 20
-135.4918158298423
 30
0.0
  0
SEQEND
  5
82
330
7C
100
AcDbEntity
  8
_U+30EC_U+30A4_U+30E4_U+30FC 1
370
     0
  0
HATCH
  5
83
330
75
100
AcDbEntity
  8
_U+30EC_U+30A4_U+30E4_U+30FC 1
 62
   179
420
  2234388
100
AcDbHatch
 10
0.0
 20
0.0
 30
0.0
210
0.0
220
0.0
230
1.0
  2
SOLID
 70
     1
 71
     0
 91
        1
 92
        1
 93
        4
 72
     1
 10
107.2168836537513
 20
-135.4918158298423
 11
106.9647026642311
 21
-135.4918158298423
 72
     1
 10
106.9647026642311
 20
-135.4918158298423
 11
106.9647026642311
 21
-135.2399793498706
 72
     1
 10
106.9647026642311
 20
-135.2399793498706
 11
107.2168836537513
 21
-135.2399793498706
 72
     1
 10
107.2168836537513
 20
-135.2399793498706
 11
107.2168836537513
 21
-135.4918158298423
 97
        0
 75
     2
 76
     1
 98
        0
  0
SPLINE
  5
84
330
75
100
AcDbEntity
  8
_U+30EC_U+30A4_U+30E4_U+30FC 1
370
     0
100
AcDbSpline
210
0.0
220
0.0
230
1.0
 70
    11
 71
     3
 72
    29
 73
    25
 74
     0
 42
0.0000000001
 43
0.0000000001
 12
1.0
 22
0.0
 32
0.0
 13
1.0
 23
0.0
 33
0.0
 40
0.0
 40
0.0
 40
0.0
 40
0.0
 40
1.0
 40
1.0
 40
1.0
 40
2.0
 40
2.0
 40
2.0
 40
3.0
 40
3.0
 40
3.0
 40
4.0
 40
4.0
 40
4.0
 40
5.0
 40
5.0
 40
5.0
 40
6.0
 40
6.0
 40
6.0
 40
7.0
 40
7.0
 40
7.0
 40
8.0
 40
8.0
 40
8.0
 40
8.0
 10
107.267182047836
 20
-134.5037624446727
 30
0.0
 10
107.267182047836
 20
-134.770412835231
 30
0.0
 10
107.130067247523
 20
-135.0239718629454
 30
0.0
 10
106.7807345653187
 20
-135.0239718629454
 30
0.0
 10
106.5251084803132
 20
-135.0239718629454
 30
0.0
 10
106.4300238449203
 20
-134.8823784385016
 30
0.0
 10
106.3687011452828
 20
-134.7766140071045
 30
0.0
 10
106.3094455029365
 20
-134.9013264636705
 30
0.0
 10
106.1950683328262
 20
-134.9774630738945
 30
0.0
 10
106.0338378641165
 20
-134.9774630738945
 30
0.0
 10
105.7589192443936
 20
-134.9774630738945
 30
0.0
 10
105.6238715013718
 20
-134.7786810643956
 30
0.0
 10
105.6238715013718
 20
-134.5037624446727
 30
0.0
 10
105.6238715013718
 20
-134.2202310862366
 30
0.0
 10
105.7678764926553
 20
-134.0297173059023
 30
0.0
 10
106.0338378641165
 20
-134.0297173059023
 30
0.0
 10
106.1950683328262
 20
-134.0297173059023
 30
0.0
 10
106.3094455029365
 20
-134.108265482966
 30
0.0
 10
106.3687011452828
 20
-134.232977939532
 30
0.0
 10
106.4189995393675
 20
-134.1440944760126
 30
0.0
 10
106.5140841747604
 20
-133.9852755741426
 30
0.0
 10
106.7766004507364
 20
-133.9852755741426
 30
0.0
 10
107.1514268395316
 20
-133.9852755741426
 30
0.0
 10
107.267182047836
 20
-134.2646728179963
 30
0.0
 10
107.267182047836
 20
-134.5037624446727
 30
0.0
  0
SPLINE
  5
85
330
75
100
AcDbEntity
  8
_U+30EC_U+30A4_U+30E4_U+30FC 1
370
     0
100
AcDbSpline
210
0.0
220
0.0
230
1.0
 70
    11
 71
     3
 72
    17
 73
    13
 74
     0
 42
0.0000000001
 43
0.0000000001
 12
1.0
 22
0.0
 32
0.0
 13
1.0
 23
0.0
 33
0.0
 40
0.0
 40
0.0
 40
0.0
 40
0.0
 40
1.0
 40
1.0
 40
1.0
 40
2.0
 40
2.0
 40
2.0
 40
3.0
 40
3.0
 40
3.0
 40
4.0
 40
4.0
 40
4.0
 40
4.0
 10
105.8161078294488
 20
-134.5037624446727
 30
0.0
 10
105.8161078294488
 20
-134.6687825184162
 30
0.0
 10
105.9111924648416
 20
-134.7531873578048
 30
0.0
 10
106.0469292269605
 20
-134.7531873578048
 30
0.0
 10
106.1695746262354
 20
-134.7531873578048
 30
0.0
 10
106.288085910928
 20
-134.6815293717116
 30
0.0
 10
106.288085910928
 20
-134.5037624446727
 30
0.0
 10
106.288085910928
 20
-134.3259955176338
 30
0.0
 10
106.1695746262354
 20
-134.2539930219921
 30
0.0
 10
106.0469292269605
 20
-134.2539930219921
 30
0.0
 10
105.9111924648416
 20
-134.2539930219921
 30
0.0
 10
105.8161078294488
 20
-134.3408094282204
 30
0.0
 10
105.8161078294488
 20
-134.5037624446727
 30
0.0
  0
SPLINE
  5
86
330
75
100
AcDbEntity
  8
_U+30EC_U+30A4_U+30E4_U+30FC 1
370
     0
100
AcDbSpline
210
0.0
220
0.0
230
1.0
 70
    11
 71
     3
 72
    17
 73
    13
 74
     0
 42
0.0000000001
 43
0.0000000001
 12
1.0
 22
0.0
 32
0.0
 13
1.0
 23
0.0
 33
0.0
 40
0.0
 40
0.0
 40
0.0
 40
0.0
 40
1.0
 40
1.0
 40
1.0
 40
2.0
 40
2.0
 40
2.0
 40
3.0
 40
3.0
 40
3.0
 40
4.0
 40
4.0
 40
4.0
 40
4.0
 10
106.4761881244226
 20
-134.5037624446727
 30
0.0
 10
106.4761881244226
 20
-134.6474229264076
 30
0.0
 10
106.5630045306509
 20
-134.8000406564041
 30
0.0
 10
106.7662651642807
 20
-134.8000406564041
 30
0.0
 10
106.9715928552015
 20
-134.8000406564041
 30
0.0
 10
107.0728786624679
 20
-134.6729166329984
 30
0.0
 10
107.0728786624679
 20
-134.5037624446727
 30
0.0
 10
107.0728786624679
 20
-134.3177272884692
 30
0.0
 10
106.950233263193
 20
-134.2074842329412
 30
0.0
 10
106.7724663361541
 20
-134.2074842329412
 30
0.0
 10
106.550602186904
 20
-134.2074842329412
 30
0.0
 10
106.4761881244226
 20
-134.3704372493935
 30
0.0
 10
106.4761881244226
 20
-134.5037624446727
 30
0.0
  0
HATCH
  5
87
330
75
100
AcDbEntity
  8
_U+30EC_U+30A4_U+30E4_U+30FC 1
 62
   179
420
  2234388
100
AcDbHatch
 10
0.0
 20
0.0
 30
0.0
210
0.0
220
0.0
230
1.0
  2
SOLID
 70
     1
 71
     0
 91
        3
 92
        1
 93
        1
 72
     4
 94
        3
 73
     0
 74
     1
 95
       29
 96
       25
 40
0.0
 40
0.0
 40
0.0
 40
0.0
 40
1.0
 40
1.0
 40
1.0
 40
2.0
 40
2.0
 40
2.0
 40
3.0
 40
3.0
 40
3.0
 40
4.0
 40
4.0
 40
4.0
 40
5.0
 40
5.0
 40
5.0
 40
6.0
 40
6.0
 40
6.0
 40
7.0
 40
7.0
 40
7.0
 40
8.0
 40
8.0
 40
8.0
 40
8.0
 10
107.267182047836
 20
-134.5037624446727
 10
107.267182047836
 20
-134.770412835231
 10
107.130067247523
 20
-135.0239718629454
 10
106.7807345653187
 20
-135.0239718629454
 10
106.5251084803132
 20
-135.0239718629454
 10
106.4300238449203
 20
-134.8823784385016
 10
106.3687011452828
 20
-134.7766140071045
 10
106.3094455029365
 20
-134.9013264636705
 10
106.1950683328262
 20
-134.9774630738945
 10
106.0338378641165
 20
-134.9774630738945
 10
105.7589192443936
 20
-134.9774630738945
 10
105.6238715013718
 20
-134.7786810643956
 10
105.6238715013718
 20
-134.5037624446727
 10
105.6238715013718
 20
-134.2202310862366
 10
105.7678764926553
 20
-134.0297173059023
 10
106.0338378641165
 20
-134.0297173059023
 10
106.1950683328262
 20
-134.0297173059023
 10
106.3094455029365
 20
-134.108265482966
 10
106.3687011452828
 20
-134.232977939532
 10
106.4189995393675
 20
-134.1440944760126
 10
106.5140841747604
 20
-133.9852755741426
 10
106.7766004507364
 20
-133.9852755741426
 10
107.1514268395316
 20
-133.9852755741426
 10
107.267182047836
 20
-134.2646728179963
 10
107.267182047836
 20
-134.5037624446727
 97
        0
 97
        0
 92
        1
 93
        1
 72
     4
 94
        3
 73
     0
 74
     1
 95
       17
 96
       13
 40
0.0
 40
0.0
 40
0.0
 40
0.0
 40
1.0
 40
1.0
 40
1.0
 40
2.0
 40
2.0
 40
2.0
 40
3.0
 40
3.0
 40
3.0
 40
4.0
 40
4.0
 40
4.0
 40
4.0
 10
105.8161078294488
 20
-134.5037624446727
 10
105.8161078294488
 20
-134.6687825184162
 10
105.9111924648416
 20
-134.7531873578048
 10
106.0469292269605
 20
-134.7531873578048
 10
106.1695746262354
 20
-134.7531873578048
 10
106.288085910928
 20
-134.6815293717116
 10
106.288085910928
 20
-134.5037624446727
 10
106.288085910928
 20
-134.3259955176338
 10
106.1695746262354
 20
-134.2539930219921
 10
106.0469292269605
 20
-134.2539930219921
 10
105.9111924648416
 20
-134.2539930219921
 10
105.8161078294488
 20
-134.3408094282204
 10
105.8161078294488
 20
-134.5037624446727
 97
        0
 97
        0
 92
        1
 93
        1
 72
     4
 94
        3
 73
     0
 74
     1
 95
       17
 96
       13
 40
0.0
 40
0.0
 40
0.0
 40
0.0
 40
1.0
 40
1.0
 40
1.0
 40
2.0
 40
2.0
 40
2.0
 40
3.0
 40
3.0
 40
3.0
 40
4.0
 40
4.0
 40
4.0
 40
4.0
 10
106.4761881244226
 20
-134.5037624446727
 10
106.4761881244226
 20
-134.6474229264076
 10
106.5630045306509
 20
-134.8000406564041
 10
106.7662651642807
 20
-134.8000406564041
 10
106.9715928552015
 20
-134.8000406564041
 10
107.0728786624679
 20
-134.6729166329984
 10
107.0728786624679
 20
-134.5037624446727
 10
107.0728786624679
 20
-134.3177272884692
 10
106.950233263193
 20
-134.2074842329412
 10
106.7724663361541
 20
-134.2074842329412
 10
106.550602186904
 20
-134.2074842329412
 10
106.4761881244226
 20
-134.3704372493935
 10
106.4761881244226
 20
-134.5037624446727
 97
        0
 97
        0
 75
     2
 76
     1
 98
        0
  0
ENDBLK
  5
78
330
75
100
AcDbEntity
  8
0
100
AcDbBlockEnd
  0
BLOCK
  5
96
330
94
100
AcDbEntity
  8
0
100
AcDbBlockBegin
  2
block 3
 70
     0
 10
0.0
 20
0.0
 30
0.0
  3
block 3
  1

  0
SPLINE
  5
98
330
94
100
AcDbEntity
  8
_U+30EC_U+30A4_U+30E4_U+30FC 1
370
     0
100
AcDbSpline
210
0.0
220
0.0
230
1.0
 70
    11
 71
     3
 72
    26
 73
    22
 74
     0
 42
0.0000000001
 43
0.0000000001
 12
1.0
 22
0.0
 32
0.0
 13
1.0
 23
0.0
 33
0.0
 40
0.0
 40
0.0
 40
0.0
 40
0.0
 40
1.0
 40
1.0
 40
1.0
 40
2.0
 40
2.0
 40
2.0
 40
3.0
 40
3.0
 40
3.0
 40
4.0
 40
4.0
 40
4.0
 40
5.0
 40
5.0
 40
5.0
 40
6.0
 40
6.0
 40
6.0
 40
7.0
 40
7.0
 40
7.0
 40
7.0
 10
89.71941593894168
 20
-138.8838568446193
 30
0.0
 10
89.71941593894168
 20
-138.8838568446193
 30
0.0
 10
89.71941593894168
 20
-137.7797037415967
 30
0.0
 10
89.71941593894168
 20
-137.7797037415967
 30
0.0
 10
89.71941593894168
 20
-137.7797037415967
 30
0.0
 10
89.38937579145474
 20
-137.7797037415967
 30
0.0
 10
89.38937579145474
 20
-137.7797037415967
 30
0.0
 10
89.38937579145474
 20
-137.7797037415967
 30
0.0
 10
89.38937579145474
 20
-137.631564635731
 30
0.0
 10
89.38937579145474
 20
-137.631564635731
 30
0.0
 10
89.72148299623282
 20
-137.6167507251444
 30
0.0
 10
89.7679917852837
 20
-137.4537977086921
 30
0.0
 10
89.79761960645685
 20
-137.3394205385818
 30
0.0
 10
89.79761960645685
 20
-137.3394205385818
 30
0.0
 10
89.94369165503144
 20
-137.3394205385818
 30
0.0
 10
89.94369165503144
 20
-137.3394205385818
 30
0.0
 10
89.94369165503144
 20
-137.3394205385818
 30
0.0
 10
89.94369165503144
 20
-138.8838568446193
 30
0.0
 10
89.94369165503144
 20
-138.8838568446193
 30
0.0
 10
89.94369165503144
 20
-138.8838568446193
 30
0.0
 10
89.71941593894168
 20
-138.8838568446193
 30
0.0
 10
89.71941593894168
 20
-138.8838568446193
 30
0.0
  0
HATCH
  5
99
330
94
100
AcDbEntity
  8
_U+30EC_U+30A4_U+30E4_U+30FC 1
 62
   179
420
  2234388
100
AcDbHatch
 10
0.0
 20
0.0
 30
0.0
210
0.0
220
0.0
230
1.0
  2
SOLID
 70
     1
 71
     0
 91
        1
 92
        1
 93
        1
 72
     4
 94
        3
 73
     0
 74
     1
 95
       26
 96
       22
 40
0.0
 40
0.0
 40
0.0
 40
0.0
 40
1.0
 40
1.0
 40
1.0
 40
2.0
 40
2.0
 40
2.0
 40
3.0
 40
3.0
 40
3.0
 40
4.0
 40
4.0
 40
4.0
 40
5.0
 40
5.0
 40
5.0
 40
6.0
 40
6.0
 40
6.0
 40
7.0
 40
7.0
 40
7.0
 40
7.0
 10
89.71941593894168
 20
-138.8838568446193
 10
89.71941593894168
 20
-138.8838568446193
 10
89.71941593894168
 20
-137.7797037415967
 10
89.71941593894168
 20
-137.7797037415967
 10
89.71941593894168
 20
-137.7797037415967
 10
89.38937579145474
 20
-137.7797037415967
 10
89.38937579145474
 20
-137.7797037415967
 10
89.38937579145474
 20
-137.7797037415967
 10
89.38937579145474
 20
-137.631564635731
 10
89.38937579145474
 20
-137.631564635731
 10
89.72148299623282
 20
-137.6167507251444
 10
89.7679917852837
 20
-137.4537977086921
 10
89.79761960645685
 20
-137.3394205385818
 10
89.79761960645685
 20
-137.3394205385818
 10
89.94369165503144
 20
-137.3394205385818
 10
89.94369165503144
 20
-137.3394205385818
 10
89.94369165503144
 20
-137.3394205385818
 10
89.94369165503144
 20
-138.8838568446193
 10
89.94369165503144
 20
-138.8838568446193
 10
89.94369165503144
 20
-138.8838568446193
 10
89.71941593894168
 20
-138.8838568446193
 10
89.71941593894168
 20
-138.8838568446193
 97
        0
 97
        0
 75
     2
 76
     1
 98
        0
  0
SPLINE
  5
9A
330
94
100
AcDbEntity
  8
_U+30EC_U+30A4_U+30E4_U+30FC 1
370
     0
100
AcDbSpline
210
0.0
220
0.0
230
1.0
 70
    11
 71
     3
 72
    32
 73
    28
 74
     0
 42
0.0000000001
 43
0.0000000001
 12
1.0
 22
0.0
 32
0.0
 13
1.0
 23
0.0
 33
0.0
 40
0.0
 40
0.0
 40
0.0
 40
0.0
 40
1.0
 40
1.0
 40
1.0
 40
2.0
 40
2.0
 40
2.0
 40
3.0
 40
3.0
 40
3.0
 40
4.0
 40
4.0
 40
4.0
 40
5.0
 40
5.0
 40
5.0
 40
6.0
 40
6.0
 40
6.0
 40
7.0
 40
7.0
 40
7.0
 40
8.0
 40
8.0
 40
8.0
 40
9.0
 40
9.0
 40
9.0
 40
9.0
 10
90.90246172857647
 20
-138.9344997482525
 30
0.0
 10
90.7291734256684
 20
-138.9344997482525
 30
0.0
 10
90.48353811757009
 20
-138.8649088194504
 30
0.0
 10
90.44564206723234
 20
-138.5328016146724
 30
0.0
 10
90.44564206723234
 20
-138.5328016146724
 30
0.0
 10
90.65923798731784
 20
-138.5328016146724
 30
0.0
 10
90.65923798731784
 20
-138.5328016146724
 30
0.0
 10
90.6699177833221
 20
-138.5920572570187
 30
0.0
 10
90.70161266178641
 20
-138.7398518533359
 30
0.0
 10
90.90452878586763
 20
-138.7398518533359
 30
0.0
 10
91.1966728830168
 20
-138.7398518533359
 30
0.0
 10
91.23456893335455
 20
-138.4101562153975
 30
0.0
 10
91.24731578664998
 20
-138.2048285244766
 30
0.0
 10
91.15636526583938
 20
-138.2850992492829
 30
0.0
 10
91.08884139432848
 20
-138.342287834338
 30
0.0
 10
90.9069403527073
 20
-138.342287834338
 30
0.0
 10
90.72710636837725
 20
-138.342287834338
 30
0.0
 10
90.42428247522379
 20
-138.2365234029409
 30
0.0
 10
90.42428247522379
 20
-137.8303466452299
 30
0.0
 10
90.42428247522379
 20
-137.5109862937473
 30
0.0
 10
90.62340899427123
 20
-137.2908446922398
 30
0.0
 10
90.94070228846275
 20
-137.2908446922398
 30
0.0
 10
91.45488278963629
 20
-137.2908446922398
 30
0.0
 10
91.46521807609203
 20
-137.8451605558165
 30
0.0
 10
91.46521807609203
 20
-138.058756475902
 30
0.0
 10
91.46521807609203
 20
-138.2892333638652
 30
0.0
 10
91.44592554137463
 20
-138.9344997482525
 30
0.0
 10
90.90246172857647
 20
-138.9344997482525
 30
0.0
  0
SPLINE
  5
9B
330
94
100
AcDbEntity
  8
_U+30EC_U+30A4_U+30E4_U+30FC 1
370
     0
100
AcDbSpline
210
0.0
220
0.0
230
1.0
 70
    11
 71
     3
 72
    17
 73
    13
 74
     0
 42
0.0000000001
 43
0.0000000001
 12
1.0
 22
0.0
 32
0.0
 13
1.0
 23
0.0
 33
0.0
 40
0.0
 40
0.0
 40
0.0
 40
0.0
 40
1.0
 40
1.0
 40
1.0
 40
2.0
 40
2.0
 40
2.0
 40
3.0
 40
3.0
 40
3.0
 40
4.0
 40
4.0
 40
4.0
 40
4.0
 10
90.9427693457539
 20
-137.4834255298653
 30
0.0
 10
90.8242580610613
 20
-137.4834255298653
 30
0.0
 10
90.64855819131355
 20
-137.5406141149204
 30
0.0
 10
90.64855819131355
 20
-137.8262125306476
 30
0.0
 10
90.64855819131355
 20
-138.0525553040285
 30
0.0
 10
90.78842906801471
 20
-138.1476399394214
 30
0.0
 10
90.92382132058502
 20
-138.1476399394214
 30
0.0
 10
91.18599308701253
 20
-138.1476399394214
 30
0.0
 10
91.22423364689881
 20
-137.9381781339182
 30
0.0
 10
91.22423364689881
 20
-137.8217339065168
 30
0.0
 10
91.22423364689881
 20
-137.6463785463176
 30
0.0
 10
91.12880450195739
 20
-137.4834255298653
 30
0.0
 10
90.9427693457539
 20
-137.4834255298653
 30
0.0
  0
HATCH
  5
9C
330
94
100
AcDbEntity
  8
_U+30EC_U+30A4_U+30E4_U+30FC 1
 62
   179
420
  2234388
100
AcDbHatch
 10
0.0
 20
0.0
 30
0.0
210
0.0
220
0.0
230
1.0
  2
SOLID
 70
     1
 71
     0
 91
        2
 92
        1
 93
        1
 72
     4
 94
        3
 73
     0
 74
     1
 95
       32
 96
       28
 40
0.0
 40
0.0
 40
0.0
 40
0.0
 40
1.0
 40
1.0
 40
1.0
 40
2.0
 40
2.0
 40
2.0
 40
3.0
 40
3.0
 40
3.0
 40
4.0
 40
4.0
 40
4.0
 40
5.0
 40
5.0
 40
5.0
 40
6.0
 40
6.0
 40
6.0
 40
7.0
 40
7.0
 40
7.0
 40
8.0
 40
8.0
 40
8.0
 40
9.0
 40
9.0
 40
9.0
 40
9.0
 10
90.90246172857647
 20
-138.9344997482525
 10
90.7291734256684
 20
-138.9344997482525
 10
90.48353811757009
 20
-138.8649088194504
 10
90.44564206723234
 20
-138.5328016146724
 10
90.44564206723234
 20
-138.5328016146724
 10
90.65923798731784
 20
-138.5328016146724
 10
90.65923798731784
 20
-138.5328016146724
 10
90.6699177833221
 20
-138.5920572570187
 10
90.70161266178641
 20
-138.7398518533359
 10
90.90452878586763
 20
-138.7398518533359
 10
91.1966728830168
 20
-138.7398518533359
 10
91.23456893335455
 20
-138.4101562153975
 10
91.24731578664998
 20
-138.2048285244766
 10
91.15636526583938
 20
-138.2850992492829
 10
91.08884139432848
 20
-138.342287834338
 10
90.9069403527073
 20
-138.342287834338
 10
90.72710636837725
 20
-138.342287834338
 10
90.42428247522379
 20
-138.2365234029409
 10
90.42428247522379
 20
-137.8303466452299
 10
90.42428247522379
 20
-137.5109862937473
 10
90.62340899427123
 20
-137.2908446922398
 10
90.94070228846275
 20
-137.2908446922398
 10
91.45488278963629
 20
-137.2908446922398
 10
91.46521807609203
 20
-137.8451605558165
 10
91.46521807609203
 20
-138.058756475902
 10
91.46521807609203
 20
-138.2892333638652
 10
91.44592554137463
 20
-138.9344997482525
 10
90.90246172857647
 20
-138.9344997482525
 97
        0
 97
        0
 92
        1
 93
        1
 72
     4
 94
        3
 73
     0
 74
     1
 95
       17
 96
       13
 40
0.0
 40
0.0
 40
0.0
 40
0.0
 40
1.0
 40
1.0
 40
1.0
 40
2.0
 40
2.0
 40
2.0
 40
3.0
 40
3.0
 40
3.0
 40
4.0
 40
4.0
 40
4.0
 40
4.0
 10
90.9427693457539
 20
-137.4834255298653
 10
90.8242580610613
 20
-137.4834255298653
 10
90.64855819131355
 20
-137.5406141149204
 10
90.64855819131355
 20
-137.8262125306476
 10
90.64855819131355
 20
-138.0525553040285
 10
90.78842906801471
 20
-138.1476399394214
 10
90.92382132058502
 20
-138.1476399394214
 10
91.18599308701253
 20
-138.1476399394214
 10
91.22423364689881
 20
-137.9381781339182
 10
91.22423364689881
 20
-137.8217339065168
 10
91.22423364689881
 20
-137.6463785463176
 10
91.12880450195739
 20
-137.4834255298653
 10
90.9427693457539
 20
-137.4834255298653
 97
        0
 97
        0
 75
     2
 76
     1
 98
        0
  0
ENDBLK
  5
97
330
94
100
AcDbEntity
  8
0
100
AcDbBlockEnd
  0
BLOCK
  5
AB
330
A9
100
AcDbEntity
  8
0
100
AcDbBlockBegin
  2
block 4
 70
     0
 10
0.0
 20
0.0
 30
0.0
  3
block 4
  1

  0
SPLINE
  5
AD
330
A9
100
AcDbEntity
  8
_U+30EC_U+30A4_U+30E4_U+30FC 1
370
     0
100
AcDbSpline
210
0.0
220
0.0
230
1.0
 70
    11
 71
     3
 72
    26
 73
    22
 74
     0
 42
0.0000000001
 43
0.0000000001
 12
1.0
 22
0.0
 32
0.0
 13
1.0
 23
0.0
 33
0.0
 40
0.0
 40
0.0
 40
0.0
 40
0.0
 40
1.0
 40
1.0
 40
1.0
 40
2.0
 40
2.0
 40
2.0
 40
3.0
 40
3.0
 40
3.0
 40
4.0
 40
4.0
 40
4.0
 40
5.0
 40
5.0
 40
5.0
 40
6.0
 40
6.0
 40
6.0
 40
7.0
 40
7.0
 40
7.0
 40
7.0
 10
76.3359089978431
 20
-126.6933864700628
 30
0.0
 10
76.3359089978431
 20
-126.6933864700628
 30
0.0
 10
75.23175589482054
 20
-126.6933864700628
 30
0.0
 10
75.23175589482054
 20
-126.6933864700628
 30
0.0
 10
75.23175589482054
 20
-126.6933864700628
 30
0.0
 10
75.23175589482054
 20
-127.0234266175497
 30
0.0
 10
75.23175589482054
 20
-127.0234266175497
 30
0.0
 10
75.23175589482054
 20
-127.0234266175497
 30
0.0
 10
75.0836167889548
 20
-127.0234266175497
 30
0.0
 10
75.0836167889548
 20
-127.0234266175497
 30
0.0
 10
75.06880287836822
 20
-126.6913194127716
 30
0.0
 10
74.9058498619159
 20
-126.6448106237207
 30
0.0
 10
74.79147269180561
 20
-126.6151828025476
 30
0.0
 10
74.79147269180561
 20
-126.6151828025476
 30
0.0
 10
74.79147269180561
 20
-126.469110753973
 30
0.0
 10
74.79147269180561
 20
-126.469110753973
 30
0.0
 10
74.79147269180561
 20
-126.469110753973
 30
0.0
 10
76.3359089978431
 20
-126.469110753973
 30
0.0
 10
76.3359089978431
 20
-126.469110753973
 30
0.0
 10
76.3359089978431
 20
-126.469110753973
 30
0.0
 10
76.3359089978431
 20
-126.6933864700628
 30
0.0
 10
76.3359089978431
 20
-126.6933864700628
 30
0.0
  0
HATCH
  5
AE
330
A9
100
AcDbEntity
  8
_U+30EC_U+30A4_U+30E4_U+30FC 1
 62
   179
420
  2234388
100
AcDbHatch
 10
0.0
 20
0.0
 30
0.0
210
0.0
220
0.0
230
1.0
  2
SOLID
 70
     1
 71
     0
 91
        1
 92
        1
 93
        1
 72
     4
 94
        3
 73
     0
 74
     1
 95
       26
 96
       22
 40
0.0
 40
0.0
 40
0.0
 40
0.0
 40
1.0
 40
1.0
 40
1.0
 40
2.0
 40
2.0
 40
2.0
 40
3.0
 40
3.0
 40
3.0
 40
4.0
 40
4.0
 40
4.0
 40
5.0
 40
5.0
 40
5.0
 40
6.0
 40
6.0
 40
6.0
 40
7.0
 40
7.0
 40
7.0
 40
7.0
 10
76.3359089978431
 20
-126.6933864700628
 10
76.3359089978431
 20
-126.6933864700628
 10
75.23175589482054
 20
-126.6933864700628
 10
75.23175589482054
 20
-126.6933864700628
 10
75.23175589482054
 20
-126.6933864700628
 10
75.23175589482054
 20
-127.0234266175497
 10
75.23175589482054
 20
-127.0234266175497
 10
75.23175589482054
 20
-127.0234266175497
 10
75.0836167889548
 20
-127.0234266175497
 10
75.0836167889548
 20
-127.0234266175497
 10
75.06880287836822
 20
-126.6913194127716
 10
74.9058498619159
 20
-126.6448106237207
 10
74.79147269180561
 20
-126.6151828025476
 10
74.79147269180561
 20
-126.6151828025476
 10
74.79147269180561
 20
-126.469110753973
 10
74.79147269180561
 20
-126.469110753973
 10
74.79147269180561
 20
-126.469110753973
 10
76.3359089978431
 20
-126.469110753973
 10
76.3359089978431
 20
-126.469110753973
 10
76.3359089978431
 20
-126.469110753973
 10
76.3359089978431
 20
-126.6933864700628
 10
76.3359089978431
 20
-126.6933864700628
 97
        0
 97
        0
 75
     2
 76
     1
 98
        0
  0
SPLINE
  5
AF
330
A9
100
AcDbEntity
  8
_U+30EC_U+30A4_U+30E4_U+30FC 1
370
     0
100
AcDbSpline
210
0.0
220
0.0
230
1.0
 70
    11
 71
     3
 72
    32
 73
    28
 74
     0
 42
0.0000000001
 43
0.0000000001
 12
1.0
 22
0.0
 32
0.0
 13
1.0
 23
0.0
 33
0.0
 40
0.0
 40
0.0
 40
0.0
 40
0.0
 40
1.0
 40
1.0
 40
1.0
 40
2.0
 40
2.0
 40
2.0
 40
3.0
 40
3.0
 40
3.0
 40
4.0
 40
4.0
 40
4.0
 40
5.0
 40
5.0
 40
5.0
 40
6.0
 40
6.0
 40
6.0
 40
7.0
 40
7.0
 40
7.0
 40
8.0
 40
8.0
 40
8.0
 40
9.0
 40
9.0
 40
9.0
 40
9.0
 10
76.38655190147628
 20
-125.510340680428
 30
0.0
 10
76.38655190147628
 20
-125.683628983336
 30
0.0
 10
76.31696097267424
 20
-125.9292642914344
 30
0.0
 10
75.98485376789615
 20
-125.9671603417721
 30
0.0
 10
75.98485376789615
 20
-125.9671603417721
 30
0.0
 10
75.98485376789615
 20
-125.7535644216866
 30
0.0
 10
75.98485376789615
 20
-125.7535644216866
 30
0.0
 10
76.04410941024244
 20
-125.7428846256823
 30
0.0
 10
76.19190400655967
 20
-125.711189747218
 30
0.0
 10
76.19190400655967
 20
-125.5082736231368
 30
0.0
 10
76.19190400655967
 20
-125.2161295259876
 30
0.0
 10
75.86186385907273
 20
-125.1782334756499
 30
0.0
 10
75.65688067770037
 20
-125.1654866223545
 30
0.0
 10
75.73715140250668
 20
-125.2564371431651
 30
0.0
 10
75.79433998756184
 20
-125.323961014676
 30
0.0
 10
75.79433998756184
 20
-125.5058620562971
 30
0.0
 10
75.79433998756184
 20
-125.6856960406272
 30
0.0
 10
75.68857555616466
 20
-125.9885199337807
 30
0.0
 10
75.28239879845371
 20
-125.9885199337807
 30
0.0
 10
74.96303844697105
 20
-125.9885199337807
 30
0.0
 10
74.74289684546359
 20
-125.7893934147332
 30
0.0
 10
74.74289684546359
 20
-125.4721001205417
 30
0.0
 10
74.74289684546359
 20
-124.9580918741424
 30
0.0
 10
75.29721270904028
 20
-124.9474120781382
 30
0.0
 10
75.51080862912578
 20
-124.9474120781382
 30
0.0
 10
75.74128551708898
 20
-124.9474120781382
 30
0.0
 10
76.38655190147628
 20
-124.9667046128556
 30
0.0
 10
76.38655190147628
 20
-125.510340680428
 30
0.0
  0
SPLINE
  5
B0
330
A9
100
AcDbEntity
  8
_U+30EC_U+30A4_U+30E4_U+30FC 1
370
     0
100
AcDbSpline
210
0.0
220
0.0
230
1.0
 70
    11
 71
     3
 72
    17
 73
    13
 74
     0
 42
0.0000000001
 43
0.0000000001
 12
1.0
 22
0.0
 32
0.0
 13
1.0
 23
0.0
 33
0.0
 40
0.0
 40
0.0
 40
0.0
 40
0.0
 40
1.0
 40
1.0
 40
1.0
 40
2.0
 40
2.0
 40
2.0
 40
3.0
 40
3.0
 40
3.0
 40
4.0
 40
4.0
 40
4.0
 40
4.0
 10
74.93547768308905
 20
-125.4700330632506
 30
0.0
 10
74.93547768308905
 20
-125.5885443479431
 30
0.0
 10
74.99266626814419
 20
-125.7642442176909
 30
0.0
 10
75.27826468387141
 20
-125.7642442176909
 30
0.0
 10
75.50460745725232
 20
-125.7642442176909
 30
0.0
 10
75.59969209264521
 20
-125.6243733409897
 30
0.0
 10
75.59969209264521
 20
-125.4889810884194
 30
0.0
 10
75.59969209264521
 20
-125.2268093219919
 30
0.0
 10
75.39023028714203
 20
-125.1885687621056
 30
0.0
 10
75.27378605974059
 20
-125.1885687621056
 30
0.0
 10
75.09843069954137
 20
-125.1885687621056
 30
0.0
 10
74.93547768308905
 20
-125.2839979070471
 30
0.0
 10
74.93547768308905
 20
-125.4700330632506
 30
0.0
  0
HATCH
  5
B1
330
A9
100
AcDbEntity
  8
_U+30EC_U+30A4_U+30E4_U+30FC 1
 62
   179
420
  2234388
100
AcDbHatch
 10
0.0
 20
0.0
 30
0.0
210
0.0
220
0.0
230
1.0
  2
SOLID
 70
     1
 71
     0
 91
        2
 92
        1
 93
        1
 72
     4
 94
        3
 73
     0
 74
     1
 95
       32
 96
       28
 40
0.0
 40
0.0
 40
0.0
 40
0.0
 40
1.0
 40
1.0
 40
1.0
 40
2.0
 40
2.0
 40
2.0
 40
3.0
 40
3.0
 40
3.0
 40
4.0
 40
4.0
 40
4.0
 40
5.0
 40
5.0
 40
5.0
 40
6.0
 40
6.0
 40
6.0
 40
7.0
 40
7.0
 40
7.0
 40
8.0
 40
8.0
 40
8.0
 40
9.0
 40
9.0
 40
9.0
 40
9.0
 10
76.38655190147628
 20
-125.510340680428
 10
76.38655190147628
 20
-125.683628983336
 10
76.31696097267424
 20
-125.9292642914344
 10
75.98485376789615
 20
-125.9671603417721
 10
75.98485376789615
 20
-125.9671603417721
 10
75.98485376789615
 20
-125.7535644216866
 10
75.98485376789615
 20
-125.7535644216866
 10
76.04410941024244
 20
-125.7428846256823
 10
76.19190400655967
 20
-125.711189747218
 10
76.19190400655967
 20
-125.5082736231368
 10
76.19190400655967
 20
-125.2161295259876
 10
75.86186385907273
 20
-125.1782334756499
 10
75.65688067770037
 20
-125.1654866223545
 10
75.73715140250668
 20
-125.2564371431651
 10
75.79433998756184
 20
-125.323961014676
 10
75.79433998756184
 20
-125.5058620562971
 10
75.79433998756184
 20
-125.6856960406272
 10
75.68857555616466
 20
-125.9885199337807
 10
75.28239879845371
 20
-125.9885199337807
 10
74.96303844697105
 20
-125.9885199337807
 10
74.74289684546359
 20
-125.7893934147332
 10
74.74289684546359
 20
-125.4721001205417
 10
74.74289684546359
 20
-124.9580918741424
 10
75.29721270904028
 20
-124.9474120781382
 10
75.51080862912578
 20
-124.9474120781382
 10
75.74128551708898
 20
-124.9474120781382
 10
76.38655190147628
 20
-124.9667046128556
 10
76.38655190147628
 20
-125.510340680428
 97
        0
 97
        0
 92
        1
 93
        1
 72
     4
 94
        3
 73
     0
 74
     1
 95
       17
 96
       13
 40
0.0
 40
0.0
 40
0.0
 40
0.0
 40
1.0
 40
1.0
 40
1.0
 40
2.0
 40
2.0
 40
2.0
 40
3.0
 40
3.0
 40
3.0
 40
4.0
 40
4.0
 40
4.0
 40
4.0
 10
74.93547768308905
 20
-125.4700330632506
 10
74.93547768308905
 20
-125.5885443479431
 10
74.99266626814419
 20
-125.7642442176909
 10
75.27826468387141
 20
-125.7642442176909
 10
75.50460745725232
 20
-125.7642442176909
 10
75.59969209264521
 20
-125.6243733409897
 10
75.59969209264521
 20
-125.4889810884194
 10
75.59969209264521
 20
-125.2268093219919
 10
75.39023028714203
 20
-125.1885687621056
 10
75.27378605974059
 20
-125.1885687621056
 10
75.09843069954137
 20
-125.1885687621056
 10
74.93547768308905
 20
-125.2839979070471
 10
74.93547768308905
 20
-125.4700330632506
 97
        0
 97
        0
 75
     2
 76
     1
 98
        0
  0
ENDBLK
  5
AC
330
A9
100
AcDbEntity
  8
0
100
AcDbBlockEnd
  0
BLOCK
  5
CA
330
C8
100
AcDbEntity
  8
0
100
AcDbBlockBegin
  2
block 5
 70
     0
 10
0.0
 20
0.0
 30
0.0
  3
block 5
  1

  0
SPLINE
  5
CC
330
C8
100
AcDbEntity
  8
_U+30EC_U+30A4_U+30E4_U+30FC 1
370
     0
100
AcDbSpline
210
0.0
220
0.0
230
1.0
 70
    11
 71
     3
 72
   242
 73
   238
 74
     0
 42
0.0000000001
 43
0.0000000001
 12
1.0
 22
0.0
 32
0.0
 13
1.0
 23
0.0
 33
0.0
 40
0.0
 40
0.0
 40
0.0
 40
0.0
 40
1.0
 40
1.0
 40
1.0
 40
2.0
 40
2.0
 40
2.0
 40
3.0
 40
3.0
 40
3.0
 40
4.0
 40
4.0
 40
4.0
 40
5.0
 40
5.0
 40
5.0
 40
6.0
 40
6.0
 40
6.0
 40
7.0
 40
7.0
 40
7.0
 40
8.0
 40
8.0
 40
8.0
 40
9.0
 40
9.0
 40
9.0
 40
10.0
 40
10.0
 40
10.0
 40
11.0
 40
11.0
 40
11.0
 40
12.0
 40
12.0
 40
12.0
 40
13.0
 40
13.0
 40
13.0
 40
14.0
 40
14.0
 40
14.0
 40
15.0
 40
15.0
 40
15.0
 40
16.0
 40
16.0
 40
16.0
 40
17.0
 40
17.0
 40
17.0
 40
18.0
 40
18.0
 40
18.0
 40
19.0
 40
19.0
 40
19.0
 40
20.0
 40
20.0
 40
20.0
 40
21.0
 40
21.0
 40
21.0
 40
22.0
 40
22.0
 40
22.0
 40
23.0
 40
23.0
 40
23.0
 40
24.0
 40
24.0
 40
24.0
 40
25.0
 40
25.0
 40
25.0
 40
26.0
 40
26.0
 40
26.0
 40
27.0
 40
27.0
 40
27.0
 40
28.0
 40
28.0
 40
28.0
 40
29.0
 40
29.0
 40
29.0
 40
30.0
 40
30.0
 40
30.0
 40
31.0
 40
31.0
 40
31.0
 40
32.0
 40
32.0
 40
32.0
 40
33.0
 40
33.0
 40
33.0
 40
34.0
 40
34.0
 40
34.0
 40
35.0
 40
35.0
 40
35.0
 40
36.0
 40
36.0
 40
36.0
 40
37.0
 40
37.0
 40
37.0
 40
38.0
 40
38.0
 40
38.0
 40
39.0
 40
39.0
 40
39.0
 40
40.0
 40
40.0
 40
40.0
 40
41.0
 40
41.0
 40
41.0
 40
42.0
 40
42.0
 40
42.0
 40
43.0
 40
43.0
 40
43.0
 40
44.0
 40
44.0
 40
44.0
 40
45.0
 40
45.0
 40
45.0
 40
46.0
 40
46.0
 40
46.0
 40
47.0
 40
47.0
 40
47.0
 40
48.0
 40
48.0
 40
48.0
 40
49.0
 40
49.0
 40
49.0
 40
50.0
 40
50.0
 40
50.0
 40
51.0
 40
51.0
 40
51.0
 40
52.0
 40
52.0
 40
52.0
 40
53.0
 40
53.0
 40
53.0
 40
54.0
 40
54.0
 40
54.0
 40
55.0
 40
55.0
 40
55.0
 40
56.0
 40
56.0
 40
56.0
 40
57.0
 40
57.0
 40
57.0
 40
58.0
 40
58.0
 40
58.0
 40
59.0
 40
59.0
 40
59.0
 40
60.0
 40
60.0
 40
60.0
 40
61.0
 40
61.0
 40
61.0
 40
62.0
 40
62.0
 40
62.0
 40
63.0
 40
63.0
 40
63.0
 40
64.0
 40
64.0
 40
64.0
 40
65.0
 40
65.0
 40
65.0
 40
66.0
 40
66.0
 40
66.0
 40
67.0
 40
67.0
 40
67.0
 40
68.0
 40
68.0
 40
68.0
 40
69.0
 40
69.0
 40
69.0
 40
70.0
 40
70.0
 40
70.0
 40
71.0
 40
71.0
 40
71.0
 40
72.0
 40
72.0
 40
72.0
 40
73.0
 40
73.0
 40
73.0
 40
74.0
 40
74.0
 40
74.0
 40
75.0
 40
75.0
 40
75.0
 40
76.0
 40
76.0
 40
76.0
 40
77.0
 40
77.0
 40
77.0
 40
78.0
 40
78.0
 40
78.0
 40
79.0
 40
79.0
 40
79.0
 40
79.0
 10
91.50449216462388
 20
-119.8932847465024
 30
0.0
 10
91.50449216462388
 20
-119.8932847465024
 30
0.0
 10
91.28280027014806
 20
-119.8932847465024
 30
0.0
 10
91.28280027014806
 20
-119.8932847465024
 30
0.0
 10
91.28280027014806
 20
-119.8932847465024
 30
0.0
 10
91.03992103843794
 20
-119.8932847465024
 30
0.0
 10
91.03992103843794
 20
-119.8932847465024
 30
0.0
 10
91.03992103843794
 20
-119.8932847465024
 30
0.0
 10
91.1511976226115
 20
-119.9356594209709
 30
0.0
 10
91.1511976226115
 20
-119.9356594209709
 30
0.0
 10
91.16049938042168
 20
-119.9399657903275
 30
0.0
 10
91.17152368597448
 20
-119.946166962201
 30
0.0
 10
91.17152368597448
 20
-119.9589138154964
 30
0.0
 10
91.17152368597448
 20
-119.9801011527307
 30
0.0
 10
91.14361841254396
 20
-119.9864745793784
 30
0.0
 10
91.12535940647214
 20
-119.9906086939607
 30
0.0
 10
91.11605764866196
 20
-120.0138630884861
 30
0.0
 10
91.08987492297406
 20
-120.0794921574801
 30
0.0
 10
91.07333846464486
 20
-120.1239338892399
 30
0.0
 10
91.07333846464486
 20
-120.1239338892399
 30
0.0
 10
91.31036103403005
 20
-120.1239338892399
 30
0.0
 10
91.31036103403005
 20
-120.1239338892399
 30
0.0
 10
91.38977048496506
 20
-120.1239338892399
 30
0.0
 10
91.56202525922755
 20
-120.1196275198833
 30
0.0
 10
91.68604869669655
 20
-120.1111870359444
 30
0.0
 10
91.68604869669655
 20
-120.1111870359444
 30
0.0
 10
91.68604869669655
 20
-120.2889539629833
 30
0.0
 10
91.68604869669655
 20
-120.2889539629833
 30
0.0
 10
91.61404620105482
 20
-120.2846475936268
 30
0.0
 10
91.59544268543448
 20
-120.2846475936268
 30
0.0
 10
91.43800182175856
 20
-120.2805134790445
 30
0.0
 10
91.41009654832804
 20
-120.4348537567837
 30
0.0
 10
91.37151147889324
 20
-120.5152967363642
 30
0.0
 10
91.33275415468418
 20
-120.5850599199405
 30
0.0
 10
91.43800182175856
 20
-120.6443155622868
 30
0.0
 10
91.53067489031179
 20
-120.712011688572
 30
0.0
 10
91.62128090157385
 20
-120.7945217254437
 30
0.0
 10
91.62128090157385
 20
-120.7945217254437
 30
0.0
 10
91.51758352746783
 20
-120.9616088564783
 30
0.0
 10
91.51758352746783
 20
-120.9616088564783
 30
0.0
 10
91.49725746410486
 20
-120.9426608313095
 30
0.0
 10
91.48623315855205
 20
-120.9342203473706
 30
0.0
 10
91.38804793722244
 20
-120.8494709984335
 30
0.0
 10
91.3455010079796
 20
-120.8114026933215
 30
0.0
 10
91.29382457570085
 20
-120.7755737002749
 30
0.0
 10
91.22354462780176
 20
-120.7311319685151
 30
0.0
 10
91.03819849069532
 20
-120.9173393794929
 30
0.0
 10
90.8587090159138
 20
-120.9405937740183
 30
0.0
 10
90.60480547865089
 20
-120.9702215951915
 30
0.0
 10
90.60480547865089
 20
-120.9702215951915
 30
0.0
 10
90.51419946738882
 20
-120.7903876108614
 30
0.0
 10
90.51419946738882
 20
-120.7903876108614
 30
0.0
 10
90.79187416349995
 20
-120.7860812415049
 30
0.0
 10
90.9455254221421
 20
-120.7607597896883
 30
0.0
 10
91.07885061742127
 20
-120.6506889889346
 30
0.0
 10
90.97515324331525
 20
-120.5998738305271
 30
0.0
 10
90.89763859489712
 20
-120.5724853214194
 30
0.0
 10
90.86594371643282
 20
-120.559738468124
 30
0.0
 10
90.84940725810362
 20
-120.587299232006
 30
0.0
 10
90.83631589525967
 20
-120.6062472571748
 30
0.0
 10
90.81220022686293
 20
-120.6401814477045
 30
0.0
 10
90.81220022686293
 20
-120.6401814477045
 30
0.0
 10
90.63994545260043
 20
-120.5576714108328
 30
0.0
 10
90.63994545260043
 20
-120.5576714108328
 30
0.0
 10
90.71229245779068
 20
-120.4772284312522
 30
0.0
 10
90.76603594736058
 20
-120.3819715410851
 30
0.0
 10
90.8159898318967
 20
-120.2805134790445
 30
0.0
 10
90.6492472104106
 20
-120.2846475936268
 30
0.0
 10
90.63098820433879
 20
-120.2846475936268
 30
0.0
 10
90.55864119914854
 20
-120.2889539629833
 30
0.0
 10
90.55864119914854
 20
-120.2889539629833
 30
0.0
 10
90.55864119914854
 20
-120.1111870359444
 30
0.0
 10
90.55864119914854
 20
-120.1111870359444
 30
0.0
 10
90.68094208887491
 20
-120.1175604625921
 30
0.0
 10
90.8642211686902
 20
-120.1218668319487
 30
0.0
 10
90.8862697797958
 20
-120.1218668319487
 30
0.0
 10
90.90108369038238
 20
-120.087932641419
 30
0.0
 10
90.94931502717587
 20
-119.9673542994353
 30
0.0
 10
90.96585148550507
 20
-119.8932847465024
 30
0.0
 10
90.94931502717587
 20
-119.8932847465024
 30
0.0
 10
90.79359671124257
 20
-119.8996581731501
 30
0.0
 10
90.62340899427123
 20
-119.9124050264455
 30
0.0
 10
90.62340899427123
 20
-119.9124050264455
 30
0.0
 10
90.62340899427123
 20
-120.0457302217247
 30
0.0
 10
90.62340899427123
 20
-120.0457302217247
 30
0.0
 10
90.58068981025414
 20
-120.0710516735413
 30
0.0
 10
90.52901337797539
 20
-120.1027465520056
 30
0.0
 10
90.41222464102542
 20
-120.1683756209996
 30
0.0
 10
90.41222464102542
 20
-120.1683756209996
 30
0.0
 10
90.41222464102542
 20
-120.3142754147999
 30
0.0
 10
90.41222464102542
 20
-120.3142754147999
 30
0.0
 10
90.41222464102542
 20
-120.3142754147999
 30
0.0
 10
90.41222464102542
 20
-120.7819471269226
 30
0.0
 10
90.41222464102542
 20
-120.7819471269226
 30
0.0
 10
90.41222464102542
 20
-120.9087266407798
 30
0.0
 10
90.38087427210965
 20
-120.9679822831261
 30
0.0
 10
90.13282739717165
 20
-120.9595417991872
 30
0.0
 10
90.13282739717165
 20
-120.9595417991872
 30
0.0
 10
90.04187687636106
 20
-120.7523193057494
 30
0.0
 10
90.04187687636106
 20
-120.7523193057494
 30
0.0
 10
90.09768742322211
 20
-120.7648939042706
 30
0.0
 10
90.14006209769069
 20
-120.7692002736271
 30
0.0
 10
90.17520207164023
 20
-120.7692002736271
 30
0.0
 10
90.24203692405408
 20
-120.7692002736271
 30
0.0
 10
90.25133868186425
 20
-120.7459458791017
 30
0.0
 10
90.25133868186425
 20
-120.6803168101077
 30
0.0
 10
90.25133868186425
 20
-120.6803168101077
 30
0.0
 10
90.25133868186425
 20
-120.2508856578713
 30
0.0
 10
90.25133868186425
 20
-120.2508856578713
 30
0.0
 10
90.16590031383005
 20
-120.2910210202745
 30
0.0
 10
90.15108640324348
 20
-120.2973944469222
 30
0.0
 10
90.11043427651754
 20
-120.3165147268653
 30
0.0
 10
90.10664467148376
 20
-120.3375298093253
 30
0.0
 10
90.10319957599852
 20
-120.3671576304985
 30
0.0
 10
90.08631860812079
 20
-120.3671576304985
 30
0.0
 10
90.07908390760176
 20
-120.3671576304985
 30
0.0
 10
90.06978214979159
 20
-120.3630235159162
 30
0.0
 10
90.06426999701519
 20
-120.3397691213908
 30
0.0
 10
90.06426999701519
 20
-120.3397691213908
 30
0.0
 10
90.01776120796431
 20
-120.1471882837653
 30
0.0
 10
90.01776120796431
 20
-120.1471882837653
 30
0.0
 10
90.14557425046708
 20
-120.1006794947144
 30
0.0
 10
90.20310734507075
 20
-120.077425100189
 30
0.0
 10
90.25133868186425
 20
-120.0562377629547
 30
0.0
 10
90.25133868186425
 20
-120.0562377629547
 30
0.0
 10
90.25133868186425
 20
-119.643687578596
 30
0.0
 10
90.25133868186425
 20
-119.643687578596
 30
0.0
 10
90.25133868186425
 20
-119.643687578596
 30
0.0
 10
90.20482989281338
 20
-119.643687578596
 30
0.0
 10
90.20482989281338
 20
-119.643687578596
 30
0.0
 10
90.20482989281338
 20
-119.643687578596
 30
0.0
 10
90.13627249265691
 20
-119.643687578596
 30
0.0
 10
90.13627249265691
 20
-119.643687578596
 30
0.0
 10
90.07701685031061
 20
-119.643687578596
 30
0.0
 10
90.06978214979159
 20
-119.643687578596
 30
0.0
 10
90.03843178087581
 20
-119.6500610052437
 30
0.0
 10
90.03843178087581
 20
-119.6500610052437
 30
0.0
 10
90.03843178087581
 20
-119.4554131103271
 30
0.0
 10
90.03843178087581
 20
-119.4554131103271
 30
0.0
 10
90.06220293972403
 20
-119.4617865369748
 30
0.0
 10
90.06978214979159
 20
-119.4617865369748
 30
0.0
 10
90.13076033988051
 20
-119.4617865369748
 30
0.0
 10
90.13076033988051
 20
-119.4617865369748
 30
0.0
 10
90.24754907683048
 20
-119.4617865369748
 30
0.0
 10
90.24754907683048
 20
-119.4617865369748
 30
0.0
 10
90.24754907683048
 20
-119.3920233533985
 30
0.0
 10
90.24754907683048
 20
-119.3095133165268
 30
0.0
 10
90.24582652908785
 20
-119.3052069471702
 30
0.0
 10
90.2382473190203
 20
-119.1253729628402
 30
0.0
 10
90.2382473190203
 20
-119.1064249376713
 30
0.0
 10
90.23652477127767
 20
-119.0599161486204
 30
0.0
 10
90.23652477127767
 20
-119.0599161486204
 30
0.0
 10
90.42531600386937
 20
-119.0683566325593
 30
0.0
 10
90.42531600386937
 20
-119.0683566325593
 30
0.0
 10
90.43461776167955
 20
-119.0683566325593
 30
0.0
 10
90.45322127729989
 20
-119.0704236898505
 30
0.0
 10
90.45322127729989
 20
-119.0873046577282
 30
0.0
 10
90.45322127729989
 20
-119.1064249376713
 30
0.0
 10
90.44012991445594
 20
-119.1169324789013
 30
0.0
 10
90.41773679380182
 20
-119.1360527588445
 30
0.0
 10
90.41773679380182
 20
-119.1866956624776
 30
0.0
 10
90.41222464102542
 20
-119.415277747924
 30
0.0
 10
90.41429169831657
 20
-119.4617865369748
 30
0.0
 10
90.52694632068425
 20
-119.4617865369748
 30
0.0
 10
90.53831513578557
 20
-119.4617865369748
 30
0.0
 10
90.62340899427123
 20
-119.453346053036
 30
0.0
 10
90.62340899427123
 20
-119.453346053036
 30
0.0
 10
90.62340899427123
 20
-119.6479939479526
 30
0.0
 10
90.62340899427123
 20
-119.6479939479526
 30
0.0
 10
90.5899915680643
 20
-119.6457546358872
 30
0.0
 10
90.53073592571802
 20
-119.6416205213049
 30
0.0
 10
90.41222464102542
 20
-119.643687578596
 30
0.0
 10
90.41222464102542
 20
-119.643687578596
 30
0.0
 10
90.41222464102542
 20
-119.9821682100218
 30
0.0
 10
90.41222464102542
 20
-119.9821682100218
 30
0.0
 10
90.46045597781892
 20
-119.9589138154964
 30
0.0
 10
90.5179890724226
 20
-119.9313530516144
 30
0.0
 10
90.56036374689117
 20
-119.908098657089
 30
0.0
 10
90.56036374689117
 20
-119.908098657089
 30
0.0
 10
90.56036374689117
 20
-119.7305039848243
 30
0.0
 10
90.56036374689117
 20
-119.7305039848243
 30
0.0
 10
90.66061602551193
 20
-119.7430785833455
 30
0.0
 10
90.76396889006944
 20
-119.7430785833455
 30
0.0
 10
90.86594371643282
 20
-119.7430785833455
 30
0.0
 10
90.84561765306985
 20
-119.6479939479526
 30
0.0
 10
90.8215019846731
 20
-119.5654839110809
 30
0.0
 10
90.76603594736058
 20
-119.4321587158017
 30
0.0
 10
90.72710636837725
 20
-119.4342257730928
 30
0.0
 10
90.65475936318701
 20
-119.4385321424494
 30
0.0
 10
90.62168644652861
 20
-119.4405991997405
 30
0.0
 10
90.62168644652861
 20
-119.4405991997405
 30
0.0
 10
90.62168644652861
 20
-119.2607652154105
 30
0.0
 10
90.62168644652861
 20
-119.2607652154105
 30
0.0
 10
90.73089597341102
 20
-119.2692056993494
 30
0.0
 10
90.88248017476202
 20
-119.2735120687059
 30
0.0
 10
90.95482717995228
 20
-119.2735120687059
 30
0.0
 10
90.95482717995228
 20
-119.2735120687059
 30
0.0
 10
91.02717418514251
 20
-119.2735120687059
 30
0.0
 10
91.02717418514251
 20
-119.2735120687059
 30
0.0
 10
91.02717418514251
 20
-119.1105590522536
 30
0.0
 10
91.02717418514251
 20
-119.1000515110236
 30
0.0
 10
91.02510712785137
 20
-119.0451022380339
 30
0.0
 10
91.02510712785137
 20
-119.0451022380339
 30
0.0
 10
91.2214775705106
 20
-119.0704236898505
 30
0.0
 10
91.2214775705106
 20
-119.0704236898505
 30
0.0
 10
91.22526717554439
 20
-119.0704236898505
 30
0.0
 10
91.24387069116473
 20
-119.0724907471416
 30
0.0
 10
91.24387069116473
 20
-119.0893717150193
 30
0.0
 10
91.24387069116473
 20
-119.1041856256059
 30
0.0
 10
91.23456893335455
 20
-119.112798364319
 30
0.0
 10
91.2104532649578
 20
-119.1276122749056
 30
0.0
 10
91.2049411121814
 20
-119.1930690891253
 30
0.0
 10
91.20287405489026
 20
-119.2142564263596
 30
0.0
 10
91.20287405489026
 20
-119.2735120687059
 30
0.0
 10
91.20287405489026
 20
-119.2735120687059
 30
0.0
 10
91.2862453656333
 20
-119.2735120687059
 30
0.0
 10
91.2862453656333
 20
-119.2735120687059
 30
0.0
 10
91.35859237082354
 20
-119.2735120687059
 30
0.0
 10
91.5103488269488
 20
-119.2692056993494
 30
0.0
 10
91.61955835383122
 20
-119.2607652154105
 30
0.0
 10
91.61955835383122
 20
-119.2607652154105
 30
0.0
 10
91.61955835383122
 20
-119.4405991997405
 30
0.0
 10
91.61955835383122
 20
-119.4405991997405
 30
0.0
 10
91.59337562814332
 20
-119.4385321424494
 30
0.0
 10
91.49002276358583
 20
-119.4342257730928
 30
0.0
 10
91.45453828008776
 20
-119.4321587158017
 30
0.0
 10
91.44179142679234
 20
-119.4829738742091
 30
0.0
 10
91.41216360561918
 20
-119.595111732254
 30
0.0
 10
91.35480276578977
 20
-119.7346380994066
 30
0.0
 10
91.39183754225621
 20
-119.7346380994066
 30
0.0
 10
91.6343722644178
 20
-119.7156900742378
 30
0.0
 10
91.6881157539877
 20
-119.7134507621723
 30
0.0
 10
91.6881157539877
 20
-119.7134507621723
 30
0.0
 10
91.6881157539877
 20
-119.8975911158589
 30
0.0
 10
91.6881157539877
 20
-119.8975911158589
 30
0.0
 10
91.6619330282998
 20
-119.8975911158589
 30
0.0
 10
91.64711911771323
 20
-119.8932847465024
 30
0.0
 10
91.50449216462388
 20
-119.8932847465024
 30
0.0
  0
SPLINE
  5
CD
330
C8
100
AcDbEntity
  8
_U+30EC_U+30A4_U+30E4_U+30FC 1
370
     0
100
AcDbSpline
210
0.0
220
0.0
230
1.0
 70
    11
 71
     3
 72
    20
 73
    16
 74
     0
 42
0.0000000001
 43
0.0000000001
 12
1.0
 22
0.0
 32
0.0
 13
1.0
 23
0.0
 33
0.0
 40
0.0
 40
0.0
 40
0.0
 40
0.0
 40
1.0
 40
1.0
 40
1.0
 40
2.0
 40
2.0
 40
2.0
 40
3.0
 40
3.0
 40
3.0
 40
4.0
 40
4.0
 40
4.0
 40
5.0
 40
5.0
 40
5.0
 40
5.0
 10
90.95482717995228
 20
-119.4280246012194
 30
0.0
 10
90.95482717995228
 20
-119.4280246012194
 30
0.0
 10
90.92726641607027
 20
-119.4280246012194
 30
0.0
 10
90.92726641607027
 20
-119.4280246012194
 30
0.0
 10
90.96791854279621
 20
-119.5274156059688
 30
0.0
 10
90.99547930667822
 20
-119.6076863307752
 30
0.0
 10
91.02510712785137
 20
-119.7346380994066
 30
0.0
 10
91.02510712785137
 20
-119.7346380994066
 30
0.0
 10
91.20666365992403
 20
-119.7346380994066
 30
0.0
 10
91.20666365992403
 20
-119.7346380994066
 30
0.0
 10
91.23456893335455
 20
-119.6416205213049
 30
0.0
 10
91.25489499671752
 20
-119.557043427142
 30
0.0
 10
91.27522106008051
 20
-119.4280246012194
 30
0.0
 10
91.27522106008051
 20
-119.4280246012194
 30
0.0
 10
90.95482717995228
 20
-119.4280246012194
 30
0.0
 10
90.95482717995228
 20
-119.4280246012194
 30
0.0
  0
SPLINE
  5
CE
330
C8
100
AcDbEntity
  8
_U+30EC_U+30A4_U+30E4_U+30FC 1
370
     0
100
AcDbSpline
210
0.0
220
0.0
230
1.0
 70
    11
 71
     3
 72
    17
 73
    13
 74
     0
 42
0.0000000001
 43
0.0000000001
 12
1.0
 22
0.0
 32
0.0
 13
1.0
 23
0.0
 33
0.0
 40
0.0
 40
0.0
 40
0.0
 40
0.0
 40
1.0
 40
1.0
 40
1.0
 40
2.0
 40
2.0
 40
2.0
 40
3.0
 40
3.0
 40
3.0
 40
4.0
 40
4.0
 40
4.0
 40
4.0
 10
91.01029321726479
 20
-120.2784464217533
 30
0.0
 10
90.99547930667822
 20
-120.3079019881522
 30
0.0
 10
90.9510375749185
 20
-120.4010918210282
 30
0.0
 10
90.94173581710832
 20
-120.4200398461971
 30
0.0
 10
91.10847843859442
 20
-120.4792954885434
 30
0.0
 10
91.12708195421476
 20
-120.4856689151911
 30
0.0
 10
91.19012720159483
 20
-120.5132296790731
 30
0.0
 10
91.2380140288398
 20
-120.4264132728448
 30
0.0
 10
91.2586846017513
 20
-120.3523437199119
 30
0.0
 10
91.27143145504672
 20
-120.2784464217533
 30
0.0
 10
91.27143145504672
 20
-120.2784464217533
 30
0.0
 10
91.01029321726479
 20
-120.2784464217533
 30
0.0
 10
91.01029321726479
 20
-120.2784464217533
 30
0.0
  0
HATCH
  5
CF
330
C8
100
AcDbEntity
  8
_U+30EC_U+30A4_U+30E4_U+30FC 1
 62
   179
420
  2234388
100
AcDbHatch
 10
0.0
 20
0.0
 30
0.0
210
0.0
220
0.0
230
1.0
  2
SOLID
 70
     1
 71
     0
 91
        3
 92
        1
 93
        1
 72
     4
 94
        3
 73
     0
 74
     1
 95
      242
 96
      238
 40
0.0
 40
0.0
 40
0.0
 40
0.0
 40
1.0
 40
1.0
 40
1.0
 40
2.0
 40
2.0
 40
2.0
 40
3.0
 40
3.0
 40
3.0
 40
4.0
 40
4.0
 40
4.0
 40
5.0
 40
5.0
 40
5.0
 40
6.0
 40
6.0
 40
6.0
 40
7.0
 40
7.0
 40
7.0
 40
8.0
 40
8.0
 40
8.0
 40
9.0
 40
9.0
 40
9.0
 40
10.0
 40
10.0
 40
10.0
 40
11.0
 40
11.0
 40
11.0
 40
12.0
 40
12.0
 40
12.0
 40
13.0
 40
13.0
 40
13.0
 40
14.0
 40
14.0
 40
14.0
 40
15.0
 40
15.0
 40
15.0
 40
16.0
 40
16.0
 40
16.0
 40
17.0
 40
17.0
 40
17.0
 40
18.0
 40
18.0
 40
18.0
 40
19.0
 40
19.0
 40
19.0
 40
20.0
 40
20.0
 40
20.0
 40
21.0
 40
21.0
 40
21.0
 40
22.0
 40
22.0
 40
22.0
 40
23.0
 40
23.0
 40
23.0
 40
24.0
 40
24.0
 40
24.0
 40
25.0
 40
25.0
 40
25.0
 40
26.0
 40
26.0
 40
26.0
 40
27.0
 40
27.0
 40
27.0
 40
28.0
 40
28.0
 40
28.0
 40
29.0
 40
29.0
 40
29.0
 40
30.0
 40
30.0
 40
30.0
 40
31.0
 40
31.0
 40
31.0
 40
32.0
 40
32.0
 40
32.0
 40
33.0
 40
33.0
 40
33.0
 40
34.0
 40
34.0
 40
34.0
 40
35.0
 40
35.0
 40
35.0
 40
36.0
 40
36.0
 40
36.0
 40
37.0
 40
37.0
 40
37.0
 40
38.0
 40
38.0
 40
38.0
 40
39.0
 40
39.0
 40
39.0
 40
40.0
 40
40.0
 40
40.0
 40
41.0
 40
41.0
 40
41.0
 40
42.0
 40
42.0
 40
42.0
 40
43.0
 40
43.0
 40
43.0
 40
44.0
 40
44.0
 40
44.0
 40
45.0
 40
45.0
 40
45.0
 40
46.0
 40
46.0
 40
46.0
 40
47.0
 40
47.0
 40
47.0
 40
48.0
 40
48.0
 40
48.0
 40
49.0
 40
49.0
 40
49.0
 40
50.0
 40
50.0
 40
50.0
 40
51.0
 40
51.0
 40
51.0
 40
52.0
 40
52.0
 40
52.0
 40
53.0
 40
53.0
 40
53.0
 40
54.0
 40
54.0
 40
54.0
 40
55.0
 40
55.0
 40
55.0
 40
56.0
 40
56.0
 40
56.0
 40
57.0
 40
57.0
 40
57.0
 40
58.0
 40
58.0
 40
58.0
 40
59.0
 40
59.0
 40
59.0
 40
60.0
 40
60.0
 40
60.0
 40
61.0
 40
61.0
 40
61.0
 40
62.0
 40
62.0
 40
62.0
 40
63.0
 40
63.0
 40
63.0
 40
64.0
 40
64.0
 40
64.0
 40
65.0
 40
65.0
 40
65.0
 40
66.0
 40
66.0
 40
66.0
 40
67.0
 40
67.0
 40
67.0
 40
68.0
 40
68.0
 40
68.0
 40
69.0
 40
69.0
 40
69.0
 40
70.0
 40
70.0
 40
70.0
 40
71.0
 40
71.0
 40
71.0
 40
72.0
 40
72.0
 40
72.0
 40
73.0
 40
73.0
 40
73.0
 40
74.0
 40
74.0
 40
74.0
 40
75.0
 40
75.0
 40
75.0
 40
76.0
 40
76.0
 40
76.0
 40
77.0
 40
77.0
 40
77.0
 40
78.0
 40
78.0
 40
78.0
 40
79.0
 40
79.0
 40
79.0
 40
79.0
 10
91.50449216462388
 20
-119.8932847465024
 10
91.50449216462388
 20
-119.8932847465024
 10
91.28280027014806
 20
-119.8932847465024
 10
91.28280027014806
 20
-119.8932847465024
 10
91.28280027014806
 20
-119.8932847465024
 10
91.03992103843794
 20
-119.8932847465024
 10
91.03992103843794
 20
-119.8932847465024
 10
91.03992103843794
 20
-119.8932847465024
 10
91.1511976226115
 20
-119.9356594209709
 10
91.1511976226115
 20
-119.9356594209709
 10
91.16049938042168
 20
-119.9399657903275
 10
91.17152368597448
 20
-119.946166962201
 10
91.17152368597448
 20
-119.9589138154964
 10
91.17152368597448
 20
-119.9801011527307
 10
91.14361841254396
 20
-119.9864745793784
 10
91.12535940647214
 20
-119.9906086939607
 10
91.11605764866196
 20
-120.0138630884861
 10
91.08987492297406
 20
-120.0794921574801
 10
91.07333846464486
 20
-120.1239338892399
 10
91.07333846464486
 20
-120.1239338892399
 10
91.31036103403005
 20
-120.1239338892399
 10
91.31036103403005
 20
-120.1239338892399
 10
91.38977048496506
 20
-120.1239338892399
 10
91.56202525922755
 20
-120.1196275198833
 10
91.68604869669655
 20
-120.1111870359444
 10
91.68604869669655
 20
-120.1111870359444
 10
91.68604869669655
 20
-120.2889539629833
 10
91.68604869669655
 20
-120.2889539629833
 10
91.61404620105482
 20
-120.2846475936268
 10
91.59544268543448
 20
-120.2846475936268
 10
91.43800182175856
 20
-120.2805134790445
 10
91.41009654832804
 20
-120.4348537567837
 10
91.37151147889324
 20
-120.5152967363642
 10
91.33275415468418
 20
-120.5850599199405
 10
91.43800182175856
 20
-120.6443155622868
 10
91.53067489031179
 20
-120.712011688572
 10
91.62128090157385
 20
-120.7945217254437
 10
91.62128090157385
 20
-120.7945217254437
 10
91.51758352746783
 20
-120.9616088564783
 10
91.51758352746783
 20
-120.9616088564783
 10
91.49725746410486
 20
-120.9426608313095
 10
91.48623315855205
 20
-120.9342203473706
 10
91.38804793722244
 20
-120.8494709984335
 10
91.3455010079796
 20
-120.8114026933215
 10
91.29382457570085
 20
-120.7755737002749
 10
91.22354462780176
 20
-120.7311319685151
 10
91.03819849069532
 20
-120.9173393794929
 10
90.8587090159138
 20
-120.9405937740183
 10
90.60480547865089
 20
-120.9702215951915
 10
90.60480547865089
 20
-120.9702215951915
 10
90.51419946738882
 20
-120.7903876108614
 10
90.51419946738882
 20
-120.7903876108614
 10
90.79187416349995
 20
-120.7860812415049
 10
90.9455254221421
 20
-120.7607597896883
 10
91.07885061742127
 20
-120.6506889889346
 10
90.97515324331525
 20
-120.5998738305271
 10
90.89763859489712
 20
-120.5724853214194
 10
90.86594371643282
 20
-120.559738468124
 10
90.84940725810362
 20
-120.587299232006
 10
90.83631589525967
 20
-120.6062472571748
 10
90.81220022686293
 20
-120.6401814477045
 10
90.81220022686293
 20
-120.6401814477045
 10
90.63994545260043
 20
-120.5576714108328
 10
90.63994545260043
 20
-120.5576714108328
 10
90.71229245779068
 20
-120.4772284312522
 10
90.76603594736058
 20
-120.3819715410851
 10
90.8159898318967
 20
-120.2805134790445
 10
90.6492472104106
 20
-120.2846475936268
 10
90.63098820433879
 20
-120.2846475936268
 10
90.55864119914854
 20
-120.2889539629833
 10
90.55864119914854
 20
-120.2889539629833
 10
90.55864119914854
 20
-120.1111870359444
 10
90.55864119914854
 20
-120.1111870359444
 10
90.68094208887491
 20
-120.1175604625921
 10
90.8642211686902
 20
-120.1218668319487
 10
90.8862697797958
 20
-120.1218668319487
 10
90.90108369038238
 20
-120.087932641419
 10
90.94931502717587
 20
-119.9673542994353
 10
90.96585148550507
 20
-119.8932847465024
 10
90.94931502717587
 20
-119.8932847465024
 10
90.79359671124257
 20
-119.8996581731501
 10
90.62340899427123
 20
-119.9124050264455
 10
90.62340899427123
 20
-119.9124050264455
 10
90.62340899427123
 20
-120.0457302217247
 10
90.62340899427123
 20
-120.0457302217247
 10
90.58068981025414
 20
-120.0710516735413
 10
90.52901337797539
 20
-120.1027465520056
 10
90.41222464102542
 20
-120.1683756209996
 10
90.41222464102542
 20
-120.1683756209996
 10
90.41222464102542
 20
-120.3142754147999
 10
90.41222464102542
 20
-120.3142754147999
 10
90.41222464102542
 20
-120.3142754147999
 10
90.41222464102542
 20
-120.7819471269226
 10
90.41222464102542
 20
-120.7819471269226
 10
90.41222464102542
 20
-120.9087266407798
 10
90.38087427210965
 20
-120.9679822831261
 10
90.13282739717165
 20
-120.9595417991872
 10
90.13282739717165
 20
-120.9595417991872
 10
90.04187687636106
 20
-120.7523193057494
 10
90.04187687636106
 20
-120.7523193057494
 10
90.09768742322211
 20
-120.7648939042706
 10
90.14006209769069
 20
-120.7692002736271
 10
90.17520207164023
 20
-120.7692002736271
 10
90.24203692405408
 20
-120.7692002736271
 10
90.25133868186425
 20
-120.7459458791017
 10
90.25133868186425
 20
-120.6803168101077
 10
90.25133868186425
 20
-120.6803168101077
 10
90.25133868186425
 20
-120.2508856578713
 10
90.25133868186425
 20
-120.2508856578713
 10
90.16590031383005
 20
-120.2910210202745
 10
90.15108640324348
 20
-120.2973944469222
 10
90.11043427651754
 20
-120.3165147268653
 10
90.10664467148376
 20
-120.3375298093253
 10
90.10319957599852
 20
-120.3671576304985
 10
90.08631860812079
 20
-120.3671576304985
 10
90.07908390760176
 20
-120.3671576304985
 10
90.06978214979159
 20
-120.3630235159162
 10
90.06426999701519
 20
-120.3397691213908
 10
90.06426999701519
 20
-120.3397691213908
 10
90.01776120796431
 20
-120.1471882837653
 10
90.01776120796431
 20
-120.1471882837653
 10
90.14557425046708
 20
-120.1006794947144
 10
90.20310734507075
 20
-120.077425100189
 10
90.25133868186425
 20
-120.0562377629547
 10
90.25133868186425
 20
-120.0562377629547
 10
90.25133868186425
 20
-119.643687578596
 10
90.25133868186425
 20
-119.643687578596
 10
90.25133868186425
 20
-119.643687578596
 10
90.20482989281338
 20
-119.643687578596
 10
90.20482989281338
 20
-119.643687578596
 10
90.20482989281338
 20
-119.643687578596
 10
90.13627249265691
 20
-119.643687578596
 10
90.13627249265691
 20
-119.643687578596
 10
90.07701685031061
 20
-119.643687578596
 10
90.06978214979159
 20
-119.643687578596
 10
90.03843178087581
 20
-119.6500610052437
 10
90.03843178087581
 20
-119.6500610052437
 10
90.03843178087581
 20
-119.4554131103271
 10
90.03843178087581
 20
-119.4554131103271
 10
90.06220293972403
 20
-119.4617865369748
 10
90.06978214979159
 20
-119.4617865369748
 10
90.13076033988051
 20
-119.4617865369748
 10
90.13076033988051
 20
-119.4617865369748
 10
90.24754907683048
 20
-119.4617865369748
 10
90.24754907683048
 20
-119.4617865369748
 10
90.24754907683048
 20
-119.3920233533985
 10
90.24754907683048
 20
-119.3095133165268
 10
90.24582652908785
 20
-119.3052069471702
 10
90.2382473190203
 20
-119.1253729628402
 10
90.2382473190203
 20
-119.1064249376713
 10
90.23652477127767
 20
-119.0599161486204
 10
90.23652477127767
 20
-119.0599161486204
 10
90.42531600386937
 20
-119.0683566325593
 10
90.42531600386937
 20
-119.0683566325593
 10
90.43461776167955
 20
-119.0683566325593
 10
90.45322127729989
 20
-119.0704236898505
 10
90.45322127729989
 20
-119.0873046577282
 10
90.45322127729989
 20
-119.1064249376713
 10
90.44012991445594
 20
-119.1169324789013
 10
90.41773679380182
 20
-119.1360527588445
 10
90.41773679380182
 20
-119.1866956624776
 10
90.41222464102542
 20
-119.415277747924
 10
90.41429169831657
 20
-119.4617865369748
 10
90.52694632068425
 20
-119.4617865369748
 10
90.53831513578557
 20
-119.4617865369748
 10
90.62340899427123
 20
-119.453346053036
 10
90.62340899427123
 20
-119.453346053036
 10
90.62340899427123
 20
-119.6479939479526
 10
90.62340899427123
 20
-119.6479939479526
 10
90.5899915680643
 20
-119.6457546358872
 10
90.53073592571802
 20
-119.6416205213049
 10
90.41222464102542
 20
-119.643687578596
 10
90.41222464102542
 20
-119.643687578596
 10
90.41222464102542
 20
-119.9821682100218
 10
90.41222464102542
 20
-119.9821682100218
 10
90.46045597781892
 20
-119.9589138154964
 10
90.5179890724226
 20
-119.9313530516144
 10
90.56036374689117
 20
-119.908098657089
 10
90.56036374689117
 20
-119.908098657089
 10
90.56036374689117
 20
-119.7305039848243
 10
90.56036374689117
 20
-119.7305039848243
 10
90.66061602551193
 20
-119.7430785833455
 10
90.76396889006944
 20
-119.7430785833455
 10
90.86594371643282
 20
-119.7430785833455
 10
90.84561765306985
 20
-119.6479939479526
 10
90.8215019846731
 20
-119.5654839110809
 10
90.76603594736058
 20
-119.4321587158017
 10
90.72710636837725
 20
-119.4342257730928
 10
90.65475936318701
 20
-119.4385321424494
 10
90.62168644652861
 20
-119.4405991997405
 10
90.62168644652861
 20
-119.4405991997405
 10
90.62168644652861
 20
-119.2607652154105
 10
90.62168644652861
 20
-119.2607652154105
 10
90.73089597341102
 20
-119.2692056993494
 10
90.88248017476202
 20
-119.2735120687059
 10
90.95482717995228
 20
-119.2735120687059
 10
90.95482717995228
 20
-119.2735120687059
 10
91.02717418514251
 20
-119.2735120687059
 10
91.02717418514251
 20
-119.2735120687059
 10
91.02717418514251
 20
-119.1105590522536
 10
91.02717418514251
 20
-119.1000515110236
 10
91.02510712785137
 20
-119.0451022380339
 10
91.02510712785137
 20
-119.0451022380339
 10
91.2214775705106
 20
-119.0704236898505
 10
91.2214775705106
 20
-119.0704236898505
 10
91.22526717554439
 20
-119.0704236898505
 10
91.24387069116473
 20
-119.0724907471416
 10
91.24387069116473
 20
-119.0893717150193
 10
91.24387069116473
 20
-119.1041856256059
 10
91.23456893335455
 20
-119.112798364319
 10
91.2104532649578
 20
-119.1276122749056
 10
91.2049411121814
 20
-119.1930690891253
 10
91.20287405489026
 20
-119.2142564263596
 10
91.20287405489026
 20
-119.2735120687059
 10
91.20287405489026
 20
-119.2735120687059
 10
91.2862453656333
 20
-119.2735120687059
 10
91.2862453656333
 20
-119.2735120687059
 10
91.35859237082354
 20
-119.2735120687059
 10
91.5103488269488
 20
-119.2692056993494
 10
91.61955835383122
 20
-119.2607652154105
 10
91.61955835383122
 20
-119.2607652154105
 10
91.61955835383122
 20
-119.4405991997405
 10
91.61955835383122
 20
-119.4405991997405
 10
91.59337562814332
 20
-119.4385321424494
 10
91.49002276358583
 20
-119.4342257730928
 10
91.45453828008776
 20
-119.4321587158017
 10
91.44179142679234
 20
-119.4829738742091
 10
91.41216360561918
 20
-119.595111732254
 10
91.35480276578977
 20
-119.7346380994066
 10
91.39183754225621
 20
-119.7346380994066
 10
91.6343722644178
 20
-119.7156900742378
 10
91.6881157539877
 20
-119.7134507621723
 10
91.6881157539877
 20
-119.7134507621723
 10
91.6881157539877
 20
-119.8975911158589
 10
91.6881157539877
 20
-119.8975911158589
 10
91.6619330282998
 20
-119.8975911158589
 10
91.64711911771323
 20
-119.8932847465024
 10
91.50449216462388
 20
-119.8932847465024
 97
        0
 97
        0
 92
        1
 93
        1
 72
     4
 94
        3
 73
     0
 74
     1
 95
       20
 96
       16
 40
0.0
 40
0.0
 40
0.0
 40
0.0
 40
1.0
 40
1.0
 40
1.0
 40
2.0
 40
2.0
 40
2.0
 40
3.0
 40
3.0
 40
3.0
 40
4.0
 40
4.0
 40
4.0
 40
5.0
 40
5.0
 40
5.0
 40
5.0
 10
90.95482717995228
 20
-119.4280246012194
 10
90.95482717995228
 20
-119.4280246012194
 10
90.92726641607027
 20
-119.4280246012194
 10
90.92726641607027
 20
-119.4280246012194
 10
90.96791854279621
 20
-119.5274156059688
 10
90.99547930667822
 20
-119.6076863307752
 10
91.02510712785137
 20
-119.7346380994066
 10
91.02510712785137
 20
-119.7346380994066
 10
91.20666365992403
 20
-119.7346380994066
 10
91.20666365992403
 20
-119.7346380994066
 10
91.23456893335455
 20
-119.6416205213049
 10
91.25489499671752
 20
-119.557043427142
 10
91.27522106008051
 20
-119.4280246012194
 10
91.27522106008051
 20
-119.4280246012194
 10
90.95482717995228
 20
-119.4280246012194
 10
90.95482717995228
 20
-119.4280246012194
 97
        0
 97
        0
 92
        1
 93
        1
 72
     4
 94
        3
 73
     0
 74
     1
 95
       17
 96
       13
 40
0.0
 40
0.0
 40
0.0
 40
0.0
 40
1.0
 40
1.0
 40
1.0
 40
2.0
 40
2.0
 40
2.0
 40
3.0
 40
3.0
 40
3.0
 40
4.0
 40
4.0
 40
4.0
 40
4.0
 10
91.01029321726479
 20
-120.2784464217533
 10
90.99547930667822
 20
-120.3079019881522
 10
90.9510375749185
 20
-120.4010918210282
 10
90.94173581710832
 20
-120.4200398461971
 10
91.10847843859442
 20
-120.4792954885434
 10
91.12708195421476
 20
-120.4856689151911
 10
91.19012720159483
 20
-120.5132296790731
 10
91.2380140288398
 20
-120.4264132728448
 10
91.2586846017513
 20
-120.3523437199119
 10
91.27143145504672
 20
-120.2784464217533
 10
91.27143145504672
 20
-120.2784464217533
 10
91.01029321726479
 20
-120.2784464217533
 10
91.01029321726479
 20
-120.2784464217533
 97
        0
 97
        0
 75
     2
 76
     1
 98
        0
  0
SPLINE
  5
D0
330
C8
100
AcDbEntity
  8
_U+30EC_U+30A4_U+30E4_U+30FC 1
370
     0
100
AcDbSpline
210
0.0
220
0.0
230
1.0
 70
    11
 71
     3
 72
   203
 73
   199
 74
     0
 42
0.0000000001
 43
0.0000000001
 12
1.0
 22
0.0
 32
0.0
 13
1.0
 23
0.0
 33
0.0
 40
0.0
 40
0.0
 40
0.0
 40
0.0
 40
1.0
 40
1.0
 40
1.0
 40
2.0
 40
2.0
 40
2.0
 40
3.0
 40
3.0
 40
3.0
 40
4.0
 40
4.0
 40
4.0
 40
5.0
 40
5.0
 40
5.0
 40
6.0
 40
6.0
 40
6.0
 40
7.0
 40
7.0
 40
7.0
 40
8.0
 40
8.0
 40
8.0
 40
9.0
 40
9.0
 40
9.0
 40
10.0
 40
10.0
 40
10.0
 40
11.0
 40
11.0
 40
11.0
 40
12.0
 40
12.0
 40
12.0
 40
13.0
 40
13.0
 40
13.0
 40
14.0
 40
14.0
 40
14.0
 40
15.0
 40
15.0
 40
15.0
 40
16.0
 40
16.0
 40
16.0
 40
17.0
 40
17.0
 40
17.0
 40
18.0
 40
18.0
 40
18.0
 40
19.0
 40
19.0
 40
19.0
 40
20.0
 40
20.0
 40
20.0
 40
21.0
 40
21.0
 40
21.0
 40
22.0
 40
22.0
 40
22.0
 40
23.0
 40
23.0
 40
23.0
 40
24.0
 40
24.0
 40
24.0
 40
25.0
 40
25.0
 40
25.0
 40
26.0
 40
26.0
 40
26.0
 40
27.0
 40
27.0
 40
27.0
 40
28.0
 40
28.0
 40
28.0
 40
29.0
 40
29.0
 40
29.0
 40
30.0
 40
30.0
 40
30.0
 40
31.0
 40
31.0
 40
31.0
 40
32.0
 40
32.0
 40
32.0
 40
33.0
 40
33.0
 40
33.0
 40
34.0
 40
34.0
 40
34.0
 40
35.0
 40
35.0
 40
35.0
 40
36.0
 40
36.0
 40
36.0
 40
37.0
 40
37.0
 40
37.0
 40
38.0
 40
38.0
 40
38.0
 40
39.0
 40
39.0
 40
39.0
 40
40.0
 40
40.0
 40
40.0
 40
41.0
 40
41.0
 40
41.0
 40
42.0
 40
42.0
 40
42.0
 40
43.0
 40
43.0
 40
43.0
 40
44.0
 40
44.0
 40
44.0
 40
45.0
 40
45.0
 40
45.0
 40
46.0
 40
46.0
 40
46.0
 40
47.0
 40
47.0
 40
47.0
 40
48.0
 40
48.0
 40
48.0
 40
49.0
 40
49.0
 40
49.0
 40
50.0
 40
50.0
 40
50.0
 40
51.0
 40
51.0
 40
51.0
 40
52.0
 40
52.0
 40
52.0
 40
53.0
 40
53.0
 40
53.0
 40
54.0
 40
54.0
 40
54.0
 40
55.0
 40
55.0
 40
55.0
 40
56.0
 40
56.0
 40
56.0
 40
57.0
 40
57.0
 40
57.0
 40
58.0
 40
58.0
 40
58.0
 40
59.0
 40
59.0
 40
59.0
 40
60.0
 40
60.0
 40
60.0
 40
61.0
 40
61.0
 40
61.0
 40
62.0
 40
62.0
 40
62.0
 40
63.0
 40
63.0
 40
63.0
 40
64.0
 40
64.0
 40
64.0
 40
65.0
 40
65.0
 40
65.0
 40
66.0
 40
66.0
 40
66.0
 40
66.0
 10
92.98657224237836
 20
-119.9609808727875
 30
0.0
 10
92.98657224237836
 20
-119.9609808727875
 30
0.0
 10
92.49771319302141
 20
-119.9609808727875
 30
0.0
 10
92.49771319302141
 20
-119.9609808727875
 30
0.0
 10
92.48841143521123
 20
-120.0054226045473
 30
0.0
 10
92.48117673469221
 20
-120.0371174830116
 30
0.0
 10
92.46980791959089
 20
-120.0753580428978
 30
0.0
 10
92.492201040245
 20
-120.0753580428978
 30
0.0
 10
92.50529240308896
 20
-120.077425100189
 30
0.0
 10
92.51080455586536
 20
-120.077425100189
 30
0.0
 10
92.51080455586536
 20
-120.077425100189
 30
0.0
 10
92.6754801200603
 20
-120.077425100189
 30
0.0
 10
92.6754801200603
 20
-120.077425100189
 30
0.0
 10
92.6754801200603
 20
-120.077425100189
 30
0.0
 10
93.00310870070756
 20
-120.077425100189
 30
0.0
 10
93.00310870070756
 20
-120.077425100189
 30
0.0
 10
93.0478949420158
 20
-120.077425100189
 30
0.0
 10
93.2959418169538
 20
-120.0646782468936
 30
0.0
 10
93.3235025808358
 20
-120.0646782468936
 30
0.0
 10
93.32178003309318
 20
-120.0922390107756
 30
0.0
 10
93.32005748535055
 20
-120.1111870359444
 30
0.0
 10
93.32005748535055
 20
-120.1408148571176
 30
0.0
 10
93.31799042805939
 20
-120.1725097355819
 30
0.0
 10
93.31799042805939
 20
-120.3079019881522
 30
0.0
 10
93.31799042805939
 20
-120.3354627520342
 30
0.0
 10
93.31799042805939
 20
-120.3354627520342
 30
0.0
 10
93.31799042805939
 20
-120.5809258053582
 30
0.0
 10
93.31799042805939
 20
-120.5809258053582
 30
0.0
 10
93.31799042805939
 20
-120.625367537118
 30
0.0
 10
93.32178003309318
 20
-120.8220824893257
 30
0.0
 10
93.32556963812695
 20
-120.9743557097738
 30
0.0
 10
93.32556963812695
 20
-120.9743557097738
 30
0.0
 10
93.12747664772508
 20
-120.9743557097738
 30
0.0
 10
93.12747664772508
 20
-120.9743557097738
 30
0.0
 10
93.12747664772508
 20
-120.9743557097738
 30
0.0
 10
93.1291991954677
 20
-120.9405937740183
 30
0.0
 10
93.1291991954677
 20
-120.9405937740183
 30
0.0
 10
93.1291991954677
 20
-120.9405937740183
 30
0.0
 10
92.51459416089914
 20
-120.9405937740183
 30
0.0
 10
92.51459416089914
 20
-120.9405937740183
 30
0.0
 10
92.51459416089914
 20
-120.9405937740183
 30
0.0
 10
92.51631670864175
 20
-120.9743557097738
 30
0.0
 10
92.51631670864175
 20
-120.9743557097738
 30
0.0
 10
92.51631670864175
 20
-120.9743557097738
 30
0.0
 10
92.32545841875891
 20
-120.9743557097738
 30
0.0
 10
92.32545841875891
 20
-120.9743557097738
 30
0.0
 10
92.32924802379269
 20
-120.919406436784
 30
0.0
 10
92.32924802379269
 20
-120.9066595834886
 30
0.0
 10
92.33476017656909
 20
-120.7924546681526
 30
0.0
 10
92.33682723386025
 20
-120.7648939042706
 30
0.0
 10
92.33854978160286
 20
-120.6317409637657
 30
0.0
 10
92.33854978160286
 20
-120.6126206838225
 30
0.0
 10
92.33854978160286
 20
-120.6126206838225
 30
0.0
 10
92.33854978160286
 20
-120.4095323049671
 30
0.0
 10
92.33854978160286
 20
-120.4095323049671
 30
0.0
 10
92.2162488918765
 20
-120.6591294728734
 30
0.0
 10
92.06810978601075
 20
-120.7903876108614
 30
0.0
 10
91.97543671745754
 20
-120.8558444250812
 30
0.0
 10
91.97543671745754
 20
-120.8558444250812
 30
0.0
 10
91.82385251610654
 20
-120.7163180579286
 30
0.0
 10
91.82385251610654
 20
-120.7163180579286
 30
0.0
 10
91.90136716452466
 20
-120.6655028995211
 30
0.0
 10
92.0274576592848
 20
-120.5786864932928
 30
0.0
 10
92.14769149172002
 20
-120.3842108531505
 30
0.0
 10
92.2272731974293
 20
-120.257259084519
 30
0.0
 10
92.28480629203297
 20
-120.1134263480098
 30
0.0
 10
92.31443411320612
 20
-119.9609808727875
 30
0.0
 10
92.1142740655131
 20
-119.9632201848529
 30
0.0
 10
91.95717771138571
 20
-119.9695936115007
 30
0.0
 10
91.87380640064266
 20
-119.9716606687918
 30
0.0
 10
91.87380640064266
 20
-119.9716606687918
 30
0.0
 10
91.87380640064266
 20
-119.7938937417529
 30
0.0
 10
91.87380640064266
 20
-119.7938937417529
 30
0.0
 10
92.04606117490516
 20
-119.8002671684006
 30
0.0
 10
92.29410804984315
 20
-119.8045735377572
 30
0.0
 10
92.42571069737969
 20
-119.8045735377572
 30
0.0
 10
92.42571069737969
 20
-119.8045735377572
 30
0.0
 10
92.61243487268023
 20
-119.8045735377572
 30
0.0
 10
92.61243487268023
 20
-119.8045735377572
 30
0.0
 10
92.61243487268023
 20
-119.8045735377572
 30
0.0
 10
92.61243487268023
 20
-119.6965697942946
 30
0.0
 10
92.61243487268023
 20
-119.6965697942946
 30
0.0
 10
92.61243487268023
 20
-119.6965697942946
 30
0.0
 10
92.48496633972599
 20
-119.6965697942946
 30
0.0
 10
92.48496633972599
 20
-119.6965697942946
 30
0.0
 10
92.33682723386025
 20
-119.6965697942946
 30
0.0
 10
92.1886881279945
 20
-119.7008761636512
 30
0.0
 10
92.04227156987137
 20
-119.7072495902989
 30
0.0
 10
92.04227156987137
 20
-119.7072495902989
 30
0.0
 10
92.04227156987137
 20
-119.5358560899077
 30
0.0
 10
92.04227156987137
 20
-119.5358560899077
 30
0.0
 10
92.17731931289318
 20
-119.5463636311377
 30
0.0
 10
92.3402723293455
 20
-119.5463636311377
 30
0.0
 10
92.48496633972599
 20
-119.5463636311377
 30
0.0
 10
92.48496633972599
 20
-119.5463636311377
 30
0.0
 10
92.61243487268023
 20
-119.5463636311377
 30
0.0
 10
92.61243487268023
 20
-119.5463636311377
 30
0.0
 10
92.61243487268023
 20
-119.5463636311377
 30
0.0
 10
92.61243487268023
 20
-119.4280246012194
 30
0.0
 10
92.61243487268023
 20
-119.4280246012194
 30
0.0
 10
92.61243487268023
 20
-119.4280246012194
 30
0.0
 10
92.49771319302141
 20
-119.4280246012194
 30
0.0
 10
92.49771319302141
 20
-119.4280246012194
 30
0.0
 10
92.45706106629547
 20
-119.4280246012194
 30
0.0
 10
92.27929413925656
 20
-119.4364650851582
 30
0.0
 10
92.24208710801587
 20
-119.4364650851582
 30
0.0
 10
92.06432018097698
 20
-119.4405991997405
 30
0.0
 10
91.99782983811166
 20
-119.4426662570317
 30
0.0
 10
91.92927243795519
 20
-119.4449055690971
 30
0.0
 10
91.92927243795519
 20
-119.4449055690971
 30
0.0
 10
91.92927243795519
 20
-119.2607652154105
 30
0.0
 10
91.92927243795519
 20
-119.2607652154105
 30
0.0
 10
92.02918020702744
 20
-119.2692056993494
 30
0.0
 10
92.06810978601075
 20
-119.2692056993494
 30
0.0
 10
92.40331757672557
 20
-119.2778184380625
 30
0.0
 10
92.34785153941304
 20
-119.1825615478953
 30
0.0
 10
92.3237358710163
 20
-119.1550007840133
 30
0.0
 10
92.29204099255199
 20
-119.1189995361925
 30
0.0
 10
92.29204099255199
 20
-119.1189995361925
 30
0.0
 10
92.44603676074266
 20
-119.0364894993207
 30
0.0
 10
92.44603676074266
 20
-119.0364894993207
 30
0.0
 10
92.48117673469221
 20
-119.0724907471416
 30
0.0
 10
92.52010631367553
 20
-119.1148654216102
 30
0.0
 10
92.58487410879823
 20
-119.2247639675897
 30
0.0
 10
92.58487410879823
 20
-119.2247639675897
 30
0.0
 10
92.48496633972599
 20
-119.2798854953536
 30
0.0
 10
92.48496633972599
 20
-119.2798854953536
 30
0.0
 10
92.48496633972599
 20
-119.2798854953536
 30
0.0
 10
92.49392358798764
 20
-119.2798854953536
 30
0.0
 10
92.49392358798764
 20
-119.2798854953536
 30
0.0
 10
92.49392358798764
 20
-119.2798854953536
 30
0.0
 10
92.95143226842882
 20
-119.2798854953536
 30
0.0
 10
92.95143226842882
 20
-119.2798854953536
 30
0.0
 10
92.95143226842882
 20
-119.2798854953536
 30
0.0
 10
92.86806095768577
 20
-119.2354437635939
 30
0.0
 10
92.86806095768577
 20
-119.2354437635939
 30
0.0
 10
92.89217662608252
 20
-119.1973754584819
 30
0.0
 10
92.94213051061864
 20
-119.1169324789013
 30
0.0
 10
92.95522187346259
 20
-119.0428629259684
 30
0.0
 10
92.95522187346259
 20
-119.0428629259684
 30
0.0
 10
93.14229055831166
 20
-119.1064249376713
 30
0.0
 10
93.14229055831166
 20
-119.1064249376713
 30
0.0
 10
93.14952525883068
 20
-119.1084919949625
 30
0.0
 10
93.16812877445103
 20
-119.1189995361925
 30
0.0
 10
93.16812877445103
 20
-119.1401868734268
 30
0.0
 10
93.16812877445103
 20
-119.1782551785388
 30
0.0
 10
93.11059567984735
 20
-119.1782551785388
 30
0.0
 10
93.09405922151815
 20
-119.1782551785388
 30
0.0
 10
93.08475746370799
 20
-119.1973754584819
 30
0.0
 10
93.064431400345
 20
-119.2375108208851
 30
0.0
 10
93.03859318420564
 20
-119.2778184380625
 30
0.0
 10
93.3882703759585
 20
-119.2714450114148
 30
0.0
 10
93.41445310164639
 20
-119.2692056993494
 30
0.0
 10
93.48094344451171
 20
-119.2630045274759
 30
0.0
 10
93.48094344451171
 20
-119.2630045274759
 30
0.0
 10
93.48094344451171
 20
-119.4449055690971
 30
0.0
 10
93.48094344451171
 20
-119.4449055690971
 30
0.0
 10
93.46440698618251
 20
-119.4449055690971
 30
0.0
 10
93.4420138655284
 20
-119.4426662570317
 30
0.0
 10
93.24943302790292
 20
-119.4342257730928
 30
0.0
 10
93.2049912961432
 20
-119.4321587158017
 30
0.0
 10
93.01241045851773
 20
-119.4280246012194
 30
0.0
 10
92.9734808795344
 20
-119.4280246012194
 30
0.0
 10
92.9734808795344
 20
-119.4280246012194
 30
0.0
 10
92.78468964694272
 20
-119.4280246012194
 30
0.0
 10
92.78468964694272
 20
-119.4280246012194
 30
0.0
 10
92.78468964694272
 20
-119.4280246012194
 30
0.0
 10
92.78468964694272
 20
-119.5463636311377
 30
0.0
 10
92.78468964694272
 20
-119.5463636311377
 30
0.0
 10
92.78468964694272
 20
-119.5463636311377
 30
0.0
 10
92.93661835784224
 20
-119.5463636311377
 30
0.0
 10
92.93661835784224
 20
-119.5463636311377
 30
0.0
 10
93.07924531093158
 20
-119.5463636311377
 30
0.0
 10
93.24598793241768
 20
-119.5463636311377
 30
0.0
 10
93.3827582231821
 20
-119.5358560899077
 30
0.0
 10
93.3827582231821
 20
-119.5358560899077
 30
0.0
 10
93.3827582231821
 20
-119.7072495902989
 30
0.0
 10
93.3827582231821
 20
-119.7072495902989
 30
0.0
 10
93.1994791433668
 20
-119.69880910636
 30
0.0
 10
93.0272243691043
 20
-119.6965697942946
 30
0.0
 10
92.93661835784224
 20
-119.6965697942946
 30
0.0
 10
92.93661835784224
 20
-119.6965697942946
 30
0.0
 10
92.78468964694272
 20
-119.6965697942946
 30
0.0
 10
92.78468964694272
 20
-119.6965697942946
 30
0.0
 10
92.78468964694272
 20
-119.6965697942946
 30
0.0
 10
92.78468964694272
 20
-119.8045735377572
 30
0.0
 10
92.78468964694272
 20
-119.8045735377572
 30
0.0
 10
92.78468964694272
 20
-119.8045735377572
 30
0.0
 10
92.98657224237836
 20
-119.8045735377572
 30
0.0
 10
92.98657224237836
 20
-119.8045735377572
 30
0.0
 10
93.10336097932833
 20
-119.8045735377572
 30
0.0
 10
93.3551974593001
 20
-119.8002671684006
 30
0.0
 10
93.53847653911538
 20
-119.7938937417529
 30
0.0
 10
93.53847653911538
 20
-119.7938937417529
 30
0.0
 10
93.53847653911538
 20
-119.9716606687918
 30
0.0
 10
93.53847653911538
 20
-119.9716606687918
 30
0.0
 10
93.37001136988667
 20
-119.9652872421441
 30
0.0
 10
93.09578176926078
 20
-119.9609808727875
 30
0.0
 10
92.98657224237836
 20
-119.9609808727875
 30
0.0
  0
POLYLINE
  5
D1
330
C8
100
AcDbEntity
  8
_U+30EC_U+30A4_U+30E4_U+30FC 1
370
     0
100
AcDb2dPolyline
 66
     1
 10
0.0
 20
0.0
 30
0.0
  0
VERTEX
  5
D2
330
D1
100
AcDbEntity
  8
_U+30EC_U+30A4_U+30E4_U+30FC 1
370
     0
100
AcDbVertex
100
AcDb2dVertex
 10
93.13092174321032
 20
-120.2169514673416
 30
0.0
  0
VERTEX
  5
D3
330
D1
100
AcDbEntity
  8
_U+30EC_U+30A4_U+30E4_U+30FC 1
370
     0
100
AcDbVertex
100
AcDb2dVertex
 10
92.51252710360798
 20
-120.2169514673416
 30
0.0
  0
VERTEX
  5
D4
330
D1
100
AcDbEntity
  8
_U+30EC_U+30A4_U+30E4_U+30FC 1
370
     0
100
AcDbVertex
100
AcDb2dVertex
 10
92.51252710360798
 20
-120.3249552108042
 30
0.0
  0
VERTEX
  5
D5
330
D1
100
AcDbEntity
  8
_U+30EC_U+30A4_U+30E4_U+30FC 1
370
     0
100
AcDbVertex
100
AcDb2dVertex
 10
93.13092174321032
 20
-120.3249552108042
 30
0.0
  0
VERTEX
  5
D6
330
D1
100
AcDbEntity
  8
_U+30EC_U+30A4_U+30E4_U+30FC 1
370
     0
100
AcDbVertex
100
AcDb2dVertex
 10
93.13092174321032
 20
-120.2169514673416
 30
0.0
  0
SEQEND
  5
D7
330
D1
100
AcDbEntity
  8
_U+30EC_U+30A4_U+30E4_U+30FC 1
370
     0
  0
POLYLINE
  5
D8
330
C8
100
AcDbEntity
  8
_U+30EC_U+30A4_U+30E4_U+30FC 1
370
     0
100
AcDb2dPolyline
 66
     1
 10
0.0
 20
0.0
 30
0.0
  0
VERTEX
  5
D9
330
D8
100
AcDbEntity
  8
_U+30EC_U+30A4_U+30E4_U+30FC 1
370
     0
100
AcDbVertex
100
AcDb2dVertex
 10
93.13092174321032
 20
-120.4496676673702
 30
0.0
  0
VERTEX
  5
DA
330
D8
100
AcDbEntity
  8
_U+30EC_U+30A4_U+30E4_U+30FC 1
370
     0
100
AcDbVertex
100
AcDb2dVertex
 10
92.51252710360798
 20
-120.4496676673702
 30
0.0
  0
VERTEX
  5
DB
330
D8
100
AcDbEntity
  8
_U+30EC_U+30A4_U+30E4_U+30FC 1
370
     0
100
AcDbVertex
100
AcDb2dVertex
 10
92.51252710360798
 20
-120.5640448374805
 30
0.0
  0
VERTEX
  5
DC
330
D8
100
AcDbEntity
  8
_U+30EC_U+30A4_U+30E4_U+30FC 1
370
     0
100
AcDbVertex
100
AcDb2dVertex
 10
93.13092174321032
 20
-120.5640448374805
 30
0.0
  0
VERTEX
  5
DD
330
D8
100
AcDbEntity
  8
_U+30EC_U+30A4_U+30E4_U+30FC 1
370
     0
100
AcDbVertex
100
AcDb2dVertex
 10
93.13092174321032
 20
-120.4496676673702
 30
0.0
  0
SEQEND
  5
DE
330
D8
100
AcDbEntity
  8
_U+30EC_U+30A4_U+30E4_U+30FC 1
370
     0
  0
POLYLINE
  5
DF
330
C8
100
AcDbEntity
  8
_U+30EC_U+30A4_U+30E4_U+30FC 1
370
     0
100
AcDb2dPolyline
 66
     1
 10
0.0
 20
0.0
 30
0.0
  0
VERTEX
  5
E0
330
DF
100
AcDbEntity
  8
_U+30EC_U+30A4_U+30E4_U+30FC 1
370
     0
100
AcDbVertex
100
AcDb2dVertex
 10
93.13092174321032
 20
-120.6930636634031
 30
0.0
  0
VERTEX
  5
E1
330
DF
100
AcDbEntity
  8
_U+30EC_U+30A4_U+30E4_U+30FC 1
370
     0
100
AcDbVertex
100
AcDb2dVertex
 10
92.51252710360798
 20
-120.6930636634031
 30
0.0
  0
VERTEX
  5
E2
330
DF
100
AcDbEntity
  8
_U+30EC_U+30A4_U+30E4_U+30FC 1
370
     0
100
AcDbVertex
100
AcDb2dVertex
 10
92.51252710360798
 20
-120.8072685787392
 30
0.0
  0
VERTEX
  5
E3
330
DF
100
AcDbEntity
  8
_U+30EC_U+30A4_U+30E4_U+30FC 1
370
     0
100
AcDbVertex
100
AcDb2dVertex
 10
93.13092174321032
 20
-120.8072685787392
 30
0.0
  0
VERTEX
  5
E4
330
DF
100
AcDbEntity
  8
_U+30EC_U+30A4_U+30E4_U+30FC 1
370
     0
100
AcDbVertex
100
AcDb2dVertex
 10
93.13092174321032
 20
-120.6930636634031
 30
0.0
  0
SEQEND
  5
E5
330
DF
100
AcDbEntity
  8
_U+30EC_U+30A4_U+30E4_U+30FC 1
370
     0
  0
HATCH
  5
E6
330
C8
100
AcDbEntity
  8
_U+30EC_U+30A4_U+30E4_U+30FC 1
 62
   179
420
  2234388
100
AcDbHatch
 10
0.0
 20
0.0
 30
0.0
210
0.0
220
0.0
230
1.0
  2
SOLID
 70
     1
 71
     0
 91
        4
 92
        1
 93
        1
 72
     4
 94
        3
 73
     0
 74
     1
 95
      203
 96
      199
 40
0.0
 40
0.0
 40
0.0
 40
0.0
 40
1.0
 40
1.0
 40
1.0
 40
2.0
 40
2.0
 40
2.0
 40
3.0
 40
3.0
 40
3.0
 40
4.0
 40
4.0
 40
4.0
 40
5.0
 40
5.0
 40
5.0
 40
6.0
 40
6.0
 40
6.0
 40
7.0
 40
7.0
 40
7.0
 40
8.0
 40
8.0
 40
8.0
 40
9.0
 40
9.0
 40
9.0
 40
10.0
 40
10.0
 40
10.0
 40
11.0
 40
11.0
 40
11.0
 40
12.0
 40
12.0
 40
12.0
 40
13.0
 40
13.0
 40
13.0
 40
14.0
 40
14.0
 40
14.0
 40
15.0
 40
15.0
 40
15.0
 40
16.0
 40
16.0
 40
16.0
 40
17.0
 40
17.0
 40
17.0
 40
18.0
 40
18.0
 40
18.0
 40
19.0
 40
19.0
 40
19.0
 40
20.0
 40
20.0
 40
20.0
 40
21.0
 40
21.0
 40
21.0
 40
22.0
 40
22.0
 40
22.0
 40
23.0
 40
23.0
 40
23.0
 40
24.0
 40
24.0
 40
24.0
 40
25.0
 40
25.0
 40
25.0
 40
26.0
 40
26.0
 40
26.0
 40
27.0
 40
27.0
 40
27.0
 40
28.0
 40
28.0
 40
28.0
 40
29.0
 40
29.0
 40
29.0
 40
30.0
 40
30.0
 40
30.0
 40
31.0
 40
31.0
 40
31.0
 40
32.0
 40
32.0
 40
32.0
 40
33.0
 40
33.0
 40
33.0
 40
34.0
 40
34.0
 40
34.0
 40
35.0
 40
35.0
 40
35.0
 40
36.0
 40
36.0
 40
36.0
 40
37.0
 40
37.0
 40
37.0
 40
38.0
 40
38.0
 40
38.0
 40
39.0
 40
39.0
 40
39.0
 40
40.0
 40
40.0
 40
40.0
 40
41.0
 40
41.0
 40
41.0
 40
42.0
 40
42.0
 40
42.0
 40
43.0
 40
43.0
 40
43.0
 40
44.0
 40
44.0
 40
44.0
 40
45.0
 40
45.0
 40
45.0
 40
46.0
 40
46.0
 40
46.0
 40
47.0
 40
47.0
 40
47.0
 40
48.0
 40
48.0
 40
48.0
 40
49.0
 40
49.0
 40
49.0
 40
50.0
 40
50.0
 40
50.0
 40
51.0
 40
51.0
 40
51.0
 40
52.0
 40
52.0
 40
52.0
 40
53.0
 40
53.0
 40
53.0
 40
54.0
 40
54.0
 40
54.0
 40
55.0
 40
55.0
 40
55.0
 40
56.0
 40
56.0
 40
56.0
 40
57.0
 40
57.0
 40
57.0
 40
58.0
 40
58.0
 40
58.0
 40
59.0
 40
59.0
 40
59.0
 40
60.0
 40
60.0
 40
60.0
 40
61.0
 40
61.0
 40
61.0
 40
62.0
 40
62.0
 40
62.0
 40
63.0
 40
63.0
 40
63.0
 40
64.0
 40
64.0
 40
64.0
 40
65.0
 40
65.0
 40
65.0
 40
66.0
 40
66.0
 40
66.0
 40
66.0
 10
92.98657224237836
 20
-119.9609808727875
 10
92.98657224237836
 20
-119.9609808727875
 10
92.49771319302141
 20
-119.9609808727875
 10
92.49771319302141
 20
-119.9609808727875
 10
92.48841143521123
 20
-120.0054226045473
 10
92.48117673469221
 20
-120.0371174830116
 10
92.46980791959089
 20
-120.0753580428978
 10
92.492201040245
 20
-120.0753580428978
 10
92.50529240308896
 20
-120.077425100189
 10
92.51080455586536
 20
-120.077425100189
 10
92.51080455586536
 20
-120.077425100189
 10
92.6754801200603
 20
-120.077425100189
 10
92.6754801200603
 20
-120.077425100189
 10
92.6754801200603
 20
-120.077425100189
 10
93.00310870070756
 20
-120.077425100189
 10
93.00310870070756
 20
-120.077425100189
 10
93.0478949420158
 20
-120.077425100189
 10
93.2959418169538
 20
-120.0646782468936
 10
93.3235025808358
 20
-120.0646782468936
 10
93.32178003309318
 20
-120.0922390107756
 10
93.32005748535055
 20
-120.1111870359444
 10
93.32005748535055
 20
-120.1408148571176
 10
93.31799042805939
 20
-120.1725097355819
 10
93.31799042805939
 20
-120.3079019881522
 10
93.31799042805939
 20
-120.3354627520342
 10
93.31799042805939
 20
-120.3354627520342
 10
93.31799042805939
 20
-120.5809258053582
 10
93.31799042805939
 20
-120.5809258053582
 10
93.31799042805939
 20
-120.625367537118
 10
93.32178003309318
 20
-120.8220824893257
 10
93.32556963812695
 20
-120.9743557097738
 10
93.32556963812695
 20
-120.9743557097738
 10
93.12747664772508
 20
-120.9743557097738
 10
93.12747664772508
 20
-120.9743557097738
 10
93.12747664772508
 20
-120.9743557097738
 10
93.1291991954677
 20
-120.9405937740183
 10
93.1291991954677
 20
-120.9405937740183
 10
93.1291991954677
 20
-120.9405937740183
 10
92.51459416089914
 20
-120.9405937740183
 10
92.51459416089914
 20
-120.9405937740183
 10
92.51459416089914
 20
-120.9405937740183
 10
92.51631670864175
 20
-120.9743557097738
 10
92.51631670864175
 20
-120.9743557097738
 10
92.51631670864175
 20
-120.9743557097738
 10
92.32545841875891
 20
-120.9743557097738
 10
92.32545841875891
 20
-120.9743557097738
 10
92.32924802379269
 20
-120.919406436784
 10
92.32924802379269
 20
-120.9066595834886
 10
92.33476017656909
 20
-120.7924546681526
 10
92.33682723386025
 20
-120.7648939042706
 10
92.33854978160286
 20
-120.6317409637657
 10
92.33854978160286
 20
-120.6126206838225
 10
92.33854978160286
 20
-120.6126206838225
 10
92.33854978160286
 20
-120.4095323049671
 10
92.33854978160286
 20
-120.4095323049671
 10
92.2162488918765
 20
-120.6591294728734
 10
92.06810978601075
 20
-120.7903876108614
 10
91.97543671745754
 20
-120.8558444250812
 10
91.97543671745754
 20
-120.8558444250812
 10
91.82385251610654
 20
-120.7163180579286
 10
91.82385251610654
 20
-120.7163180579286
 10
91.90136716452466
 20
-120.6655028995211
 10
92.0274576592848
 20
-120.5786864932928
 10
92.14769149172002
 20
-120.3842108531505
 10
92.2272731974293
 20
-120.257259084519
 10
92.28480629203297
 20
-120.1134263480098
 10
92.31443411320612
 20
-119.9609808727875
 10
92.1142740655131
 20
-119.9632201848529
 10
91.95717771138571
 20
-119.9695936115007
 10
91.87380640064266
 20
-119.9716606687918
 10
91.87380640064266
 20
-119.9716606687918
 10
91.87380640064266
 20
-119.7938937417529
 10
91.87380640064266
 20
-119.7938937417529
 10
92.04606117490516
 20
-119.8002671684006
 10
92.29410804984315
 20
-119.8045735377572
 10
92.42571069737969
 20
-119.8045735377572
 10
92.42571069737969
 20
-119.8045735377572
 10
92.61243487268023
 20
-119.8045735377572
 10
92.61243487268023
 20
-119.8045735377572
 10
92.61243487268023
 20
-119.8045735377572
 10
92.61243487268023
 20
-119.6965697942946
 10
92.61243487268023
 20
-119.6965697942946
 10
92.61243487268023
 20
-119.6965697942946
 10
92.48496633972599
 20
-119.6965697942946
 10
92.48496633972599
 20
-119.6965697942946
 10
92.33682723386025
 20
-119.6965697942946
 10
92.1886881279945
 20
-119.7008761636512
 10
92.04227156987137
 20
-119.7072495902989
 10
92.04227156987137
 20
-119.7072495902989
 10
92.04227156987137
 20
-119.5358560899077
 10
92.04227156987137
 20
-119.5358560899077
 10
92.17731931289318
 20
-119.5463636311377
 10
92.3402723293455
 20
-119.5463636311377
 10
92.48496633972599
 20
-119.5463636311377
 10
92.48496633972599
 20
-119.5463636311377
 10
92.61243487268023
 20
-119.5463636311377
 10
92.61243487268023
 20
-119.5463636311377
 10
92.61243487268023
 20
-119.5463636311377
 10
92.61243487268023
 20
-119.4280246012194
 10
92.61243487268023
 20
-119.4280246012194
 10
92.61243487268023
 20
-119.4280246012194
 10
92.49771319302141
 20
-119.4280246012194
 10
92.49771319302141
 20
-119.4280246012194
 10
92.45706106629547
 20
-119.4280246012194
 10
92.27929413925656
 20
-119.4364650851582
 10
92.24208710801587
 20
-119.4364650851582
 10
92.06432018097698
 20
-119.4405991997405
 10
91.99782983811166
 20
-119.4426662570317
 10
91.92927243795519
 20
-119.4449055690971
 10
91.92927243795519
 20
-119.4449055690971
 10
91.92927243795519
 20
-119.2607652154105
 10
91.92927243795519
 20
-119.2607652154105
 10
92.02918020702744
 20
-119.2692056993494
 10
92.06810978601075
 20
-119.2692056993494
 10
92.40331757672557
 20
-119.2778184380625
 10
92.34785153941304
 20
-119.1825615478953
 10
92.3237358710163
 20
-119.1550007840133
 10
92.29204099255199
 20
-119.1189995361925
 10
92.29204099255199
 20
-119.1189995361925
 10
92.44603676074266
 20
-119.0364894993207
 10
92.44603676074266
 20
-119.0364894993207
 10
92.48117673469221
 20
-119.0724907471416
 10
92.52010631367553
 20
-119.1148654216102
 10
92.58487410879823
 20
-119.2247639675897
 10
92.58487410879823
 20
-119.2247639675897
 10
92.48496633972599
 20
-119.2798854953536
 10
92.48496633972599
 20
-119.2798854953536
 10
92.48496633972599
 20
-119.2798854953536
 10
92.49392358798764
 20
-119.2798854953536
 10
92.49392358798764
 20
-119.2798854953536
 10
92.49392358798764
 20
-119.2798854953536
 10
92.95143226842882
 20
-119.2798854953536
 10
92.95143226842882
 20
-119.2798854953536
 10
92.95143226842882
 20
-119.2798854953536
 10
92.86806095768577
 20
-119.2354437635939
 10
92.86806095768577
 20
-119.2354437635939
 10
92.89217662608252
 20
-119.1973754584819
 10
92.94213051061864
 20
-119.1169324789013
 10
92.95522187346259
 20
-119.0428629259684
 10
92.95522187346259
 20
-119.0428629259684
 10
93.14229055831166
 20
-119.1064249376713
 10
93.14229055831166
 20
-119.1064249376713
 10
93.14952525883068
 20
-119.1084919949625
 10
93.16812877445103
 20
-119.1189995361925
 10
93.16812877445103
 20
-119.1401868734268
 10
93.16812877445103
 20
-119.1782551785388
 10
93.11059567984735
 20
-119.1782551785388
 10
93.09405922151815
 20
-119.1782551785388
 10
93.08475746370799
 20
-119.1973754584819
 10
93.064431400345
 20
-119.2375108208851
 10
93.03859318420564
 20
-119.2778184380625
 10
93.3882703759585
 20
-119.2714450114148
 10
93.41445310164639
 20
-119.2692056993494
 10
93.48094344451171
 20
-119.2630045274759
 10
93.48094344451171
 20
-119.2630045274759
 10
93.48094344451171
 20
-119.4449055690971
 10
93.48094344451171
 20
-119.4449055690971
 10
93.46440698618251
 20
-119.4449055690971
 10
93.4420138655284
 20
-119.4426662570317
 10
93.24943302790292
 20
-119.4342257730928
 10
93.2049912961432
 20
-119.4321587158017
 10
93.01241045851773
 20
-119.4280246012194
 10
92.9734808795344
 20
-119.4280246012194
 10
92.9734808795344
 20
-119.4280246012194
 10
92.78468964694272
 20
-119.4280246012194
 10
92.78468964694272
 20
-119.4280246012194
 10
92.78468964694272
 20
-119.4280246012194
 10
92.78468964694272
 20
-119.5463636311377
 10
92.78468964694272
 20
-119.5463636311377
 10
92.78468964694272
 20
-119.5463636311377
 10
92.93661835784224
 20
-119.5463636311377
 10
92.93661835784224
 20
-119.5463636311377
 10
93.07924531093158
 20
-119.5463636311377
 10
93.24598793241768
 20
-119.5463636311377
 10
93.3827582231821
 20
-119.5358560899077
 10
93.3827582231821
 20
-119.5358560899077
 10
93.3827582231821
 20
-119.7072495902989
 10
93.3827582231821
 20
-119.7072495902989
 10
93.1994791433668
 20
-119.69880910636
 10
93.0272243691043
 20
-119.6965697942946
 10
92.93661835784224
 20
-119.6965697942946
 10
92.93661835784224
 20
-119.6965697942946
 10
92.78468964694272
 20
-119.6965697942946
 10
92.78468964694272
 20
-119.6965697942946
 10
92.78468964694272
 20
-119.6965697942946
 10
92.78468964694272
 20
-119.8045735377572
 10
92.78468964694272
 20
-119.8045735377572
 10
92.78468964694272
 20
-119.8045735377572
 10
92.98657224237836
 20
-119.8045735377572
 10
92.98657224237836
 20
-119.8045735377572
 10
93.10336097932833
 20
-119.8045735377572
 10
93.3551974593001
 20
-119.8002671684006
 10
93.53847653911538
 20
-119.7938937417529
 10
93.53847653911538
 20
-119.7938937417529
 10
93.53847653911538
 20
-119.9716606687918
 10
93.53847653911538
 20
-119.9716606687918
 10
93.37001136988667
 20
-119.9652872421441
 10
93.09578176926078
 20
-119.9609808727875
 10
92.98657224237836
 20
-119.9609808727875
 97
        0
 97
        0
 92
        1
 93
        4
 72
     1
 10
93.13092174321032
 20
-120.2169514673416
 11
92.51252710360798
 21
-120.2169514673416
 72
     1
 10
92.51252710360798
 20
-120.2169514673416
 11
92.51252710360798
 21
-120.3249552108042
 72
     1
 10
92.51252710360798
 20
-120.3249552108042
 11
93.13092174321032
 21
-120.3249552108042
 72
     1
 10
93.13092174321032
 20
-120.3249552108042
 11
93.13092174321032
 21
-120.2169514673416
 97
        0
 92
        1
 93
        4
 72
     1
 10
93.13092174321032
 20
-120.4496676673702
 11
92.51252710360798
 21
-120.4496676673702
 72
     1
 10
92.51252710360798
 20
-120.4496676673702
 11
92.51252710360798
 21
-120.5640448374805
 72
     1
 10
92.51252710360798
 20
-120.5640448374805
 11
93.13092174321032
 21
-120.5640448374805
 72
     1
 10
93.13092174321032
 20
-120.5640448374805
 11
93.13092174321032
 21
-120.4496676673702
 97
        0
 92
        1
 93
        4
 72
     1
 10
93.13092174321032
 20
-120.6930636634031
 11
92.51252710360798
 21
-120.6930636634031
 72
     1
 10
92.51252710360798
 20
-120.6930636634031
 11
92.51252710360798
 21
-120.8072685787392
 72
     1
 10
92.51252710360798
 20
-120.8072685787392
 11
93.13092174321032
 21
-120.8072685787392
 72
     1
 10
93.13092174321032
 20
-120.8072685787392
 11
93.13092174321032
 21
-120.6930636634031
 97
        0
 75
     2
 76
     1
 98
        0
  0
SPLINE
  5
E7
330
C8
100
AcDbEntity
  8
_U+30EC_U+30A4_U+30E4_U+30FC 1
370
     0
100
AcDbSpline
210
0.0
220
0.0
230
1.0
 70
    11
 71
     3
 72
    47
 73
    43
 74
     0
 42
0.0000000001
 43
0.0000000001
 12
1.0
 22
0.0
 32
0.0
 13
1.0
 23
0.0
 33
0.0
 40
0.0
 40
0.0
 40
0.0
 40
0.0
 40
1.0
 40
1.0
 40
1.0
 40
2.0
 40
2.0
 40
2.0
 40
3.0
 40
3.0
 40
3.0
 40
4.0
 40
4.0
 40
4.0
 40
5.0
 40
5.0
 40
5.0
 40
6.0
 40
6.0
 40
6.0
 40
7.0
 40
7.0
 40
7.0
 40
8.0
 40
8.0
 40
8.0
 40
9.0
 40
9.0
 40
9.0
 40
10.0
 40
10.0
 40
10.0
 40
11.0
 40
11.0
 40
11.0
 40
12.0
 40
12.0
 40
12.0
 40
13.0
 40
13.0
 40
13.0
 40
14.0
 40
14.0
 40
14.0
 40
14.0
 10
94.71842174281345
 20
-119.9377264782621
 30
0.0
 10
94.71842174281345
 20
-119.9377264782621
 30
0.0
 10
94.62953827929401
 20
-119.9377264782621
 30
0.0
 10
94.62953827929401
 20
-119.9377264782621
 30
0.0
 10
94.62953827929401
 20
-120.0245428844904
 30
0.0
 10
94.61093476367365
 20
-120.4138386743236
 30
0.0
 10
94.43867998941117
 20
-120.6338080210568
 30
0.0
 10
94.305354794132
 20
-120.8029622093826
 30
0.0
 10
94.12379826205934
 20
-120.8728976477332
 30
0.0
 10
94.04972870912646
 20
-120.9002861568409
 30
0.0
 10
94.04972870912646
 20
-120.9002861568409
 30
0.0
 10
93.87954099215511
 20
-120.7331990258063
 30
0.0
 10
93.87954099215511
 20
-120.7331990258063
 30
0.0
 10
93.96463485064079
 20
-120.7204521725109
 30
0.0
 10
94.11828610928293
 20
-120.6971977779854
 30
0.0
 10
94.2833061830264
 20
-120.5089233097165
 30
0.0
 10
94.3480739781491
 20
-120.4370930688491
 30
0.0
 10
94.43867998941117
 20
-120.2973944469222
 30
0.0
 10
94.43867998941117
 20
-119.9377264782621
 30
0.0
 10
94.43867998941117
 20
-119.9377264782621
 30
0.0
 10
94.23679739397552
 20
-119.9377264782621
 30
0.0
 10
94.23679739397552
 20
-119.9377264782621
 30
0.0
 10
94.07384437752322
 20
-119.9377264782621
 30
0.0
 10
93.9108913610709
 20
-119.9420328476187
 30
0.0
 10
93.74793834461858
 20
-119.9568467582052
 30
0.0
 10
93.74793834461858
 20
-119.9568467582052
 30
0.0
 10
93.74793834461858
 20
-119.736877411472
 30
0.0
 10
93.74793834461858
 20
-119.736877411472
 30
0.0
 10
93.91261390881351
 20
-119.7516913220586
 30
0.0
 10
94.16272784104265
 20
-119.7558254366409
 30
0.0
 10
94.23679739397552
 20
-119.7558254366409
 30
0.0
 10
94.23679739397552
 20
-119.7558254366409
 30
0.0
 10
94.71842174281345
 20
-119.7558254366409
 30
0.0
 10
94.71842174281345
 20
-119.7558254366409
 30
0.0
 10
94.73495820114266
 20
-119.7558254366409
 30
0.0
 10
95.0126328972538
 20
-119.7558254366409
 30
0.0
 10
95.21279294494681
 20
-119.736877411472
 30
0.0
 10
95.21279294494681
 20
-119.736877411472
 30
0.0
 10
95.21279294494681
 20
-119.9568467582052
 30
0.0
 10
95.21279294494681
 20
-119.9568467582052
 30
0.0
 10
95.04777287120334
 20
-119.9420328476187
 30
0.0
 10
94.8830973070084
 20
-119.9377264782621
 30
0.0
 10
94.71842174281345
 20
-119.9377264782621
 30
0.0
  0
SPLINE
  5
E8
330
C8
100
AcDbEntity
  8
_U+30EC_U+30A4_U+30E4_U+30FC 1
370
     0
100
AcDbSpline
210
0.0
220
0.0
230
1.0
 70
    11
 71
     3
 72
    29
 73
    25
 74
     0
 42
0.0000000001
 43
0.0000000001
 12
1.0
 22
0.0
 32
0.0
 13
1.0
 23
0.0
 33
0.0
 40
0.0
 40
0.0
 40
0.0
 40
0.0
 40
1.0
 40
1.0
 40
1.0
 40
2.0
 40
2.0
 40
2.0
 40
3.0
 40
3.0
 40
3.0
 40
4.0
 40
4.0
 40
4.0
 40
5.0
 40
5.0
 40
5.0
 40
6.0
 40
6.0
 40
6.0
 40
7.0
 40
7.0
 40
7.0
 40
8.0
 40
8.0
 40
8.0
 40
8.0
 10
94.62953827929401
 20
-119.4089043212763
 30
0.0
 10
94.62953827929401
 20
-119.4089043212763
 30
0.0
 10
94.32016870471857
 20
-119.4089043212763
 30
0.0
 10
94.32016870471857
 20
-119.4089043212763
 30
0.0
 10
94.22198348338895
 20
-119.4089043212763
 30
0.0
 10
94.09968259366258
 20
-119.415277747924
 30
0.0
 10
94.00528697736674
 20
-119.4280246012194
 30
0.0
 10
94.00528697736674
 20
-119.4280246012194
 30
0.0
 10
94.00528697736674
 20
-119.1930690891253
 30
0.0
 10
94.00528697736674
 20
-119.1930690891253
 30
0.0
 10
94.10898435147276
 20
-119.2078829997119
 30
0.0
 10
94.27021482018245
 20
-119.2121893690685
 30
0.0
 10
94.32016870471857
 20
-119.2121893690685
 30
0.0
 10
94.32016870471857
 20
-119.2121893690685
 30
0.0
 10
94.62953827929401
 20
-119.2121893690685
 30
0.0
 10
94.62953827929401
 20
-119.2121893690685
 30
0.0
 10
94.64607473762321
 20
-119.2121893690685
 30
0.0
 10
94.8238416646621
 20
-119.2121893690685
 30
0.0
 10
94.94786510213109
 20
-119.1930690891253
 30
0.0
 10
94.94786510213109
 20
-119.1930690891253
 30
0.0
 10
94.94786510213109
 20
-119.4280246012194
 30
0.0
 10
94.94786510213109
 20
-119.4280246012194
 30
0.0
 10
94.81075030181815
 20
-119.4089043212763
 30
0.0
 10
94.64435218988058
 20
-119.4089043212763
 30
0.0
 10
94.62953827929401
 20
-119.4089043212763
 30
0.0
  0
HATCH
  5
E9
330
C8
100
AcDbEntity
  8
_U+30EC_U+30A4_U+30E4_U+30FC 1
 62
   179
420
  2234388
100
AcDbHatch
 10
0.0
 20
0.0
 30
0.0
210
0.0
220
0.0
230
1.0
  2
SOLID
 70
     1
 71
     0
 91
        2
 92
        1
 93
        1
 72
     4
 94
        3
 73
     0
 74
     1
 95
       47
 96
       43
 40
0.0
 40
0.0
 40
0.0
 40
0.0
 40
1.0
 40
1.0
 40
1.0
 40
2.0
 40
2.0
 40
2.0
 40
3.0
 40
3.0
 40
3.0
 40
4.0
 40
4.0
 40
4.0
 40
5.0
 40
5.0
 40
5.0
 40
6.0
 40
6.0
 40
6.0
 40
7.0
 40
7.0
 40
7.0
 40
8.0
 40
8.0
 40
8.0
 40
9.0
 40
9.0
 40
9.0
 40
10.0
 40
10.0
 40
10.0
 40
11.0
 40
11.0
 40
11.0
 40
12.0
 40
12.0
 40
12.0
 40
13.0
 40
13.0
 40
13.0
 40
14.0
 40
14.0
 40
14.0
 40
14.0
 10
94.71842174281345
 20
-119.9377264782621
 10
94.71842174281345
 20
-119.9377264782621
 10
94.62953827929401
 20
-119.9377264782621
 10
94.62953827929401
 20
-119.9377264782621
 10
94.62953827929401
 20
-120.0245428844904
 10
94.61093476367365
 20
-120.4138386743236
 10
94.43867998941117
 20
-120.6338080210568
 10
94.305354794132
 20
-120.8029622093826
 10
94.12379826205934
 20
-120.8728976477332
 10
94.04972870912646
 20
-120.9002861568409
 10
94.04972870912646
 20
-120.9002861568409
 10
93.87954099215511
 20
-120.7331990258063
 10
93.87954099215511
 20
-120.7331990258063
 10
93.96463485064079
 20
-120.7204521725109
 10
94.11828610928293
 20
-120.6971977779854
 10
94.2833061830264
 20
-120.5089233097165
 10
94.3480739781491
 20
-120.4370930688491
 10
94.43867998941117
 20
-120.2973944469222
 10
94.43867998941117
 20
-119.9377264782621
 10
94.43867998941117
 20
-119.9377264782621
 10
94.23679739397552
 20
-119.9377264782621
 10
94.23679739397552
 20
-119.9377264782621
 10
94.07384437752322
 20
-119.9377264782621
 10
93.9108913610709
 20
-119.9420328476187
 10
93.74793834461858
 20
-119.9568467582052
 10
93.74793834461858
 20
-119.9568467582052
 10
93.74793834461858
 20
-119.736877411472
 10
93.74793834461858
 20
-119.736877411472
 10
93.91261390881351
 20
-119.7516913220586
 10
94.16272784104265
 20
-119.7558254366409
 10
94.23679739397552
 20
-119.7558254366409
 10
94.23679739397552
 20
-119.7558254366409
 10
94.71842174281345
 20
-119.7558254366409
 10
94.71842174281345
 20
-119.7558254366409
 10
94.73495820114266
 20
-119.7558254366409
 10
95.0126328972538
 20
-119.7558254366409
 10
95.21279294494681
 20
-119.736877411472
 10
95.21279294494681
 20
-119.736877411472
 10
95.21279294494681
 20
-119.9568467582052
 10
95.21279294494681
 20
-119.9568467582052
 10
95.04777287120334
 20
-119.9420328476187
 10
94.8830973070084
 20
-119.9377264782621
 10
94.71842174281345
 20
-119.9377264782621
 97
        0
 97
        0
 92
        1
 93
        1
 72
     4
 94
        3
 73
     0
 74
     1
 95
       29
 96
       25
 40
0.0
 40
0.0
 40
0.0
 40
0.0
 40
1.0
 40
1.0
 40
1.0
 40
2.0
 40
2.0
 40
2.0
 40
3.0
 40
3.0
 40
3.0
 40
4.0
 40
4.0
 40
4.0
 40
5.0
 40
5.0
 40
5.0
 40
6.0
 40
6.0
 40
6.0
 40
7.0
 40
7.0
 40
7.0
 40
8.0
 40
8.0
 40
8.0
 40
8.0
 10
94.62953827929401
 20
-119.4089043212763
 10
94.62953827929401
 20
-119.4089043212763
 10
94.32016870471857
 20
-119.4089043212763
 10
94.32016870471857
 20
-119.4089043212763
 10
94.22198348338895
 20
-119.4089043212763
 10
94.09968259366258
 20
-119.415277747924
 10
94.00528697736674
 20
-119.4280246012194
 10
94.00528697736674
 20
-119.4280246012194
 10
94.00528697736674
 20
-119.1930690891253
 10
94.00528697736674
 20
-119.1930690891253
 10
94.10898435147276
 20
-119.2078829997119
 10
94.27021482018245
 20
-119.2121893690685
 10
94.32016870471857
 20
-119.2121893690685
 10
94.32016870471857
 20
-119.2121893690685
 10
94.62953827929401
 20
-119.2121893690685
 10
94.62953827929401
 20
-119.2121893690685
 10
94.64607473762321
 20
-119.2121893690685
 10
94.8238416646621
 20
-119.2121893690685
 10
94.94786510213109
 20
-119.1930690891253
 10
94.94786510213109
 20
-119.1930690891253
 10
94.94786510213109
 20
-119.4280246012194
 10
94.94786510213109
 20
-119.4280246012194
 10
94.81075030181815
 20
-119.4089043212763
 10
94.64435218988058
 20
-119.4089043212763
 10
94.62953827929401
 20
-119.4089043212763
 97
        0
 97
        0
 75
     2
 76
     1
 98
        0
  0
SPLINE
  5
EA
330
C8
100
AcDbEntity
  8
_U+30EC_U+30A4_U+30E4_U+30FC 1
370
     0
100
AcDbSpline
210
0.0
220
0.0
230
1.0
 70
    11
 71
     3
 72
    29
 73
    25
 74
     0
 42
0.0000000001
 43
0.0000000001
 12
1.0
 22
0.0
 32
0.0
 13
1.0
 23
0.0
 33
0.0
 40
0.0
 40
0.0
 40
0.0
 40
0.0
 40
1.0
 40
1.0
 40
1.0
 40
2.0
 40
2.0
 40
2.0
 40
3.0
 40
3.0
 40
3.0
 40
4.0
 40
4.0
 40
4.0
 40
5.0
 40
5.0
 40
5.0
 40
6.0
 40
6.0
 40
6.0
 40
7.0
 40
7.0
 40
7.0
 40
8.0
 40
8.0
 40
8.0
 40
8.0
 10
96.3352050540412
 20
-120.1006794947144
 30
0.0
 10
96.3352050540412
 20
-120.1006794947144
 30
0.0
 10
95.91111379980696
 20
-120.1006794947144
 30
0.0
 10
95.91111379980696
 20
-120.1006794947144
 30
0.0
 10
95.8869981314102
 20
-120.1006794947144
 30
0.0
 10
95.60897892575053
 20
-120.1006794947144
 30
0.0
 10
95.42397729819263
 20
-120.126000946531
 30
0.0
 10
95.42397729819263
 20
-120.126000946531
 30
0.0
 10
95.42397729819263
 20
-119.8955240585678
 30
0.0
 10
95.42397729819263
 20
-119.8955240585678
 30
0.0
 10
95.56281464624819
 20
-119.9187784530932
 30
0.0
 10
95.72955726773428
 20
-119.9208455103844
 30
0.0
 10
95.91111379980696
 20
-119.9208455103844
 30
0.0
 10
95.91111379980696
 20
-119.9208455103844
 30
0.0
 10
96.3352050540412
 20
-119.9208455103844
 30
0.0
 10
96.3352050540412
 20
-119.9208455103844
 30
0.0
 10
96.49781356094499
 20
-119.9208455103844
 30
0.0
 10
96.66111108694584
 20
-119.9187784530932
 30
0.0
 10
96.821997046107
 20
-119.8955240585678
 30
0.0
 10
96.821997046107
 20
-119.8955240585678
 30
0.0
 10
96.821997046107
 20
-120.126000946531
 30
0.0
 10
96.821997046107
 20
-120.126000946531
 30
0.0
 10
96.66111108694584
 20
-120.1027465520056
 30
0.0
 10
96.44441458092362
 20
-120.1006794947144
 30
0.0
 10
96.3352050540412
 20
-120.1006794947144
 30
0.0
  0
HATCH
  5
EB
330
C8
100
AcDbEntity
  8
_U+30EC_U+30A4_U+30E4_U+30FC 1
 62
   179
420
  2234388
100
AcDbHatch
 10
0.0
 20
0.0
 30
0.0
210
0.0
220
0.0
230
1.0
  2
SOLID
 70
     1
 71
     0
 91
        1
 92
        1
 93
        1
 72
     4
 94
        3
 73
     0
 74
     1
 95
       29
 96
       25
 40
0.0
 40
0.0
 40
0.0
 40
0.0
 40
1.0
 40
1.0
 40
1.0
 40
2.0
 40
2.0
 40
2.0
 40
3.0
 40
3.0
 40
3.0
 40
4.0
 40
4.0
 40
4.0
 40
5.0
 40
5.0
 40
5.0
 40
6.0
 40
6.0
 40
6.0
 40
7.0
 40
7.0
 40
7.0
 40
8.0
 40
8.0
 40
8.0
 40
8.0
 10
96.3352050540412
 20
-120.1006794947144
 10
96.3352050540412
 20
-120.1006794947144
 10
95.91111379980696
 20
-120.1006794947144
 10
95.91111379980696
 20
-120.1006794947144
 10
95.8869981314102
 20
-120.1006794947144
 10
95.60897892575053
 20
-120.1006794947144
 10
95.42397729819263
 20
-120.126000946531
 10
95.42397729819263
 20
-120.126000946531
 10
95.42397729819263
 20
-119.8955240585678
 10
95.42397729819263
 20
-119.8955240585678
 10
95.56281464624819
 20
-119.9187784530932
 10
95.72955726773428
 20
-119.9208455103844
 10
95.91111379980696
 20
-119.9208455103844
 10
95.91111379980696
 20
-119.9208455103844
 10
96.3352050540412
 20
-119.9208455103844
 10
96.3352050540412
 20
-119.9208455103844
 10
96.49781356094499
 20
-119.9208455103844
 10
96.66111108694584
 20
-119.9187784530932
 10
96.821997046107
 20
-119.8955240585678
 10
96.821997046107
 20
-119.8955240585678
 10
96.821997046107
 20
-120.126000946531
 10
96.821997046107
 20
-120.126000946531
 10
96.66111108694584
 20
-120.1027465520056
 10
96.44441458092362
 20
-120.1006794947144
 10
96.3352050540412
 20
-120.1006794947144
 97
        0
 97
        0
 75
     2
 76
     1
 98
        0
  0
SPLINE
  5
EC
330
C8
100
AcDbEntity
  8
_U+30EC_U+30A4_U+30E4_U+30FC 1
370
     0
100
AcDbSpline
210
0.0
220
0.0
230
1.0
 70
    11
 71
     3
 72
    44
 73
    40
 74
     0
 42
0.0000000001
 43
0.0000000001
 12
1.0
 22
0.0
 32
0.0
 13
1.0
 23
0.0
 33
0.0
 40
0.0
 40
0.0
 40
0.0
 40
0.0
 40
1.0
 40
1.0
 40
1.0
 40
2.0
 40
2.0
 40
2.0
 40
3.0
 40
3.0
 40
3.0
 40
4.0
 40
4.0
 40
4.0
 40
5.0
 40
5.0
 40
5.0
 40
6.0
 40
6.0
 40
6.0
 40
7.0
 40
7.0
 40
7.0
 40
8.0
 40
8.0
 40
8.0
 40
9.0
 40
9.0
 40
9.0
 40
10.0
 40
10.0
 40
10.0
 40
11.0
 40
11.0
 40
11.0
 40
12.0
 40
12.0
 40
12.0
 40
13.0
 40
13.0
 40
13.0
 40
13.0
 10
98.27203773584866
 20
-119.6628078585392
 30
0.0
 10
98.17385251451904
 20
-120.0309163111381
 30
0.0
 10
98.12941078275932
 20
-120.1895629582339
 30
0.0
 10
97.95715600849682
 20
-120.4391601261402
 30
0.0
 10
97.79627004933566
 20
-120.6698092688777
 30
0.0
 10
97.58887530112362
 20
-120.8558444250812
 30
0.0
 10
97.34427352167089
 20
-120.9490342579572
 30
0.0
 10
97.34427352167089
 20
-120.9490342579572
 30
0.0
 10
97.17580835244216
 20
-120.7692002736271
 30
0.0
 10
97.17580835244216
 20
-120.7692002736271
 30
0.0
 10
97.73701440698936
 20
-120.6169270531791
 30
0.0
 10
98.0257134086533
 20
-120.0605441323113
 30
0.0
 10
98.08117944596582
 20
-119.6204331840706
 30
0.0
 10
98.08117944596582
 20
-119.6204331840706
 30
0.0
 10
97.41110837408473
 20
-119.6204331840706
 30
0.0
 10
97.41110837408473
 20
-119.6204331840706
 30
0.0
 10
97.3294596110843
 20
-119.6204331840706
 30
0.0
 10
97.16857365192314
 20
-119.6247395534271
 30
0.0
 10
97.0314588516102
 20
-119.643687578596
 30
0.0
 10
97.0314588516102
 20
-119.643687578596
 30
0.0
 10
97.0314588516102
 20
-119.4237182318628
 30
0.0
 10
97.0314588516102
 20
-119.4237182318628
 30
0.0
 10
97.1072509522857
 20
-119.4449055690971
 30
0.0
 10
97.32773706334169
 20
-119.4449055690971
 30
0.0
 10
97.4148979791185
 20
-119.4449055690971
 30
0.0
 10
97.4148979791185
 20
-119.4449055690971
 30
0.0
 10
97.79248044430189
 20
-119.4449055690971
 30
0.0
 10
97.79248044430189
 20
-119.4449055690971
 30
0.0
 10
97.82968747554258
 20
-119.4449055690971
 30
0.0
 10
98.03501516646347
 20
-119.4426662570317
 30
0.0
 10
98.06843259267039
 20
-119.4364650851582
 30
0.0
 10
98.10529511436258
 20
-119.4300916585105
 30
0.0
 10
98.10736217165372
 20
-119.4280246012194
 30
0.0
 10
98.16110566122362
 20
-119.387716984042
 30
0.0
 10
98.16110566122362
 20
-119.387716984042
 30
0.0
 10
98.32578122541855
 20
-119.5422295165554
 30
0.0
 10
98.32578122541855
 20
-119.5422295165554
 30
0.0
 10
98.29994300927919
 20
-119.5718573377286
 30
0.0
 10
98.28685164643524
 20
-119.6035522161929
 30
0.0
 10
98.27203773584866
 20
-119.6628078585392
 30
0.0
  0
SPLINE
  5
ED
330
C8
100
AcDbEntity
  8
_U+30EC_U+30A4_U+30E4_U+30FC 1
370
     0
100
AcDbSpline
210
0.0
220
0.0
230
1.0
 70
    11
 71
     3
 72
    17
 73
    13
 74
     0
 42
0.0000000001
 43
0.0000000001
 12
1.0
 22
0.0
 32
0.0
 13
1.0
 23
0.0
 33
0.0
 40
0.0
 40
0.0
 40
0.0
 40
0.0
 40
1.0
 40
1.0
 40
1.0
 40
2.0
 40
2.0
 40
2.0
 40
3.0
 40
3.0
 40
3.0
 40
4.0
 40
4.0
 40
4.0
 40
4.0
 10
98.45531681566395
 20
-119.463853594266
 30
0.0
 10
98.34438474103891
 20
-119.463853594266
 30
0.0
 10
98.25550127751946
 20
-119.3623955322254
 30
0.0
 10
98.25550127751946
 20
-119.2354437635939
 30
0.0
 10
98.25550127751946
 20
-119.1084919949625
 30
0.0
 10
98.34438474103891
 20
-119.0047946208564
 30
0.0
 10
98.45531681566395
 20
-119.0047946208564
 30
0.0
 10
98.56659339983753
 20
-119.0047946208564
 30
0.0
 10
98.6571994110996
 20
-119.1084919949625
 30
0.0
 10
98.6571994110996
 20
-119.2354437635939
 30
0.0
 10
98.6571994110996
 20
-119.3623955322254
 30
0.0
 10
98.56659339983753
 20
-119.463853594266
 30
0.0
 10
98.45531681566395
 20
-119.463853594266
 30
0.0
  0
SPLINE
  5
EE
330
C8
100
AcDbEntity
  8
_U+30EC_U+30A4_U+30E4_U+30FC 1
370
     0
100
AcDbSpline
210
0.0
220
0.0
230
1.0
 70
    11
 71
     3
 72
    17
 73
    13
 74
     0
 42
0.0000000001
 43
0.0000000001
 12
1.0
 22
0.0
 32
0.0
 13
1.0
 23
0.0
 33
0.0
 40
0.0
 40
0.0
 40
0.0
 40
0.0
 40
1.0
 40
1.0
 40
1.0
 40
2.0
 40
2.0
 40
2.0
 40
3.0
 40
3.0
 40
3.0
 40
4.0
 40
4.0
 40
4.0
 40
4.0
 10
98.45359426792133
 20
-119.1338134467791
 30
0.0
 10
98.40536293112783
 20
-119.1338134467791
 30
0.0
 10
98.36643335214451
 20
-119.1782551785388
 30
0.0
 10
98.36643335214451
 20
-119.2333767063028
 30
0.0
 10
98.36643335214451
 20
-119.2903930365837
 30
0.0
 10
98.40536293112783
 20
-119.3391411376999
 30
0.0
 10
98.4573838729551
 20
-119.3391411376999
 30
0.0
 10
98.50906030523385
 20
-119.3391411376999
 30
0.0
 10
98.5442002791834
 20
-119.2883259792925
 30
0.0
 10
98.5442002791834
 20
-119.2354437635939
 30
0.0
 10
98.5442002791834
 20
-119.1782551785388
 30
0.0
 10
98.50354815245745
 20
-119.1338134467791
 30
0.0
 10
98.45359426792133
 20
-119.1338134467791
 30
0.0
  0
HATCH
  5
EF
330
C8
100
AcDbEntity
  8
_U+30EC_U+30A4_U+30E4_U+30FC 1
 62
   179
420
  2234388
100
AcDbHatch
 10
0.0
 20
0.0
 30
0.0
210
0.0
220
0.0
230
1.0
  2
SOLID
 70
     1
 71
     0
 91
        3
 92
        1
 93
        1
 72
     4
 94
        3
 73
     0
 74
     1
 95
       44
 96
       40
 40
0.0
 40
0.0
 40
0.0
 40
0.0
 40
1.0
 40
1.0
 40
1.0
 40
2.0
 40
2.0
 40
2.0
 40
3.0
 40
3.0
 40
3.0
 40
4.0
 40
4.0
 40
4.0
 40
5.0
 40
5.0
 40
5.0
 40
6.0
 40
6.0
 40
6.0
 40
7.0
 40
7.0
 40
7.0
 40
8.0
 40
8.0
 40
8.0
 40
9.0
 40
9.0
 40
9.0
 40
10.0
 40
10.0
 40
10.0
 40
11.0
 40
11.0
 40
11.0
 40
12.0
 40
12.0
 40
12.0
 40
13.0
 40
13.0
 40
13.0
 40
13.0
 10
98.27203773584866
 20
-119.6628078585392
 10
98.17385251451904
 20
-120.0309163111381
 10
98.12941078275932
 20
-120.1895629582339
 10
97.95715600849682
 20
-120.4391601261402
 10
97.79627004933566
 20
-120.6698092688777
 10
97.58887530112362
 20
-120.8558444250812
 10
97.34427352167089
 20
-120.9490342579572
 10
97.34427352167089
 20
-120.9490342579572
 10
97.17580835244216
 20
-120.7692002736271
 10
97.17580835244216
 20
-120.7692002736271
 10
97.73701440698936
 20
-120.6169270531791
 10
98.0257134086533
 20
-120.0605441323113
 10
98.08117944596582
 20
-119.6204331840706
 10
98.08117944596582
 20
-119.6204331840706
 10
97.41110837408473
 20
-119.6204331840706
 10
97.41110837408473
 20
-119.6204331840706
 10
97.3294596110843
 20
-119.6204331840706
 10
97.16857365192314
 20
-119.6247395534271
 10
97.0314588516102
 20
-119.643687578596
 10
97.0314588516102
 20
-119.643687578596
 10
97.0314588516102
 20
-119.4237182318628
 10
97.0314588516102
 20
-119.4237182318628
 10
97.1072509522857
 20
-119.4449055690971
 10
97.32773706334169
 20
-119.4449055690971
 10
97.4148979791185
 20
-119.4449055690971
 10
97.4148979791185
 20
-119.4449055690971
 10
97.79248044430189
 20
-119.4449055690971
 10
97.79248044430189
 20
-119.4449055690971
 10
97.82968747554258
 20
-119.4449055690971
 10
98.03501516646347
 20
-119.4426662570317
 10
98.06843259267039
 20
-119.4364650851582
 10
98.10529511436258
 20
-119.4300916585105
 10
98.10736217165372
 20
-119.4280246012194
 10
98.16110566122362
 20
-119.387716984042
 10
98.16110566122362
 20
-119.387716984042
 10
98.32578122541855
 20
-119.5422295165554
 10
98.32578122541855
 20
-119.5422295165554
 10
98.29994300927919
 20
-119.5718573377286
 10
98.28685164643524
 20
-119.6035522161929
 10
98.27203773584866
 20
-119.6628078585392
 97
        0
 97
        0
 92
        1
 93
        1
 72
     4
 94
        3
 73
     0
 74
     1
 95
       17
 96
       13
 40
0.0
 40
0.0
 40
0.0
 40
0.0
 40
1.0
 40
1.0
 40
1.0
 40
2.0
 40
2.0
 40
2.0
 40
3.0
 40
3.0
 40
3.0
 40
4.0
 40
4.0
 40
4.0
 40
4.0
 10
98.45531681566395
 20
-119.463853594266
 10
98.34438474103891
 20
-119.463853594266
 10
98.25550127751946
 20
-119.3623955322254
 10
98.25550127751946
 20
-119.2354437635939
 10
98.25550127751946
 20
-119.1084919949625
 10
98.34438474103891
 20
-119.0047946208564
 10
98.45531681566395
 20
-119.0047946208564
 10
98.56659339983753
 20
-119.0047946208564
 10
98.6571994110996
 20
-119.1084919949625
 10
98.6571994110996
 20
-119.2354437635939
 10
98.6571994110996
 20
-119.3623955322254
 10
98.56659339983753
 20
-119.463853594266
 10
98.45531681566395
 20
-119.463853594266
 97
        0
 97
        0
 92
        1
 93
        1
 72
     4
 94
        3
 73
     0
 74
     1
 95
       17
 96
       13
 40
0.0
 40
0.0
 40
0.0
 40
0.0
 40
1.0
 40
1.0
 40
1.0
 40
2.0
 40
2.0
 40
2.0
 40
3.0
 40
3.0
 40
3.0
 40
4.0
 40
4.0
 40
4.0
 40
4.0
 10
98.45359426792133
 20
-119.1338134467791
 10
98.40536293112783
 20
-119.1338134467791
 10
98.36643335214451
 20
-119.1782551785388
 10
98.36643335214451
 20
-119.2333767063028
 10
98.36643335214451
 20
-119.2903930365837
 10
98.40536293112783
 20
-119.3391411376999
 10
98.4573838729551
 20
-119.3391411376999
 10
98.50906030523385
 20
-119.3391411376999
 10
98.5442002791834
 20
-119.2883259792925
 10
98.5442002791834
 20
-119.2354437635939
 10
98.5442002791834
 20
-119.1782551785388
 10
98.50354815245745
 20
-119.1338134467791
 10
98.45359426792133
 20
-119.1338134467791
 97
        0
 97
        0
 75
     2
 76
     1
 98
        0
  0
ENDBLK
  5
CB
330
C8
100
AcDbEntity
  8
0
100
AcDbBlockEnd
  0
ENDSEC
  0
SECTION
  2
ENTITIES
  0
POLYLINE
  5
41
330
1F
100
AcDbEntity
  8
_U+30EC_U+30A4_U+30E4_U+30FC 1
370
     0
100
AcDb2dPolyline
 66
     1
 10
0.0
 20
0.0
 30
0.0
  0
VERTEX
  5
42
330
41
100
AcDbEntity
  8
_U+30EC_U+30A4_U+30E4_U+30FC 1
370
     0
100
AcDbVertex
100
AcDb2dVertex
 10
81.83202457895779
 20
-116.4776619153249
 30
0.0
  0
VERTEX
  5
43
330
41
100
AcDbEntity
  8
_U+30EC_U+30A4_U+30E4_U+30FC 1
370
     0
100
AcDbVertex
100
AcDb2dVertex
 10
80.93219432413659
 20
-116.4776619153249
 30
0.0
  0
VERTEX
  5
44
330
41
100
AcDbEntity
  8
_U+30EC_U+30A4_U+30E4_U+30FC 1
370
     0
100
AcDbVertex
100
AcDb2dVertex
 10
80.93219432413659
 20
-135.4780260772415
 30
0.0
  0
VERTEX
  5
45
330
41
100
AcDbEntity
  8
_U+30EC_U+30A4_U+30E4_U+30FC 1
370
     0
100
AcDbVertex
100
AcDb2dVertex
 10
99.9325580060636
 20
-135.4780260772415
 30
0.0
  0
VERTEX
  5
46
330
41
100
AcDbEntity
  8
_U+30EC_U+30A4_U+30E4_U+30FC 1
370
     0
100
AcDbVertex
100
AcDb2dVertex
 10
99.9325580060636
 20
-134.5781605219112
 30
0.0
  0
VERTEX
  5
47
330
41
100
AcDbEntity
  8
_U+30EC_U+30A4_U+30E4_U+30FC 1
370
     0
100
AcDbVertex
100
AcDb2dVertex
 10
81.83202457895779
 20
-134.5781605219112
 30
0.0
  0
VERTEX
  5
48
330
41
100
AcDbEntity
  8
_U+30EC_U+30A4_U+30E4_U+30FC 1
370
     0
100
AcDbVertex
100
AcDb2dVertex
 10
81.83202457895779
 20
-116.4776619153249
 30
0.0
  0
SEQEND
  5
4A
330
41
100
AcDbEntity
  8
_U+30EC_U+30A4_U+30E4_U+30FC 1
370
     0
  0
HATCH
  5
49
330
1F
100
AcDbEntity
  8
_U+30EC_U+30A4_U+30E4_U+30FC 1
 62
   253
420
 11711154
100
AcDbHatch
 10
0.0
 20
0.0
 30
0.0
210
0.0
220
0.0
230
1.0
  2
SOLID
 70
     1
 71
     0
 91
        1
 92
        1
 93
        6
 72
     1
 10
81.83202457895779
 20
-116.4776619153249
 11
80.93219432413659
 21
-116.4776619153249
 72
     1
 10
80.93219432413659
 20
-116.4776619153249
 11
80.93219432413659
 21
-135.4780260772415
 72
     1
 10
80.93219432413659
 20
-135.4780260772415
 11
99.9325580060636
 21
-135.4780260772415
 72
     1
 10
99.9325580060636
 20
-135.4780260772415
 11
99.9325580060636
 21
-134.5781605219112
 72
     1
 10
99.9325580060636
 20
-134.5781605219112
 11
81.83202457895779
 21
-134.5781605219112
 72
     1
 10
81.83202457895779
 20
-134.5781605219112
 11
81.83202457895779
 21
-116.4776619153249
 97
        0
 75
     2
 76
     1
 98
        0
  0
POLYLINE
  5
4B
330
1F
100
AcDbEntity
  8
_U+30EC_U+30A4_U+30E4_U+30FC 1
 62
   179
420
  2234388
370
    25
100
AcDb2dPolyline
 66
     1
 10
0.0
 20
0.0
 30
0.0
  0
VERTEX
  5
4C
330
4B
100
AcDbEntity
  8
_U+30EC_U+30A4_U+30E4_U+30FC 1
 62
   179
420
  2234388
370
    25
100
AcDbVertex
100
AcDb2dVertex
 10
80.93219432413659
 20
-116.4776619153249
 30
0.0
  0
VERTEX
  5
4D
330
4B
100
AcDbEntity
  8
_U+30EC_U+30A4_U+30E4_U+30FC 1
 62
   179
420
  2234388
370
    25
100
AcDbVertex
100
AcDb2dVertex
 10
80.93219432413659
 20
-135.4780260772415
 30
0.0
  0
SEQEND
  5
4E
330
4B
100
AcDbEntity
  8
_U+30EC_U+30A4_U+30E4_U+30FC 1
 62
   179
420
  2234388
370
    25
  0
POLYLINE
  5
4F
330
1F
100
AcDbEntity
  8
_U+30EC_U+30A4_U+30E4_U+30FC 1
 62
   179
420
  2234388
370
    25
100
AcDb2dPolyline
 66
     1
 10
0.0
 20
0.0
 30
0.0
  0
VERTEX
  5
50
330
4F
100
AcDbEntity
  8
_U+30EC_U+30A4_U+30E4_U+30FC 1
 62
   179
420
  2234388
370
    25
100
AcDbVertex
100
AcDb2dVertex
 10
80.93219432413659
 20
-135.4780260772415
 30
0.0
  0
VERTEX
  5
51
330
4F
100
AcDbEntity
  8
_U+30EC_U+30A4_U+30E4_U+30FC 1
 62
   179
420
  2234388
370
    25
100
AcDbVertex
100
AcDb2dVertex
 10
99.9325580060636
 20
-135.4780260772415
 30
0.0
  0
SEQEND
  5
52
330
4F
100
AcDbEntity
  8
_U+30EC_U+30A4_U+30E4_U+30FC 1
 62
   179
420
  2234388
370
    25
  0
POLYLINE
  5
53
330
1F
100
AcDbEntity
  8
_U+30EC_U+30A4_U+30E4_U+30FC 1
 62
   179
420
  2234388
370
    25
100
AcDb2dPolyline
 66
     1
 10
0.0
 20
0.0
 30
0.0
  0
VERTEX
  5
54
330
53
100
AcDbEntity
  8
_U+30EC_U+30A4_U+30E4_U+30FC 1
 62
   179
420
  2234388
370
    25
100
AcDbVertex
100
AcDb2dVertex
 10
81.83202457895779
 20
-134.5781605219112
 30
0.0
  0
VERTEX
  5
55
330
53
100
AcDbEntity
  8
_U+30EC_U+30A4_U+30E4_U+30FC 1
 62
   179
420
  2234388
370
    25
100
AcDbVertex
100
AcDb2dVertex
 10
99.9325580060636
 20
-134.5781605219112
 30
0.0
  0
SEQEND
  5
56
330
53
100
AcDbEntity
  8
_U+30EC_U+30A4_U+30E4_U+30FC 1
 62
   179
420
  2234388
370
    25
  0
POLYLINE
  5
57
330
1F
100
AcDbEntity
  8
_U+30EC_U+30A4_U+30E4_U+30FC 1
 62
   179
420
  2234388
370
    25
100
AcDb2dPolyline
 66
     1
 10
0.0
 20
0.0
 30
0.0
  0
VERTEX
  5
58
330
57
100
AcDbEntity
  8
_U+30EC_U+30A4_U+30E4_U+30FC 1
 62
   179
420
  2234388
370
    25
100
AcDbVertex
100
AcDb2dVertex
 10
81.83202457895779
 20
-116.4776619153249
 30
0.0
  0
VERTEX
  5
59
330
57
100
AcDbEntity
  8
_U+30EC_U+30A4_U+30E4_U+30FC 1
 62
   179
420
  2234388
370
    25
100
AcDbVertex
100
AcDb2dVertex
 10
81.83202457895779
 20
-134.5781605219112
 30
0.0
  0
SEQEND
  5
5A
330
57
100
AcDbEntity
  8
_U+30EC_U+30A4_U+30E4_U+30FC 1
 62
   179
420
  2234388
370
    25
  0
POLYLINE
  5
5B
330
1F
100
AcDbEntity
  8
_U+30EC_U+30A4_U+30E4_U+30FC 1
 62
   179
420
  2234388
370
    25
100
AcDb2dPolyline
 66
     1
 10
0.0
 20
0.0
 30
0.0
  0
VERTEX
  5
5C
330
5B
100
AcDbEntity
  8
_U+30EC_U+30A4_U+30E4_U+30FC 1
 62
   179
420
  2234388
370
    25
100
AcDbVertex
100
AcDb2dVertex
 10
80.93219432413659
 20
-116.4776619153249
 30
0.0
  0
VERTEX
  5
5D
330
5B
100
AcDbEntity
  8
_U+30EC_U+30A4_U+30E4_U+30FC 1
 62
   179
420
  2234388
370
    25
100
AcDbVertex
100
AcDb2dVertex
 10
81.83202457895779
 20
-116.4776619153249
 30
0.0
  0
SEQEND
  5
5E
330
5B
100
AcDbEntity
  8
_U+30EC_U+30A4_U+30E4_U+30FC 1
 62
   179
420
  2234388
370
    25
  0
POLYLINE
  5
5F
330
1F
100
AcDbEntity
  8
_U+30EC_U+30A4_U+30E4_U+30FC 1
 62
   179
420
  2234388
370
    25
100
AcDb2dPolyline
 66
     1
 10
0.0
 20
0.0
 30
0.0
  0
VERTEX
  5
60
330
5F
100
AcDbEntity
  8
_U+30EC_U+30A4_U+30E4_U+30FC 1
 62
   179
420
  2234388
370
    25
100
AcDbVertex
100
AcDb2dVertex
 10
99.9325580060636
 20
-134.5781605219112
 30
0.0
  0
VERTEX
  5
61
330
5F
100
AcDbEntity
  8
_U+30EC_U+30A4_U+30E4_U+30FC 1
 62
   179
420
  2234388
370
    25
100
AcDbVertex
100
AcDb2dVertex
 10
99.9325580060636
 20
-135.4780260772415
 30
0.0
  0
SEQEND
  5
62
330
5F
100
AcDbEntity
  8
_U+30EC_U+30A4_U+30E4_U+30FC 1
 62
   179
420
  2234388
370
    25
  0
SPLINE
  5
63
330
1F
100
AcDbEntity
  8
_U+30EC_U+30A4_U+30E4_U+30FC 1
 62
   179
420
  2234388
370
     9
100
AcDbSpline
210
0.0
220
0.0
230
1.0
 70
    11
 71
     3
 72
    17
 73
    13
 74
     0
 42
0.0000000001
 43
0.0000000001
 12
1.0
 22
0.0
 32
0.0
 13
1.0
 23
0.0
 33
0.0
 40
0.0
 40
0.0
 40
0.0
 40
0.0
 40
1.0
 40
1.0
 40
1.0
 40
2.0
 40
2.0
 40
2.0
 40
3.0
 40
3.0
 40
3.0
 40
4.0
 40
4.0
 40
4.0
 40
4.0
 10
104.0322237348058
 20
-134.5781605219112
 30
0.0
 10
104.0322237348058
 20
-134.5223510774808
 30
0.0
 10
103.9874562359479
 20
-134.4775835774916
 30
0.0
 10
103.9323170706879
 20
-134.4775835774916
 30
0.0
 10
103.8772131832048
 20
-134.4775835774916
 30
0.0
 10
103.8324104065701
 20
-134.5223510774808
 30
0.0
 10
103.8324104065701
 20
-134.5781605219112
 30
0.0
 10
103.8324104065701
 20
-134.6332996885637
 30
0.0
 10
103.8772131832048
 20
-134.6780671885529
 30
0.0
 10
103.9323170706879
 20
-134.6780671885529
 30
0.0
 10
103.9874562359479
 20
-134.6780671885529
 30
0.0
 10
104.0322237348058
 20
-134.6332996885637
 30
0.0
 10
104.0322237348058
 20
-134.5781605219112
 30
0.0
  0
SPLINE
  5
64
330
1F
100
AcDbEntity
  8
_U+30EC_U+30A4_U+30E4_U+30FC 1
 62
   179
420
  2234388
370
     9
100
AcDbSpline
210
0.0
220
0.0
230
1.0
 70
    11
 71
     3
 72
    17
 73
    13
 74
     0
 42
0.0000000001
 43
0.0000000001
 12
1.0
 22
0.0
 32
0.0
 13
1.0
 23
0.0
 33
0.0
 40
0.0
 40
0.0
 40
0.0
 40
0.0
 40
1.0
 40
1.0
 40
1.0
 40
2.0
 40
2.0
 40
2.0
 40
3.0
 40
3.0
 40
3.0
 40
4.0
 40
4.0
 40
4.0
 40
4.0
 10
104.0322237348058
 20
-135.4780260772415
 30
0.0
 10
104.0322237348058
 20
-135.4229221883666
 30
0.0
 10
103.9874562359479
 20
-135.3781194105999
 30
0.0
 10
103.9323170706879
 20
-135.3781194105999
 30
0.0
 10
103.8772131832048
 20
-135.3781194105999
 30
0.0
 10
103.8324104065701
 20
-135.4229221883666
 30
0.0
 10
103.8324104065701
 20
-135.4780260772415
 30
0.0
 10
103.8324104065701
 20
-135.5331652438946
 30
0.0
 10
103.8772131832048
 20
-135.5779327438831
 30
0.0
 10
103.9323170706879
 20
-135.5779327438831
 30
0.0
 10
103.9874562359479
 20
-135.5779327438831
 30
0.0
 10
104.0322237348058
 20
-135.5331652438946
 30
0.0
 10
104.0322237348058
 20
-135.4780260772415
 30
0.0
  0
SPLINE
  5
65
330
1F
100
AcDbEntity
  8
_U+30EC_U+30A4_U+30E4_U+30FC 1
 62
   179
420
  2234388
370
     9
100
AcDbSpline
210
0.0
220
0.0
230
1.0
 70
    11
 71
     3
 72
    17
 73
    13
 74
     0
 42
0.0000000001
 43
0.0000000001
 12
1.0
 22
0.0
 32
0.0
 13
1.0
 23
0.0
 33
0.0
 40
0.0
 40
0.0
 40
0.0
 40
0.0
 40
1.0
 40
1.0
 40
1.0
 40
2.0
 40
2.0
 40
2.0
 40
3.0
 40
3.0
 40
3.0
 40
4.0
 40
4.0
 40
4.0
 40
4.0
 10
100.0324646701814
 20
-139.4777852429084
 30
0.0
 10
100.0324646701814
 20
-139.4226813540334
 30
0.0
 10
99.98769717132355
 20
-139.3778785762667
 30
0.0
 10
99.9325580060636
 20
-139.3778785762667
 30
0.0
 10
99.87745411858053
 20
-139.3778785762667
 30
0.0
 10
99.83265134194576
 20
-139.4226813540334
 30
0.0
 10
99.83265134194576
 20
-139.4777852429084
 30
0.0
 10
99.83265134194576
 20
-139.5329244095614
 30
0.0
 10
99.87745411858053
 20
-139.57769190955
 30
0.0
 10
99.9325580060636
 20
-139.57769190955
 30
0.0
 10
99.98769717132355
 20
-139.57769190955
 30
0.0
 10
100.0324646701814
 20
-139.5329244095614
 30
0.0
 10
100.0324646701814
 20
-139.4777852429084
 30
0.0
  0
SPLINE
  5
66
330
1F
100
AcDbEntity
  8
_U+30EC_U+30A4_U+30E4_U+30FC 1
 62
   179
420
  2234388
370
     9
100
AcDbSpline
210
0.0
220
0.0
230
1.0
 70
    11
 71
     3
 72
    17
 73
    13
 74
     0
 42
0.0000000001
 43
0.0000000001
 12
1.0
 22
0.0
 32
0.0
 13
1.0
 23
0.0
 33
0.0
 40
0.0
 40
0.0
 40
0.0
 40
0.0
 40
1.0
 40
1.0
 40
1.0
 40
2.0
 40
2.0
 40
2.0
 40
3.0
 40
3.0
 40
3.0
 40
4.0
 40
4.0
 40
4.0
 40
4.0
 10
81.03210098825443
 20
-139.4777852429084
 30
0.0
 10
81.03210098825443
 20
-139.4226813540334
 30
0.0
 10
80.98729821161967
 20
-139.3778785762667
 30
0.0
 10
80.93219432413659
 20
-139.3778785762667
 30
0.0
 10
80.87705515887664
 20
-139.3778785762667
 30
0.0
 10
80.83228766001876
 20
-139.4226813540334
 30
0.0
 10
80.83228766001876
 20
-139.4777852429084
 30
0.0
 10
80.83228766001876
 20
-139.5329244095614
 30
0.0
 10
80.87705515887664
 20
-139.57769190955
 30
0.0
 10
80.93219432413659
 20
-139.57769190955
 30
0.0
 10
80.98729821161967
 20
-139.57769190955
 30
0.0
 10
81.03210098825443
 20
-139.5329244095614
 30
0.0
 10
81.03210098825443
 20
-139.4777852429084
 30
0.0
  0
SPLINE
  5
67
330
1F
100
AcDbEntity
  8
_U+30EC_U+30A4_U+30E4_U+30FC 1
 62
   179
420
  2234388
370
     9
100
AcDbSpline
210
0.0
220
0.0
230
1.0
 70
    11
 71
     3
 72
    17
 73
    13
 74
     0
 42
0.0000000001
 43
0.0000000001
 12
1.0
 22
0.0
 32
0.0
 13
1.0
 23
0.0
 33
0.0
 40
0.0
 40
0.0
 40
0.0
 40
0.0
 40
1.0
 40
1.0
 40
1.0
 40
2.0
 40
2.0
 40
2.0
 40
3.0
 40
3.0
 40
3.0
 40
4.0
 40
4.0
 40
4.0
 40
4.0
 10
77.03234192363011
 20
-135.4780260772415
 30
0.0
 10
77.03234192363011
 20
-135.4229221883666
 30
0.0
 10
76.98753914699536
 20
-135.3781194105999
 30
0.0
 10
76.93243525951229
 20
-135.3781194105999
 30
0.0
 10
76.87729609425233
 20
-135.3781194105999
 30
0.0
 10
76.8325305363473
 20
-135.4229221883666
 30
0.0
 10
76.8325305363473
 20
-135.4780260772415
 30
0.0
 10
76.8325305363473
 20
-135.5331652438946
 30
0.0
 10
76.87729609425233
 20
-135.5779327438831
 30
0.0
 10
76.93243525951229
 20
-135.5779327438831
 30
0.0
 10
76.98753914699536
 20
-135.5779327438831
 30
0.0
 10
77.03234192363011
 20
-135.5331652438946
 30
0.0
 10
77.03234192363011
 20
-135.4780260772415
 30
0.0
  0
SPLINE
  5
68
330
1F
100
AcDbEntity
  8
_U+30EC_U+30A4_U+30E4_U+30FC 1
 62
   179
420
  2234388
370
     9
100
AcDbSpline
210
0.0
220
0.0
230
1.0
 70
    11
 71
     3
 72
    17
 73
    13
 74
     0
 42
0.0000000001
 43
0.0000000001
 12
1.0
 22
0.0
 32
0.0
 13
1.0
 23
0.0
 33
0.0
 40
0.0
 40
0.0
 40
0.0
 40
0.0
 40
1.0
 40
1.0
 40
1.0
 40
2.0
 40
2.0
 40
2.0
 40
3.0
 40
3.0
 40
3.0
 40
4.0
 40
4.0
 40
4.0
 40
4.0
 10
77.03234192363011
 20
-116.4776619153249
 30
0.0
 10
77.03234192363011
 20
-116.4225227486721
 30
0.0
 10
76.98753914699536
 20
-116.3777199709057
 30
0.0
 10
76.93243525951229
 20
-116.3777199709057
 30
0.0
 10
76.87729609425233
 20
-116.3777199709057
 30
0.0
 10
76.8325305363473
 20
-116.4225227486721
 30
0.0
 10
76.8325305363473
 20
-116.4776619153249
 30
0.0
 10
76.8325305363473
 20
-116.5334713597556
 30
0.0
 10
76.87729609425233
 20
-116.5782388597442
 30
0.0
 10
76.93243525951229
 20
-116.5782388597442
 30
0.0
 10
76.98753914699536
 20
-116.5782388597442
 30
0.0
 10
77.03234192363011
 20
-116.5334713597556
 30
0.0
 10
77.03234192363011
 20
-116.4776619153249
 30
0.0
  0
POLYLINE
  5
69
330
1F
100
AcDbEntity
  8
_U+30EC_U+30A4_U+30E4_U+30FC 1
 62
   179
420
  2234388
370
     9
100
AcDb2dPolyline
 66
     1
 10
0.0
 20
0.0
 30
0.0
  0
VERTEX
  5
6A
330
69
100
AcDbEntity
  8
_U+30EC_U+30A4_U+30E4_U+30FC 1
 62
   179
420
  2234388
370
     9
100
AcDbVertex
100
AcDb2dVertex
 10
103.9323170706879
 20
-134.5781605219112
 30
0.0
  0
VERTEX
  5
6B
330
69
100
AcDbEntity
  8
_U+30EC_U+30A4_U+30E4_U+30FC 1
 62
   179
420
  2234388
370
     9
100
AcDbVertex
100
AcDb2dVertex
 10
103.9323170706879
 20
-136.477798299214
 30
0.0
  0
SEQEND
  5
6C
330
69
100
AcDbEntity
  8
_U+30EC_U+30A4_U+30E4_U+30FC 1
 62
   179
420
  2234388
370
     9
  0
POLYLINE
  5
6D
330
1F
100
AcDbEntity
  8
_U+30EC_U+30A4_U+30E4_U+30FC 1
 62
   179
420
  2234388
370
     9
100
AcDb2dPolyline
 66
     1
 10
0.0
 20
0.0
 30
0.0
  0
VERTEX
  5
6E
330
6D
100
AcDbEntity
  8
_U+30EC_U+30A4_U+30E4_U+30FC 1
 62
   179
420
  2234388
370
     9
100
AcDbVertex
100
AcDb2dVertex
 10
102.4723109968247
 20
-134.5781605219112
 30
0.0
  0
VERTEX
  5
6F
330
6D
100
AcDbEntity
  8
_U+30EC_U+30A4_U+30E4_U+30FC 1
 62
   179
420
  2234388
370
     9
100
AcDbVertex
100
AcDb2dVertex
 10
104.9320892674038
 20
-134.5781605219112
 30
0.0
  0
SEQEND
  5
70
330
6D
100
AcDbEntity
  8
_U+30EC_U+30A4_U+30E4_U+30FC 1
 62
   179
420
  2234388
370
     9
  0
POLYLINE
  5
71
330
1F
100
AcDbEntity
  8
_U+30EC_U+30A4_U+30E4_U+30FC 1
 62
   179
420
  2234388
370
     9
100
AcDb2dPolyline
 66
     1
 10
0.0
 20
0.0
 30
0.0
  0
VERTEX
  5
72
330
71
100
AcDbEntity
  8
_U+30EC_U+30A4_U+30E4_U+30FC 1
 62
   179
420
  2234388
370
     9
100
AcDbVertex
100
AcDb2dVertex
 10
102.4723109968247
 20
-135.4780260772415
 30
0.0
  0
VERTEX
  5
73
330
71
100
AcDbEntity
  8
_U+30EC_U+30A4_U+30E4_U+30FC 1
 62
   179
420
  2234388
370
     9
100
AcDbVertex
100
AcDb2dVertex
 10
104.9320892674038
 20
-135.4780260772415
 30
0.0
  0
SEQEND
  5
74
330
71
100
AcDbEntity
  8
_U+30EC_U+30A4_U+30E4_U+30FC 1
 62
   179
420
  2234388
370
     9
  0
INSERT
  5
76
330
1F
100
AcDbEntity
  8
_U+30EC_U+30A4_U+30E4_U+30FC 1
100
AcDbBlockReference
  2
block 2
 10
0.0
 20
0.0
 30
0.0
  0
POLYLINE
  5
88
330
1F
100
AcDbEntity
  8
_U+30EC_U+30A4_U+30E4_U+30FC 1
 62
   179
420
  2234388
370
     9
100
AcDb2dPolyline
 66
     1
 10
0.0
 20
0.0
 30
0.0
  0
VERTEX
  5
89
330
88
100
AcDbEntity
  8
_U+30EC_U+30A4_U+30E4_U+30FC 1
 62
   179
420
  2234388
370
     9
100
AcDbVertex
100
AcDb2dVertex
 10
80.93219432413659
 20
-139.4777852429084
 30
0.0
  0
VERTEX
  5
8A
330
88
100
AcDbEntity
  8
_U+30EC_U+30A4_U+30E4_U+30FC 1
 62
   179
420
  2234388
370
     9
100
AcDbVertex
100
AcDb2dVertex
 10
99.9325580060636
 20
-139.4777852429084
 30
0.0
  0
SEQEND
  5
8B
330
88
100
AcDbEntity
  8
_U+30EC_U+30A4_U+30E4_U+30FC 1
 62
   179
420
  2234388
370
     9
  0
POLYLINE
  5
8C
330
1F
100
AcDbEntity
  8
_U+30EC_U+30A4_U+30E4_U+30FC 1
 62
   179
420
  2234388
370
     9
100
AcDb2dPolyline
 66
     1
 10
0.0
 20
0.0
 30
0.0
  0
VERTEX
  5
8D
330
8C
100
AcDbEntity
  8
_U+30EC_U+30A4_U+30E4_U+30FC 1
 62
   179
420
  2234388
370
     9
100
AcDbVertex
100
AcDb2dVertex
 10
80.93219432413659
 20
-138.0177438543847
 30
0.0
  0
VERTEX
  5
8E
330
8C
100
AcDbEntity
  8
_U+30EC_U+30A4_U+30E4_U+30FC 1
 62
   179
420
  2234388
370
     9
100
AcDbVertex
100
AcDb2dVertex
 10
80.93219432413659
 20
-140.4775574648809
 30
0.0
  0
SEQEND
  5
8F
330
8C
100
AcDbEntity
  8
_U+30EC_U+30A4_U+30E4_U+30FC 1
 62
   179
420
  2234388
370
     9
  0
POLYLINE
  5
90
330
1F
100
AcDbEntity
  8
_U+30EC_U+30A4_U+30E4_U+30FC 1
 62
   179
420
  2234388
370
     9
100
AcDb2dPolyline
 66
     1
 10
0.0
 20
0.0
 30
0.0
  0
VERTEX
  5
91
330
90
100
AcDbEntity
  8
_U+30EC_U+30A4_U+30E4_U+30FC 1
 62
   179
420
  2234388
370
     9
100
AcDbVertex
100
AcDb2dVertex
 10
99.9325580060636
 20
-138.0177438543847
 30
0.0
  0
VERTEX
  5
92
330
90
100
AcDbEntity
  8
_U+30EC_U+30A4_U+30E4_U+30FC 1
 62
   179
420
  2234388
370
     9
100
AcDbVertex
100
AcDb2dVertex
 10
99.9325580060636
 20
-140.4775574648809
 30
0.0
  0
SEQEND
  5
93
330
90
100
AcDbEntity
  8
_U+30EC_U+30A4_U+30E4_U+30FC 1
 62
   179
420
  2234388
370
     9
  0
INSERT
  5
95
330
1F
100
AcDbEntity
  8
_U+30EC_U+30A4_U+30E4_U+30FC 1
100
AcDbBlockReference
  2
block 3
 10
0.0
 20
0.0
 30
0.0
  0
POLYLINE
  5
9D
330
1F
100
AcDbEntity
  8
_U+30EC_U+30A4_U+30E4_U+30FC 1
 62
   179
420
  2234388
370
     9
100
AcDb2dPolyline
 66
     1
 10
0.0
 20
0.0
 30
0.0
  0
VERTEX
  5
9E
330
9D
100
AcDbEntity
  8
_U+30EC_U+30A4_U+30E4_U+30FC 1
 62
   179
420
  2234388
370
     9
100
AcDbVertex
100
AcDb2dVertex
 10
76.93243525951229
 20
-116.4776619153249
 30
0.0
  0
VERTEX
  5
9F
330
9D
100
AcDbEntity
  8
_U+30EC_U+30A4_U+30E4_U+30FC 1
 62
   179
420
  2234388
370
     9
100
AcDbVertex
100
AcDb2dVertex
 10
76.93243525951229
 20
-135.4780260772415
 30
0.0
  0
SEQEND
  5
A0
330
9D
100
AcDbEntity
  8
_U+30EC_U+30A4_U+30E4_U+30FC 1
 62
   179
420
  2234388
370
     9
  0
POLYLINE
  5
A1
330
1F
100
AcDbEntity
  8
_U+30EC_U+30A4_U+30E4_U+30FC 1
 62
   179
420
  2234388
370
     9
100
AcDb2dPolyline
 66
     1
 10
0.0
 20
0.0
 30
0.0
  0
VERTEX
  5
A2
330
A1
100
AcDbEntity
  8
_U+30EC_U+30A4_U+30E4_U+30FC 1
 62
   179
420
  2234388
370
     9
100
AcDbVertex
100
AcDb2dVertex
 10
78.39244133337554
 20
-116.4776619153249
 30
0.0
  0
VERTEX
  5
A3
330
A1
100
AcDbEntity
  8
_U+30EC_U+30A4_U+30E4_U+30FC 1
 62
   179
420
  2234388
370
     9
100
AcDbVertex
100
AcDb2dVertex
 10
75.93266306279638
 20
-116.4776619153249
 30
0.0
  0
SEQEND
  5
A4
330
A1
100
AcDbEntity
  8
_U+30EC_U+30A4_U+30E4_U+30FC 1
 62
   179
420
  2234388
370
     9
  0
POLYLINE
  5
A5
330
1F
100
AcDbEntity
  8
_U+30EC_U+30A4_U+30E4_U+30FC 1
 62
   179
420
  2234388
370
     9
100
AcDb2dPolyline
 66
     1
 10
0.0
 20
0.0
 30
0.0
  0
VERTEX
  5
A6
330
A5
100
AcDbEntity
  8
_U+30EC_U+30A4_U+30E4_U+30FC 1
 62
   179
420
  2234388
370
     9
100
AcDbVertex
100
AcDb2dVertex
 10
78.39244133337554
 20
-135.4780260772415
 30
0.0
  0
VERTEX
  5
A7
330
A5
100
AcDbEntity
  8
_U+30EC_U+30A4_U+30E4_U+30FC 1
 62
   179
420
  2234388
370
     9
100
AcDbVertex
100
AcDb2dVertex
 10
75.93266306279638
 20
-135.4780260772415
 30
0.0
  0
SEQEND
  5
A8
330
A5
100
AcDbEntity
  8
_U+30EC_U+30A4_U+30E4_U+30FC 1
 62
   179
420
  2234388
370
     9
  0
INSERT
  5
AA
330
1F
100
AcDbEntity
  8
_U+30EC_U+30A4_U+30E4_U+30FC 1
100
AcDbBlockReference
  2
block 4
 10
0.0
 20
0.0
 30
0.0
  0
POLYLINE
  5
B2
330
1F
100
AcDbEntity
  8
_U+30EC_U+30A4_U+30E4_U+30FC 1
  6
AI-Linetype-1
 62
   154
420
    23468
370
    25
100
AcDb2dPolyline
 66
     1
 10
0.0
 20
0.0
 30
0.0
  0
VERTEX
  5
B3
330
B2
100
AcDbEntity
  8
_U+30EC_U+30A4_U+30E4_U+30FC 1
  6
AI-Linetype-1
 62
   154
420
    23468
370
    25
100
AcDbVertex
100
AcDb2dVertex
 10
82.45079678539382
 20
-116.4776619153249
 30
0.0
  0
VERTEX
  5
B4
330
B2
100
AcDbEntity
  8
_U+30EC_U+30A4_U+30E4_U+30FC 1
  6
AI-Linetype-1
 62
   154
420
    23468
370
    25
100
AcDbVertex
100
AcDb2dVertex
 10
82.45079678539382
 20
-131.4775966337972
 30
0.0
  0
SEQEND
  5
B6
330
B2
100
AcDbEntity
  8
_U+30EC_U+30A4_U+30E4_U+30FC 1
  6
AI-Linetype-1
 62
   154
420
    23468
370
    25
  0
POLYLINE
  5
B7
330
1F
100
AcDbEntity
  8
_U+30EC_U+30A4_U+30E4_U+30FC 1
  6
AI-Linetype-2
 62
   154
420
    23468
370
    25
100
AcDb2dPolyline
 66
     1
 10
0.0
 20
0.0
 30
0.0
  0
VERTEX
  5
B8
330
B7
100
AcDbEntity
  8
_U+30EC_U+30A4_U+30E4_U+30FC 1
  6
AI-Linetype-2
 62
   154
420
    23468
370
    25
100
AcDbVertex
100
AcDb2dVertex
 10
84.83204672464308
 20
-133.737561633232
 30
0.0
  0
VERTEX
  5
B9
330
B7
100
AcDbEntity
  8
_U+30EC_U+30A4_U+30E4_U+30FC 1
  6
AI-Linetype-2
 62
   154
420
    23468
370
    25
100
AcDbVertex
100
AcDb2dVertex
 10
99.83265134194576
 20
-133.737561633232
 30
0.0
  0
SEQEND
  5
BB
330
B7
100
AcDbEntity
  8
_U+30EC_U+30A4_U+30E4_U+30FC 1
  6
AI-Linetype-2
 62
   154
420
    23468
370
    25
  0
POLYLINE
  5
BC
330
1F
100
AcDbEntity
  8
_U+30EC_U+30A4_U+30E4_U+30FC 1
 62
   179
420
  2234388
370
     9
100
AcDb2dPolyline
 66
     1
 10
0.0
 20
0.0
 30
0.0
  0
VERTEX
  5
BD
330
BC
100
AcDbEntity
  8
_U+30EC_U+30A4_U+30E4_U+30FC 1
 62
   179
420
  2234388
370
     9
100
AcDbVertex
100
AcDb2dVertex
 10
82.9506476059749
 20
-120.0577919144299
 30
0.0
  0
VERTEX
  5
BE
330
BC
100
AcDbEntity
  8
_U+30EC_U+30A4_U+30E4_U+30FC 1
 62
   179
420
  2234388
370
     9
100
AcDbVertex
100
AcDb2dVertex
 10
88.97475134117609
 20
-120.0577919144299
 30
0.0
  0
SEQEND
  5
BF
330
BC
100
AcDbEntity
  8
_U+30EC_U+30A4_U+30E4_U+30FC 1
 62
   179
420
  2234388
370
     9
  0
POLYLINE
  5
C0
330
1F
100
AcDbEntity
  8
_U+30EC_U+30A4_U+30E4_U+30FC 1
 62
   179
420
  2234388
370
     9
100
AcDb2dPolyline
 66
     1
 10
0.0
 20
0.0
 30
0.0
  0
VERTEX
  5
C1
330
C0
100
AcDbEntity
  8
_U+30EC_U+30A4_U+30E4_U+30FC 1
 62
   179
420
  2234388
370
     9
100
AcDbVertex
100
AcDb2dVertex
 10
82.9506476059749
 20
-120.0577919144299
 30
0.0
  0
VERTEX
  5
C2
330
C0
100
AcDbEntity
  8
_U+30EC_U+30A4_U+30E4_U+30FC 1
 62
   179
420
  2234388
370
     9
100
AcDbVertex
100
AcDb2dVertex
 10
83.91666109013188
 20
-119.7990646922726
 30
0.0
  0
SEQEND
  5
C3
330
C0
100
AcDbEntity
  8
_U+30EC_U+30A4_U+30E4_U+30FC 1
 62
   179
420
  2234388
370
     9
  0
POLYLINE
  5
C4
330
1F
100
AcDbEntity
  8
_U+30EC_U+30A4_U+30E4_U+30FC 1
 62
   179
420
  2234388
370
     9
100
AcDb2dPolyline
 66
     1
 10
0.0
 20
0.0
 30
0.0
  0
VERTEX
  5
C5
330
C4
100
AcDbEntity
  8
_U+30EC_U+30A4_U+30E4_U+30FC 1
 62
   179
420
  2234388
370
     9
100
AcDbVertex
100
AcDb2dVertex
 10
82.9506476059749
 20
-120.0577919144299
 30
0.0
  0
VERTEX
  5
C6
330
C4
100
AcDbEntity
  8
_U+30EC_U+30A4_U+30E4_U+30FC 1
 62
   179
420
  2234388
370
     9
100
AcDbVertex
100
AcDb2dVertex
 10
83.91666109013188
 20
-120.3165191365874
 30
0.0
  0
SEQEND
  5
C7
330
C4
100
AcDbEntity
  8
_U+30EC_U+30A4_U+30E4_U+30FC 1
 62
   179
420
  2234388
370
     9
  0
INSERT
  5
C9
330
1F
100
AcDbEntity
  8
_U+30EC_U+30A4_U+30E4_U+30FC 1
100
AcDbBlockReference
  2
block 5
 10
0.0
 20
0.0
 30
0.0
  0
POLYLINE
  5
F0
330
1F
100
AcDbEntity
  8
_U+30EC_U+30A4_U+30E4_U+30FC 1
 62
   179
420
  2234388
370
     9
100
AcDb2dPolyline
 66
     1
 10
0.0
 20
0.0
 30
0.0
  0
VERTEX
  5
F1
330
F0
100
AcDbEntity
  8
_U+30EC_U+30A4_U+30E4_U+30FC 1
 62
   179
420
  2234388
370
     9
100
AcDbVertex
100
AcDb2dVertex
 10
96.1756888648449
 20
-133.4347371888636
 30
0.0
  0
VERTEX
  5
F2
330
F0
100
AcDbEntity
  8
_U+30EC_U+30A4_U+30E4_U+30FC 1
 62
   179
420
  2234388
370
     9
100
AcDbVertex
100
AcDb2dVertex
 10
96.43406087309548
 20
-132.4687610779941
 30
0.0
  0
SEQEND
  5
F3
330
F0
100
AcDbEntity
  8
_U+30EC_U+30A4_U+30E4_U+30FC 1
 62
   179
420
  2234388
370
     9
  0
POLYLINE
  5
F4
330
1F
100
AcDbEntity
  8
_U+30EC_U+30A4_U+30E4_U+30FC 1
 62
   179
420
  2234388
370
     9
100
AcDb2dPolyline
 66
     1
 10
0.0
 20
0.0
 30
0.0
  0
VERTEX
  5
F5
330
F4
100
AcDbEntity
  8
_U+30EC_U+30A4_U+30E4_U+30FC 1
 62
   179
420
  2234388
370
     9
100
AcDbVertex
100
AcDb2dVertex
 10
96.1756888648449
 20
-133.4347371888636
 30
0.0
  0
VERTEX
  5
F6
330
F4
100
AcDbEntity
  8
_U+30EC_U+30A4_U+30E4_U+30FC 1
 62
   179
420
  2234388
370
     9
100
AcDbVertex
100
AcDb2dVertex
 10
96.1756888648449
 20
-121.6125541362636
 30
0.0
  0
SEQEND
  5
F7
330
F4
100
AcDbEntity
  8
_U+30EC_U+30A4_U+30E4_U+30FC 1
 62
   179
420
  2234388
370
     9
  0
POLYLINE
  5
F8
330
1F
100
AcDbEntity
  8
_U+30EC_U+30A4_U+30E4_U+30FC 1
 62
   179
420
  2234388
370
     9
100
AcDb2dPolyline
 66
     1
 10
0.0
 20
0.0
 30
0.0
  0
VERTEX
  5
F9
330
F8
100
AcDbEntity
  8
_U+30EC_U+30A4_U+30E4_U+30FC 1
 62
   179
420
  2234388
370
     9
100
AcDbVertex
100
AcDb2dVertex
 10
96.1756888648449
 20
-133.4347371888636
 30
0.0
  0
VERTEX
  5
FA
330
F8
100
AcDbEntity
  8
_U+30EC_U+30A4_U+30E4_U+30FC 1
 62
   179
420
  2234388
370
     9
100
AcDbVertex
100
AcDb2dVertex
 10
95.9166064418524
 20
-132.4687610779941
 30
0.0
  0
SEQEND
  5
FB
330
F8
100
AcDbEntity
  8
_U+30EC_U+30A4_U+30E4_U+30FC 1
 62
   179
420
  2234388
370
     9
  0
ENDSEC
  0
SECTION
  2
OBJECTS
  0
DICTIONARY
  5
C
330
0
100
AcDbDictionary
281
     1
  3
ACAD_GROUP
350
D
  3
ACAD_LAYOUT
350
1A
  3
ACAD_MATERIAL
350
3B
  3
ACAD_MLEADERSTYLE
350
FD
  3
ACAD_MLINESTYLE
350
17
  3
ACAD_PLOTSETTINGS
350
19
  3
ACAD_PLOTSTYLENAME
350
E
  3
ACAD_TABLESTYLE
350
FC
  3
ACAD_VISUALSTYLE
350
2A
  0
SUN
  5
3F
330
29
100
AcDbSun
 90
        1
290
     0
 63
     7
421
 16777215
 40
1.0
291
     1
 91
  2455826
 92
 54000000
292
     0
 70
     2
 71
   256
280
     1
  0
DICTIONARY
  5
D
102
{ACAD_REACTORS
330
C
102
}
330
C
100
AcDbDictionary
281
     1
  0
DICTIONARY
  5
1A
102
{ACAD_REACTORS
330
C
102
}
330
C
100
AcDbDictionary
281
     1
  3
Layout1
350
1E
  3
Layout2
350
26
  3
Model
350
22
  0
DICTIONARY
  5
3B
102
{ACAD_REACTORS
330
C
102
}
330
C
100
AcDbDictionary
281
     1
  3
ByBlock
350
3D
  3
ByLayer
350
3C
  3
Global
350
3E
  0
DICTIONARY
  5
FD
102
{ACAD_REACTORS
330
C
102
}
330
C
100
AcDbDictionary
281
     1
  0
DICTIONARY
  5
17
102
{ACAD_REACTORS
330
C
102
}
330
C
100
AcDbDictionary
281
     1
  3
Standard
350
18
  0
DICTIONARY
  5
19
102
{ACAD_REACTORS
330
C
102
}
330
C
100
AcDbDictionary
281
     1
  0
ACDBDICTIONARYWDFLT
  5
E
102
{ACAD_REACTORS
330
C
102
}
330
C
100
AcDbDictionary
281
     1
  3
Normal
350
F
100
AcDbDictionaryWithDefault
340
F
  0
DICTIONARY
  5
FC
102
{ACAD_REACTORS
330
C
102
}
330
C
100
AcDbDictionary
281
     1
  0
DICTIONARY
  5
2A
102
{ACAD_REACTORS
330
C
102
}
330
C
100
AcDbDictionary
281
     1
  3
2dWireframe
350
2F
  3
3D Hidden
350
31
  3
3dWireframe
350
30
  3
Basic
350
32
  3
Brighten
350
36
  3
ColorChange
350
3A
  3
Conceptual
350
34
  3
Dim
350
35
  3
Facepattern
350
39
  3
Flat
350
2B
  3
FlatWithEdges
350
2C
  3
Gouraud
350
2D
  3
GouraudWithEdges
350
2E
  3
Linepattern
350
38
  3
Realistic
350
33
  3
Thicken
350
37
  0
LAYOUT
  5
1E
102
{ACAD_REACTORS
330
1A
102
}
330
1A
100
AcDbPlotSettings
  1

  2
none_device
  4

  6

 40
0.0
 41
0.0
 42
0.0
 43
0.0
 44
0.0
 45
0.0
 46
0.0
 47
0.0
 48
0.0
 49
0.0
140
0.0
141
0.0
142
1.0
143
1.0
 70
   688
 72
     0
 73
     0
 74
     5
  7

 75
    16
 76
     0
 77
     2
 78
   300
147
1.0
148
0.0
149
0.0
100
AcDbLayout
  1
Layout1
 70
     1
 71
     1
 10
0.0
 20
0.0
 11
12.0
 21
9.0
 12
0.0
 22
0.0
 32
0.0
 14
1.000000000000000E+20
 24
1.000000000000000E+20
 34
1.000000000000000E+20
 15
-1.000000000000000E+20
 25
-1.000000000000000E+20
 35
-1.000000000000000E+20
146
0.0
 13
0.0
 23
0.0
 33
0.0
 16
1.0
 26
0.0
 36
0.0
 17
0.0
 27
1.0
 37
0.0
 76
     0
330
1B
  0
LAYOUT
  5
26
102
{ACAD_REACTORS
330
1A
102
}
330
1A
100
AcDbPlotSettings
  1

  2
none_device
  4

  6

 40
0.0
 41
0.0
 42
0.0
 43
0.0
 44
0.0
 45
0.0
 46
0.0
 47
0.0
 48
0.0
 49
0.0
140
0.0
141
0.0
142
1.0
143
1.0
 70
   688
 72
     0
 73
     0
 74
     5
  7

 75
    16
 76
     0
 77
     2
 78
   300
147
1.0
148
0.0
149
0.0
100
AcDbLayout
  1
Layout2
 70
     1
 71
     2
 10
0.0
 20
0.0
 11
0.0
 21
0.0
 12
0.0
 22
0.0
 32
0.0
 14
0.0
 24
0.0
 34
0.0
 15
0.0
 25
0.0
 35
0.0
146
0.0
 13
0.0
 23
0.0
 33
0.0
 16
1.0
 26
0.0
 36
0.0
 17
0.0
 27
1.0
 37
0.0
 76
     0
330
23
  0
LAYOUT
  5
22
102
{ACAD_REACTORS
330
1A
102
}
330
1A
100
AcDbPlotSettings
  1

  2
none_device
  4

  6

 40
0.0
 41
0.0
 42
0.0
 43
0.0
 44
0.0
 45
0.0
 46
0.0
 47
0.0
 48
0.0
 49
0.0
140
0.0
141
0.0
142
1.0
143
1.0
 70
  1712
 72
     0
 73
     0
 74
     0
  7

 75
     0
 76
     0
 77
     2
 78
   300
147
1.0
148
0.0
149
0.0
100
AcDbLayout
  1
Model
 70
     1
 71
     0
 10
0.0
 20
0.0
 11
12.0
 21
9.0
 12
0.0
 22
0.0
 32
0.0
 14
1.000000000000000E+20
 24
1.000000000000000E+20
 34
1.000000000000000E+20
 15
-1.000000000000000E+20
 25
-1.000000000000000E+20
 35
-1.000000000000000E+20
146
0.0
 13
0.0
 23
0.0
 33
0.0
 16
1.0
 26
0.0
 36
0.0
 17
0.0
 27
1.0
 37
0.0
 76
     0
330
1F
331
29
  0
MATERIAL
  5
3D
102
{ACAD_REACTORS
330
3B
102
}
330
3B
100
AcDbMaterial
  1
ByBlock
 72
     1
 94
      127
  0
MATERIAL
  5
3C
102
{ACAD_REACTORS
330
3B
102
}
330
3B
100
AcDbMaterial
  1
ByLayer
 72
     1
 94
      127
  0
MATERIAL
  5
3E
102
{ACAD_REACTORS
330
3B
102
}
330
3B
100
AcDbMaterial
  1
Global
 72
     1
 94
      127
  0
MLINESTYLE
  5
18
102
{ACAD_REACTORS
330
17
102
}
330
17
100
AcDbMlineStyle
  2
Standard
 70
     0
  3

 62
   256
 51
90.0
 52
90.0
 71
     2
 49
0.5
 62
   256
  6
BYLAYER
 49
-0.5
 62
   256
  6
BYLAYER
  0
ACDBPLACEHOLDER
  5
F
102
{ACAD_REACTORS
330
E
102
}
330
E
  0
VISUALSTYLE
  5
2F
102
{ACAD_REACTORS
330
2A
102
}
330
2A
100
AcDbVisualStyle
  2
2dWireframe
 70
     4
177
     2
291
     0
 71
     0
176
     1
 72
     2
176
     1
 73
     0
176
     1
 90
        0
176
     1
 40
-0.6
176
     1
 41
-30.0
176
     1
 62
     5
 63
     7
421
 16777215
176
     1
 74
     1
176
     1
 91
        4
176
     1
 64
     7
176
     1
 65
   257
176
     1
 75
     1
176
     1
175
     1
176
     1
 42
1.0
176
     1
 92
        0
176
     1
 66
   257
176
     1
 43
1.0
176
     1
 76
     1
176
     1
 77
     6
176
     1
 78
     2
176
     1
 67
     7
176
     1
 79
     5
176
     1
170
     0
176
     1
171
     0
176
     1
290
     0
176
     1
 93
        1
176
     1
 44
0.0
176
     1
173
     0
176
     1
  0
VISUALSTYLE
  5
31
102
{ACAD_REACTORS
330
2A
102
}
330
2A
100
AcDbVisualStyle
  2
3D Hidden
 70
     6
177
     2
291
     0
 71
     1
176
     1
 72
     2
176
     1
 73
     2
176
     1
 90
        0
176
     1
 40
-0.6
176
     1
 41
-30.0
176
     1
 62
     5
 63
     7
421
 16777215
176
     1
 74
     2
176
     1
 91
        2
176
     1
 64
     7
176
     1
 65
   257
176
     1
 75
     2
176
     1
175
     1
176
     1
 42
40.0
176
     1
 92
        0
176
     1
 66
   257
176
     1
 43
1.0
176
     1
 76
     1
176
     1
 77
     6
176
     1
 78
     2
176
     1
 67
     7
176
     1
 79
     3
176
     1
170
     0
176
     1
171
     0
176
     1
290
     0
176
     1
 93
        1
176
     1
 44
0.0
176
     1
173
     0
176
     1
  0
VISUALSTYLE
  5
30
102
{ACAD_REACTORS
330
2A
102
}
330
2A
100
AcDbVisualStyle
  2
3dWireframe
 70
     5
177
     2
291
     0
 71
     0
176
     1
 72
     2
176
     1
 73
     0
176
     1
 90
        0
176
     1
 40
-0.6
176
     1
 41
-30.0
176
     1
 62
     5
 63
     7
421
 16777215
176
     1
 74
     1
176
     1
 91
        4
176
     1
 64
     7
176
     1
 65
   257
176
     1
 75
     1
176
     1
175
     1
176
     1
 42
1.0
176
     1
 92
        0
176
     1
 66
   257
176
     1
 43
1.0
176
     1
 76
     1
176
     1
 77
     6
176
     1
 78
     2
176
     1
 67
     7
176
     1
 79
     5
176
     1
170
     0
176
     1
171
     0
176
     1
290
     0
176
     1
 93
        1
176
     1
 44
0.0
176
     1
173
     0
176
     1
  0
VISUALSTYLE
  5
32
102
{ACAD_REACTORS
330
2A
102
}
330
2A
100
AcDbVisualStyle
  2
Basic
 70
     7
177
     2
291
     1
 71
     1
176
     1
 72
     0
176
     1
 73
     1
176
     1
 90
        0
176
     1
 40
-0.6
176
     1
 41
-30.0
176
     1
 62
     5
 63
     7
421
 16777215
176
     1
 74
     0
176
     1
 91
        4
176
     1
 64
     7
176
     1
 65
   257
176
     1
 75
     1
176
     1
175
     1
176
     1
 42
1.0
176
     1
 92
        8
176
     1
 66
     7
176
     1
 43
1.0
176
     1
 76
     1
176
     1
 77
     6
176
     1
 78
     2
176
     1
 67
     7
176
     1
 79
     5
176
     1
170
     0
176
     1
171
     0
176
     1
290
     0
176
     1
 93
        1
176
     1
 44
0.0
176
     1
173
     0
176
     1
  0
VISUALSTYLE
  5
36
102
{ACAD_REACTORS
330
2A
102
}
330
2A
100
AcDbVisualStyle
  2
Brighten
 70
    12
177
     2
291
     1
 71
     2
176
     1
 72
     2
176
     1
 73
     0
176
     1
 90
        0
176
     1
 40
-0.6
176
     1
 41
-30.0
176
     1
 62
     5
 63
     7
421
 16777215
176
     1
 74
     1
176
     1
 91
        4
176
     1
 64
     7
176
     1
 65
   257
176
     1
 75
     1
176
     1
175
     1
176
     1
 42
1.0
176
     1
 92
        8
176
     1
 66
     7
176
     1
 43
1.0
176
     1
 76
     1
176
     1
 77
     6
176
     1
 78
     2
176
     1
 67
     7
176
     1
 79
     5
176
     1
170
     0
176
     1
171
     0
176
     1
290
     0
176
     1
 93
        1
176
     1
 44
50.0
176
     1
173
     0
176
     1
  0
VISUALSTYLE
  5
3A
102
{ACAD_REACTORS
330
2A
102
}
330
2A
100
AcDbVisualStyle
  2
ColorChange
 70
    16
177
     2
291
     1
 71
     2
176
     1
 72
     2
176
     1
 73
     3
176
     1
 90
        0
176
     1
 40
-0.6
176
     1
 41
-30.0
176
     1
 62
     5
 63
     8
421
  8421504
176
     1
 74
     1
176
     1
 91
        4
176
     1
 64
     7
176
     1
 65
   257
176
     1
 75
     1
176
     1
175
     1
176
     1
 42
1.0
176
     1
 92
        8
176
     1
 66
     8
424
  8421504
176
     1
 43
1.0
176
     1
 76
     1
176
     1
 77
     6
176
     1
 78
     2
176
     1
 67
     7
176
     1
 79
     5
176
     1
170
     0
176
     1
171
     0
176
     1
290
     0
176
     1
 93
        1
176
     1
 44
0.0
176
     1
173
     0
176
     1
  0
VISUALSTYLE
  5
34
102
{ACAD_REACTORS
330
2A
102
}
330
2A
100
AcDbVisualStyle
  2
Conceptual
 70
     9
177
     2
291
     0
 71
     3
176
     1
 72
     2
176
     1
 73
     0
176
     1
 90
        0
176
     1
 40
-0.6
176
     1
 41
-30.0
176
     1
 62
     5
 63
     7
421
 16777215
176
     1
 74
     2
176
     1
 91
        2
176
     1
 64
     7
176
     1
 65
   257
176
     1
 75
     1
176
     1
175
     1
176
     1
 42
40.0
176
     1
 92
        8
176
     1
 66
     7
176
     1
 43
1.0
176
     1
 76
     1
176
     1
 77
     6
176
     1
 78
     2
176
     1
 67
     7
176
     1
 79
     3
176
     1
170
     0
176
     1
171
     0
176
     1
290
     0
176
     1
 93
        1
176
     1
 44
0.0
176
     1
173
     0
176
     1
  0
VISUALSTYLE
  5
35
102
{ACAD_REACTORS
330
2A
102
}
330
2A
100
AcDbVisualStyle
  2
Dim
 70
    11
177
     2
291
     1
 71
     2
176
     1
 72
     2
176
     1
 73
     0
176
     1
 90
        0
176
     1
 40
-0.6
176
     1
 41
-30.0
176
     1
 62
     5
 63
     7
421
 16777215
176
     1
 74
     1
176
     1
 91
        4
176
     1
 64
     7
176
     1
 65
   257
176
     1
 75
     1
176
     1
175
     1
176
     1
 42
1.0
176
     1
 92
        8
176
     1
 66
     7
176
     1
 43
1.0
176
     1
 76
     1
176
     1
 77
     6
176
     1
 78
     2
176
     1
 67
     7
176
     1
 79
     5
176
     1
170
     0
176
     1
171
     0
176
     1
290
     0
176
     1
 93
        1
176
     1
 44
-50.0
176
     1
173
     0
176
     1
  0
VISUALSTYLE
  5
39
102
{ACAD_REACTORS
330
2A
102
}
330
2A
100
AcDbVisualStyle
  2
Facepattern
 70
    15
177
     2
291
     1
 71
     2
176
     1
 72
     2
176
     1
 73
     0
176
     1
 90
        0
176
     1
 40
-0.6
176
     1
 41
-30.0
176
     1
 62
     5
 63
     7
421
 16777215
176
     1
 74
     1
176
     1
 91
        4
176
     1
 64
     7
176
     1
 65
   257
176
     1
 75
     1
176
     1
175
     1
176
     1
 42
1.0
176
     1
 92
        8
176
     1
 66
     7
176
     1
 43
1.0
176
     1
 76
     1
176
     1
 77
     6
176
     1
 78
     2
176
     1
 67
     7
176
     1
 79
     5
176
     1
170
     0
176
     1
171
     0
176
     1
290
     0
176
     1
 93
        1
176
     1
 44
0.0
176
     1
173
     0
176
     1
  0
VISUALSTYLE
  5
2B
102
{ACAD_REACTORS
330
2A
102
}
330
2A
100
AcDbVisualStyle
  2
Flat
 70
     0
177
     2
291
     1
 71
     2
176
     1
 72
     1
176
     1
 73
     1
176
     1
 90
        2
176
     1
 40
-0.6
176
     1
 41
30.0
176
     1
 62
     5
 63
     7
421
 16777215
176
     1
 74
     0
176
     1
 91
        4
176
     1
 64
     7
176
     1
 65
   257
176
     1
 75
     1
176
     1
175
     1
176
     1
 42
1.0
176
     1
 92
        8
176
     1
 66
     7
176
     1
 43
1.0
176
     1
 76
     1
176
     1
 77
     6
176
     1
 78
     2
176
     1
 67
     7
176
     1
 79
     5
176
     1
170
     0
176
     1
171
     0
176
     1
290
     0
176
     1
 93
       13
176
     1
 44
0.0
176
     1
173
     0
176
     1
  0
VISUALSTYLE
  5
2C
102
{ACAD_REACTORS
330
2A
102
}
330
2A
100
AcDbVisualStyle
  2
FlatWithEdges
 70
     1
177
     2
291
     1
 71
     2
176
     1
 72
     1
176
     1
 73
     1
176
     1
 90
        2
176
     1
 40
-0.6
176
     1
 41
30.0
176
     1
 62
     5
 63
     7
421
 16777215
176
     1
 74
     1
176
     1
 91
        4
176
     1
 64
     7
176
     1
 65
   257
176
     1
 75
     1
176
     1
175
     1
176
     1
 42
1.0
176
     1
 92
        0
176
     1
 66
   257
176
     1
 43
1.0
176
     1
 76
     1
176
     1
 77
     6
176
     1
 78
     2
176
     1
 67
     7
176
     1
 79
     5
176
     1
170
     0
176
     1
171
     0
176
     1
290
     0
176
     1
 93
       13
176
     1
 44
0.0
176
     1
173
     0
176
     1
  0
VISUALSTYLE
  5
2D
102
{ACAD_REACTORS
330
2A
102
}
330
2A
100
AcDbVisualStyle
  2
Gouraud
 70
     2
177
     2
291
     1
 71
     2
176
     1
 72
     2
176
     1
 73
     1
176
     1
 90
        2
176
     1
 40
-0.6
176
     1
 41
30.0
176
     1
 62
     5
 63
     7
421
 16777215
176
     1
 74
     0
176
     1
 91
        4
176
     1
 64
     7
176
     1
 65
   257
176
     1
 75
     1
176
     1
175
     1
176
     1
 42
1.0
176
     1
 92
        0
176
     1
 66
     7
176
     1
 43
1.0
176
     1
 76
     1
176
     1
 77
     6
176
     1
 78
     2
176
     1
 67
     7
176
     1
 79
     5
176
     1
170
     0
176
     1
171
     0
176
     1
290
     0
176
     1
 93
       13
176
     1
 44
0.0
176
     1
173
     0
176
     1
  0
VISUALSTYLE
  5
2E
102
{ACAD_REACTORS
330
2A
102
}
330
2A
100
AcDbVisualStyle
  2
GouraudWithEdges
 70
     3
177
     2
291
     1
 71
     2
176
     1
 72
     2
176
     1
 73
     1
176
     1
 90
        2
176
     1
 40
-0.6
176
     1
 41
30.0
176
     1
 62
     5
 63
     7
421
 16777215
176
     1
 74
     1
176
     1
 91
        4
176
     1
 64
     7
176
     1
 65
   257
176
     1
 75
     1
176
     1
175
     1
176
     1
 42
1.0
176
     1
 92
        0
176
     1
 66
   257
176
     1
 43
1.0
176
     1
 76
     1
176
     1
 77
     6
176
     1
 78
     2
176
     1
 67
     7
176
     1
 79
     5
176
     1
170
     0
176
     1
171
     0
176
     1
290
     0
176
     1
 93
       13
176
     1
 44
0.0
176
     1
173
     0
176
     1
  0
VISUALSTYLE
  5
38
102
{ACAD_REACTORS
330
2A
102
}
330
2A
100
AcDbVisualStyle
  2
Linepattern
 70
    14
177
     2
291
     1
 71
     2
176
     1
 72
     2
176
     1
 73
     0
176
     1
 90
        0
176
     1
 40
-0.6
176
     1
 41
-30.0
176
     1
 62
     5
 63
     7
421
 16777215
176
     1
 74
     1
176
     1
 91
        4
176
     1
 64
     7
176
     1
 65
   257
176
     1
 75
     7
176
     1
175
     7
176
     1
 42
1.0
176
     1
 92
        8
176
     1
 66
     7
176
     1
 43
1.0
176
     1
 76
     1
176
     1
 77
     6
176
     1
 78
     2
176
     1
 67
     7
176
     1
 79
     5
176
     1
170
     0
176
     1
171
     0
176
     1
290
     0
176
     1
 93
        1
176
     1
 44
0.0
176
     1
173
     0
176
     1
  0
VISUALSTYLE
  5
33
102
{ACAD_REACTORS
330
2A
102
}
330
2A
100
AcDbVisualStyle
  2
Realistic
 70
     8
177
     2
291
     0
 71
     2
176
     1
 72
     2
176
     1
 73
     0
176
     1
 90
        0
176
     1
 40
-0.6
176
     1
 41
-30.0
176
     1
 62
     5
 63
     7
421
 16777215
176
     1
 74
     1
176
     1
 91
        0
176
     1
 64
     7
176
     1
 65
   257
176
     1
 75
     1
176
     1
175
     1
176
     1
 42
1.0
176
     1
 92
        8
176
     1
 66
     8
424
  7895160
176
     1
 43
1.0
176
     1
 76
     1
176
     1
 77
     6
176
     1
 78
     2
176
     1
 67
     7
176
     1
 79
     5
176
     1
170
     0
176
     1
171
     0
176
     1
290
     0
176
     1
 93
       13
176
     1
 44
0.0
176
     1
173
     0
176
     1
  0
VISUALSTYLE
  5
37
102
{ACAD_REACTORS
330
2A
102
}
330
2A
100
AcDbVisualStyle
  2
Thicken
 70
    13
177
     2
291
     1
 71
     2
176
     1
 72
     2
176
     1
 73
     0
176
     1
 90
        0
176
     1
 40
-0.6
176
     1
 41
-30.0
176
     1
 62
     5
 63
     7
421
 16777215
176
     1
 74
     1
176
     1
 91
        4
176
     1
 64
     7
176
     1
 65
   257
176
     1
 75
     1
176
     1
175
     1
176
     1
 42
1.0
176
     1
 92
       12
176
     1
 66
     7
176
     1
 43
1.0
176
     1
 76
     1
176
     1
 77
     6
176
     1
 78
     2
176
     1
 67
     7
176
     1
 79
     5
176
     1
170
     0
176
     1
171
     0
176
     1
290
     0
176
     1
 93
        1
176
     1
 44
0.0
176
     1
173
     0
176
     1
  0
ENDSEC
  0
EOF
