  0
SECTION
  2
HEADER
  9
$ACADVER
  1
AC1024
  9
$ACADMAINTVER
 70
     6
  9
$DWGCODEPAGE
  3
UNDEFINED
  9
$INSBASE
 10
0.0
 20
0.0
 30
0.0
  9
$EXTMIN
 10
1.000000000000000E+20
 20
1.000000000000000E+20
 30
1.000000000000000E+20
  9
$EXTMAX
 10
-1.000000000000000E+20
 20
-1.000000000000000E+20
 30
-1.000000000000000E+20
  9
$LIMMIN
 10
0.0
 20
0.0
  9
$LIMMAX
 10
12.0
 20
9.0
  9
$ORTHOMODE
 70
     0
  9
$REGENMODE
 70
     1
  9
$FILLMODE
 70
     1
  9
$QTEXTMODE
 70
     0
  9
$MIRRTEXT
 70
     1
  9
$LTSCALE
 40
1.0
  9
$ATTMODE
 70
     1
  9
$TEXTSIZE
 40
0.2
  9
$TRACEWID
 40
0.05
  9
$TEXTSTYLE
  7
Standard
  9
$CLAYER
  8
0
  9
$CELTYPE
  6
ByLayer
  9
$CECOLOR
 62
   256
  9
$CELTSCALE
 40
1.0
  9
$DISPSILH
 70
     0
  9
$DIMSCALE
 40
1.0
  9
$DIMASZ
 40
0.18
  9
$DIMEXO
 40
0.0625
  9
$DIMDLI
 40
0.38
  9
$DIMRND
 40
0.0
  9
$DIMDLE
 40
0.0
  9
$DIMEXE
 40
0.18
  9
$DIMTP
 40
0.0
  9
$DIMTM
 40
0.0
  9
$DIMTXT
 40
0.18
  9
$DIMCEN
 40
0.09
  9
$DIMTSZ
 40
0.0
  9
$DIMTOL
 70
     0
  9
$DIMLIM
 70
     0
  9
$DIMTIH
 70
     1
  9
$DIMTOH
 70
     1
  9
$DIMSE1
 70
     0
  9
$DIMSE2
 70
     0
  9
$DIMTAD
 70
     0
  9
$DIMZIN
 70
     0
  9
$DIMBLK
  1

  9
$DIMASO
 70
     1
  9
$DIMSHO
 70
     1
  9
$DIMPOST
  1

  9
$DIMAPOST
  1

  9
$DIMALT
 70
     0
  9
$DIMALTD
 70
     2
  9
$DIMALTF
 40
25.4
  9
$DIMLFAC
 40
1.0
  9
$DIMTOFL
 70
     0
  9
$DIMTVP
 40
0.0
  9
$DIMTIX
 70
     0
  9
$DIMSOXD
 70
     0
  9
$DIMSAH
 70
     0
  9
$DIMBLK1
  1

  9
$DIMBLK2
  1

  9
$DIMSTYLE
  2
Standard
  9
$DIMCLRD
 70
     0
  9
$DIMCLRE
 70
     0
  9
$DIMCLRT
 70
     0
  9
$DIMTFAC
 40
1.0
  9
$DIMGAP
 40
0.09
  9
$DIMJUST
 70
     0
  9
$DIMSD1
 70
     0
  9
$DIMSD2
 70
     0
  9
$DIMTOLJ
 70
     1
  9
$DIMTZIN
 70
     0
  9
$DIMALTZ
 70
     0
  9
$DIMALTTZ
 70
     0
  9
$DIMUPT
 70
     0
  9
$DIMDEC
 70
     4
  9
$DIMTDEC
 70
     4
  9
$DIMALTU
 70
     2
  9
$DIMALTTD
 70
     2
  9
$DIMTXSTY
  7
Standard
  9
$DIMAUNIT
 70
     0
  9
$DIMADEC
 70
     0
  9
$DIMALTRND
 40
0.0
  9
$DIMAZIN
 70
     0
  9
$DIMDSEP
 70
    46
  9
$DIMATFIT
 70
     3
  9
$DIMFRAC
 70
     0
  9
$DIMLDRBLK
  1

  9
$DIMLUNIT
 70
     2
  9
$DIMLWD
 70
    -2
  9
$DIMLWE
 70
    -2
  9
$DIMTMOVE
 70
     0
  9
$DIMFXL
 40
1.0
  9
$DIMFXLON
 70
     0
  9
$DIMJOGANG
 40
0.7853981633974483
  9
$DIMTFILL
 70
     0
  9
$DIMTFILLCLR
 70
     0
  9
$DIMARCSYM
 70
     0
  9
$DIMLTYPE
  6

  9
$DIMLTEX1
  6

  9
$DIMLTEX2
  6

  9
$DIMTXTDIRECTION
 70
     0
  9
$LUNITS
 70
     2
  9
$LUPREC
 70
     4
  9
$SKETCHINC
 40
0.1
  9
$FILLETRAD
 40
0.5
  9
$AUNITS
 70
     0
  9
$AUPREC
 70
     0
  9
$MENU
  1
.
  9
$ELEVATION
 40
0.0
  9
$PELEVATION
 40
0.0
  9
$THICKNESS
 40
0.0
  9
$LIMCHECK
 70
     0
  9
$CHAMFERA
 40
0.5
  9
$CHAMFERB
 40
0.5
  9
$CHAMFERC
 40
1.0
  9
$CHAMFERD
 40
0.0
  9
$SKPOLY
 70
     0
  9
$TDCREATE
 40
2457917.620659711
  9
$TDUCREATE
 40
2457917.245659722
  9
$TDUPDATE
 40
2457917.620659711
  9
$TDUUPDATE
 40
2457917.245659722
  9
$TDINDWG
 40
0.0000000116
  9
$TDUSRTIMER
 40
0.0000000116
  9
$USRTIMER
 70
     1
  9
$ANGBASE
 50
0.0
  9
$ANGDIR
 70
     0
  9
$PDMODE
 70
     0
  9
$PDSIZE
 40
0.0
  9
$PLINEWID
 40
0.0
  9
$SPLFRAME
 70
     0
  9
$SPLINETYPE
 70
     6
  9
$SPLINESEGS
 70
     8
  9
$HANDSEED
  5
FC
  9
$SURFTAB1
 70
     6
  9
$SURFTAB2
 70
     6
  9
$SURFTYPE
 70
     6
  9
$SURFU
 70
     6
  9
$SURFV
 70
     6
  9
$UCSBASE
  2

  9
$UCSNAME
  2

  9
$UCSORG
 10
0.0
 20
0.0
 30
0.0
  9
$UCSXDIR
 10
1.0
 20
0.0
 30
0.0
  9
$UCSYDIR
 10
0.0
 20
1.0
 30
0.0
  9
$UCSORTHOREF
  2

  9
$UCSORTHOVIEW
 70
     0
  9
$UCSORGTOP
 10
0.0
 20
0.0
 30
0.0
  9
$UCSORGBOTTOM
 10
0.0
 20
0.0
 30
0.0
  9
$UCSORGLEFT
 10
0.0
 20
0.0
 30
0.0
  9
$UCSORGRIGHT
 10
0.0
 20
0.0
 30
0.0
  9
$UCSORGFRONT
 10
0.0
 20
0.0
 30
0.0
  9
$UCSORGBACK
 10
0.0
 20
0.0
 30
0.0
  9
$PUCSBASE
  2

  9
$PUCSNAME
  2

  9
$PUCSORG
 10
0.0
 20
0.0
 30
0.0
  9
$PUCSXDIR
 10
1.0
 20
0.0
 30
0.0
  9
$PUCSYDIR
 10
0.0
 20
1.0
 30
0.0
  9
$PUCSORTHOREF
  2

  9
$PUCSORTHOVIEW
 70
     0
  9
$PUCSORGTOP
 10
0.0
 20
0.0
 30
0.0
  9
$PUCSORGBOTTOM
 10
0.0
 20
0.0
 30
0.0
  9
$PUCSORGLEFT
 10
0.0
 20
0.0
 30
0.0
  9
$PUCSORGRIGHT
 10
0.0
 20
0.0
 30
0.0
  9
$PUCSORGFRONT
 10
0.0
 20
0.0
 30
0.0
  9
$PUCSORGBACK
 10
0.0
 20
0.0
 30
0.0
  9
$USERI1
 70
     0
  9
$USERI2
 70
     0
  9
$USERI3
 70
     0
  9
$USERI4
 70
     0
  9
$USERI5
 70
     0
  9
$USERR1
 40
0.0
  9
$USERR2
 40
0.0
  9
$USERR3
 40
0.0
  9
$USERR4
 40
0.0
  9
$USERR5
 40
0.0
  9
$WORLDVIEW
 70
     1
  9
$SHADEDGE
 70
     3
  9
$SHADEDIF
 70
    70
  9
$TILEMODE
 70
     1
  9
$MAXACTVP
 70
    64
  9
$PINSBASE
 10
0.0
 20
0.0
 30
0.0
  9
$PLIMCHECK
 70
     0
  9
$PEXTMIN
 10
1.000000000000000E+20
 20
1.000000000000000E+20
 30
1.000000000000000E+20
  9
$PEXTMAX
 10
-1.000000000000000E+20
 20
-1.000000000000000E+20
 30
-1.000000000000000E+20
  9
$PLIMMIN
 10
0.0
 20
0.0
  9
$PLIMMAX
 10
12.0
 20
9.0
  9
$UNITMODE
 70
     0
  9
$VISRETAIN
 70
     1
  9
$PLINEGEN
 70
     0
  9
$PSLTSCALE
 70
     1
  9
$TREEDEPTH
 70
  3020
  9
$CMLSTYLE
  2
Standard
  9
$CMLJUST
 70
     0
  9
$CMLSCALE
 40
1.0
  9
$PROXYGRAPHICS
 70
     1
  9
$MEASUREMENT
 70
     0
  9
$CELWEIGHT
370
    -1
  9
$ENDCAPS
280
     0
  9
$JOINSTYLE
280
     0
  9
$LWDISPLAY
290
     1
  9
$INSUNITS
 70
     1
  9
$HYPERLINKBASE
  1

  9
$STYLESHEET
  1

  9
$XEDIT
290
     1
  9
$CEPSNTYPE
380
     0
  9
$PSTYLEMODE
290
     1
  9
$FINGERPRINTGUID
  2
{31492741-AE3C-613F-1A4B-C96CA46B1BCE}
  9
$VERSIONGUID
  2
{FAEB1C32-E019-11D5-929B-00C0DF256EC4}
  9
$EXTNAMES
290
     1
  9
$PSVPSCALE
 40
0.0
  9
$OLESTARTUP
290
     0
  9
$SORTENTS
280
   127
  9
$INDEXCTL
280
     0
  9
$HIDETEXT
280
     1
  9
$XCLIPFRAME
280
     2
  9
$HALOGAP
280
     0
  9
$OBSCOLOR
 70
   257
  9
$OBSLTYPE
280
     0
  9
$INTERSECTIONDISPLAY
280
     0
  9
$INTERSECTIONCOLOR
 70
   257
  9
$DIMASSOC
280
     2
  9
$PROJECTNAME
  1

  9
$CAMERADISPLAY
290
     0
  9
$LENSLENGTH
 40
50.0
  9
$CAMERAHEIGHT
 40
0.0
  9
$STEPSPERSEC
 40
2.0
  9
$STEPSIZE
 40
6.0
  9
$3DDWFPREC
 40
2.0
  9
$PSOLWIDTH
 40
0.25
  9
$PSOLHEIGHT
 40
4.0
  9
$LOFTANG1
 40
1.570796326794897
  9
$LOFTANG2
 40
1.570796326794897
  9
$LOFTMAG1
 40
0.0
  9
$LOFTMAG2
 40
0.0
  9
$LOFTPARAM
 70
     7
  9
$LOFTNORMALS
280
     1
  9
$LATITUDE
 40
37.795
  9
$LONGITUDE
 40
-122.394
  9
$NORTHDIRECTION
 40
0.0
  9
$TIMEZONE
 70
 -8000
  9
$LIGHTGLYPHDISPLAY
280
     1
  9
$TILEMODELIGHTSYNCH
280
     1
  9
$CMATERIAL
347
3C
  9
$SOLIDHIST
280
     1
  9
$SHOWHIST
280
     1
  9
$DWFFRAME
280
     2
  9
$DGNFRAME
280
     2
  9
$REALWORLDSCALE
290
     1
  9
$INTERFERECOLOR
 62
   256
  9
$CSHADOW
280
     0
  9
$SHADOWPLANELOCATION
 40
0.0
  0
ENDSEC
  0
SECTION
  2
CLASSES
  0
CLASS
  1
ACDBDICTIONARYWDFLT
  2
AcDbDictionaryWithDefault
  3
ObjectDBX Classes
 90
        0
 91
        4
280
     0
281
     0
  0
CLASS
  1
VISUALSTYLE
  2
AcDbVisualStyle
  3
ObjectDBX Classes
 90
     4095
 91
        4
280
     0
281
     0
  0
CLASS
  1
MATERIAL
  2
AcDbMaterial
  3
ObjectDBX Classes
 90
     1153
 91
        4
280
     0
281
     0
  0
CLASS
  1
SUN
  2
AcDbSun
  3
SCENEOE
 90
     1024
 91
        4
280
     0
281
     0
  0
ENDSEC
  0
SECTION
  2
TABLES
  0
TABLE
  2
VPORT
  5
8
330
0
100
AcDbSymbolTable
 70
     1
  0
VPORT
  5
29
330
8
100
AcDbSymbolTableRecord
100
AcDbViewportTableRecord
  2
*Active
 70
     0
 10
0.0
 20
0.0
 11
1.0
 21
1.0
 12
0.0
 22
0.0
 13
0.0
 23
0.0
 14
0.5
 24
0.5
 15
0.5
 25
0.5
 16
0.0
 26
0.0
 36
1.0
 17
91.00082462281999
 27
-128.4993055234307
 37
0.0
 40
256.9986110468615
 41
0.7081814508812795
 42
50.0
 43
0.0
 44
0.0
 50
0.0
 51
0.0
 71
     0
 72
   100
 73
     1
 74
     3
 75
     0
 76
     0
 77
     0
 78
     0
281
     0
 65
     1
110
0.0
120
0.0
130
0.0
111
1.0
121
0.0
131
0.0
112
0.0
122
1.0
132
0.0
 79
     0
146
0.0
 60
     3
 61
     5
292
     1
282
     1
141
0.0
142
0.0
 63
   250
361
3F
  0
ENDTAB
  0
TABLE
  2
LTYPE
  5
5
330
0
100
AcDbSymbolTable
 70
     3
  0
LTYPE
  5
14
330
5
100
AcDbSymbolTableRecord
100
AcDbLinetypeTableRecord
  2
ByBlock
 70
     0
  3

 72
    65
 73
     0
 40
0.0
  0
LTYPE
  5
15
330
5
100
AcDbSymbolTableRecord
100
AcDbLinetypeTableRecord
  2
ByLayer
 70
     0
  3

 72
    65
 73
     0
 40
0.0
  0
LTYPE
  5
16
330
5
100
AcDbSymbolTableRecord
100
AcDbLinetypeTableRecord
  2
Continuous
 70
     0
  3
Solid line
 72
    65
 73
     0
 40
0.0
  0
LTYPE
  5
44
330
5
100
AcDbSymbolTableRecord
100
AcDbLinetypeTableRecord
  2
AI-Linetype-1
 70
     0
  3
Adobe Illustrator Linetype No. 1
 72
    65
 73
     2
 40
1.411111110758333
 49
0.7055555553791667
 74
     0
 49
-0.7055555553791667
 74
     0
  0
LTYPE
  5
49
330
5
100
AcDbSymbolTableRecord
100
AcDbLinetypeTableRecord
  2
AI-Linetype-2
 70
     0
  3
Adobe Illustrator Linetype No. 2
 72
    65
 73
     2
 40
1.411111110758333
 49
0.7055555553791667
 74
     0
 49
-0.7055555553791667
 74
     0
  0
ENDTAB
  0
TABLE
  2
LAYER
  5
2
330
0
100
AcDbSymbolTable
 70
     2
  0
LAYER
  5
10
330
2
100
AcDbSymbolTableRecord
100
AcDbLayerTableRecord
  2
0
 70
     0
 62
     7
  6
Continuous
370
    -3
390
F
347
3E
  0
LAYER
  5
40
330
2
100
AcDbSymbolTableRecord
100
AcDbLayerTableRecord
  2
_U+30EC_U+30A4_U+30E4_U+30FC 1
 70
     0
 62
     7
  6
Continuous
370
    -3
390
F
347
3E
  0
ENDTAB
  0
TABLE
  2
STYLE
  5
3
330
0
100
AcDbSymbolTable
 70
     1
  0
STYLE
  5
11
330
3
100
AcDbSymbolTableRecord
100
AcDbTextStyleTableRecord
  2
Standard
 70
     0
 40
0.0
 41
1.0
 50
0.0
 71
     0
 42
0.2
  3
txt
  4

  0
ENDTAB
  0
TABLE
  2
VIEW
  5
6
330
0
100
AcDbSymbolTable
 70
     0
  0
ENDTAB
  0
TABLE
  2
UCS
  5
7
330
0
100
AcDbSymbolTable
 70
     0
  0
ENDTAB
  0
TABLE
  2
APPID
  5
9
330
0
100
AcDbSymbolTable
 70
     1
  0
APPID
  5
12
330
9
100
AcDbSymbolTableRecord
100
AcDbRegAppTableRecord
  2
ACAD
 70
     0
  0
ENDTAB
  0
TABLE
  2
DIMSTYLE
  5
A
330
0
100
AcDbSymbolTable
 70
     1
100
AcDbDimStyleTable
  0
DIMSTYLE
105
27
330
A
100
AcDbSymbolTableRecord
100
AcDbDimStyleTableRecord
  2
Standard
 70
     0
178
     0
340
11
  0
ENDTAB
  0
TABLE
  2
BLOCK_RECORD
  5
1
330
0
100
AcDbSymbolTable
 70
     5
  0
BLOCK_RECORD
  5
1F
330
1
100
AcDbSymbolTableRecord
100
AcDbBlockTableRecord
  2
*Model_Space
340
22
 70
     0
280
     1
281
     0
  0
BLOCK_RECORD
  5
1B
330
1
100
AcDbSymbolTableRecord
100
AcDbBlockTableRecord
  2
*Paper_Space
340
1E
 70
     0
280
     1
281
     0
  0
BLOCK_RECORD
  5
23
330
1
100
AcDbSymbolTableRecord
100
AcDbBlockTableRecord
  2
*Paper_Space0
340
26
 70
     0
280
     1
281
     0
  0
BLOCK_RECORD
  5
7F
330
1
100
AcDbSymbolTableRecord
100
AcDbBlockTableRecord
  2
block 2
340
0
102
{BLKREFS
331
80
102
}
 70
     0
280
     1
281
     0
  0
BLOCK_RECORD
  5
9E
330
1
100
AcDbSymbolTableRecord
100
AcDbBlockTableRecord
  2
block 3
340
0
102
{BLKREFS
331
9F
102
}
 70
     0
280
     1
281
     0
  0
BLOCK_RECORD
  5
B2
330
1
100
AcDbSymbolTableRecord
100
AcDbBlockTableRecord
  2
block 4
340
0
102
{BLKREFS
331
B3
102
}
 70
     0
280
     1
281
     0
  0
BLOCK_RECORD
  5
D2
330
1
100
AcDbSymbolTableRecord
100
AcDbBlockTableRecord
  2
block 5
340
0
102
{BLKREFS
331
D3
102
}
 70
     0
280
     1
281
     0
  0
ENDTAB
  0
ENDSEC
  0
SECTION
  2
BLOCKS
  0
BLOCK
  5
20
330
1F
100
AcDbEntity
  8
0
100
AcDbBlockBegin
  2
*Model_Space
 70
     0
 10
0.0
 20
0.0
 30
0.0
  3
*Model_Space
  1

  0
ENDBLK
  5
21
330
1F
100
AcDbEntity
  8
0
100
AcDbBlockEnd
  0
BLOCK
  5
1C
330
1B
100
AcDbEntity
 67
     1
  8
0
100
AcDbBlockBegin
  2
*Paper_Space
 70
     0
 10
0.0
 20
0.0
 30
0.0
  3
*Paper_Space
  1

  0
ENDBLK
  5
1D
330
1B
100
AcDbEntity
 67
     1
  8
0
100
AcDbBlockEnd
  0
BLOCK
  5
24
330
23
100
AcDbEntity
  8
0
100
AcDbBlockBegin
  2
*Paper_Space0
 70
     0
 10
0.0
 20
0.0
 30
0.0
  3
*Paper_Space0
  1

  0
ENDBLK
  5
25
330
23
100
AcDbEntity
  8
0
100
AcDbBlockEnd
  0
BLOCK
  5
81
330
7F
100
AcDbEntity
  8
0
100
AcDbBlockBegin
  2
block 2
 70
     0
 10
0.0
 20
0.0
 30
0.0
  3
block 2
  1

  0
SPLINE
  5
83
330
7F
100
AcDbEntity
  8
_U+30EC_U+30A4_U+30E4_U+30FC 1
370
     0
100
AcDbSpline
210
0.0
220
0.0
230
1.0
 70
    11
 71
     3
 72
    29
 73
    25
 74
     0
 42
0.0000000001
 43
0.0000000001
 12
1.0
 22
0.0
 32
0.0
 13
1.0
 23
0.0
 33
0.0
 40
0.0
 40
0.0
 40
0.0
 40
0.0
 40
1.0
 40
1.0
 40
1.0
 40
2.0
 40
2.0
 40
2.0
 40
3.0
 40
3.0
 40
3.0
 40
4.0
 40
4.0
 40
4.0
 40
5.0
 40
5.0
 40
5.0
 40
6.0
 40
6.0
 40
6.0
 40
7.0
 40
7.0
 40
7.0
 40
8.0
 40
8.0
 40
8.0
 40
8.0
 10
105.1529269485382
 20
-133.343109775692
 30
0.0
 10
105.3623887540413
 20
-133.4512857739288
 30
0.0
 10
105.3813367792102
 20
-133.6245740768369
 30
0.0
 10
105.3813367792102
 20
-133.7410183042384
 30
0.0
 10
105.3813367792102
 20
-133.9019042633995
 30
0.0
 10
105.3348279901594
 20
-134.0434976878433
 30
0.0
 10
105.1529269485382
 20
-134.1385823232362
 30
0.0
 10
104.9582790536216
 20
-134.2422796973422
 30
0.0
 10
104.7216009937849
 20
-134.2615722320596
 30
0.0
 10
104.5586479773326
 20
-134.2615722320596
 30
0.0
 10
104.4146429860491
 20
-134.2615722320596
 30
0.0
 10
104.1628065060774
 20
-134.2443467546334
 30
0.0
 10
103.9640244965784
 20
-134.1385823232362
 30
0.0
 10
103.7611083724972
 20
-134.0307508345479
 30
0.0
 10
103.7376817231975
 20
-133.8698648753867
 30
0.0
 10
103.7376817231975
 20
-133.7410183042384
 30
0.0
 10
103.7376817231975
 20
-133.5821994023683
 30
0.0
 10
103.7821234549573
 20
-133.4385389206334
 30
0.0
 10
103.9640244965784
 20
-133.343109775692
 30
0.0
 10
104.1566053342039
 20
-133.2438910257168
 30
0.0
 10
104.385015164876
 20
-133.2204643764171
 30
0.0
 10
104.5586479773326
 20
-133.2204643764171
 30
0.0
 10
104.7298692229495
 20
-133.2204643764171
 30
0.0
 10
104.9603461109127
 20
-133.2418239684256
 30
0.0
 10
105.1529269485382
 20
-133.343109775692
 30
0.0
  0
SPLINE
  5
84
330
7F
100
AcDbEntity
  8
_U+30EC_U+30A4_U+30E4_U+30FC 1
370
     0
100
AcDbSpline
210
0.0
220
0.0
230
1.0
 70
    11
 71
     3
 72
    17
 73
    13
 74
     0
 42
0.0000000001
 43
0.0000000001
 12
1.0
 22
0.0
 32
0.0
 13
1.0
 23
0.0
 33
0.0
 40
0.0
 40
0.0
 40
0.0
 40
0.0
 40
1.0
 40
1.0
 40
1.0
 40
2.0
 40
2.0
 40
2.0
 40
3.0
 40
3.0
 40
3.0
 40
4.0
 40
4.0
 40
4.0
 40
4.0
 10
103.930262560823
 20
-133.7410183042384
 30
0.0
 10
103.930262560823
 20
-133.990787726919
 30
0.0
 10
104.2137939192591
 20
-134.0372965159698
 30
0.0
 10
104.5586479773326
 20
-134.0372965159698
 30
0.0
 10
104.8780083288152
 20
-134.0372965159698
 30
0.0
 10
105.1866888842936
 20
-134.0011230133747
 30
0.0
 10
105.1866888842936
 20
-133.7410183042384
 30
0.0
 10
105.1866888842936
 20
-133.4933159388489
 30
0.0
 10
104.9055690926972
 20
-133.4447400925069
 30
0.0
 10
104.5586479773326
 20
-133.4447400925069
 30
0.0
 10
104.2389431163014
 20
-133.4447400925069
 30
0.0
 10
103.930262560823
 20
-133.4829806523931
 30
0.0
 10
103.930262560823
 20
-133.7410183042384
 30
0.0
  0
HATCH
  5
85
330
7F
100
AcDbEntity
  8
_U+30EC_U+30A4_U+30E4_U+30FC 1
 62
   179
420
  2234388
100
AcDbHatch
 10
0.0
 20
0.0
 30
0.0
210
0.0
220
0.0
230
1.0
  2
SOLID
 70
     1
 71
     0
 91
        2
 92
        1
 93
        1
 72
     4
 94
        3
 73
     0
 74
     1
 95
       29
 96
       25
 40
0.0
 40
0.0
 40
0.0
 40
0.0
 40
1.0
 40
1.0
 40
1.0
 40
2.0
 40
2.0
 40
2.0
 40
3.0
 40
3.0
 40
3.0
 40
4.0
 40
4.0
 40
4.0
 40
5.0
 40
5.0
 40
5.0
 40
6.0
 40
6.0
 40
6.0
 40
7.0
 40
7.0
 40
7.0
 40
8.0
 40
8.0
 40
8.0
 40
8.0
 10
105.1529269485382
 20
-133.343109775692
 10
105.3623887540413
 20
-133.4512857739288
 10
105.3813367792102
 20
-133.6245740768369
 10
105.3813367792102
 20
-133.7410183042384
 10
105.3813367792102
 20
-133.9019042633995
 10
105.3348279901594
 20
-134.0434976878433
 10
105.1529269485382
 20
-134.1385823232362
 10
104.9582790536216
 20
-134.2422796973422
 10
104.7216009937849
 20
-134.2615722320596
 10
104.5586479773326
 20
-134.2615722320596
 10
104.4146429860491
 20
-134.2615722320596
 10
104.1628065060774
 20
-134.2443467546334
 10
103.9640244965784
 20
-134.1385823232362
 10
103.7611083724972
 20
-134.0307508345479
 10
103.7376817231975
 20
-133.8698648753867
 10
103.7376817231975
 20
-133.7410183042384
 10
103.7376817231975
 20
-133.5821994023683
 10
103.7821234549573
 20
-133.4385389206334
 10
103.9640244965784
 20
-133.343109775692
 10
104.1566053342039
 20
-133.2438910257168
 10
104.385015164876
 20
-133.2204643764171
 10
104.5586479773326
 20
-133.2204643764171
 10
104.7298692229495
 20
-133.2204643764171
 10
104.9603461109127
 20
-133.2418239684256
 10
105.1529269485382
 20
-133.343109775692
 97
        0
 97
        0
 92
        1
 93
        1
 72
     4
 94
        3
 73
     0
 74
     1
 95
       17
 96
       13
 40
0.0
 40
0.0
 40
0.0
 40
0.0
 40
1.0
 40
1.0
 40
1.0
 40
2.0
 40
2.0
 40
2.0
 40
3.0
 40
3.0
 40
3.0
 40
4.0
 40
4.0
 40
4.0
 40
4.0
 10
103.930262560823
 20
-133.7410183042384
 10
103.930262560823
 20
-133.990787726919
 10
104.2137939192591
 20
-134.0372965159698
 10
104.5586479773326
 20
-134.0372965159698
 10
104.8780083288152
 20
-134.0372965159698
 10
105.1866888842936
 20
-134.0011230133747
 10
105.1866888842936
 20
-133.7410183042384
 10
105.1866888842936
 20
-133.4933159388489
 10
104.9055690926972
 20
-133.4447400925069
 10
104.5586479773326
 20
-133.4447400925069
 10
104.2389431163014
 20
-133.4447400925069
 10
103.930262560823
 20
-133.4829806523931
 10
103.930262560823
 20
-133.7410183042384
 97
        0
 97
        0
 75
     2
 76
     1
 98
        0
  0
POLYLINE
  5
86
330
7F
100
AcDbEntity
  8
_U+30EC_U+30A4_U+30E4_U+30FC 1
370
     0
100
AcDb2dPolyline
 66
     1
 10
0.0
 20
0.0
 30
0.0
  0
VERTEX
  5
87
330
86
100
AcDbEntity
  8
_U+30EC_U+30A4_U+30E4_U+30FC 1
370
     0
100
AcDbVertex
100
AcDb2dVertex
 10
105.3306938755771
 20
-133.0041123799434
 30
0.0
  0
VERTEX
  5
88
330
86
100
AcDbEntity
  8
_U+30EC_U+30A4_U+30E4_U+30FC 1
370
     0
100
AcDbVertex
100
AcDb2dVertex
 10
105.0788573956053
 20
-133.0041123799434
 30
0.0
  0
VERTEX
  5
89
330
86
100
AcDbEntity
  8
_U+30EC_U+30A4_U+30E4_U+30FC 1
370
     0
100
AcDbVertex
100
AcDb2dVertex
 10
105.0788573956053
 20
-132.7522758999717
 30
0.0
  0
VERTEX
  5
8A
330
86
100
AcDbEntity
  8
_U+30EC_U+30A4_U+30E4_U+30FC 1
370
     0
100
AcDbVertex
100
AcDb2dVertex
 10
105.3306938755771
 20
-132.7522758999717
 30
0.0
  0
VERTEX
  5
8B
330
86
100
AcDbEntity
  8
_U+30EC_U+30A4_U+30E4_U+30FC 1
370
     0
100
AcDbVertex
100
AcDb2dVertex
 10
105.3306938755771
 20
-133.0041123799434
 30
0.0
  0
SEQEND
  5
8C
330
86
100
AcDbEntity
  8
_U+30EC_U+30A4_U+30E4_U+30FC 1
370
     0
  0
HATCH
  5
8D
330
7F
100
AcDbEntity
  8
_U+30EC_U+30A4_U+30E4_U+30FC 1
 62
   179
420
  2234388
100
AcDbHatch
 10
0.0
 20
0.0
 30
0.0
210
0.0
220
0.0
230
1.0
  2
SOLID
 70
     1
 71
     0
 91
        1
 92
        1
 93
        4
 72
     1
 10
105.3306938755771
 20
-133.0041123799434
 11
105.0788573956053
 21
-133.0041123799434
 72
     1
 10
105.0788573956053
 20
-133.0041123799434
 11
105.0788573956053
 21
-132.7522758999717
 72
     1
 10
105.0788573956053
 20
-132.7522758999717
 11
105.3306938755771
 21
-132.7522758999717
 72
     1
 10
105.3306938755771
 20
-132.7522758999717
 11
105.3306938755771
 21
-133.0041123799434
 97
        0
 75
     2
 76
     1
 98
        0
  0
SPLINE
  5
8E
330
7F
100
AcDbEntity
  8
_U+30EC_U+30A4_U+30E4_U+30FC 1
370
     0
100
AcDbSpline
210
0.0
220
0.0
230
1.0
 70
    11
 71
     3
 72
    29
 73
    25
 74
     0
 42
0.0000000001
 43
0.0000000001
 12
1.0
 22
0.0
 32
0.0
 13
1.0
 23
0.0
 33
0.0
 40
0.0
 40
0.0
 40
0.0
 40
0.0
 40
1.0
 40
1.0
 40
1.0
 40
2.0
 40
2.0
 40
2.0
 40
3.0
 40
3.0
 40
3.0
 40
4.0
 40
4.0
 40
4.0
 40
5.0
 40
5.0
 40
5.0
 40
6.0
 40
6.0
 40
6.0
 40
7.0
 40
7.0
 40
7.0
 40
8.0
 40
8.0
 40
8.0
 40
8.0
 10
105.3813367792102
 20
-132.0160589947738
 30
0.0
 10
105.3813367792102
 20
-132.2827093853321
 30
0.0
 10
105.2438774693488
 20
-132.5362684130465
 30
0.0
 10
104.894889296693
 20
-132.5362684130465
 30
0.0
 10
104.6389187021389
 20
-132.5362684130465
 30
0.0
 10
104.543834066746
 20
-132.3946749886027
 30
0.0
 10
104.4825113671085
 20
-132.2889105572056
 30
0.0
 10
104.4232557247622
 20
-132.4136230137716
 30
0.0
 10
104.308878554652
 20
-132.4897596239956
 30
0.0
 10
104.1479925954908
 20
-132.4897596239956
 30
0.0
 10
103.8730739757679
 20
-132.4897596239956
 30
0.0
 10
103.7376817231975
 20
-132.2909776144967
 30
0.0
 10
103.7376817231975
 20
-132.0160589947738
 30
0.0
 10
103.7376817231975
 20
-131.7325276363377
 30
0.0
 10
103.881686714481
 20
-131.5420138560034
 30
0.0
 10
104.1479925954908
 20
-131.5420138560034
 30
0.0
 10
104.308878554652
 20
-131.5420138560034
 30
0.0
 10
104.4232557247622
 20
-131.6205620330671
 30
0.0
 10
104.4825113671085
 20
-131.7452744896331
 30
0.0
 10
104.5331542707417
 20
-131.6563910261137
 30
0.0
 10
104.6282389061346
 20
-131.4975721242437
 30
0.0
 10
104.8907551821107
 20
-131.4975721242437
 30
0.0
 10
105.2652370613573
 20
-131.4975721242437
 30
0.0
 10
105.3813367792102
 20
-131.7769693680974
 30
0.0
 10
105.3813367792102
 20
-132.0160589947738
 30
0.0
  0
SPLINE
  5
8F
330
7F
100
AcDbEntity
  8
_U+30EC_U+30A4_U+30E4_U+30FC 1
370
     0
100
AcDbSpline
210
0.0
220
0.0
230
1.0
 70
    11
 71
     3
 72
    17
 73
    13
 74
     0
 42
0.0000000001
 43
0.0000000001
 12
1.0
 22
0.0
 32
0.0
 13
1.0
 23
0.0
 33
0.0
 40
0.0
 40
0.0
 40
0.0
 40
0.0
 40
1.0
 40
1.0
 40
1.0
 40
2.0
 40
2.0
 40
2.0
 40
3.0
 40
3.0
 40
3.0
 40
4.0
 40
4.0
 40
4.0
 40
4.0
 10
103.930262560823
 20
-132.0160589947738
 30
0.0
 10
103.930262560823
 20
-132.1810790685172
 30
0.0
 10
104.0253471962159
 20
-132.2654839079059
 30
0.0
 10
104.1607394487862
 20
-132.2654839079059
 30
0.0
 10
104.2833848480611
 20
-132.2654839079059
 30
0.0
 10
104.4018961327537
 20
-132.1938259218127
 30
0.0
 10
104.4018961327537
 20
-132.0160589947738
 30
0.0
 10
104.4018961327537
 20
-131.8382920677349
 30
0.0
 10
104.2833848480611
 20
-131.7662895720931
 30
0.0
 10
104.1607394487862
 20
-131.7662895720931
 30
0.0
 10
104.0253471962159
 20
-131.7662895720931
 30
0.0
 10
103.930262560823
 20
-131.8531059783215
 30
0.0
 10
103.930262560823
 20
-132.0160589947738
 30
0.0
  0
SPLINE
  5
90
330
7F
100
AcDbEntity
  8
_U+30EC_U+30A4_U+30E4_U+30FC 1
370
     0
100
AcDbSpline
210
0.0
220
0.0
230
1.0
 70
    11
 71
     3
 72
    17
 73
    13
 74
     0
 42
0.0000000001
 43
0.0000000001
 12
1.0
 22
0.0
 32
0.0
 13
1.0
 23
0.0
 33
0.0
 40
0.0
 40
0.0
 40
0.0
 40
0.0
 40
1.0
 40
1.0
 40
1.0
 40
2.0
 40
2.0
 40
2.0
 40
3.0
 40
3.0
 40
3.0
 40
4.0
 40
4.0
 40
4.0
 40
4.0
 10
104.5903428557969
 20
-132.0160589947738
 30
0.0
 10
104.5903428557969
 20
-132.1597194765087
 30
0.0
 10
104.6771592620252
 20
-132.3123372065052
 30
0.0
 10
104.8800753861064
 20
-132.3123372065052
 30
0.0
 10
105.0854030770273
 20
-132.3123372065052
 30
0.0
 10
105.1866888842936
 20
-132.1852131830995
 30
0.0
 10
105.1866888842936
 20
-132.0160589947738
 30
0.0
 10
105.1866888842936
 20
-131.8300238385703
 30
0.0
 10
105.0640434850187
 20
-131.7197807830423
 30
0.0
 10
104.8862765579798
 20
-131.7197807830423
 30
0.0
 10
104.6644124087297
 20
-131.7197807830423
 30
0.0
 10
104.5903428557969
 20
-131.8827337994946
 30
0.0
 10
104.5903428557969
 20
-132.0160589947738
 30
0.0
  0
HATCH
  5
91
330
7F
100
AcDbEntity
  8
_U+30EC_U+30A4_U+30E4_U+30FC 1
 62
   179
420
  2234388
100
AcDbHatch
 10
0.0
 20
0.0
 30
0.0
210
0.0
220
0.0
230
1.0
  2
SOLID
 70
     1
 71
     0
 91
        3
 92
        1
 93
        1
 72
     4
 94
        3
 73
     0
 74
     1
 95
       29
 96
       25
 40
0.0
 40
0.0
 40
0.0
 40
0.0
 40
1.0
 40
1.0
 40
1.0
 40
2.0
 40
2.0
 40
2.0
 40
3.0
 40
3.0
 40
3.0
 40
4.0
 40
4.0
 40
4.0
 40
5.0
 40
5.0
 40
5.0
 40
6.0
 40
6.0
 40
6.0
 40
7.0
 40
7.0
 40
7.0
 40
8.0
 40
8.0
 40
8.0
 40
8.0
 10
105.3813367792102
 20
-132.0160589947738
 10
105.3813367792102
 20
-132.2827093853321
 10
105.2438774693488
 20
-132.5362684130465
 10
104.894889296693
 20
-132.5362684130465
 10
104.6389187021389
 20
-132.5362684130465
 10
104.543834066746
 20
-132.3946749886027
 10
104.4825113671085
 20
-132.2889105572056
 10
104.4232557247622
 20
-132.4136230137716
 10
104.308878554652
 20
-132.4897596239956
 10
104.1479925954908
 20
-132.4897596239956
 10
103.8730739757679
 20
-132.4897596239956
 10
103.7376817231975
 20
-132.2909776144967
 10
103.7376817231975
 20
-132.0160589947738
 10
103.7376817231975
 20
-131.7325276363377
 10
103.881686714481
 20
-131.5420138560034
 10
104.1479925954908
 20
-131.5420138560034
 10
104.308878554652
 20
-131.5420138560034
 10
104.4232557247622
 20
-131.6205620330671
 10
104.4825113671085
 20
-131.7452744896331
 10
104.5331542707417
 20
-131.6563910261137
 10
104.6282389061346
 20
-131.4975721242437
 10
104.8907551821107
 20
-131.4975721242437
 10
105.2652370613573
 20
-131.4975721242437
 10
105.3813367792102
 20
-131.7769693680974
 10
105.3813367792102
 20
-132.0160589947738
 97
        0
 97
        0
 92
        1
 93
        1
 72
     4
 94
        3
 73
     0
 74
     1
 95
       17
 96
       13
 40
0.0
 40
0.0
 40
0.0
 40
0.0
 40
1.0
 40
1.0
 40
1.0
 40
2.0
 40
2.0
 40
2.0
 40
3.0
 40
3.0
 40
3.0
 40
4.0
 40
4.0
 40
4.0
 40
4.0
 10
103.930262560823
 20
-132.0160589947738
 10
103.930262560823
 20
-132.1810790685172
 10
104.0253471962159
 20
-132.2654839079059
 10
104.1607394487862
 20
-132.2654839079059
 10
104.2833848480611
 20
-132.2654839079059
 10
104.4018961327537
 20
-132.1938259218127
 10
104.4018961327537
 20
-132.0160589947738
 10
104.4018961327537
 20
-131.8382920677349
 10
104.2833848480611
 20
-131.7662895720931
 10
104.1607394487862
 20
-131.7662895720931
 10
104.0253471962159
 20
-131.7662895720931
 10
103.930262560823
 20
-131.8531059783215
 10
103.930262560823
 20
-132.0160589947738
 97
        0
 97
        0
 92
        1
 93
        1
 72
     4
 94
        3
 73
     0
 74
     1
 95
       17
 96
       13
 40
0.0
 40
0.0
 40
0.0
 40
0.0
 40
1.0
 40
1.0
 40
1.0
 40
2.0
 40
2.0
 40
2.0
 40
3.0
 40
3.0
 40
3.0
 40
4.0
 40
4.0
 40
4.0
 40
4.0
 10
104.5903428557969
 20
-132.0160589947738
 10
104.5903428557969
 20
-132.1597194765087
 10
104.6771592620252
 20
-132.3123372065052
 10
104.8800753861064
 20
-132.3123372065052
 10
105.0854030770273
 20
-132.3123372065052
 10
105.1866888842936
 20
-132.1852131830995
 10
105.1866888842936
 20
-132.0160589947738
 10
105.1866888842936
 20
-131.8300238385703
 10
105.0640434850187
 20
-131.7197807830423
 10
104.8862765579798
 20
-131.7197807830423
 10
104.6644124087297
 20
-131.7197807830423
 10
104.5903428557969
 20
-131.8827337994946
 10
104.5903428557969
 20
-132.0160589947738
 97
        0
 97
        0
 75
     2
 76
     1
 98
        0
  0
ENDBLK
  5
82
330
7F
100
AcDbEntity
  8
0
100
AcDbBlockEnd
  0
BLOCK
  5
A0
330
9E
100
AcDbEntity
  8
0
100
AcDbBlockBegin
  2
block 3
 70
     0
 10
0.0
 20
0.0
 30
0.0
  3
block 3
  1

  0
SPLINE
  5
A2
330
9E
100
AcDbEntity
  8
_U+30EC_U+30A4_U+30E4_U+30FC 1
370
     0
100
AcDbSpline
210
0.0
220
0.0
230
1.0
 70
    11
 71
     3
 72
    26
 73
    22
 74
     0
 42
0.0000000001
 43
0.0000000001
 12
1.0
 22
0.0
 32
0.0
 13
1.0
 23
0.0
 33
0.0
 40
0.0
 40
0.0
 40
0.0
 40
0.0
 40
1.0
 40
1.0
 40
1.0
 40
2.0
 40
2.0
 40
2.0
 40
3.0
 40
3.0
 40
3.0
 40
4.0
 40
4.0
 40
4.0
 40
5.0
 40
5.0
 40
5.0
 40
6.0
 40
6.0
 40
6.0
 40
7.0
 40
7.0
 40
7.0
 40
7.0
 10
78.26051159067794
 20
-126.5114854284416
 30
0.0
 10
78.26051159067794
 20
-126.5114854284416
 30
0.0
 10
77.15635848765535
 20
-126.5114854284416
 30
0.0
 10
77.15635848765535
 20
-126.5114854284416
 30
0.0
 10
77.15635848765535
 20
-126.5114854284416
 30
0.0
 10
77.15635848765535
 20
-126.8415255759285
 30
0.0
 10
77.15635848765535
 20
-126.8415255759285
 30
0.0
 10
77.15635848765535
 20
-126.8415255759285
 30
0.0
 10
77.00821938178962
 20
-126.8415255759285
 30
0.0
 10
77.00821938178962
 20
-126.8415255759285
 30
0.0
 10
76.99340547120305
 20
-126.5094183711504
 30
0.0
 10
76.83045245475073
 20
-126.4629095820996
 30
0.0
 10
76.71607528464043
 20
-126.4332817609264
 30
0.0
 10
76.71607528464043
 20
-126.4332817609264
 30
0.0
 10
76.71607528464043
 20
-126.2872097123518
 30
0.0
 10
76.71607528464043
 20
-126.2872097123518
 30
0.0
 10
76.71607528464043
 20
-126.2872097123518
 30
0.0
 10
78.26051159067794
 20
-126.2872097123518
 30
0.0
 10
78.26051159067794
 20
-126.2872097123518
 30
0.0
 10
78.26051159067794
 20
-126.2872097123518
 30
0.0
 10
78.26051159067794
 20
-126.5114854284416
 30
0.0
 10
78.26051159067794
 20
-126.5114854284416
 30
0.0
  0
HATCH
  5
A3
330
9E
100
AcDbEntity
  8
_U+30EC_U+30A4_U+30E4_U+30FC 1
 62
   179
420
  2234388
100
AcDbHatch
 10
0.0
 20
0.0
 30
0.0
210
0.0
220
0.0
230
1.0
  2
SOLID
 70
     1
 71
     0
 91
        1
 92
        1
 93
        1
 72
     4
 94
        3
 73
     0
 74
     1
 95
       26
 96
       22
 40
0.0
 40
0.0
 40
0.0
 40
0.0
 40
1.0
 40
1.0
 40
1.0
 40
2.0
 40
2.0
 40
2.0
 40
3.0
 40
3.0
 40
3.0
 40
4.0
 40
4.0
 40
4.0
 40
5.0
 40
5.0
 40
5.0
 40
6.0
 40
6.0
 40
6.0
 40
7.0
 40
7.0
 40
7.0
 40
7.0
 10
78.26051159067794
 20
-126.5114854284416
 10
78.26051159067794
 20
-126.5114854284416
 10
77.15635848765535
 20
-126.5114854284416
 10
77.15635848765535
 20
-126.5114854284416
 10
77.15635848765535
 20
-126.5114854284416
 10
77.15635848765535
 20
-126.8415255759285
 10
77.15635848765535
 20
-126.8415255759285
 10
77.15635848765535
 20
-126.8415255759285
 10
77.00821938178962
 20
-126.8415255759285
 10
77.00821938178962
 20
-126.8415255759285
 10
76.99340547120305
 20
-126.5094183711504
 10
76.83045245475073
 20
-126.4629095820996
 10
76.71607528464043
 20
-126.4332817609264
 10
76.71607528464043
 20
-126.4332817609264
 10
76.71607528464043
 20
-126.2872097123518
 10
76.71607528464043
 20
-126.2872097123518
 10
76.71607528464043
 20
-126.2872097123518
 10
78.26051159067794
 20
-126.2872097123518
 10
78.26051159067794
 20
-126.2872097123518
 10
78.26051159067794
 20
-126.2872097123518
 10
78.26051159067794
 20
-126.5114854284416
 10
78.26051159067794
 20
-126.5114854284416
 97
        0
 97
        0
 75
     2
 76
     1
 98
        0
  0
SPLINE
  5
A4
330
9E
100
AcDbEntity
  8
_U+30EC_U+30A4_U+30E4_U+30FC 1
370
     0
100
AcDbSpline
210
0.0
220
0.0
230
1.0
 70
    11
 71
     3
 72
    53
 73
    49
 74
     0
 42
0.0000000001
 43
0.0000000001
 12
1.0
 22
0.0
 32
0.0
 13
1.0
 23
0.0
 33
0.0
 40
0.0
 40
0.0
 40
0.0
 40
0.0
 40
1.0
 40
1.0
 40
1.0
 40
2.0
 40
2.0
 40
2.0
 40
3.0
 40
3.0
 40
3.0
 40
4.0
 40
4.0
 40
4.0
 40
5.0
 40
5.0
 40
5.0
 40
6.0
 40
6.0
 40
6.0
 40
7.0
 40
7.0
 40
7.0
 40
8.0
 40
8.0
 40
8.0
 40
9.0
 40
9.0
 40
9.0
 40
10.0
 40
10.0
 40
10.0
 40
11.0
 40
11.0
 40
11.0
 40
12.0
 40
12.0
 40
12.0
 40
13.0
 40
13.0
 40
13.0
 40
14.0
 40
14.0
 40
14.0
 40
15.0
 40
15.0
 40
15.0
 40
16.0
 40
16.0
 40
16.0
 40
16.0
 10
78.3111544943111
 20
-125.3050129895071
 30
0.0
 10
78.3111544943111
 20
-125.3832166570223
 30
0.0
 10
78.29427352643339
 20
-125.4848469738371
 30
0.0
 10
78.23088376950479
 20
-125.586477290652
 30
0.0
 10
78.12098522352531
 20
-125.7597655935601
 30
0.0
 10
77.9897270855373
 20
-125.7811251855686
 30
0.0
 10
77.88189559684898
 20
-125.8000732107375
 30
0.0
 10
77.88189559684898
 20
-125.8000732107375
 30
0.0
 10
77.88189559684898
 20
-125.5778645519389
 30
0.0
 10
77.88189559684898
 20
-125.5778645519389
 30
0.0
 10
78.08067760634789
 20
-125.5230875337234
 30
0.0
 10
78.11030542752104
 20
-125.3959635103177
 30
0.0
 10
78.11030542752104
 20
-125.3029459322159
 30
0.0
 10
78.11030542752104
 20
-125.1634195650633
 30
0.0
 10
78.01074216799732
 20
-125.0111463446153
 30
0.0
 10
77.77819822274296
 20
-125.0111463446153
 30
0.0
 10
77.52222762818889
 20
-125.0111463446153
 30
0.0
 10
77.45229218983832
 20
-125.1909803289453
 30
0.0
 10
77.45229218983832
 20
-125.3115586709291
 30
0.0
 10
77.45229218983832
 20
-125.3432535493934
 30
0.0
 10
77.45229218983832
 20
-125.4848469738371
 30
0.0
 10
77.58148327053519
 20
-125.5737304373566
 30
0.0
 10
77.58148327053519
 20
-125.5737304373566
 30
0.0
 10
77.56253524536632
 20
-125.7494303071043
 30
0.0
 10
77.56253524536632
 20
-125.7494303071043
 30
0.0
 10
77.56253524536632
 20
-125.7494303071043
 30
0.0
 10
76.71607528464043
 20
-125.6288519651206
 30
0.0
 10
76.71607528464043
 20
-125.6288519651206
 30
0.0
 10
76.71607528464043
 20
-125.6288519651206
 30
0.0
 10
76.71607528464043
 20
-124.8502603854541
 30
0.0
 10
76.71607528464043
 20
-124.8502603854541
 30
0.0
 10
76.71607528464043
 20
-124.8502603854541
 30
0.0
 10
76.91072317955704
 20
-124.8502603854541
 30
0.0
 10
76.91072317955704
 20
-124.8502603854541
 30
0.0
 10
76.91072317955704
 20
-124.8502603854541
 30
0.0
 10
76.91072317955704
 20
-125.4658989486683
 30
0.0
 10
76.91072317955704
 20
-125.4658989486683
 30
0.0
 10
76.91072317955704
 20
-125.4658989486683
 30
0.0
 10
77.33378090514573
 20
-125.531355762888
 30
0.0
 10
77.33378090514573
 20
-125.531355762888
 30
0.0
 10
77.30001896939028
 20
-125.4700330632506
 30
0.0
 10
77.25971135221285
 20
-125.3876952811531
 30
0.0
 10
77.25971135221285
 20
-125.2691839964605
 30
0.0
 10
77.25971135221285
 20
-125.0152804591976
 30
0.0
 10
77.44609101796487
 20
-124.7782578898124
 30
0.0
 10
77.75925019757408
 20
-124.7782578898124
 30
0.0
 10
78.07654349176559
 20
-124.7782578898124
 30
0.0
 10
78.3111544943111
 20
-125.0025336059021
 30
0.0
 10
78.3111544943111
 20
-125.3050129895071
 30
0.0
  0
HATCH
  5
A5
330
9E
100
AcDbEntity
  8
_U+30EC_U+30A4_U+30E4_U+30FC 1
 62
   179
420
  2234388
100
AcDbHatch
 10
0.0
 20
0.0
 30
0.0
210
0.0
220
0.0
230
1.0
  2
SOLID
 70
     1
 71
     0
 91
        1
 92
        1
 93
        1
 72
     4
 94
        3
 73
     0
 74
     1
 95
       53
 96
       49
 40
0.0
 40
0.0
 40
0.0
 40
0.0
 40
1.0
 40
1.0
 40
1.0
 40
2.0
 40
2.0
 40
2.0
 40
3.0
 40
3.0
 40
3.0
 40
4.0
 40
4.0
 40
4.0
 40
5.0
 40
5.0
 40
5.0
 40
6.0
 40
6.0
 40
6.0
 40
7.0
 40
7.0
 40
7.0
 40
8.0
 40
8.0
 40
8.0
 40
9.0
 40
9.0
 40
9.0
 40
10.0
 40
10.0
 40
10.0
 40
11.0
 40
11.0
 40
11.0
 40
12.0
 40
12.0
 40
12.0
 40
13.0
 40
13.0
 40
13.0
 40
14.0
 40
14.0
 40
14.0
 40
15.0
 40
15.0
 40
15.0
 40
16.0
 40
16.0
 40
16.0
 40
16.0
 10
78.3111544943111
 20
-125.3050129895071
 10
78.3111544943111
 20
-125.3832166570223
 10
78.29427352643339
 20
-125.4848469738371
 10
78.23088376950479
 20
-125.586477290652
 10
78.12098522352531
 20
-125.7597655935601
 10
77.9897270855373
 20
-125.7811251855686
 10
77.88189559684898
 20
-125.8000732107375
 10
77.88189559684898
 20
-125.8000732107375
 10
77.88189559684898
 20
-125.5778645519389
 10
77.88189559684898
 20
-125.5778645519389
 10
78.08067760634789
 20
-125.5230875337234
 10
78.11030542752104
 20
-125.3959635103177
 10
78.11030542752104
 20
-125.3029459322159
 10
78.11030542752104
 20
-125.1634195650633
 10
78.01074216799732
 20
-125.0111463446153
 10
77.77819822274296
 20
-125.0111463446153
 10
77.52222762818889
 20
-125.0111463446153
 10
77.45229218983832
 20
-125.1909803289453
 10
77.45229218983832
 20
-125.3115586709291
 10
77.45229218983832
 20
-125.3432535493934
 10
77.45229218983832
 20
-125.4848469738371
 10
77.58148327053519
 20
-125.5737304373566
 10
77.58148327053519
 20
-125.5737304373566
 10
77.56253524536632
 20
-125.7494303071043
 10
77.56253524536632
 20
-125.7494303071043
 10
77.56253524536632
 20
-125.7494303071043
 10
76.71607528464043
 20
-125.6288519651206
 10
76.71607528464043
 20
-125.6288519651206
 10
76.71607528464043
 20
-125.6288519651206
 10
76.71607528464043
 20
-124.8502603854541
 10
76.71607528464043
 20
-124.8502603854541
 10
76.71607528464043
 20
-124.8502603854541
 10
76.91072317955704
 20
-124.8502603854541
 10
76.91072317955704
 20
-124.8502603854541
 10
76.91072317955704
 20
-124.8502603854541
 10
76.91072317955704
 20
-125.4658989486683
 10
76.91072317955704
 20
-125.4658989486683
 10
76.91072317955704
 20
-125.4658989486683
 10
77.33378090514573
 20
-125.531355762888
 10
77.33378090514573
 20
-125.531355762888
 10
77.30001896939028
 20
-125.4700330632506
 10
77.25971135221285
 20
-125.3876952811531
 10
77.25971135221285
 20
-125.2691839964605
 10
77.25971135221285
 20
-125.0152804591976
 10
77.44609101796487
 20
-124.7782578898124
 10
77.75925019757408
 20
-124.7782578898124
 10
78.07654349176559
 20
-124.7782578898124
 10
78.3111544943111
 20
-125.0025336059021
 10
78.3111544943111
 20
-125.3050129895071
 97
        0
 97
        0
 75
     2
 76
     1
 98
        0
  0
ENDBLK
  5
A1
330
9E
100
AcDbEntity
  8
0
100
AcDbBlockEnd
  0
BLOCK
  5
B4
330
B2
100
AcDbEntity
  8
0
100
AcDbBlockBegin
  2
block 4
 70
     0
 10
0.0
 20
0.0
 30
0.0
  3
block 4
  1

  0
SPLINE
  5
B6
330
B2
100
AcDbEntity
  8
_U+30EC_U+30A4_U+30E4_U+30FC 1
370
     0
100
AcDbSpline
210
0.0
220
0.0
230
1.0
 70
    11
 71
     3
 72
    26
 73
    22
 74
     0
 42
0.0000000001
 43
0.0000000001
 12
1.0
 22
0.0
 32
0.0
 13
1.0
 23
0.0
 33
0.0
 40
0.0
 40
0.0
 40
0.0
 40
0.0
 40
1.0
 40
1.0
 40
1.0
 40
2.0
 40
2.0
 40
2.0
 40
3.0
 40
3.0
 40
3.0
 40
4.0
 40
4.0
 40
4.0
 40
5.0
 40
5.0
 40
5.0
 40
6.0
 40
6.0
 40
6.0
 40
7.0
 40
7.0
 40
7.0
 40
7.0
 10
89.64379609304045
 20
-136.6879529823211
 30
0.0
 10
89.64379609304045
 20
-136.6879529823211
 30
0.0
 10
89.64379609304045
 20
-135.5837998792985
 30
0.0
 10
89.64379609304045
 20
-135.5837998792985
 30
0.0
 10
89.64379609304045
 20
-135.5837998792985
 30
0.0
 10
89.31375594555351
 20
-135.5837998792985
 30
0.0
 10
89.31375594555351
 20
-135.5837998792985
 30
0.0
 10
89.31375594555351
 20
-135.5837998792985
 30
0.0
 10
89.31375594555351
 20
-135.4356607734327
 30
0.0
 10
89.31375594555351
 20
-135.4356607734327
 30
0.0
 10
89.64586315033159
 20
-135.4208468628462
 30
0.0
 10
89.69237193938247
 20
-135.2578938463939
 30
0.0
 10
89.72199976055562
 20
-135.1435166762836
 30
0.0
 10
89.72199976055562
 20
-135.1435166762836
 30
0.0
 10
89.86807180913021
 20
-135.1435166762836
 30
0.0
 10
89.86807180913021
 20
-135.1435166762836
 30
0.0
 10
89.86807180913021
 20
-135.1435166762836
 30
0.0
 10
89.86807180913021
 20
-136.6879529823211
 30
0.0
 10
89.86807180913021
 20
-136.6879529823211
 30
0.0
 10
89.86807180913021
 20
-136.6879529823211
 30
0.0
 10
89.64379609304045
 20
-136.6879529823211
 30
0.0
 10
89.64379609304045
 20
-136.6879529823211
 30
0.0
  0
HATCH
  5
B7
330
B2
100
AcDbEntity
  8
_U+30EC_U+30A4_U+30E4_U+30FC 1
 62
   179
420
  2234388
100
AcDbHatch
 10
0.0
 20
0.0
 30
0.0
210
0.0
220
0.0
230
1.0
  2
SOLID
 70
     1
 71
     0
 91
        1
 92
        1
 93
        1
 72
     4
 94
        3
 73
     0
 74
     1
 95
       26
 96
       22
 40
0.0
 40
0.0
 40
0.0
 40
0.0
 40
1.0
 40
1.0
 40
1.0
 40
2.0
 40
2.0
 40
2.0
 40
3.0
 40
3.0
 40
3.0
 40
4.0
 40
4.0
 40
4.0
 40
5.0
 40
5.0
 40
5.0
 40
6.0
 40
6.0
 40
6.0
 40
7.0
 40
7.0
 40
7.0
 40
7.0
 10
89.64379609304045
 20
-136.6879529823211
 10
89.64379609304045
 20
-136.6879529823211
 10
89.64379609304045
 20
-135.5837998792985
 10
89.64379609304045
 20
-135.5837998792985
 10
89.64379609304045
 20
-135.5837998792985
 10
89.31375594555351
 20
-135.5837998792985
 10
89.31375594555351
 20
-135.5837998792985
 10
89.31375594555351
 20
-135.5837998792985
 10
89.31375594555351
 20
-135.4356607734327
 10
89.31375594555351
 20
-135.4356607734327
 10
89.64586315033159
 20
-135.4208468628462
 10
89.69237193938247
 20
-135.2578938463939
 10
89.72199976055562
 20
-135.1435166762836
 10
89.72199976055562
 20
-135.1435166762836
 10
89.86807180913021
 20
-135.1435166762836
 10
89.86807180913021
 20
-135.1435166762836
 10
89.86807180913021
 20
-135.1435166762836
 10
89.86807180913021
 20
-136.6879529823211
 10
89.86807180913021
 20
-136.6879529823211
 10
89.86807180913021
 20
-136.6879529823211
 10
89.64379609304045
 20
-136.6879529823211
 10
89.64379609304045
 20
-136.6879529823211
 97
        0
 97
        0
 75
     2
 76
     1
 98
        0
  0
SPLINE
  5
B8
330
B2
100
AcDbEntity
  8
_U+30EC_U+30A4_U+30E4_U+30FC 1
370
     0
100
AcDbSpline
210
0.0
220
0.0
230
1.0
 70
    11
 71
     3
 72
    53
 73
    49
 74
     0
 42
0.0000000001
 43
0.0000000001
 12
1.0
 22
0.0
 32
0.0
 13
1.0
 23
0.0
 33
0.0
 40
0.0
 40
0.0
 40
0.0
 40
0.0
 40
1.0
 40
1.0
 40
1.0
 40
2.0
 40
2.0
 40
2.0
 40
3.0
 40
3.0
 40
3.0
 40
4.0
 40
4.0
 40
4.0
 40
5.0
 40
5.0
 40
5.0
 40
6.0
 40
6.0
 40
6.0
 40
7.0
 40
7.0
 40
7.0
 40
8.0
 40
8.0
 40
8.0
 40
9.0
 40
9.0
 40
9.0
 40
10.0
 40
10.0
 40
10.0
 40
11.0
 40
11.0
 40
11.0
 40
12.0
 40
12.0
 40
12.0
 40
13.0
 40
13.0
 40
13.0
 40
14.0
 40
14.0
 40
14.0
 40
15.0
 40
15.0
 40
15.0
 40
16.0
 40
16.0
 40
16.0
 40
16.0
 10
90.85026853197493
 20
-136.7385958859543
 30
0.0
 10
90.77206486445976
 20
-136.7385958859543
 30
0.0
 10
90.6704345476449
 20
-136.7217149180765
 30
0.0
 10
90.56880423083003
 20
-136.6583251611479
 30
0.0
 10
90.39551592792196
 20
-136.5484266151685
 30
0.0
 10
90.37415633591341
 20
-136.4171684771804
 30
0.0
 10
90.35520831074453
 20
-136.3093369884921
 30
0.0
 10
90.35520831074453
 20
-136.3093369884921
 30
0.0
 10
90.57741696954315
 20
-136.3093369884921
 30
0.0
 10
90.57741696954315
 20
-136.3093369884921
 30
0.0
 10
90.63219398775863
 20
-136.508118997991
 30
0.0
 10
90.75931801116434
 20
-136.5377468191642
 30
0.0
 10
90.85233558926609
 20
-136.5377468191642
 30
0.0
 10
90.9918619564187
 20
-136.5377468191642
 30
0.0
 10
91.14413517686675
 20
-136.4381835596405
 30
0.0
 10
91.14413517686675
 20
-136.2056396143861
 30
0.0
 10
91.14413517686675
 20
-135.949669019832
 30
0.0
 10
90.96430119253671
 20
-135.8797335814815
 30
0.0
 10
90.84372285055296
 20
-135.8797335814815
 30
0.0
 10
90.81202797208866
 20
-135.8797335814815
 30
0.0
 10
90.6704345476449
 20
-135.8797335814815
 30
0.0
 10
90.58155108412545
 20
-136.0089246621783
 30
0.0
 10
90.58155108412545
 20
-136.0089246621783
 30
0.0
 10
90.4058512143777
 20
-135.9899766370094
 30
0.0
 10
90.4058512143777
 20
-135.9899766370094
 30
0.0
 10
90.4058512143777
 20
-135.9899766370094
 30
0.0
 10
90.52642955636145
 20
-135.1435166762836
 30
0.0
 10
90.52642955636145
 20
-135.1435166762836
 30
0.0
 10
90.52642955636145
 20
-135.1435166762836
 30
0.0
 10
91.30502113602792
 20
-135.1435166762836
 30
0.0
 10
91.30502113602792
 20
-135.1435166762836
 30
0.0
 10
91.30502113602792
 20
-135.1435166762836
 30
0.0
 10
91.30502113602792
 20
-135.3381645712002
 30
0.0
 10
91.30502113602792
 20
-135.3381645712002
 30
0.0
 10
91.30502113602792
 20
-135.3381645712002
 30
0.0
 10
90.68938257281377
 20
-135.3381645712002
 30
0.0
 10
90.68938257281377
 20
-135.3381645712002
 30
0.0
 10
90.68938257281377
 20
-135.3381645712002
 30
0.0
 10
90.62392575859403
 20
-135.7612222967889
 30
0.0
 10
90.62392575859403
 20
-135.7612222967889
 30
0.0
 10
90.68524845823147
 20
-135.7274603610334
 30
0.0
 10
90.76758624032894
 20
-135.687152743856
 30
0.0
 10
90.88609752502154
 20
-135.687152743856
 30
0.0
 10
91.14000106228445
 20
-135.687152743856
 30
0.0
 10
91.37702363166964
 20
-135.873532409608
 30
0.0
 10
91.37702363166964
 20
-136.1866915892172
 30
0.0
 10
91.37702363166964
 20
-136.5039848834087
 30
0.0
 10
91.15274791557987
 20
-136.7385958859543
 30
0.0
 10
90.85026853197493
 20
-136.7385958859543
 30
0.0
  0
HATCH
  5
B9
330
B2
100
AcDbEntity
  8
_U+30EC_U+30A4_U+30E4_U+30FC 1
 62
   179
420
  2234388
100
AcDbHatch
 10
0.0
 20
0.0
 30
0.0
210
0.0
220
0.0
230
1.0
  2
SOLID
 70
     1
 71
     0
 91
        1
 92
        1
 93
        1
 72
     4
 94
        3
 73
     0
 74
     1
 95
       53
 96
       49
 40
0.0
 40
0.0
 40
0.0
 40
0.0
 40
1.0
 40
1.0
 40
1.0
 40
2.0
 40
2.0
 40
2.0
 40
3.0
 40
3.0
 40
3.0
 40
4.0
 40
4.0
 40
4.0
 40
5.0
 40
5.0
 40
5.0
 40
6.0
 40
6.0
 40
6.0
 40
7.0
 40
7.0
 40
7.0
 40
8.0
 40
8.0
 40
8.0
 40
9.0
 40
9.0
 40
9.0
 40
10.0
 40
10.0
 40
10.0
 40
11.0
 40
11.0
 40
11.0
 40
12.0
 40
12.0
 40
12.0
 40
13.0
 40
13.0
 40
13.0
 40
14.0
 40
14.0
 40
14.0
 40
15.0
 40
15.0
 40
15.0
 40
16.0
 40
16.0
 40
16.0
 40
16.0
 10
90.85026853197493
 20
-136.7385958859543
 10
90.77206486445976
 20
-136.7385958859543
 10
90.6704345476449
 20
-136.7217149180765
 10
90.56880423083003
 20
-136.6583251611479
 10
90.39551592792196
 20
-136.5484266151685
 10
90.37415633591341
 20
-136.4171684771804
 10
90.35520831074453
 20
-136.3093369884921
 10
90.35520831074453
 20
-136.3093369884921
 10
90.57741696954315
 20
-136.3093369884921
 10
90.57741696954315
 20
-136.3093369884921
 10
90.63219398775863
 20
-136.508118997991
 10
90.75931801116434
 20
-136.5377468191642
 10
90.85233558926609
 20
-136.5377468191642
 10
90.9918619564187
 20
-136.5377468191642
 10
91.14413517686675
 20
-136.4381835596405
 10
91.14413517686675
 20
-136.2056396143861
 10
91.14413517686675
 20
-135.949669019832
 10
90.96430119253671
 20
-135.8797335814815
 10
90.84372285055296
 20
-135.8797335814815
 10
90.81202797208866
 20
-135.8797335814815
 10
90.6704345476449
 20
-135.8797335814815
 10
90.58155108412545
 20
-136.0089246621783
 10
90.58155108412545
 20
-136.0089246621783
 10
90.4058512143777
 20
-135.9899766370094
 10
90.4058512143777
 20
-135.9899766370094
 10
90.4058512143777
 20
-135.9899766370094
 10
90.52642955636145
 20
-135.1435166762836
 10
90.52642955636145
 20
-135.1435166762836
 10
90.52642955636145
 20
-135.1435166762836
 10
91.30502113602792
 20
-135.1435166762836
 10
91.30502113602792
 20
-135.1435166762836
 10
91.30502113602792
 20
-135.1435166762836
 10
91.30502113602792
 20
-135.3381645712002
 10
91.30502113602792
 20
-135.3381645712002
 10
91.30502113602792
 20
-135.3381645712002
 10
90.68938257281377
 20
-135.3381645712002
 10
90.68938257281377
 20
-135.3381645712002
 10
90.68938257281377
 20
-135.3381645712002
 10
90.62392575859403
 20
-135.7612222967889
 10
90.62392575859403
 20
-135.7612222967889
 10
90.68524845823147
 20
-135.7274603610334
 10
90.76758624032894
 20
-135.687152743856
 10
90.88609752502154
 20
-135.687152743856
 10
91.14000106228445
 20
-135.687152743856
 10
91.37702363166964
 20
-135.873532409608
 10
91.37702363166964
 20
-136.1866915892172
 10
91.37702363166964
 20
-136.5039848834087
 10
91.15274791557987
 20
-136.7385958859543
 10
90.85026853197493
 20
-136.7385958859543
 97
        0
 97
        0
 75
     2
 76
     1
 98
        0
  0
ENDBLK
  5
B5
330
B2
100
AcDbEntity
  8
0
100
AcDbBlockEnd
  0
BLOCK
  5
D4
330
D2
100
AcDbEntity
  8
0
100
AcDbBlockBegin
  2
block 5
 70
     0
 10
0.0
 20
0.0
 30
0.0
  3
block 5
  1

  0
SPLINE
  5
D6
330
D2
100
AcDbEntity
  8
_U+30EC_U+30A4_U+30E4_U+30FC 1
370
     0
100
AcDbSpline
210
0.0
220
0.0
230
1.0
 70
    11
 71
     3
 72
   242
 73
   238
 74
     0
 42
0.0000000001
 43
0.0000000001
 12
1.0
 22
0.0
 32
0.0
 13
1.0
 23
0.0
 33
0.0
 40
0.0
 40
0.0
 40
0.0
 40
0.0
 40
1.0
 40
1.0
 40
1.0
 40
2.0
 40
2.0
 40
2.0
 40
3.0
 40
3.0
 40
3.0
 40
4.0
 40
4.0
 40
4.0
 40
5.0
 40
5.0
 40
5.0
 40
6.0
 40
6.0
 40
6.0
 40
7.0
 40
7.0
 40
7.0
 40
8.0
 40
8.0
 40
8.0
 40
9.0
 40
9.0
 40
9.0
 40
10.0
 40
10.0
 40
10.0
 40
11.0
 40
11.0
 40
11.0
 40
12.0
 40
12.0
 40
12.0
 40
13.0
 40
13.0
 40
13.0
 40
14.0
 40
14.0
 40
14.0
 40
15.0
 40
15.0
 40
15.0
 40
16.0
 40
16.0
 40
16.0
 40
17.0
 40
17.0
 40
17.0
 40
18.0
 40
18.0
 40
18.0
 40
19.0
 40
19.0
 40
19.0
 40
20.0
 40
20.0
 40
20.0
 40
21.0
 40
21.0
 40
21.0
 40
22.0
 40
22.0
 40
22.0
 40
23.0
 40
23.0
 40
23.0
 40
24.0
 40
24.0
 40
24.0
 40
25.0
 40
25.0
 40
25.0
 40
26.0
 40
26.0
 40
26.0
 40
27.0
 40
27.0
 40
27.0
 40
28.0
 40
28.0
 40
28.0
 40
29.0
 40
29.0
 40
29.0
 40
30.0
 40
30.0
 40
30.0
 40
31.0
 40
31.0
 40
31.0
 40
32.0
 40
32.0
 40
32.0
 40
33.0
 40
33.0
 40
33.0
 40
34.0
 40
34.0
 40
34.0
 40
35.0
 40
35.0
 40
35.0
 40
36.0
 40
36.0
 40
36.0
 40
37.0
 40
37.0
 40
37.0
 40
38.0
 40
38.0
 40
38.0
 40
39.0
 40
39.0
 40
39.0
 40
40.0
 40
40.0
 40
40.0
 40
41.0
 40
41.0
 40
41.0
 40
42.0
 40
42.0
 40
42.0
 40
43.0
 40
43.0
 40
43.0
 40
44.0
 40
44.0
 40
44.0
 40
45.0
 40
45.0
 40
45.0
 40
46.0
 40
46.0
 40
46.0
 40
47.0
 40
47.0
 40
47.0
 40
48.0
 40
48.0
 40
48.0
 40
49.0
 40
49.0
 40
49.0
 40
50.0
 40
50.0
 40
50.0
 40
51.0
 40
51.0
 40
51.0
 40
52.0
 40
52.0
 40
52.0
 40
53.0
 40
53.0
 40
53.0
 40
54.0
 40
54.0
 40
54.0
 40
55.0
 40
55.0
 40
55.0
 40
56.0
 40
56.0
 40
56.0
 40
57.0
 40
57.0
 40
57.0
 40
58.0
 40
58.0
 40
58.0
 40
59.0
 40
59.0
 40
59.0
 40
60.0
 40
60.0
 40
60.0
 40
61.0
 40
61.0
 40
61.0
 40
62.0
 40
62.0
 40
62.0
 40
63.0
 40
63.0
 40
63.0
 40
64.0
 40
64.0
 40
64.0
 40
65.0
 40
65.0
 40
65.0
 40
66.0
 40
66.0
 40
66.0
 40
67.0
 40
67.0
 40
67.0
 40
68.0
 40
68.0
 40
68.0
 40
69.0
 40
69.0
 40
69.0
 40
70.0
 40
70.0
 40
70.0
 40
71.0
 40
71.0
 40
71.0
 40
72.0
 40
72.0
 40
72.0
 40
73.0
 40
73.0
 40
73.0
 40
74.0
 40
74.0
 40
74.0
 40
75.0
 40
75.0
 40
75.0
 40
76.0
 40
76.0
 40
76.0
 40
77.0
 40
77.0
 40
77.0
 40
78.0
 40
78.0
 40
78.0
 40
79.0
 40
79.0
 40
79.0
 40
79.0
 10
91.52791881392358
 20
-121.4625257400337
 30
0.0
 10
91.52791881392358
 20
-121.4625257400337
 30
0.0
 10
91.3055379003507
 20
-121.4625257400337
 30
0.0
 10
91.3055379003507
 20
-121.4625257400337
 30
0.0
 10
91.3055379003507
 20
-121.4625257400337
 30
0.0
 10
91.06300317818912
 20
-121.4625257400337
 30
0.0
 10
91.06300317818912
 20
-121.4625257400337
 30
0.0
 10
91.06300317818912
 20
-121.4625257400337
 30
0.0
 10
91.17427976236269
 20
-121.5049004145023
 30
0.0
 10
91.17427976236269
 20
-121.5049004145023
 30
0.0
 10
91.18358152017286
 20
-121.5092067838588
 30
0.0
 10
91.19460582572566
 20
-121.5154079557323
 30
0.0
 10
91.19460582572566
 20
-121.5281548090277
 30
0.0
 10
91.19460582572566
 20
-121.549342146262
 30
0.0
 10
91.16670055229514
 20
-121.5557155729097
 30
0.0
 10
91.14844154622331
 20
-121.559849687492
 30
0.0
 10
91.13913978841313
 20
-121.5831040820174
 30
0.0
 10
91.11330157227376
 20
-121.6487331510114
 30
0.0
 10
91.09642060439604
 20
-121.6931748827712
 30
0.0
 10
91.09642060439604
 20
-121.6931748827712
 30
0.0
 10
91.33344317378123
 20
-121.6931748827712
 30
0.0
 10
91.33344317378123
 20
-121.6931748827712
 30
0.0
 10
91.41285262471624
 20
-121.6931748827712
 30
0.0
 10
91.58510739897872
 20
-121.6888685134146
 30
0.0
 10
91.70913083644773
 20
-121.6804280294757
 30
0.0
 10
91.70913083644773
 20
-121.6804280294757
 30
0.0
 10
91.70913083644773
 20
-121.8581949565146
 30
0.0
 10
91.70913083644773
 20
-121.8581949565146
 30
0.0
 10
91.637128340806
 20
-121.8538885871581
 30
0.0
 10
91.61852482518564
 20
-121.8538885871581
 30
0.0
 10
91.46108396150973
 20
-121.8497544725758
 30
0.0
 10
91.43317868807921
 20
-122.0040947503149
 30
0.0
 10
91.39424910909588
 20
-122.0845377298955
 30
0.0
 10
91.35583629443535
 20
-122.1543009134718
 30
0.0
 10
91.46108396150973
 20
-122.2135565558181
 30
0.0
 10
91.55375703006295
 20
-122.2812526821033
 30
0.0
 10
91.64436304132502
 20
-122.363762718975
 30
0.0
 10
91.64436304132502
 20
-122.363762718975
 30
0.0
 10
91.540665667219
 20
-122.5308498500097
 30
0.0
 10
91.540665667219
 20
-122.5308498500097
 30
0.0
 10
91.52033960385603
 20
-122.5119018248408
 30
0.0
 10
91.50931529830324
 20
-122.5034613409019
 30
0.0
 10
91.4111300769736
 20
-122.4187119919648
 30
0.0
 10
91.36858314773077
 20
-122.3806436868528
 30
0.0
 10
91.31690671545202
 20
-122.3448146938062
 30
0.0
 10
91.2462822580044
 20
-122.3003729620464
 30
0.0
 10
91.06128063044649
 20
-122.4865803730242
 30
0.0
 10
90.88179115566497
 20
-122.5098347675496
 30
0.0
 10
90.62788761840206
 20
-122.5394625887228
 30
0.0
 10
90.62788761840206
 20
-122.5394625887228
 30
0.0
 10
90.53728160713999
 20
-122.3596286043927
 30
0.0
 10
90.53728160713999
 20
-122.3596286043927
 30
0.0
 10
90.81495630325112
 20
-122.3553222350362
 30
0.0
 10
90.96860756189326
 20
-122.3300007832196
 30
0.0
 10
91.10193275717243
 20
-122.2199299824659
 30
0.0
 10
90.99823538306642
 20
-122.1691148240584
 30
0.0
 10
90.92037622509977
 20
-122.1417263149507
 30
0.0
 10
90.88902585618399
 20
-122.1289794616553
 30
0.0
 10
90.87248939785479
 20
-122.1565402255373
 30
0.0
 10
90.85939803501086
 20
-122.1754882507061
 30
0.0
 10
90.8352823666141
 20
-122.2094224412358
 30
0.0
 10
90.8352823666141
 20
-122.2094224412358
 30
0.0
 10
90.66302759235161
 20
-122.1269124043641
 30
0.0
 10
90.66302759235161
 20
-122.1269124043641
 30
0.0
 10
90.73537459754185
 20
-122.0464694247835
 30
0.0
 10
90.78911808711175
 20
-121.9512125346164
 30
0.0
 10
90.83907197164787
 20
-121.8497544725758
 30
0.0
 10
90.67232935016179
 20
-121.8538885871581
 30
0.0
 10
90.65372583454143
 20
-121.8538885871581
 30
0.0
 10
90.5817233388997
 20
-121.8581949565146
 30
0.0
 10
90.5817233388997
 20
-121.8581949565146
 30
0.0
 10
90.5817233388997
 20
-121.6804280294757
 30
0.0
 10
90.5817233388997
 20
-121.6804280294757
 30
0.0
 10
90.70402422862608
 20
-121.6868014561234
 30
0.0
 10
90.88730330844137
 20
-121.69110782548
 30
0.0
 10
90.90935191954698
 20
-121.69110782548
 30
0.0
 10
90.92416583013355
 20
-121.6571736349503
 30
0.0
 10
90.97239716692704
 20
-121.5365952929666
 30
0.0
 10
90.98893362525624
 20
-121.4625257400337
 30
0.0
 10
90.97239716692704
 20
-121.4625257400337
 30
0.0
 10
90.81702336054228
 20
-121.4688991666814
 30
0.0
 10
90.64649113402241
 20
-121.4816460199768
 30
0.0
 10
90.64649113402241
 20
-121.4816460199768
 30
0.0
 10
90.64649113402241
 20
-121.614971215256
 30
0.0
 10
90.64649113402241
 20
-121.614971215256
 30
0.0
 10
90.60377195000531
 20
-121.6402926670726
 30
0.0
 10
90.55209551772657
 20
-121.6719875455369
 30
0.0
 10
90.4353067807766
 20
-121.7376166145309
 30
0.0
 10
90.4353067807766
 20
-121.7376166145309
 30
0.0
 10
90.4353067807766
 20
-121.8835164083312
 30
0.0
 10
90.4353067807766
 20
-121.8835164083312
 30
0.0
 10
90.4353067807766
 20
-121.8835164083312
 30
0.0
 10
90.4353067807766
 20
-122.3511881204539
 30
0.0
 10
90.4353067807766
 20
-122.3511881204539
 30
0.0
 10
90.4353067807766
 20
-122.4779676343111
 30
0.0
 10
90.40395641186082
 20
-122.5372232766574
 30
0.0
 10
90.15590953692283
 20
-122.5287827927185
 30
0.0
 10
90.15590953692283
 20
-122.5287827927185
 30
0.0
 10
90.06495901611224
 20
-122.3215602992807
 30
0.0
 10
90.06495901611224
 20
-122.3215602992807
 30
0.0
 10
90.12042505342475
 20
-122.3341348978019
 30
0.0
 10
90.16314423744186
 20
-122.3384412671584
 30
0.0
 10
90.19828421139141
 20
-122.3384412671584
 30
0.0
 10
90.26511906380526
 20
-122.3384412671584
 30
0.0
 10
90.27442082161542
 20
-122.315186872633
 30
0.0
 10
90.27442082161542
 20
-122.249557803639
 30
0.0
 10
90.27442082161542
 20
-122.249557803639
 30
0.0
 10
90.27442082161542
 20
-121.8201266514026
 30
0.0
 10
90.27442082161542
 20
-121.8201266514026
 30
0.0
 10
90.18898245358123
 20
-121.8602620138058
 30
0.0
 10
90.17416854299465
 20
-121.8666354404535
 30
0.0
 10
90.1335164162687
 20
-121.8857557203966
 30
0.0
 10
90.12972681123493
 20
-121.9067708028566
 30
0.0
 10
90.12628171574968
 20
-121.9363986240298
 30
0.0
 10
90.10940074787196
 20
-121.9363986240298
 30
0.0
 10
90.10216604735294
 20
-121.9363986240298
 30
0.0
 10
90.09286428954276
 20
-121.9322645094475
 30
0.0
 10
90.08735213676636
 20
-121.9090101149221
 30
0.0
 10
90.08735213676636
 20
-121.9090101149221
 30
0.0
 10
90.0408433477155
 20
-121.7164292772966
 30
0.0
 10
90.0408433477155
 20
-121.7164292772966
 30
0.0
 10
90.16865639021826
 20
-121.6699204882457
 30
0.0
 10
90.22618948482193
 20
-121.6466660937203
 30
0.0
 10
90.27442082161542
 20
-121.625478756486
 30
0.0
 10
90.27442082161542
 20
-121.625478756486
 30
0.0
 10
90.27442082161542
 20
-121.2129285721273
 30
0.0
 10
90.27442082161542
 20
-121.2129285721273
 30
0.0
 10
90.27442082161542
 20
-121.2129285721273
 30
0.0
 10
90.22791203256456
 20
-121.2129285721273
 30
0.0
 10
90.22791203256456
 20
-121.2129285721273
 30
0.0
 10
90.22791203256456
 20
-121.2129285721273
 30
0.0
 10
90.15935463240808
 20
-121.2129285721273
 30
0.0
 10
90.15935463240808
 20
-121.2129285721273
 30
0.0
 10
90.10009899006178
 20
-121.2129285721273
 30
0.0
 10
90.09286428954276
 20
-121.2129285721273
 30
0.0
 10
90.06116941107847
 20
-121.219301998775
 30
0.0
 10
90.06116941107847
 20
-121.219301998775
 30
0.0
 10
90.06116941107847
 20
-121.0246541038584
 30
0.0
 10
90.06116941107847
 20
-121.0246541038584
 30
0.0
 10
90.08528507947521
 20
-121.0310275305061
 30
0.0
 10
90.09286428954276
 20
-121.0310275305061
 30
0.0
 10
90.15384247963168
 20
-121.0310275305061
 30
0.0
 10
90.15384247963168
 20
-121.0310275305061
 30
0.0
 10
90.27063121658165
 20
-121.0310275305061
 30
0.0
 10
90.27063121658165
 20
-121.0310275305061
 30
0.0
 10
90.27063121658165
 20
-120.9612643469298
 30
0.0
 10
90.27063121658165
 20
-120.8787543100581
 30
0.0
 10
90.2685641592905
 20
-120.8744479407015
 30
0.0
 10
90.26132945877147
 20
-120.6946139563715
 30
0.0
 10
90.26132945877147
 20
-120.6756659312026
 30
0.0
 10
90.25960691102885
 20
-120.6291571421517
 30
0.0
 10
90.25960691102885
 20
-120.6291571421517
 30
0.0
 10
90.44839814362054
 20
-120.6375976260906
 30
0.0
 10
90.44839814362054
 20
-120.6375976260906
 30
0.0
 10
90.45769990143071
 20
-120.6375976260906
 30
0.0
 10
90.47595890750254
 20
-120.6396646833818
 30
0.0
 10
90.47595890750254
 20
-120.6565456512595
 30
0.0
 10
90.47595890750254
 20
-120.6756659312026
 30
0.0
 10
90.46321205420712
 20
-120.6861734724326
 30
0.0
 10
90.44081893355299
 20
-120.7052937523758
 30
0.0
 10
90.44081893355299
 20
-120.7559366560089
 30
0.0
 10
90.4353067807766
 20
-120.9845187414553
 30
0.0
 10
90.43737383806774
 20
-121.0310275305061
 30
0.0
 10
90.55037296998394
 20
-121.0310275305061
 30
0.0
 10
90.56139727553673
 20
-121.0310275305061
 30
0.0
 10
90.64649113402241
 20
-121.0225870465673
 30
0.0
 10
90.64649113402241
 20
-121.0225870465673
 30
0.0
 10
90.64649113402241
 20
-121.2172349414839
 30
0.0
 10
90.64649113402241
 20
-121.2172349414839
 30
0.0
 10
90.61307370781549
 20
-121.2149956294185
 30
0.0
 10
90.55381806546919
 20
-121.2108615148362
 30
0.0
 10
90.4353067807766
 20
-121.2129285721273
 30
0.0
 10
90.4353067807766
 20
-121.2129285721273
 30
0.0
 10
90.4353067807766
 20
-121.5514092035531
 30
0.0
 10
90.4353067807766
 20
-121.5514092035531
 30
0.0
 10
90.48353811757009
 20
-121.5281548090277
 30
0.0
 10
90.54107121217376
 20
-121.5005940451457
 30
0.0
 10
90.58344588664234
 20
-121.4773396506203
 30
0.0
 10
90.58344588664234
 20
-121.4773396506203
 30
0.0
 10
90.58344588664234
 20
-121.2997449783556
 30
0.0
 10
90.58344588664234
 20
-121.2997449783556
 30
0.0
 10
90.68335365571458
 20
-121.3123195768768
 30
0.0
 10
90.78739553936913
 20
-121.3123195768768
 30
0.0
 10
90.88902585618399
 20
-121.3123195768768
 30
0.0
 10
90.86869979282102
 20
-121.2172349414839
 30
0.0
 10
90.84458412442427
 20
-121.1347249046122
 30
0.0
 10
90.78911808711175
 20
-121.001399709333
 30
0.0
 10
90.75018850812843
 20
-121.0034667666241
 30
0.0
 10
90.67784150293818
 20
-121.0077731359807
 30
0.0
 10
90.64476858627978
 20
-121.0098401932719
 30
0.0
 10
90.64476858627978
 20
-121.0098401932719
 30
0.0
 10
90.64476858627978
 20
-120.8300062089418
 30
0.0
 10
90.64476858627978
 20
-120.8300062089418
 30
0.0
 10
90.7539781131622
 20
-120.8384466928807
 30
0.0
 10
90.90590682406172
 20
-120.8427530622372
 30
0.0
 10
90.97790931970344
 20
-120.8427530622372
 30
0.0
 10
90.97790931970344
 20
-120.8427530622372
 30
0.0
 10
91.0502563248937
 20
-120.8427530622372
 30
0.0
 10
91.0502563248937
 20
-120.8427530622372
 30
0.0
 10
91.0502563248937
 20
-120.6798000457849
 30
0.0
 10
91.0502563248937
 20
-120.6692925045549
 30
0.0
 10
91.04818926760254
 20
-120.6143432315652
 30
0.0
 10
91.04818926760254
 20
-120.6143432315652
 30
0.0
 10
91.24455971026178
 20
-120.6396646833818
 30
0.0
 10
91.24455971026178
 20
-120.6396646833818
 30
0.0
 10
91.24834931529556
 20
-120.6396646833818
 30
0.0
 10
91.26695283091591
 20
-120.6417317406729
 30
0.0
 10
91.26695283091591
 20
-120.6586127085506
 30
0.0
 10
91.26695283091591
 20
-120.6734266191372
 30
0.0
 10
91.25765107310573
 20
-120.6820393578503
 30
0.0
 10
91.23353540470899
 20
-120.6968532684369
 30
0.0
 10
91.22802325193258
 20
-120.7623100826567
 30
0.0
 10
91.22595619464143
 20
-120.7834974198909
 30
0.0
 10
91.22595619464143
 20
-120.8427530622372
 30
0.0
 10
91.22595619464143
 20
-120.8427530622372
 30
0.0
 10
91.30932750538447
 20
-120.8427530622372
 30
0.0
 10
91.30932750538447
 20
-120.8427530622372
 30
0.0
 10
91.38150225580046
 20
-120.8427530622372
 30
0.0
 10
91.53343096669998
 20
-120.8384466928807
 30
0.0
 10
91.6426404935824
 20
-120.8300062089418
 30
0.0
 10
91.6426404935824
 20
-120.8300062089418
 30
0.0
 10
91.6426404935824
 20
-121.0098401932719
 30
0.0
 10
91.6426404935824
 20
-121.0098401932719
 30
0.0
 10
91.61680227744303
 20
-121.0077731359807
 30
0.0
 10
91.51276039378848
 20
-121.0034667666241
 30
0.0
 10
91.47762041983893
 20
-121.001399709333
 30
0.0
 10
91.4648735665435
 20
-121.0522148677404
 30
0.0
 10
91.43524574537037
 20
-121.1643527257853
 30
0.0
 10
91.37771265076668
 20
-121.3038790929379
 30
0.0
 10
91.41491968200738
 20
-121.3038790929379
 30
0.0
 10
91.65745440416897
 20
-121.2849310677691
 30
0.0
 10
91.71119789373887
 20
-121.2826917557036
 30
0.0
 10
91.71119789373887
 20
-121.2826917557036
 30
0.0
 10
91.71119789373887
 20
-121.4668321093902
 30
0.0
 10
91.71119789373887
 20
-121.4668321093902
 30
0.0
 10
91.68501516805097
 20
-121.4668321093902
 30
0.0
 10
91.6702012574644
 20
-121.4625257400337
 30
0.0
 10
91.52791881392358
 20
-121.4625257400337
 30
0.0
  0
SPLINE
  5
D7
330
D2
100
AcDbEntity
  8
_U+30EC_U+30A4_U+30E4_U+30FC 1
370
     0
100
AcDbSpline
210
0.0
220
0.0
230
1.0
 70
    11
 71
     3
 72
    20
 73
    16
 74
     0
 42
0.0000000001
 43
0.0000000001
 12
1.0
 22
0.0
 32
0.0
 13
1.0
 23
0.0
 33
0.0
 40
0.0
 40
0.0
 40
0.0
 40
0.0
 40
1.0
 40
1.0
 40
1.0
 40
2.0
 40
2.0
 40
2.0
 40
3.0
 40
3.0
 40
3.0
 40
4.0
 40
4.0
 40
4.0
 40
5.0
 40
5.0
 40
5.0
 40
5.0
 10
90.97790931970344
 20
-120.9972655947507
 30
0.0
 10
90.97790931970344
 20
-120.9972655947507
 30
0.0
 10
90.95000404627292
 20
-120.9972655947507
 30
0.0
 10
90.95000404627292
 20
-120.9972655947507
 30
0.0
 10
90.9910006825474
 20
-121.0966565995002
 30
0.0
 10
91.01856144642939
 20
-121.1769273243065
 30
0.0
 10
91.04818926760254
 20
-121.3038790929379
 30
0.0
 10
91.04818926760254
 20
-121.3038790929379
 30
0.0
 10
91.2297457996752
 20
-121.3038790929379
 30
0.0
 10
91.2297457996752
 20
-121.3038790929379
 30
0.0
 10
91.25765107310573
 20
-121.2108615148362
 30
0.0
 10
91.2779771364687
 20
-121.1262844206733
 30
0.0
 10
91.29830319983168
 20
-120.9972655947507
 30
0.0
 10
91.29830319983168
 20
-120.9972655947507
 30
0.0
 10
90.97790931970344
 20
-120.9972655947507
 30
0.0
 10
90.97790931970344
 20
-120.9972655947507
 30
0.0
  0
SPLINE
  5
D8
330
D2
100
AcDbEntity
  8
_U+30EC_U+30A4_U+30E4_U+30FC 1
370
     0
100
AcDbSpline
210
0.0
220
0.0
230
1.0
 70
    11
 71
     3
 72
    17
 73
    13
 74
     0
 42
0.0000000001
 43
0.0000000001
 12
1.0
 22
0.0
 32
0.0
 13
1.0
 23
0.0
 33
0.0
 40
0.0
 40
0.0
 40
0.0
 40
0.0
 40
1.0
 40
1.0
 40
1.0
 40
2.0
 40
2.0
 40
2.0
 40
3.0
 40
3.0
 40
3.0
 40
4.0
 40
4.0
 40
4.0
 40
4.0
 10
91.03337535701597
 20
-121.8476874152846
 30
0.0
 10
91.01856144642939
 20
-121.8771429816835
 30
0.0
 10
90.97411971466967
 20
-121.9703328145595
 30
0.0
 10
90.96516246640802
 20
-121.9892808397284
 30
0.0
 10
91.13156057834559
 20
-122.0485364820747
 30
0.0
 10
91.15016409396594
 20
-122.0549099087224
 30
0.0
 10
91.213209341346
 20
-122.0824706726044
 30
0.0
 10
91.26144067813951
 20
-121.9956542663761
 30
0.0
 10
91.28176674150248
 20
-121.9215847134432
 30
0.0
 10
91.2945135947979
 20
-121.8476874152846
 30
0.0
 10
91.2945135947979
 20
-121.8476874152846
 30
0.0
 10
91.03337535701597
 20
-121.8476874152846
 30
0.0
 10
91.03337535701597
 20
-121.8476874152846
 30
0.0
  0
HATCH
  5
D9
330
D2
100
AcDbEntity
  8
_U+30EC_U+30A4_U+30E4_U+30FC 1
 62
   179
420
  2234388
100
AcDbHatch
 10
0.0
 20
0.0
 30
0.0
210
0.0
220
0.0
230
1.0
  2
SOLID
 70
     1
 71
     0
 91
        3
 92
        1
 93
        1
 72
     4
 94
        3
 73
     0
 74
     1
 95
      242
 96
      238
 40
0.0
 40
0.0
 40
0.0
 40
0.0
 40
1.0
 40
1.0
 40
1.0
 40
2.0
 40
2.0
 40
2.0
 40
3.0
 40
3.0
 40
3.0
 40
4.0
 40
4.0
 40
4.0
 40
5.0
 40
5.0
 40
5.0
 40
6.0
 40
6.0
 40
6.0
 40
7.0
 40
7.0
 40
7.0
 40
8.0
 40
8.0
 40
8.0
 40
9.0
 40
9.0
 40
9.0
 40
10.0
 40
10.0
 40
10.0
 40
11.0
 40
11.0
 40
11.0
 40
12.0
 40
12.0
 40
12.0
 40
13.0
 40
13.0
 40
13.0
 40
14.0
 40
14.0
 40
14.0
 40
15.0
 40
15.0
 40
15.0
 40
16.0
 40
16.0
 40
16.0
 40
17.0
 40
17.0
 40
17.0
 40
18.0
 40
18.0
 40
18.0
 40
19.0
 40
19.0
 40
19.0
 40
20.0
 40
20.0
 40
20.0
 40
21.0
 40
21.0
 40
21.0
 40
22.0
 40
22.0
 40
22.0
 40
23.0
 40
23.0
 40
23.0
 40
24.0
 40
24.0
 40
24.0
 40
25.0
 40
25.0
 40
25.0
 40
26.0
 40
26.0
 40
26.0
 40
27.0
 40
27.0
 40
27.0
 40
28.0
 40
28.0
 40
28.0
 40
29.0
 40
29.0
 40
29.0
 40
30.0
 40
30.0
 40
30.0
 40
31.0
 40
31.0
 40
31.0
 40
32.0
 40
32.0
 40
32.0
 40
33.0
 40
33.0
 40
33.0
 40
34.0
 40
34.0
 40
34.0
 40
35.0
 40
35.0
 40
35.0
 40
36.0
 40
36.0
 40
36.0
 40
37.0
 40
37.0
 40
37.0
 40
38.0
 40
38.0
 40
38.0
 40
39.0
 40
39.0
 40
39.0
 40
40.0
 40
40.0
 40
40.0
 40
41.0
 40
41.0
 40
41.0
 40
42.0
 40
42.0
 40
42.0
 40
43.0
 40
43.0
 40
43.0
 40
44.0
 40
44.0
 40
44.0
 40
45.0
 40
45.0
 40
45.0
 40
46.0
 40
46.0
 40
46.0
 40
47.0
 40
47.0
 40
47.0
 40
48.0
 40
48.0
 40
48.0
 40
49.0
 40
49.0
 40
49.0
 40
50.0
 40
50.0
 40
50.0
 40
51.0
 40
51.0
 40
51.0
 40
52.0
 40
52.0
 40
52.0
 40
53.0
 40
53.0
 40
53.0
 40
54.0
 40
54.0
 40
54.0
 40
55.0
 40
55.0
 40
55.0
 40
56.0
 40
56.0
 40
56.0
 40
57.0
 40
57.0
 40
57.0
 40
58.0
 40
58.0
 40
58.0
 40
59.0
 40
59.0
 40
59.0
 40
60.0
 40
60.0
 40
60.0
 40
61.0
 40
61.0
 40
61.0
 40
62.0
 40
62.0
 40
62.0
 40
63.0
 40
63.0
 40
63.0
 40
64.0
 40
64.0
 40
64.0
 40
65.0
 40
65.0
 40
65.0
 40
66.0
 40
66.0
 40
66.0
 40
67.0
 40
67.0
 40
67.0
 40
68.0
 40
68.0
 40
68.0
 40
69.0
 40
69.0
 40
69.0
 40
70.0
 40
70.0
 40
70.0
 40
71.0
 40
71.0
 40
71.0
 40
72.0
 40
72.0
 40
72.0
 40
73.0
 40
73.0
 40
73.0
 40
74.0
 40
74.0
 40
74.0
 40
75.0
 40
75.0
 40
75.0
 40
76.0
 40
76.0
 40
76.0
 40
77.0
 40
77.0
 40
77.0
 40
78.0
 40
78.0
 40
78.0
 40
79.0
 40
79.0
 40
79.0
 40
79.0
 10
91.52791881392358
 20
-121.4625257400337
 10
91.52791881392358
 20
-121.4625257400337
 10
91.3055379003507
 20
-121.4625257400337
 10
91.3055379003507
 20
-121.4625257400337
 10
91.3055379003507
 20
-121.4625257400337
 10
91.06300317818912
 20
-121.4625257400337
 10
91.06300317818912
 20
-121.4625257400337
 10
91.06300317818912
 20
-121.4625257400337
 10
91.17427976236269
 20
-121.5049004145023
 10
91.17427976236269
 20
-121.5049004145023
 10
91.18358152017286
 20
-121.5092067838588
 10
91.19460582572566
 20
-121.5154079557323
 10
91.19460582572566
 20
-121.5281548090277
 10
91.19460582572566
 20
-121.549342146262
 10
91.16670055229514
 20
-121.5557155729097
 10
91.14844154622331
 20
-121.559849687492
 10
91.13913978841313
 20
-121.5831040820174
 10
91.11330157227376
 20
-121.6487331510114
 10
91.09642060439604
 20
-121.6931748827712
 10
91.09642060439604
 20
-121.6931748827712
 10
91.33344317378123
 20
-121.6931748827712
 10
91.33344317378123
 20
-121.6931748827712
 10
91.41285262471624
 20
-121.6931748827712
 10
91.58510739897872
 20
-121.6888685134146
 10
91.70913083644773
 20
-121.6804280294757
 10
91.70913083644773
 20
-121.6804280294757
 10
91.70913083644773
 20
-121.8581949565146
 10
91.70913083644773
 20
-121.8581949565146
 10
91.637128340806
 20
-121.8538885871581
 10
91.61852482518564
 20
-121.8538885871581
 10
91.46108396150973
 20
-121.8497544725758
 10
91.43317868807921
 20
-122.0040947503149
 10
91.39424910909588
 20
-122.0845377298955
 10
91.35583629443535
 20
-122.1543009134718
 10
91.46108396150973
 20
-122.2135565558181
 10
91.55375703006295
 20
-122.2812526821033
 10
91.64436304132502
 20
-122.363762718975
 10
91.64436304132502
 20
-122.363762718975
 10
91.540665667219
 20
-122.5308498500097
 10
91.540665667219
 20
-122.5308498500097
 10
91.52033960385603
 20
-122.5119018248408
 10
91.50931529830324
 20
-122.5034613409019
 10
91.4111300769736
 20
-122.4187119919648
 10
91.36858314773077
 20
-122.3806436868528
 10
91.31690671545202
 20
-122.3448146938062
 10
91.2462822580044
 20
-122.3003729620464
 10
91.06128063044649
 20
-122.4865803730242
 10
90.88179115566497
 20
-122.5098347675496
 10
90.62788761840206
 20
-122.5394625887228
 10
90.62788761840206
 20
-122.5394625887228
 10
90.53728160713999
 20
-122.3596286043927
 10
90.53728160713999
 20
-122.3596286043927
 10
90.81495630325112
 20
-122.3553222350362
 10
90.96860756189326
 20
-122.3300007832196
 10
91.10193275717243
 20
-122.2199299824659
 10
90.99823538306642
 20
-122.1691148240584
 10
90.92037622509977
 20
-122.1417263149507
 10
90.88902585618399
 20
-122.1289794616553
 10
90.87248939785479
 20
-122.1565402255373
 10
90.85939803501086
 20
-122.1754882507061
 10
90.8352823666141
 20
-122.2094224412358
 10
90.8352823666141
 20
-122.2094224412358
 10
90.66302759235161
 20
-122.1269124043641
 10
90.66302759235161
 20
-122.1269124043641
 10
90.73537459754185
 20
-122.0464694247835
 10
90.78911808711175
 20
-121.9512125346164
 10
90.83907197164787
 20
-121.8497544725758
 10
90.67232935016179
 20
-121.8538885871581
 10
90.65372583454143
 20
-121.8538885871581
 10
90.5817233388997
 20
-121.8581949565146
 10
90.5817233388997
 20
-121.8581949565146
 10
90.5817233388997
 20
-121.6804280294757
 10
90.5817233388997
 20
-121.6804280294757
 10
90.70402422862608
 20
-121.6868014561234
 10
90.88730330844137
 20
-121.69110782548
 10
90.90935191954698
 20
-121.69110782548
 10
90.92416583013355
 20
-121.6571736349503
 10
90.97239716692704
 20
-121.5365952929666
 10
90.98893362525624
 20
-121.4625257400337
 10
90.97239716692704
 20
-121.4625257400337
 10
90.81702336054228
 20
-121.4688991666814
 10
90.64649113402241
 20
-121.4816460199768
 10
90.64649113402241
 20
-121.4816460199768
 10
90.64649113402241
 20
-121.614971215256
 10
90.64649113402241
 20
-121.614971215256
 10
90.60377195000531
 20
-121.6402926670726
 10
90.55209551772657
 20
-121.6719875455369
 10
90.4353067807766
 20
-121.7376166145309
 10
90.4353067807766
 20
-121.7376166145309
 10
90.4353067807766
 20
-121.8835164083312
 10
90.4353067807766
 20
-121.8835164083312
 10
90.4353067807766
 20
-121.8835164083312
 10
90.4353067807766
 20
-122.3511881204539
 10
90.4353067807766
 20
-122.3511881204539
 10
90.4353067807766
 20
-122.4779676343111
 10
90.40395641186082
 20
-122.5372232766574
 10
90.15590953692283
 20
-122.5287827927185
 10
90.15590953692283
 20
-122.5287827927185
 10
90.06495901611224
 20
-122.3215602992807
 10
90.06495901611224
 20
-122.3215602992807
 10
90.12042505342475
 20
-122.3341348978019
 10
90.16314423744186
 20
-122.3384412671584
 10
90.19828421139141
 20
-122.3384412671584
 10
90.26511906380526
 20
-122.3384412671584
 10
90.27442082161542
 20
-122.315186872633
 10
90.27442082161542
 20
-122.249557803639
 10
90.27442082161542
 20
-122.249557803639
 10
90.27442082161542
 20
-121.8201266514026
 10
90.27442082161542
 20
-121.8201266514026
 10
90.18898245358123
 20
-121.8602620138058
 10
90.17416854299465
 20
-121.8666354404535
 10
90.1335164162687
 20
-121.8857557203966
 10
90.12972681123493
 20
-121.9067708028566
 10
90.12628171574968
 20
-121.9363986240298
 10
90.10940074787196
 20
-121.9363986240298
 10
90.10216604735294
 20
-121.9363986240298
 10
90.09286428954276
 20
-121.9322645094475
 10
90.08735213676636
 20
-121.9090101149221
 10
90.08735213676636
 20
-121.9090101149221
 10
90.0408433477155
 20
-121.7164292772966
 10
90.0408433477155
 20
-121.7164292772966
 10
90.16865639021826
 20
-121.6699204882457
 10
90.22618948482193
 20
-121.6466660937203
 10
90.27442082161542
 20
-121.625478756486
 10
90.27442082161542
 20
-121.625478756486
 10
90.27442082161542
 20
-121.2129285721273
 10
90.27442082161542
 20
-121.2129285721273
 10
90.27442082161542
 20
-121.2129285721273
 10
90.22791203256456
 20
-121.2129285721273
 10
90.22791203256456
 20
-121.2129285721273
 10
90.22791203256456
 20
-121.2129285721273
 10
90.15935463240808
 20
-121.2129285721273
 10
90.15935463240808
 20
-121.2129285721273
 10
90.10009899006178
 20
-121.2129285721273
 10
90.09286428954276
 20
-121.2129285721273
 10
90.06116941107847
 20
-121.219301998775
 10
90.06116941107847
 20
-121.219301998775
 10
90.06116941107847
 20
-121.0246541038584
 10
90.06116941107847
 20
-121.0246541038584
 10
90.08528507947521
 20
-121.0310275305061
 10
90.09286428954276
 20
-121.0310275305061
 10
90.15384247963168
 20
-121.0310275305061
 10
90.15384247963168
 20
-121.0310275305061
 10
90.27063121658165
 20
-121.0310275305061
 10
90.27063121658165
 20
-121.0310275305061
 10
90.27063121658165
 20
-120.9612643469298
 10
90.27063121658165
 20
-120.8787543100581
 10
90.2685641592905
 20
-120.8744479407015
 10
90.26132945877147
 20
-120.6946139563715
 10
90.26132945877147
 20
-120.6756659312026
 10
90.25960691102885
 20
-120.6291571421517
 10
90.25960691102885
 20
-120.6291571421517
 10
90.44839814362054
 20
-120.6375976260906
 10
90.44839814362054
 20
-120.6375976260906
 10
90.45769990143071
 20
-120.6375976260906
 10
90.47595890750254
 20
-120.6396646833818
 10
90.47595890750254
 20
-120.6565456512595
 10
90.47595890750254
 20
-120.6756659312026
 10
90.46321205420712
 20
-120.6861734724326
 10
90.44081893355299
 20
-120.7052937523758
 10
90.44081893355299
 20
-120.7559366560089
 10
90.4353067807766
 20
-120.9845187414553
 10
90.43737383806774
 20
-121.0310275305061
 10
90.55037296998394
 20
-121.0310275305061
 10
90.56139727553673
 20
-121.0310275305061
 10
90.64649113402241
 20
-121.0225870465673
 10
90.64649113402241
 20
-121.0225870465673
 10
90.64649113402241
 20
-121.2172349414839
 10
90.64649113402241
 20
-121.2172349414839
 10
90.61307370781549
 20
-121.2149956294185
 10
90.55381806546919
 20
-121.2108615148362
 10
90.4353067807766
 20
-121.2129285721273
 10
90.4353067807766
 20
-121.2129285721273
 10
90.4353067807766
 20
-121.5514092035531
 10
90.4353067807766
 20
-121.5514092035531
 10
90.48353811757009
 20
-121.5281548090277
 10
90.54107121217376
 20
-121.5005940451457
 10
90.58344588664234
 20
-121.4773396506203
 10
90.58344588664234
 20
-121.4773396506203
 10
90.58344588664234
 20
-121.2997449783556
 10
90.58344588664234
 20
-121.2997449783556
 10
90.68335365571458
 20
-121.3123195768768
 10
90.78739553936913
 20
-121.3123195768768
 10
90.88902585618399
 20
-121.3123195768768
 10
90.86869979282102
 20
-121.2172349414839
 10
90.84458412442427
 20
-121.1347249046122
 10
90.78911808711175
 20
-121.001399709333
 10
90.75018850812843
 20
-121.0034667666241
 10
90.67784150293818
 20
-121.0077731359807
 10
90.64476858627978
 20
-121.0098401932719
 10
90.64476858627978
 20
-121.0098401932719
 10
90.64476858627978
 20
-120.8300062089418
 10
90.64476858627978
 20
-120.8300062089418
 10
90.7539781131622
 20
-120.8384466928807
 10
90.90590682406172
 20
-120.8427530622372
 10
90.97790931970344
 20
-120.8427530622372
 10
90.97790931970344
 20
-120.8427530622372
 10
91.0502563248937
 20
-120.8427530622372
 10
91.0502563248937
 20
-120.8427530622372
 10
91.0502563248937
 20
-120.6798000457849
 10
91.0502563248937
 20
-120.6692925045549
 10
91.04818926760254
 20
-120.6143432315652
 10
91.04818926760254
 20
-120.6143432315652
 10
91.24455971026178
 20
-120.6396646833818
 10
91.24455971026178
 20
-120.6396646833818
 10
91.24834931529556
 20
-120.6396646833818
 10
91.26695283091591
 20
-120.6417317406729
 10
91.26695283091591
 20
-120.6586127085506
 10
91.26695283091591
 20
-120.6734266191372
 10
91.25765107310573
 20
-120.6820393578503
 10
91.23353540470899
 20
-120.6968532684369
 10
91.22802325193258
 20
-120.7623100826567
 10
91.22595619464143
 20
-120.7834974198909
 10
91.22595619464143
 20
-120.8427530622372
 10
91.22595619464143
 20
-120.8427530622372
 10
91.30932750538447
 20
-120.8427530622372
 10
91.30932750538447
 20
-120.8427530622372
 10
91.38150225580046
 20
-120.8427530622372
 10
91.53343096669998
 20
-120.8384466928807
 10
91.6426404935824
 20
-120.8300062089418
 10
91.6426404935824
 20
-120.8300062089418
 10
91.6426404935824
 20
-121.0098401932719
 10
91.6426404935824
 20
-121.0098401932719
 10
91.61680227744303
 20
-121.0077731359807
 10
91.51276039378848
 20
-121.0034667666241
 10
91.47762041983893
 20
-121.001399709333
 10
91.4648735665435
 20
-121.0522148677404
 10
91.43524574537037
 20
-121.1643527257853
 10
91.37771265076668
 20
-121.3038790929379
 10
91.41491968200738
 20
-121.3038790929379
 10
91.65745440416897
 20
-121.2849310677691
 10
91.71119789373887
 20
-121.2826917557036
 10
91.71119789373887
 20
-121.2826917557036
 10
91.71119789373887
 20
-121.4668321093902
 10
91.71119789373887
 20
-121.4668321093902
 10
91.68501516805097
 20
-121.4668321093902
 10
91.6702012574644
 20
-121.4625257400337
 10
91.52791881392358
 20
-121.4625257400337
 97
        0
 97
        0
 92
        1
 93
        1
 72
     4
 94
        3
 73
     0
 74
     1
 95
       20
 96
       16
 40
0.0
 40
0.0
 40
0.0
 40
0.0
 40
1.0
 40
1.0
 40
1.0
 40
2.0
 40
2.0
 40
2.0
 40
3.0
 40
3.0
 40
3.0
 40
4.0
 40
4.0
 40
4.0
 40
5.0
 40
5.0
 40
5.0
 40
5.0
 10
90.97790931970344
 20
-120.9972655947507
 10
90.97790931970344
 20
-120.9972655947507
 10
90.95000404627292
 20
-120.9972655947507
 10
90.95000404627292
 20
-120.9972655947507
 10
90.9910006825474
 20
-121.0966565995002
 10
91.01856144642939
 20
-121.1769273243065
 10
91.04818926760254
 20
-121.3038790929379
 10
91.04818926760254
 20
-121.3038790929379
 10
91.2297457996752
 20
-121.3038790929379
 10
91.2297457996752
 20
-121.3038790929379
 10
91.25765107310573
 20
-121.2108615148362
 10
91.2779771364687
 20
-121.1262844206733
 10
91.29830319983168
 20
-120.9972655947507
 10
91.29830319983168
 20
-120.9972655947507
 10
90.97790931970344
 20
-120.9972655947507
 10
90.97790931970344
 20
-120.9972655947507
 97
        0
 97
        0
 92
        1
 93
        1
 72
     4
 94
        3
 73
     0
 74
     1
 95
       17
 96
       13
 40
0.0
 40
0.0
 40
0.0
 40
0.0
 40
1.0
 40
1.0
 40
1.0
 40
2.0
 40
2.0
 40
2.0
 40
3.0
 40
3.0
 40
3.0
 40
4.0
 40
4.0
 40
4.0
 40
4.0
 10
91.03337535701597
 20
-121.8476874152846
 10
91.01856144642939
 20
-121.8771429816835
 10
90.97411971466967
 20
-121.9703328145595
 10
90.96516246640802
 20
-121.9892808397284
 10
91.13156057834559
 20
-122.0485364820747
 10
91.15016409396594
 20
-122.0549099087224
 10
91.213209341346
 20
-122.0824706726044
 10
91.26144067813951
 20
-121.9956542663761
 10
91.28176674150248
 20
-121.9215847134432
 10
91.2945135947979
 20
-121.8476874152846
 10
91.2945135947979
 20
-121.8476874152846
 10
91.03337535701597
 20
-121.8476874152846
 10
91.03337535701597
 20
-121.8476874152846
 97
        0
 97
        0
 75
     2
 76
     1
 98
        0
  0
SPLINE
  5
DA
330
D2
100
AcDbEntity
  8
_U+30EC_U+30A4_U+30E4_U+30FC 1
370
     0
100
AcDbSpline
210
0.0
220
0.0
230
1.0
 70
    11
 71
     3
 72
   203
 73
   199
 74
     0
 42
0.0000000001
 43
0.0000000001
 12
1.0
 22
0.0
 32
0.0
 13
1.0
 23
0.0
 33
0.0
 40
0.0
 40
0.0
 40
0.0
 40
0.0
 40
1.0
 40
1.0
 40
1.0
 40
2.0
 40
2.0
 40
2.0
 40
3.0
 40
3.0
 40
3.0
 40
4.0
 40
4.0
 40
4.0
 40
5.0
 40
5.0
 40
5.0
 40
6.0
 40
6.0
 40
6.0
 40
7.0
 40
7.0
 40
7.0
 40
8.0
 40
8.0
 40
8.0
 40
9.0
 40
9.0
 40
9.0
 40
10.0
 40
10.0
 40
10.0
 40
11.0
 40
11.0
 40
11.0
 40
12.0
 40
12.0
 40
12.0
 40
13.0
 40
13.0
 40
13.0
 40
14.0
 40
14.0
 40
14.0
 40
15.0
 40
15.0
 40
15.0
 40
16.0
 40
16.0
 40
16.0
 40
17.0
 40
17.0
 40
17.0
 40
18.0
 40
18.0
 40
18.0
 40
19.0
 40
19.0
 40
19.0
 40
20.0
 40
20.0
 40
20.0
 40
21.0
 40
21.0
 40
21.0
 40
22.0
 40
22.0
 40
22.0
 40
23.0
 40
23.0
 40
23.0
 40
24.0
 40
24.0
 40
24.0
 40
25.0
 40
25.0
 40
25.0
 40
26.0
 40
26.0
 40
26.0
 40
27.0
 40
27.0
 40
27.0
 40
28.0
 40
28.0
 40
28.0
 40
29.0
 40
29.0
 40
29.0
 40
30.0
 40
30.0
 40
30.0
 40
31.0
 40
31.0
 40
31.0
 40
32.0
 40
32.0
 40
32.0
 40
33.0
 40
33.0
 40
33.0
 40
34.0
 40
34.0
 40
34.0
 40
35.0
 40
35.0
 40
35.0
 40
36.0
 40
36.0
 40
36.0
 40
37.0
 40
37.0
 40
37.0
 40
38.0
 40
38.0
 40
38.0
 40
39.0
 40
39.0
 40
39.0
 40
40.0
 40
40.0
 40
40.0
 40
41.0
 40
41.0
 40
41.0
 40
42.0
 40
42.0
 40
42.0
 40
43.0
 40
43.0
 40
43.0
 40
44.0
 40
44.0
 40
44.0
 40
45.0
 40
45.0
 40
45.0
 40
46.0
 40
46.0
 40
46.0
 40
47.0
 40
47.0
 40
47.0
 40
48.0
 40
48.0
 40
48.0
 40
49.0
 40
49.0
 40
49.0
 40
50.0
 40
50.0
 40
50.0
 40
51.0
 40
51.0
 40
51.0
 40
52.0
 40
52.0
 40
52.0
 40
53.0
 40
53.0
 40
53.0
 40
54.0
 40
54.0
 40
54.0
 40
55.0
 40
55.0
 40
55.0
 40
56.0
 40
56.0
 40
56.0
 40
57.0
 40
57.0
 40
57.0
 40
58.0
 40
58.0
 40
58.0
 40
59.0
 40
59.0
 40
59.0
 40
60.0
 40
60.0
 40
60.0
 40
61.0
 40
61.0
 40
61.0
 40
62.0
 40
62.0
 40
62.0
 40
63.0
 40
63.0
 40
63.0
 40
64.0
 40
64.0
 40
64.0
 40
65.0
 40
65.0
 40
65.0
 40
66.0
 40
66.0
 40
66.0
 40
66.0
 10
93.00965438212954
 20
-121.5302218663188
 30
0.0
 10
93.00965438212954
 20
-121.5302218663188
 30
0.0
 10
92.52079533277258
 20
-121.5302218663188
 30
0.0
 10
92.52079533277258
 20
-121.5302218663188
 30
0.0
 10
92.51149357496242
 20
-121.5746635980786
 30
0.0
 10
92.50425887444338
 20
-121.6063584765429
 30
0.0
 10
92.49323456889059
 20
-121.6445990364291
 30
0.0
 10
92.51528317999619
 20
-121.6445990364291
 30
0.0
 10
92.52837454284013
 20
-121.6466660937203
 30
0.0
 10
92.53388669561653
 20
-121.6466660937203
 30
0.0
 10
92.53388669561653
 20
-121.6466660937203
 30
0.0
 10
92.69856225981148
 20
-121.6466660937203
 30
0.0
 10
92.69856225981148
 20
-121.6466660937203
 30
0.0
 10
92.69856225981148
 20
-121.6466660937203
 30
0.0
 10
93.02653535000726
 20
-121.6466660937203
 30
0.0
 10
93.02653535000726
 20
-121.6466660937203
 30
0.0
 10
93.07063257221846
 20
-121.6466660937203
 30
0.0
 10
93.31902395670497
 20
-121.6339192404249
 30
0.0
 10
93.34658472058697
 20
-121.6339192404249
 30
0.0
 10
93.34486217284434
 20
-121.6614800043069
 30
0.0
 10
93.34313962510171
 20
-121.6804280294757
 30
0.0
 10
93.34313962510171
 20
-121.7100558506489
 30
0.0
 10
93.34107256781057
 20
-121.7417507291132
 30
0.0
 10
93.34107256781057
 20
-121.8771429816835
 30
0.0
 10
93.34107256781057
 20
-121.9047037455655
 30
0.0
 10
93.34107256781057
 20
-121.9047037455655
 30
0.0
 10
93.34107256781057
 20
-122.1501667988895
 30
0.0
 10
93.34107256781057
 20
-122.1501667988895
 30
0.0
 10
93.34107256781057
 20
-122.1946085306493
 30
0.0
 10
93.34486217284434
 20
-122.391323482857
 30
0.0
 10
93.34865177787812
 20
-122.5435967033051
 30
0.0
 10
93.34865177787812
 20
-122.5435967033051
 30
0.0
 10
93.15055878747626
 20
-122.5435967033051
 30
0.0
 10
93.15055878747626
 20
-122.5435967033051
 30
0.0
 10
93.15055878747626
 20
-122.5435967033051
 30
0.0
 10
93.15228133521887
 20
-122.5098347675496
 30
0.0
 10
93.15228133521887
 20
-122.5098347675496
 30
0.0
 10
93.15228133521887
 20
-122.5098347675496
 30
0.0
 10
92.53733179110178
 20
-122.5098347675496
 30
0.0
 10
92.53733179110178
 20
-122.5098347675496
 30
0.0
 10
92.53733179110178
 20
-122.5098347675496
 30
0.0
 10
92.53939884839293
 20
-122.5435967033051
 30
0.0
 10
92.53939884839293
 20
-122.5435967033051
 30
0.0
 10
92.53939884839293
 20
-122.5435967033051
 30
0.0
 10
92.3485405585101
 20
-122.5435967033051
 30
0.0
 10
92.3485405585101
 20
-122.5435967033051
 30
0.0
 10
92.35233016354387
 20
-122.4886474303153
 30
0.0
 10
92.35233016354387
 20
-122.4759005770199
 30
0.0
 10
92.35784231632027
 20
-122.3616956616839
 30
0.0
 10
92.35956486406289
 20
-122.3341348978019
 30
0.0
 10
92.36163192135405
 20
-122.200981957297
 30
0.0
 10
92.36163192135405
 20
-122.1818616773539
 30
0.0
 10
92.36163192135405
 20
-122.1818616773539
 30
0.0
 10
92.36163192135405
 20
-121.9787732984984
 30
0.0
 10
92.36163192135405
 20
-121.9787732984984
 30
0.0
 10
92.23933103162767
 20
-122.2283704664047
 30
0.0
 10
92.09119192576193
 20
-122.3596286043927
 30
0.0
 10
91.99851885720871
 20
-122.4250854186125
 30
0.0
 10
91.99851885720871
 20
-122.4250854186125
 30
0.0
 10
91.84693465585771
 20
-122.2855590514599
 30
0.0
 10
91.84693465585771
 20
-122.2855590514599
 30
0.0
 10
91.92444930427584
 20
-122.2347438930524
 30
0.0
 10
92.05053979903597
 20
-122.1479274868241
 30
0.0
 10
92.1707736314712
 20
-121.9534518466818
 30
0.0
 10
92.25035533718047
 20
-121.8265000780503
 30
0.0
 10
92.30788843178415
 20
-121.6826673415411
 30
0.0
 10
92.33751625295729
 20
-121.5302218663188
 30
0.0
 10
92.1377007148128
 20
-121.5324611783843
 30
0.0
 10
91.98025985113688
 20
-121.538834605032
 30
0.0
 10
91.89688854039383
 20
-121.5409016623231
 30
0.0
 10
91.89688854039383
 20
-121.5409016623231
 30
0.0
 10
91.89688854039383
 20
-121.3631347352842
 30
0.0
 10
91.89688854039383
 20
-121.3631347352842
 30
0.0
 10
92.06914331465633
 20
-121.3695081619319
 30
0.0
 10
92.31719018959431
 20
-121.3738145312885
 30
0.0
 10
92.44844832758234
 20
-121.3738145312885
 30
0.0
 10
92.44844832758234
 20
-121.3738145312885
 30
0.0
 10
92.63551701243141
 20
-121.3738145312885
 30
0.0
 10
92.63551701243141
 20
-121.3738145312885
 30
0.0
 10
92.63551701243141
 20
-121.3738145312885
 30
0.0
 10
92.63551701243141
 20
-121.2658107878259
 30
0.0
 10
92.63551701243141
 20
-121.2658107878259
 30
0.0
 10
92.63551701243141
 20
-121.2658107878259
 30
0.0
 10
92.50770396992863
 20
-121.2658107878259
 30
0.0
 10
92.50770396992863
 20
-121.2658107878259
 30
0.0
 10
92.35956486406289
 20
-121.2658107878259
 30
0.0
 10
92.21142575819715
 20
-121.2701171571825
 30
0.0
 10
92.06535370962256
 20
-121.2764905838302
 30
0.0
 10
92.06535370962256
 20
-121.2764905838302
 30
0.0
 10
92.06535370962256
 20
-121.105097083439
 30
0.0
 10
92.06535370962256
 20
-121.105097083439
 30
0.0
 10
92.20040145264434
 20
-121.115604624669
 30
0.0
 10
92.36335446909666
 20
-121.115604624669
 30
0.0
 10
92.50770396992863
 20
-121.115604624669
 30
0.0
 10
92.50770396992863
 20
-121.115604624669
 30
0.0
 10
92.63551701243141
 20
-121.115604624669
 30
0.0
 10
92.63551701243141
 20
-121.115604624669
 30
0.0
 10
92.63551701243141
 20
-121.115604624669
 30
0.0
 10
92.63551701243141
 20
-120.9972655947507
 30
0.0
 10
92.63551701243141
 20
-120.9972655947507
 30
0.0
 10
92.63551701243141
 20
-120.9972655947507
 30
0.0
 10
92.52079533277258
 20
-120.9972655947507
 30
0.0
 10
92.52079533277258
 20
-120.9972655947507
 30
0.0
 10
92.48014320604663
 20
-120.9972655947507
 30
0.0
 10
92.30237627900775
 20
-121.0057060786896
 30
0.0
 10
92.26516924776705
 20
-121.0057060786896
 30
0.0
 10
92.08740232072816
 20
-121.0098401932719
 30
0.0
 10
92.02091197786284
 20
-121.011907250563
 30
0.0
 10
91.95235457770636
 20
-121.0141465626284
 30
0.0
 10
91.95235457770636
 20
-121.0141465626284
 30
0.0
 10
91.95235457770636
 20
-120.8300062089418
 30
0.0
 10
91.95235457770636
 20
-120.8300062089418
 30
0.0
 10
92.0522623467786
 20
-120.8384466928807
 30
0.0
 10
92.09119192576193
 20
-120.8384466928807
 30
0.0
 10
92.42639971647674
 20
-120.8470594315938
 30
0.0
 10
92.37093367916421
 20
-120.7518025414266
 30
0.0
 10
92.34681801076746
 20
-120.7242417775446
 30
0.0
 10
92.3154676418517
 20
-120.6882405297238
 30
0.0
 10
92.3154676418517
 20
-120.6882405297238
 30
0.0
 10
92.46911890049384
 20
-120.605730492852
 30
0.0
 10
92.46911890049384
 20
-120.605730492852
 30
0.0
 10
92.50425887444338
 20
-120.6417317406729
 30
0.0
 10
92.54318845342671
 20
-120.6841064151415
 30
0.0
 10
92.6079562485494
 20
-120.7940049611209
 30
0.0
 10
92.6079562485494
 20
-120.7940049611209
 30
0.0
 10
92.50770396992863
 20
-120.8491264888849
 30
0.0
 10
92.50770396992863
 20
-120.8491264888849
 30
0.0
 10
92.50770396992863
 20
-120.8491264888849
 30
0.0
 10
92.5170057277388
 20
-120.8491264888849
 30
0.0
 10
92.5170057277388
 20
-120.8491264888849
 30
0.0
 10
92.5170057277388
 20
-120.8491264888849
 30
0.0
 10
92.97451440817999
 20
-120.8491264888849
 30
0.0
 10
92.97451440817999
 20
-120.8491264888849
 30
0.0
 10
92.97451440817999
 20
-120.8491264888849
 30
0.0
 10
92.89114309743694
 20
-120.8046847571252
 30
0.0
 10
92.89114309743694
 20
-120.8046847571252
 30
0.0
 10
92.91525876583368
 20
-120.7666164520132
 30
0.0
 10
92.9652126503698
 20
-120.6861734724326
 30
0.0
 10
92.97830401321376
 20
-120.6121039194998
 30
0.0
 10
92.97830401321376
 20
-120.6121039194998
 30
0.0
 10
93.16537269806282
 20
-120.6756659312026
 30
0.0
 10
93.16537269806282
 20
-120.6756659312026
 30
0.0
 10
93.17260739858185
 20
-120.6777329884938
 30
0.0
 10
93.1912109142022
 20
-120.6882405297238
 30
0.0
 10
93.1912109142022
 20
-120.7094278669581
 30
0.0
 10
93.1912109142022
 20
-120.7474961720701
 30
0.0
 10
93.13367781959853
 20
-120.7474961720701
 30
0.0
 10
93.11714136126933
 20
-120.7474961720701
 30
0.0
 10
93.10783960345915
 20
-120.7666164520132
 30
0.0
 10
93.08751354009618
 20
-120.8067518144164
 30
0.0
 10
93.0616753239568
 20
-120.8470594315938
 30
0.0
 10
93.41169702525819
 20
-120.8406860049461
 30
0.0
 10
93.43753524139757
 20
-120.8384466928807
 30
0.0
 10
93.50402558426289
 20
-120.8322455210072
 30
0.0
 10
93.50402558426289
 20
-120.8322455210072
 30
0.0
 10
93.50402558426289
 20
-121.0141465626284
 30
0.0
 10
93.50402558426289
 20
-121.0141465626284
 30
0.0
 10
93.48748912593369
 20
-121.0141465626284
 30
0.0
 10
93.46509600527956
 20
-121.011907250563
 30
0.0
 10
93.27251516765409
 20
-121.0034667666241
 30
0.0
 10
93.22807343589437
 20
-121.001399709333
 30
0.0
 10
93.0354925982689
 20
-120.9972655947507
 30
0.0
 10
92.99690752883411
 20
-120.9972655947507
 30
0.0
 10
92.99690752883411
 20
-120.9972655947507
 30
0.0
 10
92.80777178669389
 20
-120.9972655947507
 30
0.0
 10
92.80777178669389
 20
-120.9972655947507
 30
0.0
 10
92.80777178669389
 20
-120.9972655947507
 30
0.0
 10
92.80777178669389
 20
-121.115604624669
 30
0.0
 10
92.80777178669389
 20
-121.115604624669
 30
0.0
 10
92.80777178669389
 20
-121.115604624669
 30
0.0
 10
92.95970049759342
 20
-121.115604624669
 30
0.0
 10
92.95970049759342
 20
-121.115604624669
 30
0.0
 10
93.10232745068275
 20
-121.115604624669
 30
0.0
 10
93.26907007216884
 20
-121.115604624669
 30
0.0
 10
93.40584036293326
 20
-121.105097083439
 30
0.0
 10
93.40584036293326
 20
-121.105097083439
 30
0.0
 10
93.40584036293326
 20
-121.2764905838302
 30
0.0
 10
93.40584036293326
 20
-121.2764905838302
 30
0.0
 10
93.22256128311797
 20
-121.2680500998913
 30
0.0
 10
93.05030650885548
 20
-121.2658107878259
 30
0.0
 10
92.95970049759342
 20
-121.2658107878259
 30
0.0
 10
92.95970049759342
 20
-121.2658107878259
 30
0.0
 10
92.80777178669389
 20
-121.2658107878259
 30
0.0
 10
92.80777178669389
 20
-121.2658107878259
 30
0.0
 10
92.80777178669389
 20
-121.2658107878259
 30
0.0
 10
92.80777178669389
 20
-121.3738145312885
 30
0.0
 10
92.80777178669389
 20
-121.3738145312885
 30
0.0
 10
92.80777178669389
 20
-121.3738145312885
 30
0.0
 10
93.00965438212954
 20
-121.3738145312885
 30
0.0
 10
93.00965438212954
 20
-121.3738145312885
 30
0.0
 10
93.12644311907951
 20
-121.3738145312885
 30
0.0
 10
93.37827959905127
 20
-121.3695081619319
 30
0.0
 10
93.56155867886656
 20
-121.3631347352842
 30
0.0
 10
93.56155867886656
 20
-121.3631347352842
 30
0.0
 10
93.56155867886656
 20
-121.5409016623231
 30
0.0
 10
93.56155867886656
 20
-121.5409016623231
 30
0.0
 10
93.39309350963784
 20
-121.5345282356754
 30
0.0
 10
93.11886390901195
 20
-121.5302218663188
 30
0.0
 10
93.00965438212954
 20
-121.5302218663188
 30
0.0
  0
POLYLINE
  5
DB
330
D2
100
AcDbEntity
  8
_U+30EC_U+30A4_U+30E4_U+30FC 1
370
     0
100
AcDb2dPolyline
 66
     1
 10
0.0
 20
0.0
 30
0.0
  0
VERTEX
  5
DC
330
DB
100
AcDbEntity
  8
_U+30EC_U+30A4_U+30E4_U+30FC 1
370
     0
100
AcDbVertex
100
AcDb2dVertex
 10
93.1540038829615
 20
-121.7861924608729
 30
0.0
  0
VERTEX
  5
DD
330
DB
100
AcDbEntity
  8
_U+30EC_U+30A4_U+30E4_U+30FC 1
370
     0
100
AcDbVertex
100
AcDb2dVertex
 10
92.53560924335916
 20
-121.7861924608729
 30
0.0
  0
VERTEX
  5
DE
330
DB
100
AcDbEntity
  8
_U+30EC_U+30A4_U+30E4_U+30FC 1
370
     0
100
AcDbVertex
100
AcDb2dVertex
 10
92.53560924335916
 20
-121.8941962043355
 30
0.0
  0
VERTEX
  5
DF
330
DB
100
AcDbEntity
  8
_U+30EC_U+30A4_U+30E4_U+30FC 1
370
     0
100
AcDbVertex
100
AcDb2dVertex
 10
93.1540038829615
 20
-121.8941962043355
 30
0.0
  0
VERTEX
  5
E0
330
DB
100
AcDbEntity
  8
_U+30EC_U+30A4_U+30E4_U+30FC 1
370
     0
100
AcDbVertex
100
AcDb2dVertex
 10
93.1540038829615
 20
-121.7861924608729
 30
0.0
  0
SEQEND
  5
E1
330
DB
100
AcDbEntity
  8
_U+30EC_U+30A4_U+30E4_U+30FC 1
370
     0
  0
POLYLINE
  5
E2
330
D2
100
AcDbEntity
  8
_U+30EC_U+30A4_U+30E4_U+30FC 1
370
     0
100
AcDb2dPolyline
 66
     1
 10
0.0
 20
0.0
 30
0.0
  0
VERTEX
  5
E3
330
E2
100
AcDbEntity
  8
_U+30EC_U+30A4_U+30E4_U+30FC 1
370
     0
100
AcDbVertex
100
AcDb2dVertex
 10
93.1540038829615
 20
-122.0189086609015
 30
0.0
  0
VERTEX
  5
E4
330
E2
100
AcDbEntity
  8
_U+30EC_U+30A4_U+30E4_U+30FC 1
370
     0
100
AcDbVertex
100
AcDb2dVertex
 10
92.53560924335916
 20
-122.0189086609015
 30
0.0
  0
VERTEX
  5
E5
330
E2
100
AcDbEntity
  8
_U+30EC_U+30A4_U+30E4_U+30FC 1
370
     0
100
AcDbVertex
100
AcDb2dVertex
 10
92.53560924335916
 20
-122.1332858310118
 30
0.0
  0
VERTEX
  5
E6
330
E2
100
AcDbEntity
  8
_U+30EC_U+30A4_U+30E4_U+30FC 1
370
     0
100
AcDbVertex
100
AcDb2dVertex
 10
93.1540038829615
 20
-122.1332858310118
 30
0.0
  0
VERTEX
  5
E7
330
E2
100
AcDbEntity
  8
_U+30EC_U+30A4_U+30E4_U+30FC 1
370
     0
100
AcDbVertex
100
AcDb2dVertex
 10
93.1540038829615
 20
-122.0189086609015
 30
0.0
  0
SEQEND
  5
E8
330
E2
100
AcDbEntity
  8
_U+30EC_U+30A4_U+30E4_U+30FC 1
370
     0
  0
POLYLINE
  5
E9
330
D2
100
AcDbEntity
  8
_U+30EC_U+30A4_U+30E4_U+30FC 1
370
     0
100
AcDb2dPolyline
 66
     1
 10
0.0
 20
0.0
 30
0.0
  0
VERTEX
  5
EA
330
E9
100
AcDbEntity
  8
_U+30EC_U+30A4_U+30E4_U+30FC 1
370
     0
100
AcDbVertex
100
AcDb2dVertex
 10
93.1540038829615
 20
-122.2623046569344
 30
0.0
  0
VERTEX
  5
EB
330
E9
100
AcDbEntity
  8
_U+30EC_U+30A4_U+30E4_U+30FC 1
370
     0
100
AcDbVertex
100
AcDb2dVertex
 10
92.53560924335916
 20
-122.2623046569344
 30
0.0
  0
VERTEX
  5
EC
330
E9
100
AcDbEntity
  8
_U+30EC_U+30A4_U+30E4_U+30FC 1
370
     0
100
AcDbVertex
100
AcDb2dVertex
 10
92.53560924335916
 20
-122.3765095722705
 30
0.0
  0
VERTEX
  5
ED
330
E9
100
AcDbEntity
  8
_U+30EC_U+30A4_U+30E4_U+30FC 1
370
     0
100
AcDbVertex
100
AcDb2dVertex
 10
93.1540038829615
 20
-122.3765095722705
 30
0.0
  0
VERTEX
  5
EE
330
E9
100
AcDbEntity
  8
_U+30EC_U+30A4_U+30E4_U+30FC 1
370
     0
100
AcDbVertex
100
AcDb2dVertex
 10
93.1540038829615
 20
-122.2623046569344
 30
0.0
  0
SEQEND
  5
EF
330
E9
100
AcDbEntity
  8
_U+30EC_U+30A4_U+30E4_U+30FC 1
370
     0
  0
HATCH
  5
F0
330
D2
100
AcDbEntity
  8
_U+30EC_U+30A4_U+30E4_U+30FC 1
 62
   179
420
  2234388
100
AcDbHatch
 10
0.0
 20
0.0
 30
0.0
210
0.0
220
0.0
230
1.0
  2
SOLID
 70
     1
 71
     0
 91
        4
 92
        1
 93
        1
 72
     4
 94
        3
 73
     0
 74
     1
 95
      203
 96
      199
 40
0.0
 40
0.0
 40
0.0
 40
0.0
 40
1.0
 40
1.0
 40
1.0
 40
2.0
 40
2.0
 40
2.0
 40
3.0
 40
3.0
 40
3.0
 40
4.0
 40
4.0
 40
4.0
 40
5.0
 40
5.0
 40
5.0
 40
6.0
 40
6.0
 40
6.0
 40
7.0
 40
7.0
 40
7.0
 40
8.0
 40
8.0
 40
8.0
 40
9.0
 40
9.0
 40
9.0
 40
10.0
 40
10.0
 40
10.0
 40
11.0
 40
11.0
 40
11.0
 40
12.0
 40
12.0
 40
12.0
 40
13.0
 40
13.0
 40
13.0
 40
14.0
 40
14.0
 40
14.0
 40
15.0
 40
15.0
 40
15.0
 40
16.0
 40
16.0
 40
16.0
 40
17.0
 40
17.0
 40
17.0
 40
18.0
 40
18.0
 40
18.0
 40
19.0
 40
19.0
 40
19.0
 40
20.0
 40
20.0
 40
20.0
 40
21.0
 40
21.0
 40
21.0
 40
22.0
 40
22.0
 40
22.0
 40
23.0
 40
23.0
 40
23.0
 40
24.0
 40
24.0
 40
24.0
 40
25.0
 40
25.0
 40
25.0
 40
26.0
 40
26.0
 40
26.0
 40
27.0
 40
27.0
 40
27.0
 40
28.0
 40
28.0
 40
28.0
 40
29.0
 40
29.0
 40
29.0
 40
30.0
 40
30.0
 40
30.0
 40
31.0
 40
31.0
 40
31.0
 40
32.0
 40
32.0
 40
32.0
 40
33.0
 40
33.0
 40
33.0
 40
34.0
 40
34.0
 40
34.0
 40
35.0
 40
35.0
 40
35.0
 40
36.0
 40
36.0
 40
36.0
 40
37.0
 40
37.0
 40
37.0
 40
38.0
 40
38.0
 40
38.0
 40
39.0
 40
39.0
 40
39.0
 40
40.0
 40
40.0
 40
40.0
 40
41.0
 40
41.0
 40
41.0
 40
42.0
 40
42.0
 40
42.0
 40
43.0
 40
43.0
 40
43.0
 40
44.0
 40
44.0
 40
44.0
 40
45.0
 40
45.0
 40
45.0
 40
46.0
 40
46.0
 40
46.0
 40
47.0
 40
47.0
 40
47.0
 40
48.0
 40
48.0
 40
48.0
 40
49.0
 40
49.0
 40
49.0
 40
50.0
 40
50.0
 40
50.0
 40
51.0
 40
51.0
 40
51.0
 40
52.0
 40
52.0
 40
52.0
 40
53.0
 40
53.0
 40
53.0
 40
54.0
 40
54.0
 40
54.0
 40
55.0
 40
55.0
 40
55.0
 40
56.0
 40
56.0
 40
56.0
 40
57.0
 40
57.0
 40
57.0
 40
58.0
 40
58.0
 40
58.0
 40
59.0
 40
59.0
 40
59.0
 40
60.0
 40
60.0
 40
60.0
 40
61.0
 40
61.0
 40
61.0
 40
62.0
 40
62.0
 40
62.0
 40
63.0
 40
63.0
 40
63.0
 40
64.0
 40
64.0
 40
64.0
 40
65.0
 40
65.0
 40
65.0
 40
66.0
 40
66.0
 40
66.0
 40
66.0
 10
93.00965438212954
 20
-121.5302218663188
 10
93.00965438212954
 20
-121.5302218663188
 10
92.52079533277258
 20
-121.5302218663188
 10
92.52079533277258
 20
-121.5302218663188
 10
92.51149357496242
 20
-121.5746635980786
 10
92.50425887444338
 20
-121.6063584765429
 10
92.49323456889059
 20
-121.6445990364291
 10
92.51528317999619
 20
-121.6445990364291
 10
92.52837454284013
 20
-121.6466660937203
 10
92.53388669561653
 20
-121.6466660937203
 10
92.53388669561653
 20
-121.6466660937203
 10
92.69856225981148
 20
-121.6466660937203
 10
92.69856225981148
 20
-121.6466660937203
 10
92.69856225981148
 20
-121.6466660937203
 10
93.02653535000726
 20
-121.6466660937203
 10
93.02653535000726
 20
-121.6466660937203
 10
93.07063257221846
 20
-121.6466660937203
 10
93.31902395670497
 20
-121.6339192404249
 10
93.34658472058697
 20
-121.6339192404249
 10
93.34486217284434
 20
-121.6614800043069
 10
93.34313962510171
 20
-121.6804280294757
 10
93.34313962510171
 20
-121.7100558506489
 10
93.34107256781057
 20
-121.7417507291132
 10
93.34107256781057
 20
-121.8771429816835
 10
93.34107256781057
 20
-121.9047037455655
 10
93.34107256781057
 20
-121.9047037455655
 10
93.34107256781057
 20
-122.1501667988895
 10
93.34107256781057
 20
-122.1501667988895
 10
93.34107256781057
 20
-122.1946085306493
 10
93.34486217284434
 20
-122.391323482857
 10
93.34865177787812
 20
-122.5435967033051
 10
93.34865177787812
 20
-122.5435967033051
 10
93.15055878747626
 20
-122.5435967033051
 10
93.15055878747626
 20
-122.5435967033051
 10
93.15055878747626
 20
-122.5435967033051
 10
93.15228133521887
 20
-122.5098347675496
 10
93.15228133521887
 20
-122.5098347675496
 10
93.15228133521887
 20
-122.5098347675496
 10
92.53733179110178
 20
-122.5098347675496
 10
92.53733179110178
 20
-122.5098347675496
 10
92.53733179110178
 20
-122.5098347675496
 10
92.53939884839293
 20
-122.5435967033051
 10
92.53939884839293
 20
-122.5435967033051
 10
92.53939884839293
 20
-122.5435967033051
 10
92.3485405585101
 20
-122.5435967033051
 10
92.3485405585101
 20
-122.5435967033051
 10
92.35233016354387
 20
-122.4886474303153
 10
92.35233016354387
 20
-122.4759005770199
 10
92.35784231632027
 20
-122.3616956616839
 10
92.35956486406289
 20
-122.3341348978019
 10
92.36163192135405
 20
-122.200981957297
 10
92.36163192135405
 20
-122.1818616773539
 10
92.36163192135405
 20
-122.1818616773539
 10
92.36163192135405
 20
-121.9787732984984
 10
92.36163192135405
 20
-121.9787732984984
 10
92.23933103162767
 20
-122.2283704664047
 10
92.09119192576193
 20
-122.3596286043927
 10
91.99851885720871
 20
-122.4250854186125
 10
91.99851885720871
 20
-122.4250854186125
 10
91.84693465585771
 20
-122.2855590514599
 10
91.84693465585771
 20
-122.2855590514599
 10
91.92444930427584
 20
-122.2347438930524
 10
92.05053979903597
 20
-122.1479274868241
 10
92.1707736314712
 20
-121.9534518466818
 10
92.25035533718047
 20
-121.8265000780503
 10
92.30788843178415
 20
-121.6826673415411
 10
92.33751625295729
 20
-121.5302218663188
 10
92.1377007148128
 20
-121.5324611783843
 10
91.98025985113688
 20
-121.538834605032
 10
91.89688854039383
 20
-121.5409016623231
 10
91.89688854039383
 20
-121.5409016623231
 10
91.89688854039383
 20
-121.3631347352842
 10
91.89688854039383
 20
-121.3631347352842
 10
92.06914331465633
 20
-121.3695081619319
 10
92.31719018959431
 20
-121.3738145312885
 10
92.44844832758234
 20
-121.3738145312885
 10
92.44844832758234
 20
-121.3738145312885
 10
92.63551701243141
 20
-121.3738145312885
 10
92.63551701243141
 20
-121.3738145312885
 10
92.63551701243141
 20
-121.3738145312885
 10
92.63551701243141
 20
-121.2658107878259
 10
92.63551701243141
 20
-121.2658107878259
 10
92.63551701243141
 20
-121.2658107878259
 10
92.50770396992863
 20
-121.2658107878259
 10
92.50770396992863
 20
-121.2658107878259
 10
92.35956486406289
 20
-121.2658107878259
 10
92.21142575819715
 20
-121.2701171571825
 10
92.06535370962256
 20
-121.2764905838302
 10
92.06535370962256
 20
-121.2764905838302
 10
92.06535370962256
 20
-121.105097083439
 10
92.06535370962256
 20
-121.105097083439
 10
92.20040145264434
 20
-121.115604624669
 10
92.36335446909666
 20
-121.115604624669
 10
92.50770396992863
 20
-121.115604624669
 10
92.50770396992863
 20
-121.115604624669
 10
92.63551701243141
 20
-121.115604624669
 10
92.63551701243141
 20
-121.115604624669
 10
92.63551701243141
 20
-121.115604624669
 10
92.63551701243141
 20
-120.9972655947507
 10
92.63551701243141
 20
-120.9972655947507
 10
92.63551701243141
 20
-120.9972655947507
 10
92.52079533277258
 20
-120.9972655947507
 10
92.52079533277258
 20
-120.9972655947507
 10
92.48014320604663
 20
-120.9972655947507
 10
92.30237627900775
 20
-121.0057060786896
 10
92.26516924776705
 20
-121.0057060786896
 10
92.08740232072816
 20
-121.0098401932719
 10
92.02091197786284
 20
-121.011907250563
 10
91.95235457770636
 20
-121.0141465626284
 10
91.95235457770636
 20
-121.0141465626284
 10
91.95235457770636
 20
-120.8300062089418
 10
91.95235457770636
 20
-120.8300062089418
 10
92.0522623467786
 20
-120.8384466928807
 10
92.09119192576193
 20
-120.8384466928807
 10
92.42639971647674
 20
-120.8470594315938
 10
92.37093367916421
 20
-120.7518025414266
 10
92.34681801076746
 20
-120.7242417775446
 10
92.3154676418517
 20
-120.6882405297238
 10
92.3154676418517
 20
-120.6882405297238
 10
92.46911890049384
 20
-120.605730492852
 10
92.46911890049384
 20
-120.605730492852
 10
92.50425887444338
 20
-120.6417317406729
 10
92.54318845342671
 20
-120.6841064151415
 10
92.6079562485494
 20
-120.7940049611209
 10
92.6079562485494
 20
-120.7940049611209
 10
92.50770396992863
 20
-120.8491264888849
 10
92.50770396992863
 20
-120.8491264888849
 10
92.50770396992863
 20
-120.8491264888849
 10
92.5170057277388
 20
-120.8491264888849
 10
92.5170057277388
 20
-120.8491264888849
 10
92.5170057277388
 20
-120.8491264888849
 10
92.97451440817999
 20
-120.8491264888849
 10
92.97451440817999
 20
-120.8491264888849
 10
92.97451440817999
 20
-120.8491264888849
 10
92.89114309743694
 20
-120.8046847571252
 10
92.89114309743694
 20
-120.8046847571252
 10
92.91525876583368
 20
-120.7666164520132
 10
92.9652126503698
 20
-120.6861734724326
 10
92.97830401321376
 20
-120.6121039194998
 10
92.97830401321376
 20
-120.6121039194998
 10
93.16537269806282
 20
-120.6756659312026
 10
93.16537269806282
 20
-120.6756659312026
 10
93.17260739858185
 20
-120.6777329884938
 10
93.1912109142022
 20
-120.6882405297238
 10
93.1912109142022
 20
-120.7094278669581
 10
93.1912109142022
 20
-120.7474961720701
 10
93.13367781959853
 20
-120.7474961720701
 10
93.11714136126933
 20
-120.7474961720701
 10
93.10783960345915
 20
-120.7666164520132
 10
93.08751354009618
 20
-120.8067518144164
 10
93.0616753239568
 20
-120.8470594315938
 10
93.41169702525819
 20
-120.8406860049461
 10
93.43753524139757
 20
-120.8384466928807
 10
93.50402558426289
 20
-120.8322455210072
 10
93.50402558426289
 20
-120.8322455210072
 10
93.50402558426289
 20
-121.0141465626284
 10
93.50402558426289
 20
-121.0141465626284
 10
93.48748912593369
 20
-121.0141465626284
 10
93.46509600527956
 20
-121.011907250563
 10
93.27251516765409
 20
-121.0034667666241
 10
93.22807343589437
 20
-121.001399709333
 10
93.0354925982689
 20
-120.9972655947507
 10
92.99690752883411
 20
-120.9972655947507
 10
92.99690752883411
 20
-120.9972655947507
 10
92.80777178669389
 20
-120.9972655947507
 10
92.80777178669389
 20
-120.9972655947507
 10
92.80777178669389
 20
-120.9972655947507
 10
92.80777178669389
 20
-121.115604624669
 10
92.80777178669389
 20
-121.115604624669
 10
92.80777178669389
 20
-121.115604624669
 10
92.95970049759342
 20
-121.115604624669
 10
92.95970049759342
 20
-121.115604624669
 10
93.10232745068275
 20
-121.115604624669
 10
93.26907007216884
 20
-121.115604624669
 10
93.40584036293326
 20
-121.105097083439
 10
93.40584036293326
 20
-121.105097083439
 10
93.40584036293326
 20
-121.2764905838302
 10
93.40584036293326
 20
-121.2764905838302
 10
93.22256128311797
 20
-121.2680500998913
 10
93.05030650885548
 20
-121.2658107878259
 10
92.95970049759342
 20
-121.2658107878259
 10
92.95970049759342
 20
-121.2658107878259
 10
92.80777178669389
 20
-121.2658107878259
 10
92.80777178669389
 20
-121.2658107878259
 10
92.80777178669389
 20
-121.2658107878259
 10
92.80777178669389
 20
-121.3738145312885
 10
92.80777178669389
 20
-121.3738145312885
 10
92.80777178669389
 20
-121.3738145312885
 10
93.00965438212954
 20
-121.3738145312885
 10
93.00965438212954
 20
-121.3738145312885
 10
93.12644311907951
 20
-121.3738145312885
 10
93.37827959905127
 20
-121.3695081619319
 10
93.56155867886656
 20
-121.3631347352842
 10
93.56155867886656
 20
-121.3631347352842
 10
93.56155867886656
 20
-121.5409016623231
 10
93.56155867886656
 20
-121.5409016623231
 10
93.39309350963784
 20
-121.5345282356754
 10
93.11886390901195
 20
-121.5302218663188
 10
93.00965438212954
 20
-121.5302218663188
 97
        0
 97
        0
 92
        1
 93
        4
 72
     1
 10
93.1540038829615
 20
-121.7861924608729
 11
92.53560924335916
 21
-121.7861924608729
 72
     1
 10
92.53560924335916
 20
-121.7861924608729
 11
92.53560924335916
 21
-121.8941962043355
 72
     1
 10
92.53560924335916
 20
-121.8941962043355
 11
93.1540038829615
 21
-121.8941962043355
 72
     1
 10
93.1540038829615
 20
-121.8941962043355
 11
93.1540038829615
 21
-121.7861924608729
 97
        0
 92
        1
 93
        4
 72
     1
 10
93.1540038829615
 20
-122.0189086609015
 11
92.53560924335916
 21
-122.0189086609015
 72
     1
 10
92.53560924335916
 20
-122.0189086609015
 11
92.53560924335916
 21
-122.1332858310118
 72
     1
 10
92.53560924335916
 20
-122.1332858310118
 11
93.1540038829615
 21
-122.1332858310118
 72
     1
 10
93.1540038829615
 20
-122.1332858310118
 11
93.1540038829615
 21
-122.0189086609015
 97
        0
 92
        1
 93
        4
 72
     1
 10
93.1540038829615
 20
-122.2623046569344
 11
92.53560924335916
 21
-122.2623046569344
 72
     1
 10
92.53560924335916
 20
-122.2623046569344
 11
92.53560924335916
 21
-122.3765095722705
 72
     1
 10
92.53560924335916
 20
-122.3765095722705
 11
93.1540038829615
 21
-122.3765095722705
 72
     1
 10
93.1540038829615
 20
-122.3765095722705
 11
93.1540038829615
 21
-122.2623046569344
 97
        0
 75
     2
 76
     1
 98
        0
  0
SPLINE
  5
F1
330
D2
100
AcDbEntity
  8
_U+30EC_U+30A4_U+30E4_U+30FC 1
370
     0
100
AcDbSpline
210
0.0
220
0.0
230
1.0
 70
    11
 71
     3
 72
    47
 73
    43
 74
     0
 42
0.0000000001
 43
0.0000000001
 12
1.0
 22
0.0
 32
0.0
 13
1.0
 23
0.0
 33
0.0
 40
0.0
 40
0.0
 40
0.0
 40
0.0
 40
1.0
 40
1.0
 40
1.0
 40
2.0
 40
2.0
 40
2.0
 40
3.0
 40
3.0
 40
3.0
 40
4.0
 40
4.0
 40
4.0
 40
5.0
 40
5.0
 40
5.0
 40
6.0
 40
6.0
 40
6.0
 40
7.0
 40
7.0
 40
7.0
 40
8.0
 40
8.0
 40
8.0
 40
9.0
 40
9.0
 40
9.0
 40
10.0
 40
10.0
 40
10.0
 40
11.0
 40
11.0
 40
11.0
 40
12.0
 40
12.0
 40
12.0
 40
13.0
 40
13.0
 40
13.0
 40
14.0
 40
14.0
 40
14.0
 40
14.0
 10
94.74150388256463
 20
-121.5069674717934
 30
0.0
 10
94.74150388256463
 20
-121.5069674717934
 30
0.0
 10
94.65262041904518
 20
-121.5069674717934
 30
0.0
 10
94.65262041904518
 20
-121.5069674717934
 30
0.0
 10
94.65262041904518
 20
-121.5937838780217
 30
0.0
 10
94.63401690342484
 20
-121.9830796678549
 30
0.0
 10
94.46176212916234
 20
-122.2030490145881
 30
0.0
 10
94.32843693388317
 20
-122.3722032029139
 30
0.0
 10
94.1468804018105
 20
-122.4421386412645
 30
0.0
 10
94.07281084887764
 20
-122.4695271503722
 30
0.0
 10
94.07281084887764
 20
-122.4695271503722
 30
0.0
 10
93.9026231319063
 20
-122.3024400193376
 30
0.0
 10
93.9026231319063
 20
-122.3024400193376
 30
0.0
 10
93.98771699039196
 20
-122.2896931660422
 30
0.0
 10
94.1413682490341
 20
-122.2664387715167
 30
0.0
 10
94.30604381322905
 20
-122.0781643032478
 30
0.0
 10
94.37115611790027
 20
-122.0063340623804
 30
0.0
 10
94.46176212916234
 20
-121.8666354404535
 30
0.0
 10
94.46176212916234
 20
-121.5069674717934
 30
0.0
 10
94.46176212916234
 20
-121.5069674717934
 30
0.0
 10
94.2598795337267
 20
-121.5069674717934
 30
0.0
 10
94.2598795337267
 20
-121.5069674717934
 30
0.0
 10
94.09692651727438
 20
-121.5069674717934
 30
0.0
 10
93.93397350082206
 20
-121.51127384115
 30
0.0
 10
93.77102048436974
 20
-121.5260877517365
 30
0.0
 10
93.77102048436974
 20
-121.5260877517365
 30
0.0
 10
93.77102048436974
 20
-121.3061184050033
 30
0.0
 10
93.77102048436974
 20
-121.3061184050033
 30
0.0
 10
93.93604055811322
 20
-121.3209323155899
 30
0.0
 10
94.18580998079383
 20
-121.3250664301722
 30
0.0
 10
94.2598795337267
 20
-121.3250664301722
 30
0.0
 10
94.2598795337267
 20
-121.3250664301722
 30
0.0
 10
94.74150388256463
 20
-121.3250664301722
 30
0.0
 10
94.74150388256463
 20
-121.3250664301722
 30
0.0
 10
94.75804034089383
 20
-121.3250664301722
 30
0.0
 10
95.03571503700496
 20
-121.3250664301722
 30
0.0
 10
95.23587508469798
 20
-121.3061184050033
 30
0.0
 10
95.23587508469798
 20
-121.3061184050033
 30
0.0
 10
95.23587508469798
 20
-121.5260877517365
 30
0.0
 10
95.23587508469798
 20
-121.5260877517365
 30
0.0
 10
95.07085501095452
 20
-121.51127384115
 30
0.0
 10
94.90617944675957
 20
-121.5069674717934
 30
0.0
 10
94.74150388256463
 20
-121.5069674717934
 30
0.0
  0
SPLINE
  5
F2
330
D2
100
AcDbEntity
  8
_U+30EC_U+30A4_U+30E4_U+30FC 1
370
     0
100
AcDbSpline
210
0.0
220
0.0
230
1.0
 70
    11
 71
     3
 72
    29
 73
    25
 74
     0
 42
0.0000000001
 43
0.0000000001
 12
1.0
 22
0.0
 32
0.0
 13
1.0
 23
0.0
 33
0.0
 40
0.0
 40
0.0
 40
0.0
 40
0.0
 40
1.0
 40
1.0
 40
1.0
 40
2.0
 40
2.0
 40
2.0
 40
3.0
 40
3.0
 40
3.0
 40
4.0
 40
4.0
 40
4.0
 40
5.0
 40
5.0
 40
5.0
 40
6.0
 40
6.0
 40
6.0
 40
7.0
 40
7.0
 40
7.0
 40
8.0
 40
8.0
 40
8.0
 40
8.0
 10
94.65262041904518
 20
-120.9781453148075
 30
0.0
 10
94.65262041904518
 20
-120.9781453148075
 30
0.0
 10
94.34325084446975
 20
-120.9781453148075
 30
0.0
 10
94.34325084446975
 20
-120.9781453148075
 30
0.0
 10
94.24506562314012
 20
-120.9781453148075
 30
0.0
 10
94.12276473341376
 20
-120.9845187414553
 30
0.0
 10
94.02836911711792
 20
-120.9972655947507
 30
0.0
 10
94.02836911711792
 20
-120.9972655947507
 30
0.0
 10
94.02836911711792
 20
-120.7623100826567
 30
0.0
 10
94.02836911711792
 20
-120.7623100826567
 30
0.0
 10
94.13206649122394
 20
-120.7771239932432
 30
0.0
 10
94.29329695993363
 20
-120.7814303625998
 30
0.0
 10
94.34325084446975
 20
-120.7814303625998
 30
0.0
 10
94.34325084446975
 20
-120.7814303625998
 30
0.0
 10
94.65262041904518
 20
-120.7814303625998
 30
0.0
 10
94.65262041904518
 20
-120.7814303625998
 30
0.0
 10
94.66915687737438
 20
-120.7814303625998
 30
0.0
 10
94.84692380441328
 20
-120.7814303625998
 30
0.0
 10
94.97094724188227
 20
-120.7623100826567
 30
0.0
 10
94.97094724188227
 20
-120.7623100826567
 30
0.0
 10
94.97094724188227
 20
-120.9972655947507
 30
0.0
 10
94.97094724188227
 20
-120.9972655947507
 30
0.0
 10
94.83383244156933
 20
-120.9781453148075
 30
0.0
 10
94.66743432963176
 20
-120.9781453148075
 30
0.0
 10
94.65262041904518
 20
-120.9781453148075
 30
0.0
  0
HATCH
  5
F3
330
D2
100
AcDbEntity
  8
_U+30EC_U+30A4_U+30E4_U+30FC 1
 62
   179
420
  2234388
100
AcDbHatch
 10
0.0
 20
0.0
 30
0.0
210
0.0
220
0.0
230
1.0
  2
SOLID
 70
     1
 71
     0
 91
        2
 92
        1
 93
        1
 72
     4
 94
        3
 73
     0
 74
     1
 95
       47
 96
       43
 40
0.0
 40
0.0
 40
0.0
 40
0.0
 40
1.0
 40
1.0
 40
1.0
 40
2.0
 40
2.0
 40
2.0
 40
3.0
 40
3.0
 40
3.0
 40
4.0
 40
4.0
 40
4.0
 40
5.0
 40
5.0
 40
5.0
 40
6.0
 40
6.0
 40
6.0
 40
7.0
 40
7.0
 40
7.0
 40
8.0
 40
8.0
 40
8.0
 40
9.0
 40
9.0
 40
9.0
 40
10.0
 40
10.0
 40
10.0
 40
11.0
 40
11.0
 40
11.0
 40
12.0
 40
12.0
 40
12.0
 40
13.0
 40
13.0
 40
13.0
 40
14.0
 40
14.0
 40
14.0
 40
14.0
 10
94.74150388256463
 20
-121.5069674717934
 10
94.74150388256463
 20
-121.5069674717934
 10
94.65262041904518
 20
-121.5069674717934
 10
94.65262041904518
 20
-121.5069674717934
 10
94.65262041904518
 20
-121.5937838780217
 10
94.63401690342484
 20
-121.9830796678549
 10
94.46176212916234
 20
-122.2030490145881
 10
94.32843693388317
 20
-122.3722032029139
 10
94.1468804018105
 20
-122.4421386412645
 10
94.07281084887764
 20
-122.4695271503722
 10
94.07281084887764
 20
-122.4695271503722
 10
93.9026231319063
 20
-122.3024400193376
 10
93.9026231319063
 20
-122.3024400193376
 10
93.98771699039196
 20
-122.2896931660422
 10
94.1413682490341
 20
-122.2664387715167
 10
94.30604381322905
 20
-122.0781643032478
 10
94.37115611790027
 20
-122.0063340623804
 10
94.46176212916234
 20
-121.8666354404535
 10
94.46176212916234
 20
-121.5069674717934
 10
94.46176212916234
 20
-121.5069674717934
 10
94.2598795337267
 20
-121.5069674717934
 10
94.2598795337267
 20
-121.5069674717934
 10
94.09692651727438
 20
-121.5069674717934
 10
93.93397350082206
 20
-121.51127384115
 10
93.77102048436974
 20
-121.5260877517365
 10
93.77102048436974
 20
-121.5260877517365
 10
93.77102048436974
 20
-121.3061184050033
 10
93.77102048436974
 20
-121.3061184050033
 10
93.93604055811322
 20
-121.3209323155899
 10
94.18580998079383
 20
-121.3250664301722
 10
94.2598795337267
 20
-121.3250664301722
 10
94.2598795337267
 20
-121.3250664301722
 10
94.74150388256463
 20
-121.3250664301722
 10
94.74150388256463
 20
-121.3250664301722
 10
94.75804034089383
 20
-121.3250664301722
 10
95.03571503700496
 20
-121.3250664301722
 10
95.23587508469798
 20
-121.3061184050033
 10
95.23587508469798
 20
-121.3061184050033
 10
95.23587508469798
 20
-121.5260877517365
 10
95.23587508469798
 20
-121.5260877517365
 10
95.07085501095452
 20
-121.51127384115
 10
94.90617944675957
 20
-121.5069674717934
 10
94.74150388256463
 20
-121.5069674717934
 97
        0
 97
        0
 92
        1
 93
        1
 72
     4
 94
        3
 73
     0
 74
     1
 95
       29
 96
       25
 40
0.0
 40
0.0
 40
0.0
 40
0.0
 40
1.0
 40
1.0
 40
1.0
 40
2.0
 40
2.0
 40
2.0
 40
3.0
 40
3.0
 40
3.0
 40
4.0
 40
4.0
 40
4.0
 40
5.0
 40
5.0
 40
5.0
 40
6.0
 40
6.0
 40
6.0
 40
7.0
 40
7.0
 40
7.0
 40
8.0
 40
8.0
 40
8.0
 40
8.0
 10
94.65262041904518
 20
-120.9781453148075
 10
94.65262041904518
 20
-120.9781453148075
 10
94.34325084446975
 20
-120.9781453148075
 10
94.34325084446975
 20
-120.9781453148075
 10
94.24506562314012
 20
-120.9781453148075
 10
94.12276473341376
 20
-120.9845187414553
 10
94.02836911711792
 20
-120.9972655947507
 10
94.02836911711792
 20
-120.9972655947507
 10
94.02836911711792
 20
-120.7623100826567
 10
94.02836911711792
 20
-120.7623100826567
 10
94.13206649122394
 20
-120.7771239932432
 10
94.29329695993363
 20
-120.7814303625998
 10
94.34325084446975
 20
-120.7814303625998
 10
94.34325084446975
 20
-120.7814303625998
 10
94.65262041904518
 20
-120.7814303625998
 10
94.65262041904518
 20
-120.7814303625998
 10
94.66915687737438
 20
-120.7814303625998
 10
94.84692380441328
 20
-120.7814303625998
 10
94.97094724188227
 20
-120.7623100826567
 10
94.97094724188227
 20
-120.7623100826567
 10
94.97094724188227
 20
-120.9972655947507
 10
94.97094724188227
 20
-120.9972655947507
 10
94.83383244156933
 20
-120.9781453148075
 10
94.66743432963176
 20
-120.9781453148075
 10
94.65262041904518
 20
-120.9781453148075
 97
        0
 97
        0
 75
     2
 76
     1
 98
        0
  0
SPLINE
  5
F4
330
D2
100
AcDbEntity
  8
_U+30EC_U+30A4_U+30E4_U+30FC 1
370
     0
100
AcDbSpline
210
0.0
220
0.0
230
1.0
 70
    11
 71
     3
 72
    29
 73
    25
 74
     0
 42
0.0000000001
 43
0.0000000001
 12
1.0
 22
0.0
 32
0.0
 13
1.0
 23
0.0
 33
0.0
 40
0.0
 40
0.0
 40
0.0
 40
0.0
 40
1.0
 40
1.0
 40
1.0
 40
2.0
 40
2.0
 40
2.0
 40
3.0
 40
3.0
 40
3.0
 40
4.0
 40
4.0
 40
4.0
 40
5.0
 40
5.0
 40
5.0
 40
6.0
 40
6.0
 40
6.0
 40
7.0
 40
7.0
 40
7.0
 40
8.0
 40
8.0
 40
8.0
 40
8.0
 10
96.35794268424385
 20
-121.6699204882457
 30
0.0
 10
96.35794268424385
 20
-121.6699204882457
 30
0.0
 10
95.93419593955812
 20
-121.6699204882457
 30
0.0
 10
95.93419593955812
 20
-121.6699204882457
 30
0.0
 10
95.91008027116138
 20
-121.6699204882457
 30
0.0
 10
95.63240557505024
 20
-121.6699204882457
 30
0.0
 10
95.44705943794379
 20
-121.6952419400623
 30
0.0
 10
95.44705943794379
 20
-121.6952419400623
 30
0.0
 10
95.44705943794379
 20
-121.4647650520991
 30
0.0
 10
95.44705943794379
 20
-121.4647650520991
 30
0.0
 10
95.58589678599937
 20
-121.4880194466245
 30
0.0
 10
95.75263940748546
 20
-121.4900865039157
 30
0.0
 10
95.93419593955812
 20
-121.4900865039157
 30
0.0
 10
95.93419593955812
 20
-121.4900865039157
 30
0.0
 10
96.35794268424385
 20
-121.4900865039157
 30
0.0
 10
96.35794268424385
 20
-121.4900865039157
 30
0.0
 10
96.5212402102447
 20
-121.4900865039157
 30
0.0
 10
96.68384871714849
 20
-121.4880194466245
 30
0.0
 10
96.84507918585818
 20
-121.4647650520991
 30
0.0
 10
96.84507918585818
 20
-121.4647650520991
 30
0.0
 10
96.84507918585818
 20
-121.6952419400623
 30
0.0
 10
96.84507918585818
 20
-121.6952419400623
 30
0.0
 10
96.68384871714849
 20
-121.6719875455369
 30
0.0
 10
96.4674967206748
 20
-121.6699204882457
 30
0.0
 10
96.35794268424385
 20
-121.6699204882457
 30
0.0
  0
HATCH
  5
F5
330
D2
100
AcDbEntity
  8
_U+30EC_U+30A4_U+30E4_U+30FC 1
 62
   179
420
  2234388
100
AcDbHatch
 10
0.0
 20
0.0
 30
0.0
210
0.0
220
0.0
230
1.0
  2
SOLID
 70
     1
 71
     0
 91
        1
 92
        1
 93
        1
 72
     4
 94
        3
 73
     0
 74
     1
 95
       29
 96
       25
 40
0.0
 40
0.0
 40
0.0
 40
0.0
 40
1.0
 40
1.0
 40
1.0
 40
2.0
 40
2.0
 40
2.0
 40
3.0
 40
3.0
 40
3.0
 40
4.0
 40
4.0
 40
4.0
 40
5.0
 40
5.0
 40
5.0
 40
6.0
 40
6.0
 40
6.0
 40
7.0
 40
7.0
 40
7.0
 40
8.0
 40
8.0
 40
8.0
 40
8.0
 10
96.35794268424385
 20
-121.6699204882457
 10
96.35794268424385
 20
-121.6699204882457
 10
95.93419593955812
 20
-121.6699204882457
 10
95.93419593955812
 20
-121.6699204882457
 10
95.91008027116138
 20
-121.6699204882457
 10
95.63240557505024
 20
-121.6699204882457
 10
95.44705943794379
 20
-121.6952419400623
 10
95.44705943794379
 20
-121.6952419400623
 10
95.44705943794379
 20
-121.4647650520991
 10
95.44705943794379
 20
-121.4647650520991
 10
95.58589678599937
 20
-121.4880194466245
 10
95.75263940748546
 20
-121.4900865039157
 10
95.93419593955812
 20
-121.4900865039157
 10
95.93419593955812
 20
-121.4900865039157
 10
96.35794268424385
 20
-121.4900865039157
 10
96.35794268424385
 20
-121.4900865039157
 10
96.5212402102447
 20
-121.4900865039157
 10
96.68384871714849
 20
-121.4880194466245
 10
96.84507918585818
 20
-121.4647650520991
 10
96.84507918585818
 20
-121.4647650520991
 10
96.84507918585818
 20
-121.6952419400623
 10
96.84507918585818
 20
-121.6952419400623
 10
96.68384871714849
 20
-121.6719875455369
 10
96.4674967206748
 20
-121.6699204882457
 10
96.35794268424385
 20
-121.6699204882457
 97
        0
 97
        0
 75
     2
 76
     1
 98
        0
  0
SPLINE
  5
F6
330
D2
100
AcDbEntity
  8
_U+30EC_U+30A4_U+30E4_U+30FC 1
370
     0
100
AcDbSpline
210
0.0
220
0.0
230
1.0
 70
    11
 71
     3
 72
    44
 73
    40
 74
     0
 42
0.0000000001
 43
0.0000000001
 12
1.0
 22
0.0
 32
0.0
 13
1.0
 23
0.0
 33
0.0
 40
0.0
 40
0.0
 40
0.0
 40
0.0
 40
1.0
 40
1.0
 40
1.0
 40
2.0
 40
2.0
 40
2.0
 40
3.0
 40
3.0
 40
3.0
 40
4.0
 40
4.0
 40
4.0
 40
5.0
 40
5.0
 40
5.0
 40
6.0
 40
6.0
 40
6.0
 40
7.0
 40
7.0
 40
7.0
 40
8.0
 40
8.0
 40
8.0
 40
9.0
 40
9.0
 40
9.0
 40
10.0
 40
10.0
 40
10.0
 40
11.0
 40
11.0
 40
11.0
 40
12.0
 40
12.0
 40
12.0
 40
13.0
 40
13.0
 40
13.0
 40
13.0
 10
98.29511987559984
 20
-121.2320488520705
 30
0.0
 10
98.19693465427021
 20
-121.6001573046694
 30
0.0
 10
98.15249292251049
 20
-121.7588039517652
 30
0.0
 10
97.980238148248
 20
-122.0084011196715
 30
0.0
 10
97.81935218908683
 20
-122.239050262409
 30
0.0
 10
97.61195744087479
 20
-122.4250854186125
 30
0.0
 10
97.36735566142205
 20
-122.5182752514885
 30
0.0
 10
97.36735566142205
 20
-122.5182752514885
 30
0.0
 10
97.19889049219334
 20
-122.3384412671584
 30
0.0
 10
97.19889049219334
 20
-122.3384412671584
 30
0.0
 10
97.76009654674054
 20
-122.1861680467104
 30
0.0
 10
98.04879554840447
 20
-121.6297851258426
 30
0.0
 10
98.10460609526552
 20
-121.1896741776019
 30
0.0
 10
98.10460609526552
 20
-121.1896741776019
 30
0.0
 10
97.4341905138359
 20
-121.1896741776019
 30
0.0
 10
97.4341905138359
 20
-121.1896741776019
 30
0.0
 10
97.35254175083548
 20
-121.1896741776019
 30
0.0
 10
97.19165579167431
 20
-121.1939805469585
 30
0.0
 10
97.05454099136136
 20
-121.2129285721273
 30
0.0
 10
97.05454099136136
 20
-121.2129285721273
 30
0.0
 10
97.05454099136136
 20
-120.9929592253941
 30
0.0
 10
97.05454099136136
 20
-120.9929592253941
 30
0.0
 10
97.13033309203686
 20
-121.0141465626284
 30
0.0
 10
97.35081920309285
 20
-121.0141465626284
 30
0.0
 10
97.43763560932115
 20
-121.0141465626284
 30
0.0
 10
97.43763560932115
 20
-121.0141465626284
 30
0.0
 10
97.81556258405305
 20
-121.0141465626284
 30
0.0
 10
97.81556258405305
 20
-121.0141465626284
 30
0.0
 10
97.85242510574523
 20
-121.0141465626284
 30
0.0
 10
98.05809730621465
 20
-121.011907250563
 30
0.0
 10
98.09151473242157
 20
-121.0057060786896
 30
0.0
 10
98.12837725411374
 20
-120.9993326520418
 30
0.0
 10
98.13044431140489
 20
-120.9972655947507
 30
0.0
 10
98.1841878009748
 20
-120.9569579775733
 30
0.0
 10
98.1841878009748
 20
-120.9569579775733
 30
0.0
 10
98.34886336516973
 20
-121.1114705100867
 30
0.0
 10
98.34886336516973
 20
-121.1114705100867
 30
0.0
 10
98.32302514903036
 20
-121.1410983312599
 30
0.0
 10
98.3099337861864
 20
-121.1727932097242
 30
0.0
 10
98.29511987559984
 20
-121.2320488520705
 30
0.0
  0
SPLINE
  5
F7
330
D2
100
AcDbEntity
  8
_U+30EC_U+30A4_U+30E4_U+30FC 1
370
     0
100
AcDbSpline
210
0.0
220
0.0
230
1.0
 70
    11
 71
     3
 72
    17
 73
    13
 74
     0
 42
0.0000000001
 43
0.0000000001
 12
1.0
 22
0.0
 32
0.0
 13
1.0
 23
0.0
 33
0.0
 40
0.0
 40
0.0
 40
0.0
 40
0.0
 40
1.0
 40
1.0
 40
1.0
 40
2.0
 40
2.0
 40
2.0
 40
3.0
 40
3.0
 40
3.0
 40
4.0
 40
4.0
 40
4.0
 40
4.0
 10
98.47839895541513
 20
-121.0330945877973
 30
0.0
 10
98.36746688079008
 20
-121.0330945877973
 30
0.0
 10
98.27858341727064
 20
-120.9316365257567
 30
0.0
 10
98.27858341727064
 20
-120.8046847571252
 30
0.0
 10
98.27858341727064
 20
-120.6777329884938
 30
0.0
 10
98.36746688079008
 20
-120.5740356143878
 30
0.0
 10
98.47839895541513
 20
-120.5740356143878
 30
0.0
 10
98.5896755395887
 20
-120.5740356143878
 30
0.0
 10
98.68028155085076
 20
-120.6777329884938
 30
0.0
 10
98.68028155085076
 20
-120.8046847571252
 30
0.0
 10
98.68028155085076
 20
-120.9316365257567
 30
0.0
 10
98.5896755395887
 20
-121.0330945877973
 30
0.0
 10
98.47839895541513
 20
-121.0330945877973
 30
0.0
  0
SPLINE
  5
F8
330
D2
100
AcDbEntity
  8
_U+30EC_U+30A4_U+30E4_U+30FC 1
370
     0
100
AcDbSpline
210
0.0
220
0.0
230
1.0
 70
    11
 71
     3
 72
    17
 73
    13
 74
     0
 42
0.0000000001
 43
0.0000000001
 12
1.0
 22
0.0
 32
0.0
 13
1.0
 23
0.0
 33
0.0
 40
0.0
 40
0.0
 40
0.0
 40
0.0
 40
1.0
 40
1.0
 40
1.0
 40
2.0
 40
2.0
 40
2.0
 40
3.0
 40
3.0
 40
3.0
 40
4.0
 40
4.0
 40
4.0
 40
4.0
 10
98.4766764076725
 20
-120.7030544403104
 30
0.0
 10
98.42844507087901
 20
-120.7030544403104
 30
0.0
 10
98.38951549189568
 20
-120.7474961720701
 30
0.0
 10
98.38951549189568
 20
-120.8026176998341
 30
0.0
 10
98.38951549189568
 20
-120.859634030115
 30
0.0
 10
98.42844507087901
 20
-120.9083821312312
 30
0.0
 10
98.48046601270627
 20
-120.9083821312312
 30
0.0
 10
98.53214244498503
 20
-120.9083821312312
 30
0.0
 10
98.56728241893457
 20
-120.8575669728238
 30
0.0
 10
98.56728241893457
 20
-120.8046847571252
 30
0.0
 10
98.56728241893457
 20
-120.7474961720701
 30
0.0
 10
98.52663029220862
 20
-120.7030544403104
 30
0.0
 10
98.4766764076725
 20
-120.7030544403104
 30
0.0
  0
HATCH
  5
F9
330
D2
100
AcDbEntity
  8
_U+30EC_U+30A4_U+30E4_U+30FC 1
 62
   179
420
  2234388
100
AcDbHatch
 10
0.0
 20
0.0
 30
0.0
210
0.0
220
0.0
230
1.0
  2
SOLID
 70
     1
 71
     0
 91
        3
 92
        1
 93
        1
 72
     4
 94
        3
 73
     0
 74
     1
 95
       44
 96
       40
 40
0.0
 40
0.0
 40
0.0
 40
0.0
 40
1.0
 40
1.0
 40
1.0
 40
2.0
 40
2.0
 40
2.0
 40
3.0
 40
3.0
 40
3.0
 40
4.0
 40
4.0
 40
4.0
 40
5.0
 40
5.0
 40
5.0
 40
6.0
 40
6.0
 40
6.0
 40
7.0
 40
7.0
 40
7.0
 40
8.0
 40
8.0
 40
8.0
 40
9.0
 40
9.0
 40
9.0
 40
10.0
 40
10.0
 40
10.0
 40
11.0
 40
11.0
 40
11.0
 40
12.0
 40
12.0
 40
12.0
 40
13.0
 40
13.0
 40
13.0
 40
13.0
 10
98.29511987559984
 20
-121.2320488520705
 10
98.19693465427021
 20
-121.6001573046694
 10
98.15249292251049
 20
-121.7588039517652
 10
97.980238148248
 20
-122.0084011196715
 10
97.81935218908683
 20
-122.239050262409
 10
97.61195744087479
 20
-122.4250854186125
 10
97.36735566142205
 20
-122.5182752514885
 10
97.36735566142205
 20
-122.5182752514885
 10
97.19889049219334
 20
-122.3384412671584
 10
97.19889049219334
 20
-122.3384412671584
 10
97.76009654674054
 20
-122.1861680467104
 10
98.04879554840447
 20
-121.6297851258426
 10
98.10460609526552
 20
-121.1896741776019
 10
98.10460609526552
 20
-121.1896741776019
 10
97.4341905138359
 20
-121.1896741776019
 10
97.4341905138359
 20
-121.1896741776019
 10
97.35254175083548
 20
-121.1896741776019
 10
97.19165579167431
 20
-121.1939805469585
 10
97.05454099136136
 20
-121.2129285721273
 10
97.05454099136136
 20
-121.2129285721273
 10
97.05454099136136
 20
-120.9929592253941
 10
97.05454099136136
 20
-120.9929592253941
 10
97.13033309203686
 20
-121.0141465626284
 10
97.35081920309285
 20
-121.0141465626284
 10
97.43763560932115
 20
-121.0141465626284
 10
97.43763560932115
 20
-121.0141465626284
 10
97.81556258405305
 20
-121.0141465626284
 10
97.81556258405305
 20
-121.0141465626284
 10
97.85242510574523
 20
-121.0141465626284
 10
98.05809730621465
 20
-121.011907250563
 10
98.09151473242157
 20
-121.0057060786896
 10
98.12837725411374
 20
-120.9993326520418
 10
98.13044431140489
 20
-120.9972655947507
 10
98.1841878009748
 20
-120.9569579775733
 10
98.1841878009748
 20
-120.9569579775733
 10
98.34886336516973
 20
-121.1114705100867
 10
98.34886336516973
 20
-121.1114705100867
 10
98.32302514903036
 20
-121.1410983312599
 10
98.3099337861864
 20
-121.1727932097242
 10
98.29511987559984
 20
-121.2320488520705
 97
        0
 97
        0
 92
        1
 93
        1
 72
     4
 94
        3
 73
     0
 74
     1
 95
       17
 96
       13
 40
0.0
 40
0.0
 40
0.0
 40
0.0
 40
1.0
 40
1.0
 40
1.0
 40
2.0
 40
2.0
 40
2.0
 40
3.0
 40
3.0
 40
3.0
 40
4.0
 40
4.0
 40
4.0
 40
4.0
 10
98.47839895541513
 20
-121.0330945877973
 10
98.36746688079008
 20
-121.0330945877973
 10
98.27858341727064
 20
-120.9316365257567
 10
98.27858341727064
 20
-120.8046847571252
 10
98.27858341727064
 20
-120.6777329884938
 10
98.36746688079008
 20
-120.5740356143878
 10
98.47839895541513
 20
-120.5740356143878
 10
98.5896755395887
 20
-120.5740356143878
 10
98.68028155085076
 20
-120.6777329884938
 10
98.68028155085076
 20
-120.8046847571252
 10
98.68028155085076
 20
-120.9316365257567
 10
98.5896755395887
 20
-121.0330945877973
 10
98.47839895541513
 20
-121.0330945877973
 97
        0
 97
        0
 92
        1
 93
        1
 72
     4
 94
        3
 73
     0
 74
     1
 95
       17
 96
       13
 40
0.0
 40
0.0
 40
0.0
 40
0.0
 40
1.0
 40
1.0
 40
1.0
 40
2.0
 40
2.0
 40
2.0
 40
3.0
 40
3.0
 40
3.0
 40
4.0
 40
4.0
 40
4.0
 40
4.0
 10
98.4766764076725
 20
-120.7030544403104
 10
98.42844507087901
 20
-120.7030544403104
 10
98.38951549189568
 20
-120.7474961720701
 10
98.38951549189568
 20
-120.8026176998341
 10
98.38951549189568
 20
-120.859634030115
 10
98.42844507087901
 20
-120.9083821312312
 10
98.48046601270627
 20
-120.9083821312312
 10
98.53214244498503
 20
-120.9083821312312
 10
98.56728241893457
 20
-120.8575669728238
 10
98.56728241893457
 20
-120.8046847571252
 10
98.56728241893457
 20
-120.7474961720701
 10
98.52663029220862
 20
-120.7030544403104
 10
98.4766764076725
 20
-120.7030544403104
 97
        0
 97
        0
 75
     2
 76
     1
 98
        0
  0
ENDBLK
  5
D5
330
D2
100
AcDbEntity
  8
0
100
AcDbBlockEnd
  0
ENDSEC
  0
SECTION
  2
ENTITIES
  0
POLYLINE
  5
41
330
1F
100
AcDbEntity
  8
_U+30EC_U+30A4_U+30E4_U+30FC 1
  6
AI-Linetype-1
 62
   154
420
    23468
370
    25
100
AcDb2dPolyline
 66
     1
 10
0.0
 20
0.0
 30
0.0
  0
VERTEX
  5
42
330
41
100
AcDbEntity
  8
_U+30EC_U+30A4_U+30E4_U+30FC 1
  6
AI-Linetype-1
 62
   154
420
    23468
370
    25
100
AcDbVertex
100
AcDb2dVertex
 10
82.27162095663164
 20
-118.2990535815364
 30
0.0
  0
VERTEX
  5
43
330
41
100
AcDbEntity
  8
_U+30EC_U+30A4_U+30E4_U+30FC 1
  6
AI-Linetype-1
 62
   154
420
    23468
370
    25
100
AcDbVertex
100
AcDb2dVertex
 10
82.27162095663164
 20
-128.2987866345919
 30
0.0
  0
SEQEND
  5
45
330
41
100
AcDbEntity
  8
_U+30EC_U+30A4_U+30E4_U+30FC 1
  6
AI-Linetype-1
 62
   154
420
    23468
370
    25
  0
POLYLINE
  5
46
330
1F
100
AcDbEntity
  8
_U+30EC_U+30A4_U+30E4_U+30FC 1
  6
AI-Linetype-2
 62
   154
420
    23468
370
    25
100
AcDb2dPolyline
 66
     1
 10
0.0
 20
0.0
 30
0.0
  0
VERTEX
  5
47
330
46
100
AcDbEntity
  8
_U+30EC_U+30A4_U+30E4_U+30FC 1
  6
AI-Linetype-2
 62
   154
420
    23468
370
    25
100
AcDbVertex
100
AcDb2dVertex
 10
87.65631498592332
 20
-134.1561677442388
 30
0.0
  0
VERTEX
  5
48
330
46
100
AcDbEntity
  8
_U+30EC_U+30A4_U+30E4_U+30FC 1
  6
AI-Linetype-2
 62
   154
420
    23468
370
    25
100
AcDbVertex
100
AcDb2dVertex
 10
97.65675334190199
 20
-134.1561677442388
 30
0.0
  0
SEQEND
  5
4A
330
46
100
AcDbEntity
  8
_U+30EC_U+30A4_U+30E4_U+30FC 1
  6
AI-Linetype-2
 62
   154
420
    23468
370
    25
  0
POLYLINE
  5
4B
330
1F
100
AcDbEntity
  8
_U+30EC_U+30A4_U+30E4_U+30FC 1
370
     0
100
AcDb2dPolyline
 66
     1
 10
0.0
 20
0.0
 30
0.0
  0
VERTEX
  5
4C
330
4B
100
AcDbEntity
  8
_U+30EC_U+30A4_U+30E4_U+30FC 1
370
     0
100
AcDbVertex
100
AcDb2dVertex
 10
83.75646258541684
 20
-118.2990535815364
 30
0.0
  0
VERTEX
  5
4D
330
4B
100
AcDbEntity
  8
_U+30EC_U+30A4_U+30E4_U+30FC 1
370
     0
100
AcDbVertex
100
AcDb2dVertex
 10
82.85659705281877
 20
-118.2990535815364
 30
0.0
  0
VERTEX
  5
4E
330
4B
100
AcDbEntity
  8
_U+30EC_U+30A4_U+30E4_U+30FC 1
370
     0
100
AcDbVertex
100
AcDb2dVertex
 10
82.85659705281877
 20
-133.2990235777862
 30
0.0
  0
VERTEX
  5
4F
330
4B
100
AcDbEntity
  8
_U+30EC_U+30A4_U+30E4_U+30FC 1
370
     0
100
AcDbVertex
100
AcDb2dVertex
 10
97.85656667013767
 20
-133.2990235777862
 30
0.0
  0
VERTEX
  5
50
330
4B
100
AcDbEntity
  8
_U+30EC_U+30A4_U+30E4_U+30FC 1
370
     0
100
AcDbVertex
100
AcDb2dVertex
 10
97.85656667013767
 20
-132.399158022456
 30
0.0
  0
VERTEX
  5
51
330
4B
100
AcDbEntity
  8
_U+30EC_U+30A4_U+30E4_U+30FC 1
370
     0
100
AcDbVertex
100
AcDb2dVertex
 10
83.75646258541684
 20
-132.399158022456
 30
0.0
  0
VERTEX
  5
52
330
4B
100
AcDbEntity
  8
_U+30EC_U+30A4_U+30E4_U+30FC 1
370
     0
100
AcDbVertex
100
AcDb2dVertex
 10
83.75646258541684
 20
-118.2990535815364
 30
0.0
  0
SEQEND
  5
54
330
4B
100
AcDbEntity
  8
_U+30EC_U+30A4_U+30E4_U+30FC 1
370
     0
  0
HATCH
  5
53
330
1F
100
AcDbEntity
  8
_U+30EC_U+30A4_U+30E4_U+30FC 1
 62
   253
420
 11711154
100
AcDbHatch
 10
0.0
 20
0.0
 30
0.0
210
0.0
220
0.0
230
1.0
  2
SOLID
 70
     1
 71
     0
 91
        1
 92
        1
 93
        6
 72
     1
 10
83.75646258541684
 20
-118.2990535815364
 11
82.85659705281877
 21
-118.2990535815364
 72
     1
 10
82.85659705281877
 20
-118.2990535815364
 11
82.85659705281877
 21
-133.2990235777862
 72
     1
 10
82.85659705281877
 20
-133.2990235777862
 11
97.85656667013767
 21
-133.2990235777862
 72
     1
 10
97.85656667013767
 20
-133.2990235777862
 11
97.85656667013767
 21
-132.399158022456
 72
     1
 10
97.85656667013767
 20
-132.399158022456
 11
83.75646258541684
 21
-132.399158022456
 72
     1
 10
83.75646258541684
 20
-132.399158022456
 11
83.75646258541684
 21
-118.2990535815364
 97
        0
 75
     2
 76
     1
 98
        0
  0
POLYLINE
  5
55
330
1F
100
AcDbEntity
  8
_U+30EC_U+30A4_U+30E4_U+30FC 1
 62
   179
420
  2234388
370
    25
100
AcDb2dPolyline
 66
     1
 10
0.0
 20
0.0
 30
0.0
  0
VERTEX
  5
56
330
55
100
AcDbEntity
  8
_U+30EC_U+30A4_U+30E4_U+30FC 1
 62
   179
420
  2234388
370
    25
100
AcDbVertex
100
AcDb2dVertex
 10
82.85659705281877
 20
-118.2990535815364
 30
0.0
  0
VERTEX
  5
57
330
55
100
AcDbEntity
  8
_U+30EC_U+30A4_U+30E4_U+30FC 1
 62
   179
420
  2234388
370
    25
100
AcDbVertex
100
AcDb2dVertex
 10
82.85659705281877
 20
-133.2990235777862
 30
0.0
  0
SEQEND
  5
58
330
55
100
AcDbEntity
  8
_U+30EC_U+30A4_U+30E4_U+30FC 1
 62
   179
420
  2234388
370
    25
  0
POLYLINE
  5
59
330
1F
100
AcDbEntity
  8
_U+30EC_U+30A4_U+30E4_U+30FC 1
 62
   179
420
  2234388
370
    25
100
AcDb2dPolyline
 66
     1
 10
0.0
 20
0.0
 30
0.0
  0
VERTEX
  5
5A
330
59
100
AcDbEntity
  8
_U+30EC_U+30A4_U+30E4_U+30FC 1
 62
   179
420
  2234388
370
    25
100
AcDbVertex
100
AcDb2dVertex
 10
82.85659705281877
 20
-133.2990235777862
 30
0.0
  0
VERTEX
  5
5B
330
59
100
AcDbEntity
  8
_U+30EC_U+30A4_U+30E4_U+30FC 1
 62
   179
420
  2234388
370
    25
100
AcDbVertex
100
AcDb2dVertex
 10
97.85656667013767
 20
-133.2990235777862
 30
0.0
  0
SEQEND
  5
5C
330
59
100
AcDbEntity
  8
_U+30EC_U+30A4_U+30E4_U+30FC 1
 62
   179
420
  2234388
370
    25
  0
POLYLINE
  5
5D
330
1F
100
AcDbEntity
  8
_U+30EC_U+30A4_U+30E4_U+30FC 1
 62
   179
420
  2234388
370
    25
100
AcDb2dPolyline
 66
     1
 10
0.0
 20
0.0
 30
0.0
  0
VERTEX
  5
5E
330
5D
100
AcDbEntity
  8
_U+30EC_U+30A4_U+30E4_U+30FC 1
 62
   179
420
  2234388
370
    25
100
AcDbVertex
100
AcDb2dVertex
 10
83.75646258541684
 20
-132.399158022456
 30
0.0
  0
VERTEX
  5
5F
330
5D
100
AcDbEntity
  8
_U+30EC_U+30A4_U+30E4_U+30FC 1
 62
   179
420
  2234388
370
    25
100
AcDbVertex
100
AcDb2dVertex
 10
97.85656667013767
 20
-132.399158022456
 30
0.0
  0
SEQEND
  5
60
330
5D
100
AcDbEntity
  8
_U+30EC_U+30A4_U+30E4_U+30FC 1
 62
   179
420
  2234388
370
    25
  0
POLYLINE
  5
61
330
1F
100
AcDbEntity
  8
_U+30EC_U+30A4_U+30E4_U+30FC 1
 62
   179
420
  2234388
370
    25
100
AcDb2dPolyline
 66
     1
 10
0.0
 20
0.0
 30
0.0
  0
VERTEX
  5
62
330
61
100
AcDbEntity
  8
_U+30EC_U+30A4_U+30E4_U+30FC 1
 62
   179
420
  2234388
370
    25
100
AcDbVertex
100
AcDb2dVertex
 10
83.75646258541684
 20
-118.2990535815364
 30
0.0
  0
VERTEX
  5
63
330
61
100
AcDbEntity
  8
_U+30EC_U+30A4_U+30E4_U+30FC 1
 62
   179
420
  2234388
370
    25
100
AcDbVertex
100
AcDb2dVertex
 10
83.75646258541684
 20
-132.399158022456
 30
0.0
  0
SEQEND
  5
64
330
61
100
AcDbEntity
  8
_U+30EC_U+30A4_U+30E4_U+30FC 1
 62
   179
420
  2234388
370
    25
  0
POLYLINE
  5
65
330
1F
100
AcDbEntity
  8
_U+30EC_U+30A4_U+30E4_U+30FC 1
 62
   179
420
  2234388
370
    25
100
AcDb2dPolyline
 66
     1
 10
0.0
 20
0.0
 30
0.0
  0
VERTEX
  5
66
330
65
100
AcDbEntity
  8
_U+30EC_U+30A4_U+30E4_U+30FC 1
 62
   179
420
  2234388
370
    25
100
AcDbVertex
100
AcDb2dVertex
 10
82.85659705281877
 20
-118.2990535815364
 30
0.0
  0
VERTEX
  5
67
330
65
100
AcDbEntity
  8
_U+30EC_U+30A4_U+30E4_U+30FC 1
 62
   179
420
  2234388
370
    25
100
AcDbVertex
100
AcDb2dVertex
 10
83.75646258541684
 20
-118.2990535815364
 30
0.0
  0
SEQEND
  5
68
330
65
100
AcDbEntity
  8
_U+30EC_U+30A4_U+30E4_U+30FC 1
 62
   179
420
  2234388
370
    25
  0
POLYLINE
  5
69
330
1F
100
AcDbEntity
  8
_U+30EC_U+30A4_U+30E4_U+30FC 1
 62
   179
420
  2234388
370
    25
100
AcDb2dPolyline
 66
     1
 10
0.0
 20
0.0
 30
0.0
  0
VERTEX
  5
6A
330
69
100
AcDbEntity
  8
_U+30EC_U+30A4_U+30E4_U+30FC 1
 62
   179
420
  2234388
370
    25
100
AcDbVertex
100
AcDb2dVertex
 10
97.85656667013767
 20
-132.399158022456
 30
0.0
  0
VERTEX
  5
6B
330
69
100
AcDbEntity
  8
_U+30EC_U+30A4_U+30E4_U+30FC 1
 62
   179
420
  2234388
370
    25
100
AcDbVertex
100
AcDb2dVertex
 10
97.85656667013767
 20
-133.2990235777862
 30
0.0
  0
SEQEND
  5
6C
330
69
100
AcDbEntity
  8
_U+30EC_U+30A4_U+30E4_U+30FC 1
 62
   179
420
  2234388
370
    25
  0
SPLINE
  5
6D
330
1F
100
AcDbEntity
  8
_U+30EC_U+30A4_U+30E4_U+30FC 1
 62
   179
420
  2234388
370
     9
100
AcDbSpline
210
0.0
220
0.0
230
1.0
 70
    11
 71
     3
 72
    17
 73
    13
 74
     0
 42
0.0000000001
 43
0.0000000001
 12
1.0
 22
0.0
 32
0.0
 13
1.0
 23
0.0
 33
0.0
 40
0.0
 40
0.0
 40
0.0
 40
0.0
 40
1.0
 40
1.0
 40
1.0
 40
2.0
 40
2.0
 40
2.0
 40
3.0
 40
3.0
 40
3.0
 40
4.0
 40
4.0
 40
4.0
 40
4.0
 10
101.9569026766405
 20
-132.399158022456
 30
0.0
 10
101.9569026766405
 20
-132.3433485780255
 30
0.0
 10
101.9121351777826
 20
-132.2985458002588
 30
0.0
 10
101.8569960125227
 20
-132.2985458002588
 30
0.0
 10
101.8018921250396
 20
-132.2985458002588
 30
0.0
 10
101.7570893484048
 20
-132.3433485780255
 30
0.0
 10
101.7570893484048
 20
-132.399158022456
 30
0.0
 10
101.7570893484048
 20
-132.4542619113309
 30
0.0
 10
101.8018921250396
 20
-132.4990646890976
 30
0.0
 10
101.8569960125227
 20
-132.4990646890976
 30
0.0
 10
101.9121351777826
 20
-132.4990646890976
 30
0.0
 10
101.9569026766405
 20
-132.4542619113309
 30
0.0
 10
101.9569026766405
 20
-132.399158022456
 30
0.0
  0
SPLINE
  5
6E
330
1F
100
AcDbEntity
  8
_U+30EC_U+30A4_U+30E4_U+30FC 1
 62
   179
420
  2234388
370
     9
100
AcDbSpline
210
0.0
220
0.0
230
1.0
 70
    11
 71
     3
 72
    17
 73
    13
 74
     0
 42
0.0000000001
 43
0.0000000001
 12
1.0
 22
0.0
 32
0.0
 13
1.0
 23
0.0
 33
0.0
 40
0.0
 40
0.0
 40
0.0
 40
0.0
 40
1.0
 40
1.0
 40
1.0
 40
2.0
 40
2.0
 40
2.0
 40
3.0
 40
3.0
 40
3.0
 40
4.0
 40
4.0
 40
4.0
 40
4.0
 10
101.9569026766405
 20
-133.2990235777862
 30
0.0
 10
101.9569026766405
 20
-133.2438844111332
 30
0.0
 10
101.9121351777826
 20
-133.1991169111446
 30
0.0
 10
101.8569960125227
 20
-133.1991169111446
 30
0.0
 10
101.8018921250396
 20
-133.1991169111446
 30
0.0
 10
101.7570893484048
 20
-133.2438844111332
 30
0.0
 10
101.7570893484048
 20
-133.2990235777862
 30
0.0
 10
101.7570893484048
 20
-133.3541274666612
 30
0.0
 10
101.8018921250396
 20
-133.3989302444279
 30
0.0
 10
101.8569960125227
 20
-133.3989302444279
 30
0.0
 10
101.9121351777826
 20
-133.3989302444279
 30
0.0
 10
101.9569026766405
 20
-133.3541274666612
 30
0.0
 10
101.9569026766405
 20
-133.2990235777862
 30
0.0
  0
SPLINE
  5
6F
330
1F
100
AcDbEntity
  8
_U+30EC_U+30A4_U+30E4_U+30FC 1
 62
   179
420
  2234388
370
     9
100
AcDbSpline
210
0.0
220
0.0
230
1.0
 70
    11
 71
     3
 72
    17
 73
    13
 74
     0
 42
0.0000000001
 43
0.0000000001
 12
1.0
 22
0.0
 32
0.0
 13
1.0
 23
0.0
 33
0.0
 40
0.0
 40
0.0
 40
0.0
 40
0.0
 40
1.0
 40
1.0
 40
1.0
 40
2.0
 40
2.0
 40
2.0
 40
3.0
 40
3.0
 40
3.0
 40
4.0
 40
4.0
 40
4.0
 40
4.0
 10
97.95714361201618
 20
-137.2849891323455
 30
0.0
 10
97.95714361201618
 20
-137.2298499656924
 30
0.0
 10
97.91237611315829
 20
-137.1850824657038
 30
0.0
 10
97.85656667013767
 20
-137.1850824657038
 30
0.0
 10
97.80142750487771
 20
-137.1850824657038
 30
0.0
 10
97.75666000601983
 20
-137.2298499656924
 30
0.0
 10
97.75666000601983
 20
-137.2849891323455
 30
0.0
 10
97.75666000601983
 20
-137.3400930212204
 30
0.0
 10
97.80142750487771
 20
-137.3848957989871
 30
0.0
 10
97.85656667013767
 20
-137.3848957989871
 30
0.0
 10
97.91237611315829
 20
-137.3848957989871
 30
0.0
 10
97.95714361201618
 20
-137.3400930212204
 30
0.0
 10
97.95714361201618
 20
-137.2849891323455
 30
0.0
  0
SPLINE
  5
70
330
1F
100
AcDbEntity
  8
_U+30EC_U+30A4_U+30E4_U+30FC 1
 62
   179
420
  2234388
370
     9
100
AcDbSpline
210
0.0
220
0.0
230
1.0
 70
    11
 71
     3
 72
    17
 73
    13
 74
     0
 42
0.0000000001
 43
0.0000000001
 12
1.0
 22
0.0
 32
0.0
 13
1.0
 23
0.0
 33
0.0
 40
0.0
 40
0.0
 40
0.0
 40
0.0
 40
1.0
 40
1.0
 40
1.0
 40
2.0
 40
2.0
 40
2.0
 40
3.0
 40
3.0
 40
3.0
 40
4.0
 40
4.0
 40
4.0
 40
4.0
 10
82.95650371693661
 20
-137.2849891323455
 30
0.0
 10
82.95650371693661
 20
-137.2298499656924
 30
0.0
 10
82.91173621807872
 20
-137.1850824657038
 30
0.0
 10
82.85659705281877
 20
-137.1850824657038
 30
0.0
 10
82.8014931653357
 20
-137.1850824657038
 30
0.0
 10
82.75669038870093
 20
-137.2298499656924
 30
0.0
 10
82.75669038870093
 20
-137.2849891323455
 30
0.0
 10
82.75669038870093
 20
-137.3400930212204
 30
0.0
 10
82.8014931653357
 20
-137.3848957989871
 30
0.0
 10
82.85659705281877
 20
-137.3848957989871
 30
0.0
 10
82.91173621807872
 20
-137.3848957989871
 30
0.0
 10
82.95650371693661
 20
-137.3400930212204
 30
0.0
 10
82.95650371693661
 20
-137.2849891323455
 30
0.0
  0
SPLINE
  5
71
330
1F
100
AcDbEntity
  8
_U+30EC_U+30A4_U+30E4_U+30FC 1
 62
   179
420
  2234388
370
     9
100
AcDbSpline
210
0.0
220
0.0
230
1.0
 70
    11
 71
     3
 72
    17
 73
    13
 74
     0
 42
0.0000000001
 43
0.0000000001
 12
1.0
 22
0.0
 32
0.0
 13
1.0
 23
0.0
 33
0.0
 40
0.0
 40
0.0
 40
0.0
 40
0.0
 40
1.0
 40
1.0
 40
1.0
 40
2.0
 40
2.0
 40
2.0
 40
3.0
 40
3.0
 40
3.0
 40
4.0
 40
4.0
 40
4.0
 40
4.0
 10
78.95677993008917
 20
-133.2990235777862
 30
0.0
 10
78.95677993008917
 20
-133.2438844111332
 30
0.0
 10
78.9119771534544
 20
-133.1991169111446
 30
0.0
 10
78.85687326597133
 20
-133.1991169111446
 30
0.0
 10
78.80173609141067
 20
-133.1991169111446
 30
0.0
 10
78.75693331364396
 20
-133.2438844111332
 30
0.0
 10
78.75693331364396
 20
-133.2990235777862
 30
0.0
 10
78.75693331364396
 20
-133.3541274666612
 30
0.0
 10
78.80173609141067
 20
-133.3989302444279
 30
0.0
 10
78.85687326597133
 20
-133.3989302444279
 30
0.0
 10
78.9119771534544
 20
-133.3989302444279
 30
0.0
 10
78.95677993008917
 20
-133.3541274666612
 30
0.0
 10
78.95677993008917
 20
-133.2990235777862
 30
0.0
  0
SPLINE
  5
72
330
1F
100
AcDbEntity
  8
_U+30EC_U+30A4_U+30E4_U+30FC 1
 62
   179
420
  2234388
370
     9
100
AcDbSpline
210
0.0
220
0.0
230
1.0
 70
    11
 71
     3
 72
    17
 73
    13
 74
     0
 42
0.0000000001
 43
0.0000000001
 12
1.0
 22
0.0
 32
0.0
 13
1.0
 23
0.0
 33
0.0
 40
0.0
 40
0.0
 40
0.0
 40
0.0
 40
1.0
 40
1.0
 40
1.0
 40
2.0
 40
2.0
 40
2.0
 40
3.0
 40
3.0
 40
3.0
 40
4.0
 40
4.0
 40
4.0
 40
4.0
 10
78.95677993008917
 20
-118.2990535815364
 30
0.0
 10
78.95677993008917
 20
-118.2439496926611
 30
0.0
 10
78.9119771534544
 20
-118.1991469148947
 30
0.0
 10
78.85687326597133
 20
-118.1991469148947
 30
0.0
 10
78.80173609141067
 20
-118.1991469148947
 30
0.0
 10
78.75693331364396
 20
-118.2439496926611
 30
0.0
 10
78.75693331364396
 20
-118.2990535815364
 30
0.0
 10
78.75693331364396
 20
-118.3541927481891
 30
0.0
 10
78.80173609141067
 20
-118.398960248178
 30
0.0
 10
78.85687326597133
 20
-118.398960248178
 30
0.0
 10
78.9119771534544
 20
-118.398960248178
 30
0.0
 10
78.95677993008917
 20
-118.3541927481891
 30
0.0
 10
78.95677993008917
 20
-118.2990535815364
 30
0.0
  0
POLYLINE
  5
73
330
1F
100
AcDbEntity
  8
_U+30EC_U+30A4_U+30E4_U+30FC 1
 62
   179
420
  2234388
370
     9
100
AcDb2dPolyline
 66
     1
 10
0.0
 20
0.0
 30
0.0
  0
VERTEX
  5
74
330
73
100
AcDbEntity
  8
_U+30EC_U+30A4_U+30E4_U+30FC 1
 62
   179
420
  2234388
370
     9
100
AcDbVertex
100
AcDb2dVertex
 10
101.8569960125227
 20
-132.399158022456
 30
0.0
  0
VERTEX
  5
75
330
73
100
AcDbEntity
  8
_U+30EC_U+30A4_U+30E4_U+30FC 1
 62
   179
420
  2234388
370
     9
100
AcDbVertex
100
AcDb2dVertex
 10
101.8569960125227
 20
-134.2987957997588
 30
0.0
  0
SEQEND
  5
76
330
73
100
AcDbEntity
  8
_U+30EC_U+30A4_U+30E4_U+30FC 1
 62
   179
420
  2234388
370
     9
  0
POLYLINE
  5
77
330
1F
100
AcDbEntity
  8
_U+30EC_U+30A4_U+30E4_U+30FC 1
 62
   179
420
  2234388
370
     9
100
AcDb2dPolyline
 66
     1
 10
0.0
 20
0.0
 30
0.0
  0
VERTEX
  5
78
330
77
100
AcDbEntity
  8
_U+30EC_U+30A4_U+30E4_U+30FC 1
 62
   179
420
  2234388
370
     9
100
AcDbVertex
100
AcDb2dVertex
 10
100.3969546608825
 20
-132.399158022456
 30
0.0
  0
VERTEX
  5
79
330
77
100
AcDbEntity
  8
_U+30EC_U+30A4_U+30E4_U+30FC 1
 62
   179
420
  2234388
370
     9
100
AcDbVertex
100
AcDb2dVertex
 10
102.8567682092386
 20
-132.399158022456
 30
0.0
  0
SEQEND
  5
7A
330
77
100
AcDbEntity
  8
_U+30EC_U+30A4_U+30E4_U+30FC 1
 62
   179
420
  2234388
370
     9
  0
POLYLINE
  5
7B
330
1F
100
AcDbEntity
  8
_U+30EC_U+30A4_U+30E4_U+30FC 1
 62
   179
420
  2234388
370
     9
100
AcDb2dPolyline
 66
     1
 10
0.0
 20
0.0
 30
0.0
  0
VERTEX
  5
7C
330
7B
100
AcDbEntity
  8
_U+30EC_U+30A4_U+30E4_U+30FC 1
 62
   179
420
  2234388
370
     9
100
AcDbVertex
100
AcDb2dVertex
 10
100.3969546608825
 20
-133.2990235777862
 30
0.0
  0
VERTEX
  5
7D
330
7B
100
AcDbEntity
  8
_U+30EC_U+30A4_U+30E4_U+30FC 1
 62
   179
420
  2234388
370
     9
100
AcDbVertex
100
AcDb2dVertex
 10
102.8567682092386
 20
-133.2990235777862
 30
0.0
  0
SEQEND
  5
7E
330
7B
100
AcDbEntity
  8
_U+30EC_U+30A4_U+30E4_U+30FC 1
 62
   179
420
  2234388
370
     9
  0
INSERT
  5
80
330
1F
100
AcDbEntity
  8
_U+30EC_U+30A4_U+30E4_U+30FC 1
100
AcDbBlockReference
  2
block 2
 10
0.0
 20
0.0
 30
0.0
  0
POLYLINE
  5
92
330
1F
100
AcDbEntity
  8
_U+30EC_U+30A4_U+30E4_U+30FC 1
 62
   179
420
  2234388
370
     9
100
AcDb2dPolyline
 66
     1
 10
0.0
 20
0.0
 30
0.0
  0
VERTEX
  5
93
330
92
100
AcDbEntity
  8
_U+30EC_U+30A4_U+30E4_U+30FC 1
 62
   179
420
  2234388
370
     9
100
AcDbVertex
100
AcDb2dVertex
 10
78.85687326597133
 20
-118.2990535815364
 30
0.0
  0
VERTEX
  5
94
330
92
100
AcDbEntity
  8
_U+30EC_U+30A4_U+30E4_U+30FC 1
 62
   179
420
  2234388
370
     9
100
AcDbVertex
100
AcDb2dVertex
 10
78.85687326597133
 20
-133.2990235777862
 30
0.0
  0
SEQEND
  5
95
330
92
100
AcDbEntity
  8
_U+30EC_U+30A4_U+30E4_U+30FC 1
 62
   179
420
  2234388
370
     9
  0
POLYLINE
  5
96
330
1F
100
AcDbEntity
  8
_U+30EC_U+30A4_U+30E4_U+30FC 1
 62
   179
420
  2234388
370
     9
100
AcDb2dPolyline
 66
     1
 10
0.0
 20
0.0
 30
0.0
  0
VERTEX
  5
97
330
96
100
AcDbEntity
  8
_U+30EC_U+30A4_U+30E4_U+30FC 1
 62
   179
420
  2234388
370
     9
100
AcDbVertex
100
AcDb2dVertex
 10
80.31687933983459
 20
-118.2990535815364
 30
0.0
  0
VERTEX
  5
98
330
96
100
AcDbEntity
  8
_U+30EC_U+30A4_U+30E4_U+30FC 1
 62
   179
420
  2234388
370
     9
100
AcDbVertex
100
AcDb2dVertex
 10
77.85710106925542
 20
-118.2990535815364
 30
0.0
  0
SEQEND
  5
99
330
96
100
AcDbEntity
  8
_U+30EC_U+30A4_U+30E4_U+30FC 1
 62
   179
420
  2234388
370
     9
  0
POLYLINE
  5
9A
330
1F
100
AcDbEntity
  8
_U+30EC_U+30A4_U+30E4_U+30FC 1
 62
   179
420
  2234388
370
     9
100
AcDb2dPolyline
 66
     1
 10
0.0
 20
0.0
 30
0.0
  0
VERTEX
  5
9B
330
9A
100
AcDbEntity
  8
_U+30EC_U+30A4_U+30E4_U+30FC 1
 62
   179
420
  2234388
370
     9
100
AcDbVertex
100
AcDb2dVertex
 10
80.31687933983459
 20
-133.2990235777862
 30
0.0
  0
VERTEX
  5
9C
330
9A
100
AcDbEntity
  8
_U+30EC_U+30A4_U+30E4_U+30FC 1
 62
   179
420
  2234388
370
     9
100
AcDbVertex
100
AcDb2dVertex
 10
77.85710106925542
 20
-133.2990235777862
 30
0.0
  0
SEQEND
  5
9D
330
9A
100
AcDbEntity
  8
_U+30EC_U+30A4_U+30E4_U+30FC 1
 62
   179
420
  2234388
370
     9
  0
INSERT
  5
9F
330
1F
100
AcDbEntity
  8
_U+30EC_U+30A4_U+30E4_U+30FC 1
100
AcDbBlockReference
  2
block 3
 10
0.0
 20
0.0
 30
0.0
  0
POLYLINE
  5
A6
330
1F
100
AcDbEntity
  8
_U+30EC_U+30A4_U+30E4_U+30FC 1
 62
   179
420
  2234388
370
     9
100
AcDb2dPolyline
 66
     1
 10
0.0
 20
0.0
 30
0.0
  0
VERTEX
  5
A7
330
A6
100
AcDbEntity
  8
_U+30EC_U+30A4_U+30E4_U+30FC 1
 62
   179
420
  2234388
370
     9
100
AcDbVertex
100
AcDb2dVertex
 10
82.85659705281877
 20
-137.2849891323455
 30
0.0
  0
VERTEX
  5
A8
330
A6
100
AcDbEntity
  8
_U+30EC_U+30A4_U+30E4_U+30FC 1
 62
   179
420
  2234388
370
     9
100
AcDbVertex
100
AcDb2dVertex
 10
97.85656667013767
 20
-137.2849891323455
 30
0.0
  0
SEQEND
  5
A9
330
A6
100
AcDbEntity
  8
_U+30EC_U+30A4_U+30E4_U+30FC 1
 62
   179
420
  2234388
370
     9
  0
POLYLINE
  5
AA
330
1F
100
AcDbEntity
  8
_U+30EC_U+30A4_U+30E4_U+30FC 1
 62
   179
420
  2234388
370
     9
100
AcDb2dPolyline
 66
     1
 10
0.0
 20
0.0
 30
0.0
  0
VERTEX
  5
AB
330
AA
100
AcDbEntity
  8
_U+30EC_U+30A4_U+30E4_U+30FC 1
 62
   179
420
  2234388
370
     9
100
AcDbVertex
100
AcDb2dVertex
 10
82.85659705281877
 20
-135.8249477438218
 30
0.0
  0
VERTEX
  5
AC
330
AA
100
AcDbEntity
  8
_U+30EC_U+30A4_U+30E4_U+30FC 1
 62
   179
420
  2234388
370
     9
100
AcDbVertex
100
AcDb2dVertex
 10
82.85659705281877
 20
-138.284761354318
 30
0.0
  0
SEQEND
  5
AD
330
AA
100
AcDbEntity
  8
_U+30EC_U+30A4_U+30E4_U+30FC 1
 62
   179
420
  2234388
370
     9
  0
POLYLINE
  5
AE
330
1F
100
AcDbEntity
  8
_U+30EC_U+30A4_U+30E4_U+30FC 1
 62
   179
420
  2234388
370
     9
100
AcDb2dPolyline
 66
     1
 10
0.0
 20
0.0
 30
0.0
  0
VERTEX
  5
AF
330
AE
100
AcDbEntity
  8
_U+30EC_U+30A4_U+30E4_U+30FC 1
 62
   179
420
  2234388
370
     9
100
AcDbVertex
100
AcDb2dVertex
 10
97.85656667013767
 20
-135.8249477438218
 30
0.0
  0
VERTEX
  5
B0
330
AE
100
AcDbEntity
  8
_U+30EC_U+30A4_U+30E4_U+30FC 1
 62
   179
420
  2234388
370
     9
100
AcDbVertex
100
AcDb2dVertex
 10
97.85656667013767
 20
-138.284761354318
 30
0.0
  0
SEQEND
  5
B1
330
AE
100
AcDbEntity
  8
_U+30EC_U+30A4_U+30E4_U+30FC 1
 62
   179
420
  2234388
370
     9
  0
INSERT
  5
B3
330
1F
100
AcDbEntity
  8
_U+30EC_U+30A4_U+30E4_U+30FC 1
100
AcDbBlockReference
  2
block 4
 10
0.0
 20
0.0
 30
0.0
  0
POLYLINE
  5
BA
330
1F
100
AcDbEntity
  8
_U+30EC_U+30A4_U+30E4_U+30FC 1
 62
   179
420
  2234388
370
     9
100
AcDb2dPolyline
 66
     1
 10
0.0
 20
0.0
 30
0.0
  0
VERTEX
  5
BB
330
BA
100
AcDbEntity
  8
_U+30EC_U+30A4_U+30E4_U+30FC 1
 62
   179
420
  2234388
370
     9
100
AcDbVertex
100
AcDb2dVertex
 10
82.19930151403221
 20
-121.8459519139828
 30
0.0
  0
VERTEX
  5
BC
330
BA
100
AcDbEntity
  8
_U+30EC_U+30A4_U+30E4_U+30FC 1
 62
   179
420
  2234388
370
     9
100
AcDbVertex
100
AcDb2dVertex
 10
89.19971772432561
 20
-121.8459519139828
 30
0.0
  0
SEQEND
  5
BD
330
BA
100
AcDbEntity
  8
_U+30EC_U+30A4_U+30E4_U+30FC 1
 62
   179
420
  2234388
370
     9
  0
POLYLINE
  5
BE
330
1F
100
AcDbEntity
  8
_U+30EC_U+30A4_U+30E4_U+30FC 1
 62
   179
420
  2234388
370
     9
100
AcDb2dPolyline
 66
     1
 10
0.0
 20
0.0
 30
0.0
  0
VERTEX
  5
BF
330
BE
100
AcDbEntity
  8
_U+30EC_U+30A4_U+30E4_U+30FC 1
 62
   179
420
  2234388
370
     9
100
AcDbVertex
100
AcDb2dVertex
 10
82.19930151403221
 20
-121.8459519139828
 30
0.0
  0
VERTEX
  5
C0
330
BE
100
AcDbEntity
  8
_U+30EC_U+30A4_U+30E4_U+30FC 1
 62
   179
420
  2234388
370
     9
100
AcDbVertex
100
AcDb2dVertex
 10
83.16527760049922
 20
-121.5870835807142
 30
0.0
  0
SEQEND
  5
C1
330
BE
100
AcDbEntity
  8
_U+30EC_U+30A4_U+30E4_U+30FC 1
 62
   179
420
  2234388
370
     9
  0
POLYLINE
  5
C2
330
1F
100
AcDbEntity
  8
_U+30EC_U+30A4_U+30E4_U+30FC 1
 62
   179
420
  2234388
370
     9
100
AcDb2dPolyline
 66
     1
 10
0.0
 20
0.0
 30
0.0
  0
VERTEX
  5
C3
330
C2
100
AcDbEntity
  8
_U+30EC_U+30A4_U+30E4_U+30FC 1
 62
   179
420
  2234388
370
     9
100
AcDbVertex
100
AcDb2dVertex
 10
82.19930151403221
 20
-121.8459519139828
 30
0.0
  0
VERTEX
  5
C4
330
C2
100
AcDbEntity
  8
_U+30EC_U+30A4_U+30E4_U+30FC 1
 62
   179
420
  2234388
370
     9
100
AcDbVertex
100
AcDb2dVertex
 10
83.16527760049922
 20
-122.1046791361404
 30
0.0
  0
SEQEND
  5
C5
330
C2
100
AcDbEntity
  8
_U+30EC_U+30A4_U+30E4_U+30FC 1
 62
   179
420
  2234388
370
     9
  0
POLYLINE
  5
C6
330
1F
100
AcDbEntity
  8
_U+30EC_U+30A4_U+30E4_U+30FC 1
 62
   179
420
  2234388
370
     9
100
AcDb2dPolyline
 66
     1
 10
0.0
 20
0.0
 30
0.0
  0
VERTEX
  5
C7
330
C6
100
AcDbEntity
  8
_U+30EC_U+30A4_U+30E4_U+30FC 1
 62
   179
420
  2234388
370
     9
100
AcDbVertex
100
AcDb2dVertex
 10
94.31570092713935
 20
-133.8416310776505
 30
0.0
  0
VERTEX
  5
C8
330
C6
100
AcDbEntity
  8
_U+30EC_U+30A4_U+30E4_U+30FC 1
 62
   179
420
  2234388
370
     9
100
AcDbVertex
100
AcDb2dVertex
 10
94.57474564275279
 20
-132.8756196890035
 30
0.0
  0
SEQEND
  5
C9
330
C6
100
AcDbEntity
  8
_U+30EC_U+30A4_U+30E4_U+30FC 1
 62
   179
420
  2234388
370
     9
  0
POLYLINE
  5
CA
330
1F
100
AcDbEntity
  8
_U+30EC_U+30A4_U+30E4_U+30FC 1
 62
   179
420
  2234388
370
     9
100
AcDb2dPolyline
 66
     1
 10
0.0
 20
0.0
 30
0.0
  0
VERTEX
  5
CB
330
CA
100
AcDbEntity
  8
_U+30EC_U+30A4_U+30E4_U+30FC 1
 62
   179
420
  2234388
370
     9
100
AcDbVertex
100
AcDb2dVertex
 10
94.31570092713935
 20
-133.8416310776505
 30
0.0
  0
VERTEX
  5
CC
330
CA
100
AcDbEntity
  8
_U+30EC_U+30A4_U+30E4_U+30FC 1
 62
   179
420
  2234388
370
     9
100
AcDbVertex
100
AcDb2dVertex
 10
94.31570092713935
 20
-123.0803566358965
 30
0.0
  0
SEQEND
  5
CD
330
CA
100
AcDbEntity
  8
_U+30EC_U+30A4_U+30E4_U+30FC 1
 62
   179
420
  2234388
370
     9
  0
POLYLINE
  5
CE
330
1F
100
AcDbEntity
  8
_U+30EC_U+30A4_U+30E4_U+30FC 1
 62
   179
420
  2234388
370
     9
100
AcDb2dPolyline
 66
     1
 10
0.0
 20
0.0
 30
0.0
  0
VERTEX
  5
CF
330
CE
100
AcDbEntity
  8
_U+30EC_U+30A4_U+30E4_U+30FC 1
 62
   179
420
  2234388
370
     9
100
AcDbVertex
100
AcDb2dVertex
 10
94.31570092713935
 20
-133.8416310776505
 30
0.0
  0
VERTEX
  5
D0
330
CE
100
AcDbEntity
  8
_U+30EC_U+30A4_U+30E4_U+30FC 1
 62
   179
420
  2234388
370
     9
100
AcDbVertex
100
AcDb2dVertex
 10
94.05729121150969
 20
-132.8756196890035
 30
0.0
  0
SEQEND
  5
D1
330
CE
100
AcDbEntity
  8
_U+30EC_U+30A4_U+30E4_U+30FC 1
 62
   179
420
  2234388
370
     9
  0
INSERT
  5
D3
330
1F
100
AcDbEntity
  8
_U+30EC_U+30A4_U+30E4_U+30FC 1
100
AcDbBlockReference
  2
block 5
 10
0.0
 20
0.0
 30
0.0
  0
ENDSEC
  0
SECTION
  2
OBJECTS
  0
DICTIONARY
  5
C
330
0
100
AcDbDictionary
281
     1
  3
ACAD_GROUP
350
D
  3
ACAD_LAYOUT
350
1A
  3
ACAD_MATERIAL
350
3B
  3
ACAD_MLEADERSTYLE
350
FB
  3
ACAD_MLINESTYLE
350
17
  3
ACAD_PLOTSETTINGS
350
19
  3
ACAD_PLOTSTYLENAME
350
E
  3
ACAD_TABLESTYLE
350
FA
  3
ACAD_VISUALSTYLE
350
2A
  0
SUN
  5
3F
330
29
100
AcDbSun
 90
        1
290
     0
 63
     7
421
 16777215
 40
1.0
291
     1
 91
  2455826
 92
 54000000
292
     0
 70
     2
 71
   256
280
     1
  0
DICTIONARY
  5
D
102
{ACAD_REACTORS
330
C
102
}
330
C
100
AcDbDictionary
281
     1
  0
DICTIONARY
  5
1A
102
{ACAD_REACTORS
330
C
102
}
330
C
100
AcDbDictionary
281
     1
  3
Layout1
350
1E
  3
Layout2
350
26
  3
Model
350
22
  0
DICTIONARY
  5
3B
102
{ACAD_REACTORS
330
C
102
}
330
C
100
AcDbDictionary
281
     1
  3
ByBlock
350
3D
  3
ByLayer
350
3C
  3
Global
350
3E
  0
DICTIONARY
  5
FB
102
{ACAD_REACTORS
330
C
102
}
330
C
100
AcDbDictionary
281
     1
  0
DICTIONARY
  5
17
102
{ACAD_REACTORS
330
C
102
}
330
C
100
AcDbDictionary
281
     1
  3
Standard
350
18
  0
DICTIONARY
  5
19
102
{ACAD_REACTORS
330
C
102
}
330
C
100
AcDbDictionary
281
     1
  0
ACDBDICTIONARYWDFLT
  5
E
102
{ACAD_REACTORS
330
C
102
}
330
C
100
AcDbDictionary
281
     1
  3
Normal
350
F
100
AcDbDictionaryWithDefault
340
F
  0
DICTIONARY
  5
FA
102
{ACAD_REACTORS
330
C
102
}
330
C
100
AcDbDictionary
281
     1
  0
DICTIONARY
  5
2A
102
{ACAD_REACTORS
330
C
102
}
330
C
100
AcDbDictionary
281
     1
  3
2dWireframe
350
2F
  3
3D Hidden
350
31
  3
3dWireframe
350
30
  3
Basic
350
32
  3
Brighten
350
36
  3
ColorChange
350
3A
  3
Conceptual
350
34
  3
Dim
350
35
  3
Facepattern
350
39
  3
Flat
350
2B
  3
FlatWithEdges
350
2C
  3
Gouraud
350
2D
  3
GouraudWithEdges
350
2E
  3
Linepattern
350
38
  3
Realistic
350
33
  3
Thicken
350
37
  0
LAYOUT
  5
1E
102
{ACAD_REACTORS
330
1A
102
}
330
1A
100
AcDbPlotSettings
  1

  2
none_device
  4

  6

 40
0.0
 41
0.0
 42
0.0
 43
0.0
 44
0.0
 45
0.0
 46
0.0
 47
0.0
 48
0.0
 49
0.0
140
0.0
141
0.0
142
1.0
143
1.0
 70
   688
 72
     0
 73
     0
 74
     5
  7

 75
    16
 76
     0
 77
     2
 78
   300
147
1.0
148
0.0
149
0.0
100
AcDbLayout
  1
Layout1
 70
     1
 71
     1
 10
0.0
 20
0.0
 11
12.0
 21
9.0
 12
0.0
 22
0.0
 32
0.0
 14
1.000000000000000E+20
 24
1.000000000000000E+20
 34
1.000000000000000E+20
 15
-1.000000000000000E+20
 25
-1.000000000000000E+20
 35
-1.000000000000000E+20
146
0.0
 13
0.0
 23
0.0
 33
0.0
 16
1.0
 26
0.0
 36
0.0
 17
0.0
 27
1.0
 37
0.0
 76
     0
330
1B
  0
LAYOUT
  5
26
102
{ACAD_REACTORS
330
1A
102
}
330
1A
100
AcDbPlotSettings
  1

  2
none_device
  4

  6

 40
0.0
 41
0.0
 42
0.0
 43
0.0
 44
0.0
 45
0.0
 46
0.0
 47
0.0
 48
0.0
 49
0.0
140
0.0
141
0.0
142
1.0
143
1.0
 70
   688
 72
     0
 73
     0
 74
     5
  7

 75
    16
 76
     0
 77
     2
 78
   300
147
1.0
148
0.0
149
0.0
100
AcDbLayout
  1
Layout2
 70
     1
 71
     2
 10
0.0
 20
0.0
 11
0.0
 21
0.0
 12
0.0
 22
0.0
 32
0.0
 14
0.0
 24
0.0
 34
0.0
 15
0.0
 25
0.0
 35
0.0
146
0.0
 13
0.0
 23
0.0
 33
0.0
 16
1.0
 26
0.0
 36
0.0
 17
0.0
 27
1.0
 37
0.0
 76
     0
330
23
  0
LAYOUT
  5
22
102
{ACAD_REACTORS
330
1A
102
}
330
1A
100
AcDbPlotSettings
  1

  2
none_device
  4

  6

 40
0.0
 41
0.0
 42
0.0
 43
0.0
 44
0.0
 45
0.0
 46
0.0
 47
0.0
 48
0.0
 49
0.0
140
0.0
141
0.0
142
1.0
143
1.0
 70
  1712
 72
     0
 73
     0
 74
     0
  7

 75
     0
 76
     0
 77
     2
 78
   300
147
1.0
148
0.0
149
0.0
100
AcDbLayout
  1
Model
 70
     1
 71
     0
 10
0.0
 20
0.0
 11
12.0
 21
9.0
 12
0.0
 22
0.0
 32
0.0
 14
1.000000000000000E+20
 24
1.000000000000000E+20
 34
1.000000000000000E+20
 15
-1.000000000000000E+20
 25
-1.000000000000000E+20
 35
-1.000000000000000E+20
146
0.0
 13
0.0
 23
0.0
 33
0.0
 16
1.0
 26
0.0
 36
0.0
 17
0.0
 27
1.0
 37
0.0
 76
     0
330
1F
331
29
  0
MATERIAL
  5
3D
102
{ACAD_REACTORS
330
3B
102
}
330
3B
100
AcDbMaterial
  1
ByBlock
 72
     1
 94
      127
  0
MATERIAL
  5
3C
102
{ACAD_REACTORS
330
3B
102
}
330
3B
100
AcDbMaterial
  1
ByLayer
 72
     1
 94
      127
  0
MATERIAL
  5
3E
102
{ACAD_REACTORS
330
3B
102
}
330
3B
100
AcDbMaterial
  1
Global
 72
     1
 94
      127
  0
MLINESTYLE
  5
18
102
{ACAD_REACTORS
330
17
102
}
330
17
100
AcDbMlineStyle
  2
Standard
 70
     0
  3

 62
   256
 51
90.0
 52
90.0
 71
     2
 49
0.5
 62
   256
  6
BYLAYER
 49
-0.5
 62
   256
  6
BYLAYER
  0
ACDBPLACEHOLDER
  5
F
102
{ACAD_REACTORS
330
E
102
}
330
E
  0
VISUALSTYLE
  5
2F
102
{ACAD_REACTORS
330
2A
102
}
330
2A
100
AcDbVisualStyle
  2
2dWireframe
 70
     4
177
     2
291
     0
 71
     0
176
     1
 72
     2
176
     1
 73
     0
176
     1
 90
        0
176
     1
 40
-0.6
176
     1
 41
-30.0
176
     1
 62
     5
 63
     7
421
 16777215
176
     1
 74
     1
176
     1
 91
        4
176
     1
 64
     7
176
     1
 65
   257
176
     1
 75
     1
176
     1
175
     1
176
     1
 42
1.0
176
     1
 92
        0
176
     1
 66
   257
176
     1
 43
1.0
176
     1
 76
     1
176
     1
 77
     6
176
     1
 78
     2
176
     1
 67
     7
176
     1
 79
     5
176
     1
170
     0
176
     1
171
     0
176
     1
290
     0
176
     1
 93
        1
176
     1
 44
0.0
176
     1
173
     0
176
     1
  0
VISUALSTYLE
  5
31
102
{ACAD_REACTORS
330
2A
102
}
330
2A
100
AcDbVisualStyle
  2
3D Hidden
 70
     6
177
     2
291
     0
 71
     1
176
     1
 72
     2
176
     1
 73
     2
176
     1
 90
        0
176
     1
 40
-0.6
176
     1
 41
-30.0
176
     1
 62
     5
 63
     7
421
 16777215
176
     1
 74
     2
176
     1
 91
        2
176
     1
 64
     7
176
     1
 65
   257
176
     1
 75
     2
176
     1
175
     1
176
     1
 42
40.0
176
     1
 92
        0
176
     1
 66
   257
176
     1
 43
1.0
176
     1
 76
     1
176
     1
 77
     6
176
     1
 78
     2
176
     1
 67
     7
176
     1
 79
     3
176
     1
170
     0
176
     1
171
     0
176
     1
290
     0
176
     1
 93
        1
176
     1
 44
0.0
176
     1
173
     0
176
     1
  0
VISUALSTYLE
  5
30
102
{ACAD_REACTORS
330
2A
102
}
330
2A
100
AcDbVisualStyle
  2
3dWireframe
 70
     5
177
     2
291
     0
 71
     0
176
     1
 72
     2
176
     1
 73
     0
176
     1
 90
        0
176
     1
 40
-0.6
176
     1
 41
-30.0
176
     1
 62
     5
 63
     7
421
 16777215
176
     1
 74
     1
176
     1
 91
        4
176
     1
 64
     7
176
     1
 65
   257
176
     1
 75
     1
176
     1
175
     1
176
     1
 42
1.0
176
     1
 92
        0
176
     1
 66
   257
176
     1
 43
1.0
176
     1
 76
     1
176
     1
 77
     6
176
     1
 78
     2
176
     1
 67
     7
176
     1
 79
     5
176
     1
170
     0
176
     1
171
     0
176
     1
290
     0
176
     1
 93
        1
176
     1
 44
0.0
176
     1
173
     0
176
     1
  0
VISUALSTYLE
  5
32
102
{ACAD_REACTORS
330
2A
102
}
330
2A
100
AcDbVisualStyle
  2
Basic
 70
     7
177
     2
291
     1
 71
     1
176
     1
 72
     0
176
     1
 73
     1
176
     1
 90
        0
176
     1
 40
-0.6
176
     1
 41
-30.0
176
     1
 62
     5
 63
     7
421
 16777215
176
     1
 74
     0
176
     1
 91
        4
176
     1
 64
     7
176
     1
 65
   257
176
     1
 75
     1
176
     1
175
     1
176
     1
 42
1.0
176
     1
 92
        8
176
     1
 66
     7
176
     1
 43
1.0
176
     1
 76
     1
176
     1
 77
     6
176
     1
 78
     2
176
     1
 67
     7
176
     1
 79
     5
176
     1
170
     0
176
     1
171
     0
176
     1
290
     0
176
     1
 93
        1
176
     1
 44
0.0
176
     1
173
     0
176
     1
  0
VISUALSTYLE
  5
36
102
{ACAD_REACTORS
330
2A
102
}
330
2A
100
AcDbVisualStyle
  2
Brighten
 70
    12
177
     2
291
     1
 71
     2
176
     1
 72
     2
176
     1
 73
     0
176
     1
 90
        0
176
     1
 40
-0.6
176
     1
 41
-30.0
176
     1
 62
     5
 63
     7
421
 16777215
176
     1
 74
     1
176
     1
 91
        4
176
     1
 64
     7
176
     1
 65
   257
176
     1
 75
     1
176
     1
175
     1
176
     1
 42
1.0
176
     1
 92
        8
176
     1
 66
     7
176
     1
 43
1.0
176
     1
 76
     1
176
     1
 77
     6
176
     1
 78
     2
176
     1
 67
     7
176
     1
 79
     5
176
     1
170
     0
176
     1
171
     0
176
     1
290
     0
176
     1
 93
        1
176
     1
 44
50.0
176
     1
173
     0
176
     1
  0
VISUALSTYLE
  5
3A
102
{ACAD_REACTORS
330
2A
102
}
330
2A
100
AcDbVisualStyle
  2
ColorChange
 70
    16
177
     2
291
     1
 71
     2
176
     1
 72
     2
176
     1
 73
     3
176
     1
 90
        0
176
     1
 40
-0.6
176
     1
 41
-30.0
176
     1
 62
     5
 63
     8
421
  8421504
176
     1
 74
     1
176
     1
 91
        4
176
     1
 64
     7
176
     1
 65
   257
176
     1
 75
     1
176
     1
175
     1
176
     1
 42
1.0
176
     1
 92
        8
176
     1
 66
     8
424
  8421504
176
     1
 43
1.0
176
     1
 76
     1
176
     1
 77
     6
176
     1
 78
     2
176
     1
 67
     7
176
     1
 79
     5
176
     1
170
     0
176
     1
171
     0
176
     1
290
     0
176
     1
 93
        1
176
     1
 44
0.0
176
     1
173
     0
176
     1
  0
VISUALSTYLE
  5
34
102
{ACAD_REACTORS
330
2A
102
}
330
2A
100
AcDbVisualStyle
  2
Conceptual
 70
     9
177
     2
291
     0
 71
     3
176
     1
 72
     2
176
     1
 73
     0
176
     1
 90
        0
176
     1
 40
-0.6
176
     1
 41
-30.0
176
     1
 62
     5
 63
     7
421
 16777215
176
     1
 74
     2
176
     1
 91
        2
176
     1
 64
     7
176
     1
 65
   257
176
     1
 75
     1
176
     1
175
     1
176
     1
 42
40.0
176
     1
 92
        8
176
     1
 66
     7
176
     1
 43
1.0
176
     1
 76
     1
176
     1
 77
     6
176
     1
 78
     2
176
     1
 67
     7
176
     1
 79
     3
176
     1
170
     0
176
     1
171
     0
176
     1
290
     0
176
     1
 93
        1
176
     1
 44
0.0
176
     1
173
     0
176
     1
  0
VISUALSTYLE
  5
35
102
{ACAD_REACTORS
330
2A
102
}
330
2A
100
AcDbVisualStyle
  2
Dim
 70
    11
177
     2
291
     1
 71
     2
176
     1
 72
     2
176
     1
 73
     0
176
     1
 90
        0
176
     1
 40
-0.6
176
     1
 41
-30.0
176
     1
 62
     5
 63
     7
421
 16777215
176
     1
 74
     1
176
     1
 91
        4
176
     1
 64
     7
176
     1
 65
   257
176
     1
 75
     1
176
     1
175
     1
176
     1
 42
1.0
176
     1
 92
        8
176
     1
 66
     7
176
     1
 43
1.0
176
     1
 76
     1
176
     1
 77
     6
176
     1
 78
     2
176
     1
 67
     7
176
     1
 79
     5
176
     1
170
     0
176
     1
171
     0
176
     1
290
     0
176
     1
 93
        1
176
     1
 44
-50.0
176
     1
173
     0
176
     1
  0
VISUALSTYLE
  5
39
102
{ACAD_REACTORS
330
2A
102
}
330
2A
100
AcDbVisualStyle
  2
Facepattern
 70
    15
177
     2
291
     1
 71
     2
176
     1
 72
     2
176
     1
 73
     0
176
     1
 90
        0
176
     1
 40
-0.6
176
     1
 41
-30.0
176
     1
 62
     5
 63
     7
421
 16777215
176
     1
 74
     1
176
     1
 91
        4
176
     1
 64
     7
176
     1
 65
   257
176
     1
 75
     1
176
     1
175
     1
176
     1
 42
1.0
176
     1
 92
        8
176
     1
 66
     7
176
     1
 43
1.0
176
     1
 76
     1
176
     1
 77
     6
176
     1
 78
     2
176
     1
 67
     7
176
     1
 79
     5
176
     1
170
     0
176
     1
171
     0
176
     1
290
     0
176
     1
 93
        1
176
     1
 44
0.0
176
     1
173
     0
176
     1
  0
VISUALSTYLE
  5
2B
102
{ACAD_REACTORS
330
2A
102
}
330
2A
100
AcDbVisualStyle
  2
Flat
 70
     0
177
     2
291
     1
 71
     2
176
     1
 72
     1
176
     1
 73
     1
176
     1
 90
        2
176
     1
 40
-0.6
176
     1
 41
30.0
176
     1
 62
     5
 63
     7
421
 16777215
176
     1
 74
     0
176
     1
 91
        4
176
     1
 64
     7
176
     1
 65
   257
176
     1
 75
     1
176
     1
175
     1
176
     1
 42
1.0
176
     1
 92
        8
176
     1
 66
     7
176
     1
 43
1.0
176
     1
 76
     1
176
     1
 77
     6
176
     1
 78
     2
176
     1
 67
     7
176
     1
 79
     5
176
     1
170
     0
176
     1
171
     0
176
     1
290
     0
176
     1
 93
       13
176
     1
 44
0.0
176
     1
173
     0
176
     1
  0
VISUALSTYLE
  5
2C
102
{ACAD_REACTORS
330
2A
102
}
330
2A
100
AcDbVisualStyle
  2
FlatWithEdges
 70
     1
177
     2
291
     1
 71
     2
176
     1
 72
     1
176
     1
 73
     1
176
     1
 90
        2
176
     1
 40
-0.6
176
     1
 41
30.0
176
     1
 62
     5
 63
     7
421
 16777215
176
     1
 74
     1
176
     1
 91
        4
176
     1
 64
     7
176
     1
 65
   257
176
     1
 75
     1
176
     1
175
     1
176
     1
 42
1.0
176
     1
 92
        0
176
     1
 66
   257
176
     1
 43
1.0
176
     1
 76
     1
176
     1
 77
     6
176
     1
 78
     2
176
     1
 67
     7
176
     1
 79
     5
176
     1
170
     0
176
     1
171
     0
176
     1
290
     0
176
     1
 93
       13
176
     1
 44
0.0
176
     1
173
     0
176
     1
  0
VISUALSTYLE
  5
2D
102
{ACAD_REACTORS
330
2A
102
}
330
2A
100
AcDbVisualStyle
  2
Gouraud
 70
     2
177
     2
291
     1
 71
     2
176
     1
 72
     2
176
     1
 73
     1
176
     1
 90
        2
176
     1
 40
-0.6
176
     1
 41
30.0
176
     1
 62
     5
 63
     7
421
 16777215
176
     1
 74
     0
176
     1
 91
        4
176
     1
 64
     7
176
     1
 65
   257
176
     1
 75
     1
176
     1
175
     1
176
     1
 42
1.0
176
     1
 92
        0
176
     1
 66
     7
176
     1
 43
1.0
176
     1
 76
     1
176
     1
 77
     6
176
     1
 78
     2
176
     1
 67
     7
176
     1
 79
     5
176
     1
170
     0
176
     1
171
     0
176
     1
290
     0
176
     1
 93
       13
176
     1
 44
0.0
176
     1
173
     0
176
     1
  0
VISUALSTYLE
  5
2E
102
{ACAD_REACTORS
330
2A
102
}
330
2A
100
AcDbVisualStyle
  2
GouraudWithEdges
 70
     3
177
     2
291
     1
 71
     2
176
     1
 72
     2
176
     1
 73
     1
176
     1
 90
        2
176
     1
 40
-0.6
176
     1
 41
30.0
176
     1
 62
     5
 63
     7
421
 16777215
176
     1
 74
     1
176
     1
 91
        4
176
     1
 64
     7
176
     1
 65
   257
176
     1
 75
     1
176
     1
175
     1
176
     1
 42
1.0
176
     1
 92
        0
176
     1
 66
   257
176
     1
 43
1.0
176
     1
 76
     1
176
     1
 77
     6
176
     1
 78
     2
176
     1
 67
     7
176
     1
 79
     5
176
     1
170
     0
176
     1
171
     0
176
     1
290
     0
176
     1
 93
       13
176
     1
 44
0.0
176
     1
173
     0
176
     1
  0
VISUALSTYLE
  5
38
102
{ACAD_REACTORS
330
2A
102
}
330
2A
100
AcDbVisualStyle
  2
Linepattern
 70
    14
177
     2
291
     1
 71
     2
176
     1
 72
     2
176
     1
 73
     0
176
     1
 90
        0
176
     1
 40
-0.6
176
     1
 41
-30.0
176
     1
 62
     5
 63
     7
421
 16777215
176
     1
 74
     1
176
     1
 91
        4
176
     1
 64
     7
176
     1
 65
   257
176
     1
 75
     7
176
     1
175
     7
176
     1
 42
1.0
176
     1
 92
        8
176
     1
 66
     7
176
     1
 43
1.0
176
     1
 76
     1
176
     1
 77
     6
176
     1
 78
     2
176
     1
 67
     7
176
     1
 79
     5
176
     1
170
     0
176
     1
171
     0
176
     1
290
     0
176
     1
 93
        1
176
     1
 44
0.0
176
     1
173
     0
176
     1
  0
VISUALSTYLE
  5
33
102
{ACAD_REACTORS
330
2A
102
}
330
2A
100
AcDbVisualStyle
  2
Realistic
 70
     8
177
     2
291
     0
 71
     2
176
     1
 72
     2
176
     1
 73
     0
176
     1
 90
        0
176
     1
 40
-0.6
176
     1
 41
-30.0
176
     1
 62
     5
 63
     7
421
 16777215
176
     1
 74
     1
176
     1
 91
        0
176
     1
 64
     7
176
     1
 65
   257
176
     1
 75
     1
176
     1
175
     1
176
     1
 42
1.0
176
     1
 92
        8
176
     1
 66
     8
424
  7895160
176
     1
 43
1.0
176
     1
 76
     1
176
     1
 77
     6
176
     1
 78
     2
176
     1
 67
     7
176
     1
 79
     5
176
     1
170
     0
176
     1
171
     0
176
     1
290
     0
176
     1
 93
       13
176
     1
 44
0.0
176
     1
173
     0
176
     1
  0
VISUALSTYLE
  5
37
102
{ACAD_REACTORS
330
2A
102
}
330
2A
100
AcDbVisualStyle
  2
Thicken
 70
    13
177
     2
291
     1
 71
     2
176
     1
 72
     2
176
     1
 73
     0
176
     1
 90
        0
176
     1
 40
-0.6
176
     1
 41
-30.0
176
     1
 62
     5
 63
     7
421
 16777215
176
     1
 74
     1
176
     1
 91
        4
176
     1
 64
     7
176
     1
 65
   257
176
     1
 75
     1
176
     1
175
     1
176
     1
 42
1.0
176
     1
 92
       12
176
     1
 66
     7
176
     1
 43
1.0
176
     1
 76
     1
176
     1
 77
     6
176
     1
 78
     2
176
     1
 67
     7
176
     1
 79
     5
176
     1
170
     0
176
     1
171
     0
176
     1
290
     0
176
     1
 93
        1
176
     1
 44
0.0
176
     1
173
     0
176
     1
  0
ENDSEC
  0
EOF
