  0
SECTION
  2
HEADER
  9
$ACADVER
  1
AC1024
  9
$ACADMAINTVER
 70
     6
  9
$DWGCODEPAGE
  3
UNDEFINED
  9
$INSBASE
 10
0.0
 20
0.0
 30
0.0
  9
$EXTMIN
 10
1.000000000000000E+20
 20
1.000000000000000E+20
 30
1.000000000000000E+20
  9
$EXTMAX
 10
-1.000000000000000E+20
 20
-1.000000000000000E+20
 30
-1.000000000000000E+20
  9
$LIMMIN
 10
0.0
 20
0.0
  9
$LIMMAX
 10
12.0
 20
9.0
  9
$ORTHOMODE
 70
     0
  9
$REGENMODE
 70
     1
  9
$FILLMODE
 70
     1
  9
$QTEXTMODE
 70
     0
  9
$MIRRTEXT
 70
     1
  9
$LTSCALE
 40
1.0
  9
$ATTMODE
 70
     1
  9
$TEXTSIZE
 40
0.2
  9
$TRACEWID
 40
0.05
  9
$TEXTSTYLE
  7
Standard
  9
$CLAYER
  8
0
  9
$CELTYPE
  6
ByLayer
  9
$CECOLOR
 62
   256
  9
$CELTSCALE
 40
1.0
  9
$DISPSILH
 70
     0
  9
$DIMSCALE
 40
1.0
  9
$DIMASZ
 40
0.18
  9
$DIMEXO
 40
0.0625
  9
$DIMDLI
 40
0.38
  9
$DIMRND
 40
0.0
  9
$DIMDLE
 40
0.0
  9
$DIMEXE
 40
0.18
  9
$DIMTP
 40
0.0
  9
$DIMTM
 40
0.0
  9
$DIMTXT
 40
0.18
  9
$DIMCEN
 40
0.09
  9
$DIMTSZ
 40
0.0
  9
$DIMTOL
 70
     0
  9
$DIMLIM
 70
     0
  9
$DIMTIH
 70
     1
  9
$DIMTOH
 70
     1
  9
$DIMSE1
 70
     0
  9
$DIMSE2
 70
     0
  9
$DIMTAD
 70
     0
  9
$DIMZIN
 70
     0
  9
$DIMBLK
  1

  9
$DIMASO
 70
     1
  9
$DIMSHO
 70
     1
  9
$DIMPOST
  1

  9
$DIMAPOST
  1

  9
$DIMALT
 70
     0
  9
$DIMALTD
 70
     2
  9
$DIMALTF
 40
25.4
  9
$DIMLFAC
 40
1.0
  9
$DIMTOFL
 70
     0
  9
$DIMTVP
 40
0.0
  9
$DIMTIX
 70
     0
  9
$DIMSOXD
 70
     0
  9
$DIMSAH
 70
     0
  9
$DIMBLK1
  1

  9
$DIMBLK2
  1

  9
$DIMSTYLE
  2
Standard
  9
$DIMCLRD
 70
     0
  9
$DIMCLRE
 70
     0
  9
$DIMCLRT
 70
     0
  9
$DIMTFAC
 40
1.0
  9
$DIMGAP
 40
0.09
  9
$DIMJUST
 70
     0
  9
$DIMSD1
 70
     0
  9
$DIMSD2
 70
     0
  9
$DIMTOLJ
 70
     1
  9
$DIMTZIN
 70
     0
  9
$DIMALTZ
 70
     0
  9
$DIMALTTZ
 70
     0
  9
$DIMUPT
 70
     0
  9
$DIMDEC
 70
     4
  9
$DIMTDEC
 70
     4
  9
$DIMALTU
 70
     2
  9
$DIMALTTD
 70
     2
  9
$DIMTXSTY
  7
Standard
  9
$DIMAUNIT
 70
     0
  9
$DIMADEC
 70
     0
  9
$DIMALTRND
 40
0.0
  9
$DIMAZIN
 70
     0
  9
$DIMDSEP
 70
    46
  9
$DIMATFIT
 70
     3
  9
$DIMFRAC
 70
     0
  9
$DIMLDRBLK
  1

  9
$DIMLUNIT
 70
     2
  9
$DIMLWD
 70
    -2
  9
$DIMLWE
 70
    -2
  9
$DIMTMOVE
 70
     0
  9
$DIMFXL
 40
1.0
  9
$DIMFXLON
 70
     0
  9
$DIMJOGANG
 40
0.7853981633974483
  9
$DIMTFILL
 70
     0
  9
$DIMTFILLCLR
 70
     0
  9
$DIMARCSYM
 70
     0
  9
$DIMLTYPE
  6

  9
$DIMLTEX1
  6

  9
$DIMLTEX2
  6

  9
$DIMTXTDIRECTION
 70
     0
  9
$LUNITS
 70
     2
  9
$LUPREC
 70
     4
  9
$SKETCHINC
 40
0.1
  9
$FILLETRAD
 40
0.5
  9
$AUNITS
 70
     0
  9
$AUPREC
 70
     0
  9
$MENU
  1
.
  9
$ELEVATION
 40
0.0
  9
$PELEVATION
 40
0.0
  9
$THICKNESS
 40
0.0
  9
$LIMCHECK
 70
     0
  9
$CHAMFERA
 40
0.5
  9
$CHAMFERB
 40
0.5
  9
$CHAMFERC
 40
1.0
  9
$CHAMFERD
 40
0.0
  9
$SKPOLY
 70
     0
  9
$TDCREATE
 40
2457917.620624988
  9
$TDUCREATE
 40
2457917.245625
  9
$TDUPDATE
 40
2457917.620624988
  9
$TDUUPDATE
 40
2457917.245625
  9
$TDINDWG
 40
0.0000000116
  9
$TDUSRTIMER
 40
0.0000000116
  9
$USRTIMER
 70
     1
  9
$ANGBASE
 50
0.0
  9
$ANGDIR
 70
     0
  9
$PDMODE
 70
     0
  9
$PDSIZE
 40
0.0
  9
$PLINEWID
 40
0.0
  9
$SPLFRAME
 70
     0
  9
$SPLINETYPE
 70
     6
  9
$SPLINESEGS
 70
     8
  9
$HANDSEED
  5
FC
  9
$SURFTAB1
 70
     6
  9
$SURFTAB2
 70
     6
  9
$SURFTYPE
 70
     6
  9
$SURFU
 70
     6
  9
$SURFV
 70
     6
  9
$UCSBASE
  2

  9
$UCSNAME
  2

  9
$UCSORG
 10
0.0
 20
0.0
 30
0.0
  9
$UCSXDIR
 10
1.0
 20
0.0
 30
0.0
  9
$UCSYDIR
 10
0.0
 20
1.0
 30
0.0
  9
$UCSORTHOREF
  2

  9
$UCSORTHOVIEW
 70
     0
  9
$UCSORGTOP
 10
0.0
 20
0.0
 30
0.0
  9
$UCSORGBOTTOM
 10
0.0
 20
0.0
 30
0.0
  9
$UCSORGLEFT
 10
0.0
 20
0.0
 30
0.0
  9
$UCSORGRIGHT
 10
0.0
 20
0.0
 30
0.0
  9
$UCSORGFRONT
 10
0.0
 20
0.0
 30
0.0
  9
$UCSORGBACK
 10
0.0
 20
0.0
 30
0.0
  9
$PUCSBASE
  2

  9
$PUCSNAME
  2

  9
$PUCSORG
 10
0.0
 20
0.0
 30
0.0
  9
$PUCSXDIR
 10
1.0
 20
0.0
 30
0.0
  9
$PUCSYDIR
 10
0.0
 20
1.0
 30
0.0
  9
$PUCSORTHOREF
  2

  9
$PUCSORTHOVIEW
 70
     0
  9
$PUCSORGTOP
 10
0.0
 20
0.0
 30
0.0
  9
$PUCSORGBOTTOM
 10
0.0
 20
0.0
 30
0.0
  9
$PUCSORGLEFT
 10
0.0
 20
0.0
 30
0.0
  9
$PUCSORGRIGHT
 10
0.0
 20
0.0
 30
0.0
  9
$PUCSORGFRONT
 10
0.0
 20
0.0
 30
0.0
  9
$PUCSORGBACK
 10
0.0
 20
0.0
 30
0.0
  9
$USERI1
 70
     0
  9
$USERI2
 70
     0
  9
$USERI3
 70
     0
  9
$USERI4
 70
     0
  9
$USERI5
 70
     0
  9
$USERR1
 40
0.0
  9
$USERR2
 40
0.0
  9
$USERR3
 40
0.0
  9
$USERR4
 40
0.0
  9
$USERR5
 40
0.0
  9
$WORLDVIEW
 70
     1
  9
$SHADEDGE
 70
     3
  9
$SHADEDIF
 70
    70
  9
$TILEMODE
 70
     1
  9
$MAXACTVP
 70
    64
  9
$PINSBASE
 10
0.0
 20
0.0
 30
0.0
  9
$PLIMCHECK
 70
     0
  9
$PEXTMIN
 10
1.000000000000000E+20
 20
1.000000000000000E+20
 30
1.000000000000000E+20
  9
$PEXTMAX
 10
-1.000000000000000E+20
 20
-1.000000000000000E+20
 30
-1.000000000000000E+20
  9
$PLIMMIN
 10
0.0
 20
0.0
  9
$PLIMMAX
 10
12.0
 20
9.0
  9
$UNITMODE
 70
     0
  9
$VISRETAIN
 70
     1
  9
$PLINEGEN
 70
     0
  9
$PSLTSCALE
 70
     1
  9
$TREEDEPTH
 70
  3020
  9
$CMLSTYLE
  2
Standard
  9
$CMLJUST
 70
     0
  9
$CMLSCALE
 40
1.0
  9
$PROXYGRAPHICS
 70
     1
  9
$MEASUREMENT
 70
     0
  9
$CELWEIGHT
370
    -1
  9
$ENDCAPS
280
     0
  9
$JOINSTYLE
280
     0
  9
$LWDISPLAY
290
     1
  9
$INSUNITS
 70
     1
  9
$HYPERLINKBASE
  1

  9
$STYLESHEET
  1

  9
$XEDIT
290
     1
  9
$CEPSNTYPE
380
     0
  9
$PSTYLEMODE
290
     1
  9
$FINGERPRINTGUID
  2
{DE9F2EB6-5BD9-8785-43F8-81D2A72C7107}
  9
$VERSIONGUID
  2
{FAEB1C32-E019-11D5-929B-00C0DF256EC4}
  9
$EXTNAMES
290
     1
  9
$PSVPSCALE
 40
0.0
  9
$OLESTARTUP
290
     0
  9
$SORTENTS
280
   127
  9
$INDEXCTL
280
     0
  9
$HIDETEXT
280
     1
  9
$XCLIPFRAME
280
     2
  9
$HALOGAP
280
     0
  9
$OBSCOLOR
 70
   257
  9
$OBSLTYPE
280
     0
  9
$INTERSECTIONDISPLAY
280
     0
  9
$INTERSECTIONCOLOR
 70
   257
  9
$DIMASSOC
280
     2
  9
$PROJECTNAME
  1

  9
$CAMERADISPLAY
290
     0
  9
$LENSLENGTH
 40
50.0
  9
$CAMERAHEIGHT
 40
0.0
  9
$STEPSPERSEC
 40
2.0
  9
$STEPSIZE
 40
6.0
  9
$3DDWFPREC
 40
2.0
  9
$PSOLWIDTH
 40
0.25
  9
$PSOLHEIGHT
 40
4.0
  9
$LOFTANG1
 40
1.570796326794897
  9
$LOFTANG2
 40
1.570796326794897
  9
$LOFTMAG1
 40
0.0
  9
$LOFTMAG2
 40
0.0
  9
$LOFTPARAM
 70
     7
  9
$LOFTNORMALS
280
     1
  9
$LATITUDE
 40
37.795
  9
$LONGITUDE
 40
-122.394
  9
$NORTHDIRECTION
 40
0.0
  9
$TIMEZONE
 70
 -8000
  9
$LIGHTGLYPHDISPLAY
280
     1
  9
$TILEMODELIGHTSYNCH
280
     1
  9
$CMATERIAL
347
3C
  9
$SOLIDHIST
280
     1
  9
$SHOWHIST
280
     1
  9
$DWFFRAME
280
     2
  9
$DGNFRAME
280
     2
  9
$REALWORLDSCALE
290
     1
  9
$INTERFERECOLOR
 62
   256
  9
$CSHADOW
280
     0
  9
$SHADOWPLANELOCATION
 40
0.0
  0
ENDSEC
  0
SECTION
  2
CLASSES
  0
CLASS
  1
ACDBDICTIONARYWDFLT
  2
AcDbDictionaryWithDefault
  3
ObjectDBX Classes
 90
        0
 91
        4
280
     0
281
     0
  0
CLASS
  1
VISUALSTYLE
  2
AcDbVisualStyle
  3
ObjectDBX Classes
 90
     4095
 91
        4
280
     0
281
     0
  0
CLASS
  1
MATERIAL
  2
AcDbMaterial
  3
ObjectDBX Classes
 90
     1153
 91
        4
280
     0
281
     0
  0
CLASS
  1
SUN
  2
AcDbSun
  3
SCENEOE
 90
     1024
 91
        4
280
     0
281
     0
  0
ENDSEC
  0
SECTION
  2
TABLES
  0
TABLE
  2
VPORT
  5
8
330
0
100
AcDbSymbolTable
 70
     1
  0
VPORT
  5
29
330
8
100
AcDbSymbolTableRecord
100
AcDbViewportTableRecord
  2
*Active
 70
     0
 10
0.0
 20
0.0
 11
1.0
 21
1.0
 12
0.0
 22
0.0
 13
0.0
 23
0.0
 14
0.5
 24
0.5
 15
0.5
 25
0.5
 16
0.0
 26
0.0
 36
1.0
 17
91.00082462281999
 27
-128.4993055234307
 37
0.0
 40
256.9986110468615
 41
0.7081814508812795
 42
50.0
 43
0.0
 44
0.0
 50
0.0
 51
0.0
 71
     0
 72
   100
 73
     1
 74
     3
 75
     0
 76
     0
 77
     0
 78
     0
281
     0
 65
     1
110
0.0
120
0.0
130
0.0
111
1.0
121
0.0
131
0.0
112
0.0
122
1.0
132
0.0
 79
     0
146
0.0
 60
     3
 61
     5
292
     1
282
     1
141
0.0
142
0.0
 63
   250
361
3F
  0
ENDTAB
  0
TABLE
  2
LTYPE
  5
5
330
0
100
AcDbSymbolTable
 70
     3
  0
LTYPE
  5
14
330
5
100
AcDbSymbolTableRecord
100
AcDbLinetypeTableRecord
  2
ByBlock
 70
     0
  3

 72
    65
 73
     0
 40
0.0
  0
LTYPE
  5
15
330
5
100
AcDbSymbolTableRecord
100
AcDbLinetypeTableRecord
  2
ByLayer
 70
     0
  3

 72
    65
 73
     0
 40
0.0
  0
LTYPE
  5
16
330
5
100
AcDbSymbolTableRecord
100
AcDbLinetypeTableRecord
  2
Continuous
 70
     0
  3
Solid line
 72
    65
 73
     0
 40
0.0
  0
LTYPE
  5
44
330
5
100
AcDbSymbolTableRecord
100
AcDbLinetypeTableRecord
  2
AI-Linetype-1
 70
     0
  3
Adobe Illustrator Linetype No. 1
 72
    65
 73
     2
 40
1.411111110758333
 49
0.7055555553791667
 74
     0
 49
-0.7055555553791667
 74
     0
  0
LTYPE
  5
49
330
5
100
AcDbSymbolTableRecord
100
AcDbLinetypeTableRecord
  2
AI-Linetype-2
 70
     0
  3
Adobe Illustrator Linetype No. 2
 72
    65
 73
     2
 40
1.411111110758333
 49
0.7055555553791667
 74
     0
 49
-0.7055555553791667
 74
     0
  0
ENDTAB
  0
TABLE
  2
LAYER
  5
2
330
0
100
AcDbSymbolTable
 70
     2
  0
LAYER
  5
10
330
2
100
AcDbSymbolTableRecord
100
AcDbLayerTableRecord
  2
0
 70
     0
 62
     7
  6
Continuous
370
    -3
390
F
347
3E
  0
LAYER
  5
40
330
2
100
AcDbSymbolTableRecord
100
AcDbLayerTableRecord
  2
_U+30EC_U+30A4_U+30E4_U+30FC 1
 70
     0
 62
     7
  6
Continuous
370
    -3
390
F
347
3E
  0
ENDTAB
  0
TABLE
  2
STYLE
  5
3
330
0
100
AcDbSymbolTable
 70
     1
  0
STYLE
  5
11
330
3
100
AcDbSymbolTableRecord
100
AcDbTextStyleTableRecord
  2
Standard
 70
     0
 40
0.0
 41
1.0
 50
0.0
 71
     0
 42
0.2
  3
txt
  4

  0
ENDTAB
  0
TABLE
  2
VIEW
  5
6
330
0
100
AcDbSymbolTable
 70
     0
  0
ENDTAB
  0
TABLE
  2
UCS
  5
7
330
0
100
AcDbSymbolTable
 70
     0
  0
ENDTAB
  0
TABLE
  2
APPID
  5
9
330
0
100
AcDbSymbolTable
 70
     1
  0
APPID
  5
12
330
9
100
AcDbSymbolTableRecord
100
AcDbRegAppTableRecord
  2
ACAD
 70
     0
  0
ENDTAB
  0
TABLE
  2
DIMSTYLE
  5
A
330
0
100
AcDbSymbolTable
 70
     1
100
AcDbDimStyleTable
  0
DIMSTYLE
105
27
330
A
100
AcDbSymbolTableRecord
100
AcDbDimStyleTableRecord
  2
Standard
 70
     0
178
     0
340
11
  0
ENDTAB
  0
TABLE
  2
BLOCK_RECORD
  5
1
330
0
100
AcDbSymbolTable
 70
     5
  0
BLOCK_RECORD
  5
1F
330
1
100
AcDbSymbolTableRecord
100
AcDbBlockTableRecord
  2
*Model_Space
340
22
 70
     0
280
     1
281
     0
  0
BLOCK_RECORD
  5
1B
330
1
100
AcDbSymbolTableRecord
100
AcDbBlockTableRecord
  2
*Paper_Space
340
1E
 70
     0
280
     1
281
     0
  0
BLOCK_RECORD
  5
23
330
1
100
AcDbSymbolTableRecord
100
AcDbBlockTableRecord
  2
*Paper_Space0
340
26
 70
     0
280
     1
281
     0
  0
BLOCK_RECORD
  5
57
330
1
100
AcDbSymbolTableRecord
100
AcDbBlockTableRecord
  2
block 2
340
0
102
{BLKREFS
331
58
102
}
 70
     0
280
     1
281
     0
  0
BLOCK_RECORD
  5
B3
330
1
100
AcDbSymbolTableRecord
100
AcDbBlockTableRecord
  2
block 3
340
0
102
{BLKREFS
331
B4
102
}
 70
     0
280
     1
281
     0
  0
BLOCK_RECORD
  5
D2
330
1
100
AcDbSymbolTableRecord
100
AcDbBlockTableRecord
  2
block 4
340
0
102
{BLKREFS
331
D3
102
}
 70
     0
280
     1
281
     0
  0
BLOCK_RECORD
  5
E6
330
1
100
AcDbSymbolTableRecord
100
AcDbBlockTableRecord
  2
block 5
340
0
102
{BLKREFS
331
E7
102
}
 70
     0
280
     1
281
     0
  0
ENDTAB
  0
ENDSEC
  0
SECTION
  2
BLOCKS
  0
BLOCK
  5
20
330
1F
100
AcDbEntity
  8
0
100
AcDbBlockBegin
  2
*Model_Space
 70
     0
 10
0.0
 20
0.0
 30
0.0
  3
*Model_Space
  1

  0
ENDBLK
  5
21
330
1F
100
AcDbEntity
  8
0
100
AcDbBlockEnd
  0
BLOCK
  5
1C
330
1B
100
AcDbEntity
 67
     1
  8
0
100
AcDbBlockBegin
  2
*Paper_Space
 70
     0
 10
0.0
 20
0.0
 30
0.0
  3
*Paper_Space
  1

  0
ENDBLK
  5
1D
330
1B
100
AcDbEntity
 67
     1
  8
0
100
AcDbBlockEnd
  0
BLOCK
  5
24
330
23
100
AcDbEntity
  8
0
100
AcDbBlockBegin
  2
*Paper_Space0
 70
     0
 10
0.0
 20
0.0
 30
0.0
  3
*Paper_Space0
  1

  0
ENDBLK
  5
25
330
23
100
AcDbEntity
  8
0
100
AcDbBlockEnd
  0
BLOCK
  5
59
330
57
100
AcDbEntity
  8
0
100
AcDbBlockBegin
  2
block 2
 70
     0
 10
0.0
 20
0.0
 30
0.0
  3
block 2
  1

  0
SPLINE
  5
5B
330
57
100
AcDbEntity
  8
_U+30EC_U+30A4_U+30E4_U+30FC 1
370
     0
100
AcDbSpline
210
0.0
220
0.0
230
1.0
 70
    11
 71
     3
 72
   242
 73
   238
 74
     0
 42
0.0000000001
 43
0.0000000001
 12
1.0
 22
0.0
 32
0.0
 13
1.0
 23
0.0
 33
0.0
 40
0.0
 40
0.0
 40
0.0
 40
0.0
 40
1.0
 40
1.0
 40
1.0
 40
2.0
 40
2.0
 40
2.0
 40
3.0
 40
3.0
 40
3.0
 40
4.0
 40
4.0
 40
4.0
 40
5.0
 40
5.0
 40
5.0
 40
6.0
 40
6.0
 40
6.0
 40
7.0
 40
7.0
 40
7.0
 40
8.0
 40
8.0
 40
8.0
 40
9.0
 40
9.0
 40
9.0
 40
10.0
 40
10.0
 40
10.0
 40
11.0
 40
11.0
 40
11.0
 40
12.0
 40
12.0
 40
12.0
 40
13.0
 40
13.0
 40
13.0
 40
14.0
 40
14.0
 40
14.0
 40
15.0
 40
15.0
 40
15.0
 40
16.0
 40
16.0
 40
16.0
 40
17.0
 40
17.0
 40
17.0
 40
18.0
 40
18.0
 40
18.0
 40
19.0
 40
19.0
 40
19.0
 40
20.0
 40
20.0
 40
20.0
 40
21.0
 40
21.0
 40
21.0
 40
22.0
 40
22.0
 40
22.0
 40
23.0
 40
23.0
 40
23.0
 40
24.0
 40
24.0
 40
24.0
 40
25.0
 40
25.0
 40
25.0
 40
26.0
 40
26.0
 40
26.0
 40
27.0
 40
27.0
 40
27.0
 40
28.0
 40
28.0
 40
28.0
 40
29.0
 40
29.0
 40
29.0
 40
30.0
 40
30.0
 40
30.0
 40
31.0
 40
31.0
 40
31.0
 40
32.0
 40
32.0
 40
32.0
 40
33.0
 40
33.0
 40
33.0
 40
34.0
 40
34.0
 40
34.0
 40
35.0
 40
35.0
 40
35.0
 40
36.0
 40
36.0
 40
36.0
 40
37.0
 40
37.0
 40
37.0
 40
38.0
 40
38.0
 40
38.0
 40
39.0
 40
39.0
 40
39.0
 40
40.0
 40
40.0
 40
40.0
 40
41.0
 40
41.0
 40
41.0
 40
42.0
 40
42.0
 40
42.0
 40
43.0
 40
43.0
 40
43.0
 40
44.0
 40
44.0
 40
44.0
 40
45.0
 40
45.0
 40
45.0
 40
46.0
 40
46.0
 40
46.0
 40
47.0
 40
47.0
 40
47.0
 40
48.0
 40
48.0
 40
48.0
 40
49.0
 40
49.0
 40
49.0
 40
50.0
 40
50.0
 40
50.0
 40
51.0
 40
51.0
 40
51.0
 40
52.0
 40
52.0
 40
52.0
 40
53.0
 40
53.0
 40
53.0
 40
54.0
 40
54.0
 40
54.0
 40
55.0
 40
55.0
 40
55.0
 40
56.0
 40
56.0
 40
56.0
 40
57.0
 40
57.0
 40
57.0
 40
58.0
 40
58.0
 40
58.0
 40
59.0
 40
59.0
 40
59.0
 40
60.0
 40
60.0
 40
60.0
 40
61.0
 40
61.0
 40
61.0
 40
62.0
 40
62.0
 40
62.0
 40
63.0
 40
63.0
 40
63.0
 40
64.0
 40
64.0
 40
64.0
 40
65.0
 40
65.0
 40
65.0
 40
66.0
 40
66.0
 40
66.0
 40
67.0
 40
67.0
 40
67.0
 40
68.0
 40
68.0
 40
68.0
 40
69.0
 40
69.0
 40
69.0
 40
70.0
 40
70.0
 40
70.0
 40
71.0
 40
71.0
 40
71.0
 40
72.0
 40
72.0
 40
72.0
 40
73.0
 40
73.0
 40
73.0
 40
74.0
 40
74.0
 40
74.0
 40
75.0
 40
75.0
 40
75.0
 40
76.0
 40
76.0
 40
76.0
 40
77.0
 40
77.0
 40
77.0
 40
78.0
 40
78.0
 40
78.0
 40
79.0
 40
79.0
 40
79.0
 40
79.0
 10
89.77367619283436
 20
-123.5581773237111
 30
0.0
 10
89.77367619283436
 20
-123.5581773237111
 30
0.0
 10
89.55181204358428
 20
-123.5581773237111
 30
0.0
 10
89.55181204358428
 20
-123.5581773237111
 30
0.0
 10
89.55181204358428
 20
-123.5581773237111
 30
0.0
 10
89.30893281187416
 20
-123.5581773237111
 30
0.0
 10
89.30893281187416
 20
-123.5581773237111
 30
0.0
 10
89.30893281187416
 20
-123.5581773237111
 30
0.0
 10
89.42020939604772
 20
-123.6005519981797
 30
0.0
 10
89.42020939604772
 20
-123.6005519981797
 30
0.0
 10
89.4295111538579
 20
-123.6048583675363
 30
0.0
 10
89.4405354594107
 20
-123.6110595394097
 30
0.0
 10
89.4405354594107
 20
-123.6238063927052
 30
0.0
 10
89.4405354594107
 20
-123.6449937299395
 30
0.0
 10
89.41263018598018
 20
-123.6513671565872
 30
0.0
 10
89.39437117990836
 20
-123.6555012711695
 30
0.0
 10
89.38506942209818
 20
-123.6787556656949
 30
0.0
 10
89.35888669641028
 20
-123.7443847346889
 30
0.0
 10
89.34235023808108
 20
-123.7888264664486
 30
0.0
 10
89.34235023808108
 20
-123.7888264664486
 30
0.0
 10
89.57937280746627
 20
-123.7888264664486
 30
0.0
 10
89.57937280746627
 20
-123.7888264664486
 30
0.0
 10
89.65895451317554
 20
-123.7888264664486
 30
0.0
 10
89.83120928743803
 20
-123.7845200970921
 30
0.0
 10
89.95523272490703
 20
-123.7760796131532
 30
0.0
 10
89.95523272490703
 20
-123.7760796131532
 30
0.0
 10
89.95523272490703
 20
-123.9538465401921
 30
0.0
 10
89.95523272490703
 20
-123.9538465401921
 30
0.0
 10
89.88323022926531
 20
-123.9495401708355
 30
0.0
 10
89.86462671364495
 20
-123.9495401708355
 30
0.0
 10
89.70718584996904
 20
-123.9454060562532
 30
0.0
 10
89.67928057653852
 20
-124.0997463339924
 30
0.0
 10
89.64069550710371
 20
-124.180189313573
 30
0.0
 10
89.6017659281204
 20
-124.2499524971493
 30
0.0
 10
89.70718584996904
 20
-124.3092081394956
 30
0.0
 10
89.79985891852226
 20
-124.3769042657808
 30
0.0
 10
89.89046492978433
 20
-124.4594143026525
 30
0.0
 10
89.89046492978433
 20
-124.4594143026525
 30
0.0
 10
89.78676755567831
 20
-124.6265014336871
 30
0.0
 10
89.78676755567831
 20
-124.6265014336871
 30
0.0
 10
89.76644149231534
 20
-124.6075534085183
 30
0.0
 10
89.75541718676254
 20
-124.5991129245794
 30
0.0
 10
89.65723196543291
 20
-124.5143635756422
 30
0.0
 10
89.61451278141583
 20
-124.4762952705302
 30
0.0
 10
89.56283634913707
 20
-124.4404662774836
 30
0.0
 10
89.49255640123798
 20
-124.3960245457239
 30
0.0
 10
89.30721026413154
 20
-124.5822319567017
 30
0.0
 10
89.12772078935002
 20
-124.6054863512271
 30
0.0
 10
88.87381725208711
 20
-124.6351141724003
 30
0.0
 10
88.87381725208711
 20
-124.6351141724003
 30
0.0
 10
88.78321124082504
 20
-124.4552801880702
 30
0.0
 10
88.78321124082504
 20
-124.4552801880702
 30
0.0
 10
89.06088593693617
 20
-124.4509738187136
 30
0.0
 10
89.21453719557832
 20
-124.4256523668971
 30
0.0
 10
89.34786239085749
 20
-124.3155815661433
 30
0.0
 10
89.24416501675147
 20
-124.2647664077359
 30
0.0
 10
89.16665036833334
 20
-124.2373778986282
 30
0.0
 10
89.13495548986904
 20
-124.2246310453327
 30
0.0
 10
89.11841903153984
 20
-124.2521918092147
 30
0.0
 10
89.10532766869589
 20
-124.2711398343836
 30
0.0
 10
89.08121200029915
 20
-124.3050740249133
 30
0.0
 10
89.08121200029915
 20
-124.3050740249133
 30
0.0
 10
88.90895722603665
 20
-124.2225639880416
 30
0.0
 10
88.90895722603665
 20
-124.2225639880416
 30
0.0
 10
88.9813042312269
 20
-124.142121008461
 30
0.0
 10
89.0350477207968
 20
-124.0468641182938
 30
0.0
 10
89.08500160533292
 20
-123.9454060562532
 30
0.0
 10
88.91825898384683
 20
-123.9495401708355
 30
0.0
 10
88.89999997777501
 20
-123.9495401708355
 30
0.0
 10
88.82765297258476
 20
-123.9538465401921
 30
0.0
 10
88.82765297258476
 20
-123.9538465401921
 30
0.0
 10
88.82765297258476
 20
-123.7760796131532
 30
0.0
 10
88.82765297258476
 20
-123.7760796131532
 30
0.0
 10
88.94995386231113
 20
-123.7824530398009
 30
0.0
 10
89.13323294212641
 20
-123.7867594091575
 30
0.0
 10
89.15528155323202
 20
-123.7867594091575
 30
0.0
 10
89.1700954638186
 20
-123.7528252186278
 30
0.0
 10
89.21832680061209
 20
-123.632246876644
 30
0.0
 10
89.23486325894129
 20
-123.5581773237111
 30
0.0
 10
89.21832680061209
 20
-123.5581773237111
 30
0.0
 10
89.06260848467879
 20
-123.5645507503589
 30
0.0
 10
88.89242076770745
 20
-123.5772976036543
 30
0.0
 10
88.89242076770745
 20
-123.5772976036543
 30
0.0
 10
88.89242076770745
 20
-123.7106227989335
 30
0.0
 10
88.89242076770745
 20
-123.7106227989335
 30
0.0
 10
88.84970158369036
 20
-123.7359442507501
 30
0.0
 10
88.79802515141161
 20
-123.7676391292143
 30
0.0
 10
88.68123641446164
 20
-123.8332681982084
 30
0.0
 10
88.68123641446164
 20
-123.8332681982084
 30
0.0
 10
88.68123641446164
 20
-123.9791679920087
 30
0.0
 10
88.68123641446164
 20
-123.9791679920087
 30
0.0
 10
88.68123641446164
 20
-123.9791679920087
 30
0.0
 10
88.68123641446164
 20
-124.4468397041313
 30
0.0
 10
88.68123641446164
 20
-124.4468397041313
 30
0.0
 10
88.68123641446164
 20
-124.5736192179886
 30
0.0
 10
88.64988604554587
 20
-124.6328748603348
 30
0.0
 10
88.40183917060787
 20
-124.624434376396
 30
0.0
 10
88.40183917060787
 20
-124.624434376396
 30
0.0
 10
88.31088864979728
 20
-124.4172118829582
 30
0.0
 10
88.31088864979728
 20
-124.4172118829582
 30
0.0
 10
88.36669919665833
 20
-124.4297864814794
 30
0.0
 10
88.4090738711269
 20
-124.4340928508359
 30
0.0
 10
88.44421384507645
 20
-124.4340928508359
 30
0.0
 10
88.5110486974903
 20
-124.4340928508359
 30
0.0
 10
88.52035045530047
 20
-124.4108384563105
 30
0.0
 10
88.52035045530047
 20
-124.3452093873165
 30
0.0
 10
88.52035045530047
 20
-124.3452093873165
 30
0.0
 10
88.52035045530047
 20
-123.9157782350801
 30
0.0
 10
88.52035045530047
 20
-123.9157782350801
 30
0.0
 10
88.43491208726627
 20
-123.9559135974832
 30
0.0
 10
88.4200981766797
 20
-123.962287024131
 30
0.0
 10
88.37944604995376
 20
-123.9814073040741
 30
0.0
 10
88.37565644491998
 20
-124.0024223865341
 30
0.0
 10
88.37221134943474
 20
-124.0320502077073
 30
0.0
 10
88.35533038155701
 20
-124.0320502077073
 30
0.0
 10
88.34809568103798
 20
-124.0320502077073
 30
0.0
 10
88.33879392322781
 20
-124.027916093125
 30
0.0
 10
88.3332817704514
 20
-124.0046616985995
 30
0.0
 10
88.3332817704514
 20
-124.0046616985995
 30
0.0
 10
88.28677298140053
 20
-123.8120808609741
 30
0.0
 10
88.28677298140053
 20
-123.8120808609741
 30
0.0
 10
88.4145860239033
 20
-123.7655720719232
 30
0.0
 10
88.47211911850698
 20
-123.7423176773978
 30
0.0
 10
88.52035045530047
 20
-123.7211303401635
 30
0.0
 10
88.52035045530047
 20
-123.7211303401635
 30
0.0
 10
88.52035045530047
 20
-123.3085801558048
 30
0.0
 10
88.52035045530047
 20
-123.3085801558048
 30
0.0
 10
88.52035045530047
 20
-123.3085801558048
 30
0.0
 10
88.4738416662496
 20
-123.3085801558048
 30
0.0
 10
88.4738416662496
 20
-123.3085801558048
 30
0.0
 10
88.4738416662496
 20
-123.3085801558048
 30
0.0
 10
88.40528426609313
 20
-123.3085801558048
 30
0.0
 10
88.40528426609313
 20
-123.3085801558048
 30
0.0
 10
88.34602862374683
 20
-123.3085801558048
 30
0.0
 10
88.33879392322781
 20
-123.3085801558048
 30
0.0
 10
88.30744355431203
 20
-123.3149535824525
 30
0.0
 10
88.30744355431203
 20
-123.3149535824525
 30
0.0
 10
88.30744355431203
 20
-123.1203056875359
 30
0.0
 10
88.30744355431203
 20
-123.1203056875359
 30
0.0
 10
88.33121471316025
 20
-123.1266791141836
 30
0.0
 10
88.33879392322781
 20
-123.1266791141836
 30
0.0
 10
88.39977211331673
 20
-123.1266791141836
 30
0.0
 10
88.39977211331673
 20
-123.1266791141836
 30
0.0
 10
88.5165608502667
 20
-123.1266791141836
 30
0.0
 10
88.5165608502667
 20
-123.1266791141836
 30
0.0
 10
88.5165608502667
 20
-123.0569159306073
 30
0.0
 10
88.5165608502667
 20
-122.9744058937356
 30
0.0
 10
88.51483830252407
 20
-122.970099524379
 30
0.0
 10
88.50725909245652
 20
-122.790265540049
 30
0.0
 10
88.50725909245652
 20
-122.7713175148801
 30
0.0
 10
88.50553654471389
 20
-122.7248087258292
 30
0.0
 10
88.50553654471389
 20
-122.7248087258292
 30
0.0
 10
88.69432777730559
 20
-122.7332492097681
 30
0.0
 10
88.69432777730559
 20
-122.7332492097681
 30
0.0
 10
88.70362953511577
 20
-122.7332492097681
 30
0.0
 10
88.72223305073611
 20
-122.7353162670592
 30
0.0
 10
88.72223305073611
 20
-122.752197234937
 30
0.0
 10
88.72223305073611
 20
-122.7713175148801
 30
0.0
 10
88.70914168789216
 20
-122.7818250561101
 30
0.0
 10
88.68674856723804
 20
-122.8009453360532
 30
0.0
 10
88.68674856723804
 20
-122.8515882396864
 30
0.0
 10
88.68123641446164
 20
-123.0801703251327
 30
0.0
 10
88.6833034717528
 20
-123.1266791141836
 30
0.0
 10
88.79595809412046
 20
-123.1266791141836
 30
0.0
 10
88.80732690922179
 20
-123.1266791141836
 30
0.0
 10
88.89242076770745
 20
-123.1182386302447
 30
0.0
 10
88.89242076770745
 20
-123.1182386302447
 30
0.0
 10
88.89242076770745
 20
-123.3128865251614
 30
0.0
 10
88.89242076770745
 20
-123.3128865251614
 30
0.0
 10
88.85900334150053
 20
-123.310647213096
 30
0.0
 10
88.79974769915424
 20
-123.3065130985137
 30
0.0
 10
88.68123641446164
 20
-123.3085801558048
 30
0.0
 10
88.68123641446164
 20
-123.3085801558048
 30
0.0
 10
88.68123641446164
 20
-123.6470607872306
 30
0.0
 10
88.68123641446164
 20
-123.6470607872306
 30
0.0
 10
88.72946775125514
 20
-123.6238063927052
 30
0.0
 10
88.78700084585881
 20
-123.5962456288232
 30
0.0
 10
88.82937552032739
 20
-123.5729912342977
 30
0.0
 10
88.82937552032739
 20
-123.5729912342977
 30
0.0
 10
88.82937552032739
 20
-123.3953965620331
 30
0.0
 10
88.82937552032739
 20
-123.3953965620331
 30
0.0
 10
88.92962779894815
 20
-123.4079711605543
 30
0.0
 10
89.03298066350565
 20
-123.4079711605543
 30
0.0
 10
89.13495548986904
 20
-123.4079711605543
 30
0.0
 10
89.11462942650607
 20
-123.3128865251614
 30
0.0
 10
89.09051375810932
 20
-123.2303764882896
 30
0.0
 10
89.0350477207968
 20
-123.0970512930105
 30
0.0
 10
88.99611814181347
 20
-123.0991183503016
 30
0.0
 10
88.92377113662323
 20
-123.1034247196582
 30
0.0
 10
88.89069821996483
 20
-123.1054917769493
 30
0.0
 10
88.89069821996483
 20
-123.1054917769493
 30
0.0
 10
88.89069821996483
 20
-122.9256577926193
 30
0.0
 10
88.89069821996483
 20
-122.9256577926193
 30
0.0
 10
88.99990774684726
 20
-122.9340982765581
 30
0.0
 10
89.15149194819824
 20
-122.9384046459147
 30
0.0
 10
89.2238389533885
 20
-122.9384046459147
 30
0.0
 10
89.2238389533885
 20
-122.9384046459147
 30
0.0
 10
89.29618595857873
 20
-122.9384046459147
 30
0.0
 10
89.29618595857873
 20
-122.9384046459147
 30
0.0
 10
89.29618595857873
 20
-122.7754516294624
 30
0.0
 10
89.29618595857873
 20
-122.7649440882324
 30
0.0
 10
89.29411890128759
 20
-122.7099948152427
 30
0.0
 10
89.29411890128759
 20
-122.7099948152427
 30
0.0
 10
89.49048934394682
 20
-122.7353162670592
 30
0.0
 10
89.49048934394682
 20
-122.7353162670592
 30
0.0
 10
89.49427894898061
 20
-122.7353162670592
 30
0.0
 10
89.51288246460095
 20
-122.7373833243504
 30
0.0
 10
89.51288246460095
 20
-122.7542642922281
 30
0.0
 10
89.51288246460095
 20
-122.7690782028147
 30
0.0
 10
89.50358070679077
 20
-122.7776909415278
 30
0.0
 10
89.47946503839403
 20
-122.7925048521144
 30
0.0
 10
89.47395288561762
 20
-122.8579616663341
 30
0.0
 10
89.47188582832648
 20
-122.8791490035684
 30
0.0
 10
89.47188582832648
 20
-122.9384046459147
 30
0.0
 10
89.47188582832648
 20
-122.9384046459147
 30
0.0
 10
89.55525713906952
 20
-122.9384046459147
 30
0.0
 10
89.55525713906952
 20
-122.9384046459147
 30
0.0
 10
89.62760414425976
 20
-122.9384046459147
 30
0.0
 10
89.77953285515929
 20
-122.9340982765581
 30
0.0
 10
89.88874238204171
 20
-122.9256577926193
 30
0.0
 10
89.88874238204171
 20
-122.9256577926193
 30
0.0
 10
89.88874238204171
 20
-123.1054917769493
 30
0.0
 10
89.88874238204171
 20
-123.1054917769493
 30
0.0
 10
89.86255965635381
 20
-123.1034247196582
 30
0.0
 10
89.75920679179632
 20
-123.0991183503016
 30
0.0
 10
89.72372230829824
 20
-123.0970512930105
 30
0.0
 10
89.71097545500281
 20
-123.1478664514179
 30
0.0
 10
89.68134763382967
 20
-123.2600043094628
 30
0.0
 10
89.62381453922599
 20
-123.3995306766154
 30
0.0
 10
89.66102157046669
 20
-123.3995306766154
 30
0.0
 10
89.90355629262828
 20
-123.3805826514465
 30
0.0
 10
89.95729978219818
 20
-123.3783433393811
 30
0.0
 10
89.95729978219818
 20
-123.3783433393811
 30
0.0
 10
89.95729978219818
 20
-123.5624836930677
 30
0.0
 10
89.95729978219818
 20
-123.5624836930677
 30
0.0
 10
89.93111705651027
 20
-123.5624836930677
 30
0.0
 10
89.9163031459237
 20
-123.5581773237111
 30
0.0
 10
89.77367619283436
 20
-123.5581773237111
 30
0.0
  0
SPLINE
  5
5C
330
57
100
AcDbEntity
  8
_U+30EC_U+30A4_U+30E4_U+30FC 1
370
     0
100
AcDbSpline
210
0.0
220
0.0
230
1.0
 70
    11
 71
     3
 72
    20
 73
    16
 74
     0
 42
0.0000000001
 43
0.0000000001
 12
1.0
 22
0.0
 32
0.0
 13
1.0
 23
0.0
 33
0.0
 40
0.0
 40
0.0
 40
0.0
 40
0.0
 40
1.0
 40
1.0
 40
1.0
 40
2.0
 40
2.0
 40
2.0
 40
3.0
 40
3.0
 40
3.0
 40
4.0
 40
4.0
 40
4.0
 40
5.0
 40
5.0
 40
5.0
 40
5.0
 10
89.2238389533885
 20
-123.0929171784282
 30
0.0
 10
89.2238389533885
 20
-123.0929171784282
 30
0.0
 10
89.19627818950649
 20
-123.0929171784282
 30
0.0
 10
89.19627818950649
 20
-123.0929171784282
 30
0.0
 10
89.23693031623243
 20
-123.1923081831776
 30
0.0
 10
89.26449108011444
 20
-123.2725789079839
 30
0.0
 10
89.29411890128759
 20
-123.3995306766154
 30
0.0
 10
89.29411890128759
 20
-123.3995306766154
 30
0.0
 10
89.47567543336025
 20
-123.3995306766154
 30
0.0
 10
89.47567543336025
 20
-123.3995306766154
 30
0.0
 10
89.50358070679077
 20
-123.3065130985137
 30
0.0
 10
89.52390677015374
 20
-123.2219360043508
 30
0.0
 10
89.54423283351673
 20
-123.0929171784282
 30
0.0
 10
89.54423283351673
 20
-123.0929171784282
 30
0.0
 10
89.2238389533885
 20
-123.0929171784282
 30
0.0
 10
89.2238389533885
 20
-123.0929171784282
 30
0.0
  0
SPLINE
  5
5D
330
57
100
AcDbEntity
  8
_U+30EC_U+30A4_U+30E4_U+30FC 1
370
     0
100
AcDbSpline
210
0.0
220
0.0
230
1.0
 70
    11
 71
     3
 72
    17
 73
    13
 74
     0
 42
0.0000000001
 43
0.0000000001
 12
1.0
 22
0.0
 32
0.0
 13
1.0
 23
0.0
 33
0.0
 40
0.0
 40
0.0
 40
0.0
 40
0.0
 40
1.0
 40
1.0
 40
1.0
 40
2.0
 40
2.0
 40
2.0
 40
3.0
 40
3.0
 40
3.0
 40
4.0
 40
4.0
 40
4.0
 40
4.0
 10
89.27930499070101
 20
-123.9433389989621
 30
0.0
 10
89.26449108011444
 20
-123.972794565361
 30
0.0
 10
89.22004934835472
 20
-124.065984398237
 30
0.0
 10
89.21074759054454
 20
-124.0849324234059
 30
0.0
 10
89.37749021203064
 20
-124.1441880657521
 30
0.0
 10
89.39609372765098
 20
-124.1505614923999
 30
0.0
 10
89.45913897503105
 20
-124.1781222562819
 30
0.0
 10
89.50702580227602
 20
-124.0913058500536
 30
0.0
 10
89.52769637518753
 20
-124.0172362971207
 30
0.0
 10
89.54044322848294
 20
-123.9433389989621
 30
0.0
 10
89.54044322848294
 20
-123.9433389989621
 30
0.0
 10
89.27930499070101
 20
-123.9433389989621
 30
0.0
 10
89.27930499070101
 20
-123.9433389989621
 30
0.0
  0
HATCH
  5
5E
330
57
100
AcDbEntity
  8
_U+30EC_U+30A4_U+30E4_U+30FC 1
 62
   179
420
  2234388
100
AcDbHatch
 10
0.0
 20
0.0
 30
0.0
210
0.0
220
0.0
230
1.0
  2
SOLID
 70
     1
 71
     0
 91
        3
 92
        1
 93
        1
 72
     4
 94
        3
 73
     0
 74
     1
 95
      242
 96
      238
 40
0.0
 40
0.0
 40
0.0
 40
0.0
 40
1.0
 40
1.0
 40
1.0
 40
2.0
 40
2.0
 40
2.0
 40
3.0
 40
3.0
 40
3.0
 40
4.0
 40
4.0
 40
4.0
 40
5.0
 40
5.0
 40
5.0
 40
6.0
 40
6.0
 40
6.0
 40
7.0
 40
7.0
 40
7.0
 40
8.0
 40
8.0
 40
8.0
 40
9.0
 40
9.0
 40
9.0
 40
10.0
 40
10.0
 40
10.0
 40
11.0
 40
11.0
 40
11.0
 40
12.0
 40
12.0
 40
12.0
 40
13.0
 40
13.0
 40
13.0
 40
14.0
 40
14.0
 40
14.0
 40
15.0
 40
15.0
 40
15.0
 40
16.0
 40
16.0
 40
16.0
 40
17.0
 40
17.0
 40
17.0
 40
18.0
 40
18.0
 40
18.0
 40
19.0
 40
19.0
 40
19.0
 40
20.0
 40
20.0
 40
20.0
 40
21.0
 40
21.0
 40
21.0
 40
22.0
 40
22.0
 40
22.0
 40
23.0
 40
23.0
 40
23.0
 40
24.0
 40
24.0
 40
24.0
 40
25.0
 40
25.0
 40
25.0
 40
26.0
 40
26.0
 40
26.0
 40
27.0
 40
27.0
 40
27.0
 40
28.0
 40
28.0
 40
28.0
 40
29.0
 40
29.0
 40
29.0
 40
30.0
 40
30.0
 40
30.0
 40
31.0
 40
31.0
 40
31.0
 40
32.0
 40
32.0
 40
32.0
 40
33.0
 40
33.0
 40
33.0
 40
34.0
 40
34.0
 40
34.0
 40
35.0
 40
35.0
 40
35.0
 40
36.0
 40
36.0
 40
36.0
 40
37.0
 40
37.0
 40
37.0
 40
38.0
 40
38.0
 40
38.0
 40
39.0
 40
39.0
 40
39.0
 40
40.0
 40
40.0
 40
40.0
 40
41.0
 40
41.0
 40
41.0
 40
42.0
 40
42.0
 40
42.0
 40
43.0
 40
43.0
 40
43.0
 40
44.0
 40
44.0
 40
44.0
 40
45.0
 40
45.0
 40
45.0
 40
46.0
 40
46.0
 40
46.0
 40
47.0
 40
47.0
 40
47.0
 40
48.0
 40
48.0
 40
48.0
 40
49.0
 40
49.0
 40
49.0
 40
50.0
 40
50.0
 40
50.0
 40
51.0
 40
51.0
 40
51.0
 40
52.0
 40
52.0
 40
52.0
 40
53.0
 40
53.0
 40
53.0
 40
54.0
 40
54.0
 40
54.0
 40
55.0
 40
55.0
 40
55.0
 40
56.0
 40
56.0
 40
56.0
 40
57.0
 40
57.0
 40
57.0
 40
58.0
 40
58.0
 40
58.0
 40
59.0
 40
59.0
 40
59.0
 40
60.0
 40
60.0
 40
60.0
 40
61.0
 40
61.0
 40
61.0
 40
62.0
 40
62.0
 40
62.0
 40
63.0
 40
63.0
 40
63.0
 40
64.0
 40
64.0
 40
64.0
 40
65.0
 40
65.0
 40
65.0
 40
66.0
 40
66.0
 40
66.0
 40
67.0
 40
67.0
 40
67.0
 40
68.0
 40
68.0
 40
68.0
 40
69.0
 40
69.0
 40
69.0
 40
70.0
 40
70.0
 40
70.0
 40
71.0
 40
71.0
 40
71.0
 40
72.0
 40
72.0
 40
72.0
 40
73.0
 40
73.0
 40
73.0
 40
74.0
 40
74.0
 40
74.0
 40
75.0
 40
75.0
 40
75.0
 40
76.0
 40
76.0
 40
76.0
 40
77.0
 40
77.0
 40
77.0
 40
78.0
 40
78.0
 40
78.0
 40
79.0
 40
79.0
 40
79.0
 40
79.0
 10
89.77367619283436
 20
-123.5581773237111
 10
89.77367619283436
 20
-123.5581773237111
 10
89.55181204358428
 20
-123.5581773237111
 10
89.55181204358428
 20
-123.5581773237111
 10
89.55181204358428
 20
-123.5581773237111
 10
89.30893281187416
 20
-123.5581773237111
 10
89.30893281187416
 20
-123.5581773237111
 10
89.30893281187416
 20
-123.5581773237111
 10
89.42020939604772
 20
-123.6005519981797
 10
89.42020939604772
 20
-123.6005519981797
 10
89.4295111538579
 20
-123.6048583675363
 10
89.4405354594107
 20
-123.6110595394097
 10
89.4405354594107
 20
-123.6238063927052
 10
89.4405354594107
 20
-123.6449937299395
 10
89.41263018598018
 20
-123.6513671565872
 10
89.39437117990836
 20
-123.6555012711695
 10
89.38506942209818
 20
-123.6787556656949
 10
89.35888669641028
 20
-123.7443847346889
 10
89.34235023808108
 20
-123.7888264664486
 10
89.34235023808108
 20
-123.7888264664486
 10
89.57937280746627
 20
-123.7888264664486
 10
89.57937280746627
 20
-123.7888264664486
 10
89.65895451317554
 20
-123.7888264664486
 10
89.83120928743803
 20
-123.7845200970921
 10
89.95523272490703
 20
-123.7760796131532
 10
89.95523272490703
 20
-123.7760796131532
 10
89.95523272490703
 20
-123.9538465401921
 10
89.95523272490703
 20
-123.9538465401921
 10
89.88323022926531
 20
-123.9495401708355
 10
89.86462671364495
 20
-123.9495401708355
 10
89.70718584996904
 20
-123.9454060562532
 10
89.67928057653852
 20
-124.0997463339924
 10
89.64069550710371
 20
-124.180189313573
 10
89.6017659281204
 20
-124.2499524971493
 10
89.70718584996904
 20
-124.3092081394956
 10
89.79985891852226
 20
-124.3769042657808
 10
89.89046492978433
 20
-124.4594143026525
 10
89.89046492978433
 20
-124.4594143026525
 10
89.78676755567831
 20
-124.6265014336871
 10
89.78676755567831
 20
-124.6265014336871
 10
89.76644149231534
 20
-124.6075534085183
 10
89.75541718676254
 20
-124.5991129245794
 10
89.65723196543291
 20
-124.5143635756422
 10
89.61451278141583
 20
-124.4762952705302
 10
89.56283634913707
 20
-124.4404662774836
 10
89.49255640123798
 20
-124.3960245457239
 10
89.30721026413154
 20
-124.5822319567017
 10
89.12772078935002
 20
-124.6054863512271
 10
88.87381725208711
 20
-124.6351141724003
 10
88.87381725208711
 20
-124.6351141724003
 10
88.78321124082504
 20
-124.4552801880702
 10
88.78321124082504
 20
-124.4552801880702
 10
89.06088593693617
 20
-124.4509738187136
 10
89.21453719557832
 20
-124.4256523668971
 10
89.34786239085749
 20
-124.3155815661433
 10
89.24416501675147
 20
-124.2647664077359
 10
89.16665036833334
 20
-124.2373778986282
 10
89.13495548986904
 20
-124.2246310453327
 10
89.11841903153984
 20
-124.2521918092147
 10
89.10532766869589
 20
-124.2711398343836
 10
89.08121200029915
 20
-124.3050740249133
 10
89.08121200029915
 20
-124.3050740249133
 10
88.90895722603665
 20
-124.2225639880416
 10
88.90895722603665
 20
-124.2225639880416
 10
88.9813042312269
 20
-124.142121008461
 10
89.0350477207968
 20
-124.0468641182938
 10
89.08500160533292
 20
-123.9454060562532
 10
88.91825898384683
 20
-123.9495401708355
 10
88.89999997777501
 20
-123.9495401708355
 10
88.82765297258476
 20
-123.9538465401921
 10
88.82765297258476
 20
-123.9538465401921
 10
88.82765297258476
 20
-123.7760796131532
 10
88.82765297258476
 20
-123.7760796131532
 10
88.94995386231113
 20
-123.7824530398009
 10
89.13323294212641
 20
-123.7867594091575
 10
89.15528155323202
 20
-123.7867594091575
 10
89.1700954638186
 20
-123.7528252186278
 10
89.21832680061209
 20
-123.632246876644
 10
89.23486325894129
 20
-123.5581773237111
 10
89.21832680061209
 20
-123.5581773237111
 10
89.06260848467879
 20
-123.5645507503589
 10
88.89242076770745
 20
-123.5772976036543
 10
88.89242076770745
 20
-123.5772976036543
 10
88.89242076770745
 20
-123.7106227989335
 10
88.89242076770745
 20
-123.7106227989335
 10
88.84970158369036
 20
-123.7359442507501
 10
88.79802515141161
 20
-123.7676391292143
 10
88.68123641446164
 20
-123.8332681982084
 10
88.68123641446164
 20
-123.8332681982084
 10
88.68123641446164
 20
-123.9791679920087
 10
88.68123641446164
 20
-123.9791679920087
 10
88.68123641446164
 20
-123.9791679920087
 10
88.68123641446164
 20
-124.4468397041313
 10
88.68123641446164
 20
-124.4468397041313
 10
88.68123641446164
 20
-124.5736192179886
 10
88.64988604554587
 20
-124.6328748603348
 10
88.40183917060787
 20
-124.624434376396
 10
88.40183917060787
 20
-124.624434376396
 10
88.31088864979728
 20
-124.4172118829582
 10
88.31088864979728
 20
-124.4172118829582
 10
88.36669919665833
 20
-124.4297864814794
 10
88.4090738711269
 20
-124.4340928508359
 10
88.44421384507645
 20
-124.4340928508359
 10
88.5110486974903
 20
-124.4340928508359
 10
88.52035045530047
 20
-124.4108384563105
 10
88.52035045530047
 20
-124.3452093873165
 10
88.52035045530047
 20
-124.3452093873165
 10
88.52035045530047
 20
-123.9157782350801
 10
88.52035045530047
 20
-123.9157782350801
 10
88.43491208726627
 20
-123.9559135974832
 10
88.4200981766797
 20
-123.962287024131
 10
88.37944604995376
 20
-123.9814073040741
 10
88.37565644491998
 20
-124.0024223865341
 10
88.37221134943474
 20
-124.0320502077073
 10
88.35533038155701
 20
-124.0320502077073
 10
88.34809568103798
 20
-124.0320502077073
 10
88.33879392322781
 20
-124.027916093125
 10
88.3332817704514
 20
-124.0046616985995
 10
88.3332817704514
 20
-124.0046616985995
 10
88.28677298140053
 20
-123.8120808609741
 10
88.28677298140053
 20
-123.8120808609741
 10
88.4145860239033
 20
-123.7655720719232
 10
88.47211911850698
 20
-123.7423176773978
 10
88.52035045530047
 20
-123.7211303401635
 10
88.52035045530047
 20
-123.7211303401635
 10
88.52035045530047
 20
-123.3085801558048
 10
88.52035045530047
 20
-123.3085801558048
 10
88.52035045530047
 20
-123.3085801558048
 10
88.4738416662496
 20
-123.3085801558048
 10
88.4738416662496
 20
-123.3085801558048
 10
88.4738416662496
 20
-123.3085801558048
 10
88.40528426609313
 20
-123.3085801558048
 10
88.40528426609313
 20
-123.3085801558048
 10
88.34602862374683
 20
-123.3085801558048
 10
88.33879392322781
 20
-123.3085801558048
 10
88.30744355431203
 20
-123.3149535824525
 10
88.30744355431203
 20
-123.3149535824525
 10
88.30744355431203
 20
-123.1203056875359
 10
88.30744355431203
 20
-123.1203056875359
 10
88.33121471316025
 20
-123.1266791141836
 10
88.33879392322781
 20
-123.1266791141836
 10
88.39977211331673
 20
-123.1266791141836
 10
88.39977211331673
 20
-123.1266791141836
 10
88.5165608502667
 20
-123.1266791141836
 10
88.5165608502667
 20
-123.1266791141836
 10
88.5165608502667
 20
-123.0569159306073
 10
88.5165608502667
 20
-122.9744058937356
 10
88.51483830252407
 20
-122.970099524379
 10
88.50725909245652
 20
-122.790265540049
 10
88.50725909245652
 20
-122.7713175148801
 10
88.50553654471389
 20
-122.7248087258292
 10
88.50553654471389
 20
-122.7248087258292
 10
88.69432777730559
 20
-122.7332492097681
 10
88.69432777730559
 20
-122.7332492097681
 10
88.70362953511577
 20
-122.7332492097681
 10
88.72223305073611
 20
-122.7353162670592
 10
88.72223305073611
 20
-122.752197234937
 10
88.72223305073611
 20
-122.7713175148801
 10
88.70914168789216
 20
-122.7818250561101
 10
88.68674856723804
 20
-122.8009453360532
 10
88.68674856723804
 20
-122.8515882396864
 10
88.68123641446164
 20
-123.0801703251327
 10
88.6833034717528
 20
-123.1266791141836
 10
88.79595809412046
 20
-123.1266791141836
 10
88.80732690922179
 20
-123.1266791141836
 10
88.89242076770745
 20
-123.1182386302447
 10
88.89242076770745
 20
-123.1182386302447
 10
88.89242076770745
 20
-123.3128865251614
 10
88.89242076770745
 20
-123.3128865251614
 10
88.85900334150053
 20
-123.310647213096
 10
88.79974769915424
 20
-123.3065130985137
 10
88.68123641446164
 20
-123.3085801558048
 10
88.68123641446164
 20
-123.3085801558048
 10
88.68123641446164
 20
-123.6470607872306
 10
88.68123641446164
 20
-123.6470607872306
 10
88.72946775125514
 20
-123.6238063927052
 10
88.78700084585881
 20
-123.5962456288232
 10
88.82937552032739
 20
-123.5729912342977
 10
88.82937552032739
 20
-123.5729912342977
 10
88.82937552032739
 20
-123.3953965620331
 10
88.82937552032739
 20
-123.3953965620331
 10
88.92962779894815
 20
-123.4079711605543
 10
89.03298066350565
 20
-123.4079711605543
 10
89.13495548986904
 20
-123.4079711605543
 10
89.11462942650607
 20
-123.3128865251614
 10
89.09051375810932
 20
-123.2303764882896
 10
89.0350477207968
 20
-123.0970512930105
 10
88.99611814181347
 20
-123.0991183503016
 10
88.92377113662323
 20
-123.1034247196582
 10
88.89069821996483
 20
-123.1054917769493
 10
88.89069821996483
 20
-123.1054917769493
 10
88.89069821996483
 20
-122.9256577926193
 10
88.89069821996483
 20
-122.9256577926193
 10
88.99990774684726
 20
-122.9340982765581
 10
89.15149194819824
 20
-122.9384046459147
 10
89.2238389533885
 20
-122.9384046459147
 10
89.2238389533885
 20
-122.9384046459147
 10
89.29618595857873
 20
-122.9384046459147
 10
89.29618595857873
 20
-122.9384046459147
 10
89.29618595857873
 20
-122.7754516294624
 10
89.29618595857873
 20
-122.7649440882324
 10
89.29411890128759
 20
-122.7099948152427
 10
89.29411890128759
 20
-122.7099948152427
 10
89.49048934394682
 20
-122.7353162670592
 10
89.49048934394682
 20
-122.7353162670592
 10
89.49427894898061
 20
-122.7353162670592
 10
89.51288246460095
 20
-122.7373833243504
 10
89.51288246460095
 20
-122.7542642922281
 10
89.51288246460095
 20
-122.7690782028147
 10
89.50358070679077
 20
-122.7776909415278
 10
89.47946503839403
 20
-122.7925048521144
 10
89.47395288561762
 20
-122.8579616663341
 10
89.47188582832648
 20
-122.8791490035684
 10
89.47188582832648
 20
-122.9384046459147
 10
89.47188582832648
 20
-122.9384046459147
 10
89.55525713906952
 20
-122.9384046459147
 10
89.55525713906952
 20
-122.9384046459147
 10
89.62760414425976
 20
-122.9384046459147
 10
89.77953285515929
 20
-122.9340982765581
 10
89.88874238204171
 20
-122.9256577926193
 10
89.88874238204171
 20
-122.9256577926193
 10
89.88874238204171
 20
-123.1054917769493
 10
89.88874238204171
 20
-123.1054917769493
 10
89.86255965635381
 20
-123.1034247196582
 10
89.75920679179632
 20
-123.0991183503016
 10
89.72372230829824
 20
-123.0970512930105
 10
89.71097545500281
 20
-123.1478664514179
 10
89.68134763382967
 20
-123.2600043094628
 10
89.62381453922599
 20
-123.3995306766154
 10
89.66102157046669
 20
-123.3995306766154
 10
89.90355629262828
 20
-123.3805826514465
 10
89.95729978219818
 20
-123.3783433393811
 10
89.95729978219818
 20
-123.3783433393811
 10
89.95729978219818
 20
-123.5624836930677
 10
89.95729978219818
 20
-123.5624836930677
 10
89.93111705651027
 20
-123.5624836930677
 10
89.9163031459237
 20
-123.5581773237111
 10
89.77367619283436
 20
-123.5581773237111
 97
        0
 97
        0
 92
        1
 93
        1
 72
     4
 94
        3
 73
     0
 74
     1
 95
       20
 96
       16
 40
0.0
 40
0.0
 40
0.0
 40
0.0
 40
1.0
 40
1.0
 40
1.0
 40
2.0
 40
2.0
 40
2.0
 40
3.0
 40
3.0
 40
3.0
 40
4.0
 40
4.0
 40
4.0
 40
5.0
 40
5.0
 40
5.0
 40
5.0
 10
89.2238389533885
 20
-123.0929171784282
 10
89.2238389533885
 20
-123.0929171784282
 10
89.19627818950649
 20
-123.0929171784282
 10
89.19627818950649
 20
-123.0929171784282
 10
89.23693031623243
 20
-123.1923081831776
 10
89.26449108011444
 20
-123.2725789079839
 10
89.29411890128759
 20
-123.3995306766154
 10
89.29411890128759
 20
-123.3995306766154
 10
89.47567543336025
 20
-123.3995306766154
 10
89.47567543336025
 20
-123.3995306766154
 10
89.50358070679077
 20
-123.3065130985137
 10
89.52390677015374
 20
-123.2219360043508
 10
89.54423283351673
 20
-123.0929171784282
 10
89.54423283351673
 20
-123.0929171784282
 10
89.2238389533885
 20
-123.0929171784282
 10
89.2238389533885
 20
-123.0929171784282
 97
        0
 97
        0
 92
        1
 93
        1
 72
     4
 94
        3
 73
     0
 74
     1
 95
       17
 96
       13
 40
0.0
 40
0.0
 40
0.0
 40
0.0
 40
1.0
 40
1.0
 40
1.0
 40
2.0
 40
2.0
 40
2.0
 40
3.0
 40
3.0
 40
3.0
 40
4.0
 40
4.0
 40
4.0
 40
4.0
 10
89.27930499070101
 20
-123.9433389989621
 10
89.26449108011444
 20
-123.972794565361
 10
89.22004934835472
 20
-124.065984398237
 10
89.21074759054454
 20
-124.0849324234059
 10
89.37749021203064
 20
-124.1441880657521
 10
89.39609372765098
 20
-124.1505614923999
 10
89.45913897503105
 20
-124.1781222562819
 10
89.50702580227602
 20
-124.0913058500536
 10
89.52769637518753
 20
-124.0172362971207
 10
89.54044322848294
 20
-123.9433389989621
 10
89.54044322848294
 20
-123.9433389989621
 10
89.27930499070101
 20
-123.9433389989621
 10
89.27930499070101
 20
-123.9433389989621
 97
        0
 97
        0
 75
     2
 76
     1
 98
        0
  0
SPLINE
  5
5F
330
57
100
AcDbEntity
  8
_U+30EC_U+30A4_U+30E4_U+30FC 1
370
     0
100
AcDbSpline
210
0.0
220
0.0
230
1.0
 70
    11
 71
     3
 72
   203
 73
   199
 74
     0
 42
0.0000000001
 43
0.0000000001
 12
1.0
 22
0.0
 32
0.0
 13
1.0
 23
0.0
 33
0.0
 40
0.0
 40
0.0
 40
0.0
 40
0.0
 40
1.0
 40
1.0
 40
1.0
 40
2.0
 40
2.0
 40
2.0
 40
3.0
 40
3.0
 40
3.0
 40
4.0
 40
4.0
 40
4.0
 40
5.0
 40
5.0
 40
5.0
 40
6.0
 40
6.0
 40
6.0
 40
7.0
 40
7.0
 40
7.0
 40
8.0
 40
8.0
 40
8.0
 40
9.0
 40
9.0
 40
9.0
 40
10.0
 40
10.0
 40
10.0
 40
11.0
 40
11.0
 40
11.0
 40
12.0
 40
12.0
 40
12.0
 40
13.0
 40
13.0
 40
13.0
 40
14.0
 40
14.0
 40
14.0
 40
15.0
 40
15.0
 40
15.0
 40
16.0
 40
16.0
 40
16.0
 40
17.0
 40
17.0
 40
17.0
 40
18.0
 40
18.0
 40
18.0
 40
19.0
 40
19.0
 40
19.0
 40
20.0
 40
20.0
 40
20.0
 40
21.0
 40
21.0
 40
21.0
 40
22.0
 40
22.0
 40
22.0
 40
23.0
 40
23.0
 40
23.0
 40
24.0
 40
24.0
 40
24.0
 40
25.0
 40
25.0
 40
25.0
 40
26.0
 40
26.0
 40
26.0
 40
27.0
 40
27.0
 40
27.0
 40
28.0
 40
28.0
 40
28.0
 40
29.0
 40
29.0
 40
29.0
 40
30.0
 40
30.0
 40
30.0
 40
31.0
 40
31.0
 40
31.0
 40
32.0
 40
32.0
 40
32.0
 40
33.0
 40
33.0
 40
33.0
 40
34.0
 40
34.0
 40
34.0
 40
35.0
 40
35.0
 40
35.0
 40
36.0
 40
36.0
 40
36.0
 40
37.0
 40
37.0
 40
37.0
 40
38.0
 40
38.0
 40
38.0
 40
39.0
 40
39.0
 40
39.0
 40
40.0
 40
40.0
 40
40.0
 40
41.0
 40
41.0
 40
41.0
 40
42.0
 40
42.0
 40
42.0
 40
43.0
 40
43.0
 40
43.0
 40
44.0
 40
44.0
 40
44.0
 40
45.0
 40
45.0
 40
45.0
 40
46.0
 40
46.0
 40
46.0
 40
47.0
 40
47.0
 40
47.0
 40
48.0
 40
48.0
 40
48.0
 40
49.0
 40
49.0
 40
49.0
 40
50.0
 40
50.0
 40
50.0
 40
51.0
 40
51.0
 40
51.0
 40
52.0
 40
52.0
 40
52.0
 40
53.0
 40
53.0
 40
53.0
 40
54.0
 40
54.0
 40
54.0
 40
55.0
 40
55.0
 40
55.0
 40
56.0
 40
56.0
 40
56.0
 40
57.0
 40
57.0
 40
57.0
 40
58.0
 40
58.0
 40
58.0
 40
59.0
 40
59.0
 40
59.0
 40
60.0
 40
60.0
 40
60.0
 40
61.0
 40
61.0
 40
61.0
 40
62.0
 40
62.0
 40
62.0
 40
63.0
 40
63.0
 40
63.0
 40
64.0
 40
64.0
 40
64.0
 40
65.0
 40
65.0
 40
65.0
 40
66.0
 40
66.0
 40
66.0
 40
66.0
 10
91.25575627058885
 20
-123.6258734499963
 30
0.0
 10
91.25575627058885
 20
-123.6258734499963
 30
0.0
 10
90.76689722123189
 20
-123.6258734499963
 30
0.0
 10
90.76689722123189
 20
-123.6258734499963
 30
0.0
 10
90.75759546342172
 20
-123.670315181756
 30
0.0
 10
90.75036076290269
 20
-123.7020100602203
 30
0.0
 10
90.73899194780137
 20
-123.7402506201066
 30
0.0
 10
90.7613850684555
 20
-123.7402506201066
 30
0.0
 10
90.77447643129945
 20
-123.7423176773978
 30
0.0
 10
90.77998858407584
 20
-123.7423176773978
 30
0.0
 10
90.77998858407584
 20
-123.7423176773978
 30
0.0
 10
90.94466414827079
 20
-123.7423176773978
 30
0.0
 10
90.94466414827079
 20
-123.7423176773978
 30
0.0
 10
90.94466414827079
 20
-123.7423176773978
 30
0.0
 10
91.27229272891805
 20
-123.7423176773978
 30
0.0
 10
91.27229272891805
 20
-123.7423176773978
 30
0.0
 10
91.31707897022629
 20
-123.7423176773978
 30
0.0
 10
91.56512584516427
 20
-123.7295708241023
 30
0.0
 10
91.59268660904628
 20
-123.7295708241023
 30
0.0
 10
91.59096406130365
 20
-123.7571315879843
 30
0.0
 10
91.58924151356102
 20
-123.7760796131532
 30
0.0
 10
91.58924151356102
 20
-123.8057074343264
 30
0.0
 10
91.58717445626988
 20
-123.8374023127907
 30
0.0
 10
91.58717445626988
 20
-123.972794565361
 30
0.0
 10
91.58717445626988
 20
-124.000355329243
 30
0.0
 10
91.58717445626988
 20
-124.000355329243
 30
0.0
 10
91.58717445626988
 20
-124.245818382567
 30
0.0
 10
91.58717445626988
 20
-124.245818382567
 30
0.0
 10
91.58717445626988
 20
-124.2902601143267
 30
0.0
 10
91.59096406130365
 20
-124.4869750665345
 30
0.0
 10
91.59475366633743
 20
-124.6392482869825
 30
0.0
 10
91.59475366633743
 20
-124.6392482869825
 30
0.0
 10
91.39666067593556
 20
-124.6392482869825
 30
0.0
 10
91.39666067593556
 20
-124.6392482869825
 30
0.0
 10
91.39666067593556
 20
-124.6392482869825
 30
0.0
 10
91.39838322367818
 20
-124.6054863512271
 30
0.0
 10
91.39838322367818
 20
-124.6054863512271
 30
0.0
 10
91.39838322367818
 20
-124.6054863512271
 30
0.0
 10
90.78377818910961
 20
-124.6054863512271
 30
0.0
 10
90.78377818910961
 20
-124.6054863512271
 30
0.0
 10
90.78377818910961
 20
-124.6054863512271
 30
0.0
 10
90.78550073685224
 20
-124.6392482869825
 30
0.0
 10
90.78550073685224
 20
-124.6392482869825
 30
0.0
 10
90.78550073685224
 20
-124.6392482869825
 30
0.0
 10
90.5946424469694
 20
-124.6392482869825
 30
0.0
 10
90.5946424469694
 20
-124.6392482869825
 30
0.0
 10
90.59843205200318
 20
-124.5842990139928
 30
0.0
 10
90.59843205200318
 20
-124.5715521606974
 30
0.0
 10
90.60394420477958
 20
-124.4573472453614
 30
0.0
 10
90.60601126207072
 20
-124.4297864814794
 30
0.0
 10
90.60773380981335
 20
-124.2966335409745
 30
0.0
 10
90.60773380981335
 20
-124.2775132610313
 30
0.0
 10
90.60773380981335
 20
-124.2775132610313
 30
0.0
 10
90.60773380981335
 20
-124.0744248821758
 30
0.0
 10
90.60773380981335
 20
-124.0744248821758
 30
0.0
 10
90.48543292008698
 20
-124.3240220500822
 30
0.0
 10
90.33729381422124
 20
-124.4552801880702
 30
0.0
 10
90.24462074566802
 20
-124.52073700229
 30
0.0
 10
90.24462074566802
 20
-124.52073700229
 30
0.0
 10
90.09303654431702
 20
-124.3812106351373
 30
0.0
 10
90.09303654431702
 20
-124.3812106351373
 30
0.0
 10
90.17055119273515
 20
-124.3303954767299
 30
0.0
 10
90.29664168749528
 20
-124.2435790705016
 30
0.0
 10
90.41687551993051
 20
-124.0491034303593
 30
0.0
 10
90.49645722563977
 20
-123.9221516617278
 30
0.0
 10
90.55399032024346
 20
-123.7783189252186
 30
0.0
 10
90.5836181414166
 20
-123.6258734499963
 30
0.0
 10
90.38345809372359
 20
-123.6281127620617
 30
0.0
 10
90.22636173959619
 20
-123.6344861887094
 30
0.0
 10
90.14299042885314
 20
-123.6365532460006
 30
0.0
 10
90.14299042885314
 20
-123.6365532460006
 30
0.0
 10
90.14299042885314
 20
-123.4587863189617
 30
0.0
 10
90.14299042885314
 20
-123.4587863189617
 30
0.0
 10
90.31524520311564
 20
-123.4651597456094
 30
0.0
 10
90.56329207805362
 20
-123.469466114966
 30
0.0
 10
90.69489472559017
 20
-123.469466114966
 30
0.0
 10
90.69489472559017
 20
-123.469466114966
 30
0.0
 10
90.88161890089071
 20
-123.469466114966
 30
0.0
 10
90.88161890089071
 20
-123.469466114966
 30
0.0
 10
90.88161890089071
 20
-123.469466114966
 30
0.0
 10
90.88161890089071
 20
-123.3614623715034
 30
0.0
 10
90.88161890089071
 20
-123.3614623715034
 30
0.0
 10
90.88161890089071
 20
-123.3614623715034
 30
0.0
 10
90.75415036793646
 20
-123.3614623715034
 30
0.0
 10
90.75415036793646
 20
-123.3614623715034
 30
0.0
 10
90.60601126207072
 20
-123.3614623715034
 30
0.0
 10
90.45787215620499
 20
-123.3657687408599
 30
0.0
 10
90.31145559808186
 20
-123.3721421675077
 30
0.0
 10
90.31145559808186
 20
-123.3721421675077
 30
0.0
 10
90.31145559808186
 20
-123.2007486671165
 30
0.0
 10
90.31145559808186
 20
-123.2007486671165
 30
0.0
 10
90.44650334110365
 20
-123.2112562083465
 30
0.0
 10
90.60945635755597
 20
-123.2112562083465
 30
0.0
 10
90.75415036793646
 20
-123.2112562083465
 30
0.0
 10
90.75415036793646
 20
-123.2112562083465
 30
0.0
 10
90.88161890089071
 20
-123.2112562083465
 30
0.0
 10
90.88161890089071
 20
-123.2112562083465
 30
0.0
 10
90.88161890089071
 20
-123.2112562083465
 30
0.0
 10
90.88161890089071
 20
-123.0929171784282
 30
0.0
 10
90.88161890089071
 20
-123.0929171784282
 30
0.0
 10
90.88161890089071
 20
-123.0929171784282
 30
0.0
 10
90.76689722123189
 20
-123.0929171784282
 30
0.0
 10
90.76689722123189
 20
-123.0929171784282
 30
0.0
 10
90.72624509450594
 20
-123.0929171784282
 30
0.0
 10
90.54847816746705
 20
-123.101357662367
 30
0.0
 10
90.51127113622636
 20
-123.101357662367
 30
0.0
 10
90.33350420918747
 20
-123.1054917769493
 30
0.0
 10
90.26701386632215
 20
-123.1075588342405
 30
0.0
 10
90.19845646616567
 20
-123.1097981463059
 30
0.0
 10
90.19845646616567
 20
-123.1097981463059
 30
0.0
 10
90.19845646616567
 20
-122.9256577926193
 30
0.0
 10
90.19845646616567
 20
-122.9256577926193
 30
0.0
 10
90.29836423523791
 20
-122.9340982765581
 30
0.0
 10
90.33729381422124
 20
-122.9340982765581
 30
0.0
 10
90.67250160493604
 20
-122.9427110152713
 30
0.0
 10
90.61703556762352
 20
-122.8474541251041
 30
0.0
 10
90.59291989922677
 20
-122.8198933612221
 30
0.0
 10
90.56122502076248
 20
-122.7838921134013
 30
0.0
 10
90.56122502076248
 20
-122.7838921134013
 30
0.0
 10
90.71522078895315
 20
-122.7013820765295
 30
0.0
 10
90.71522078895315
 20
-122.7013820765295
 30
0.0
 10
90.75036076290269
 20
-122.7373833243504
 30
0.0
 10
90.78929034188602
 20
-122.779757998819
 30
0.0
 10
90.8540581370087
 20
-122.8896565447984
 30
0.0
 10
90.8540581370087
 20
-122.8896565447984
 30
0.0
 10
90.75415036793646
 20
-122.9447780725624
 30
0.0
 10
90.75415036793646
 20
-122.9447780725624
 30
0.0
 10
90.75415036793646
 20
-122.9447780725624
 30
0.0
 10
90.76310761619811
 20
-122.9447780725624
 30
0.0
 10
90.76310761619811
 20
-122.9447780725624
 30
0.0
 10
90.76310761619811
 20
-122.9447780725624
 30
0.0
 10
91.22061629663929
 20
-122.9447780725624
 30
0.0
 10
91.22061629663929
 20
-122.9447780725624
 30
0.0
 10
91.22061629663929
 20
-122.9447780725624
 30
0.0
 10
91.13724498589625
 20
-122.9003363408027
 30
0.0
 10
91.13724498589625
 20
-122.9003363408027
 30
0.0
 10
91.16136065429299
 20
-122.8622680356907
 30
0.0
 10
91.21131453882911
 20
-122.7818250561101
 30
0.0
 10
91.22440590167307
 20
-122.7077555031772
 30
0.0
 10
91.22440590167307
 20
-122.7077555031772
 30
0.0
 10
91.41147458652213
 20
-122.7713175148801
 30
0.0
 10
91.41147458652213
 20
-122.7713175148801
 30
0.0
 10
91.41870928704115
 20
-122.7733845721712
 30
0.0
 10
91.43731280266151
 20
-122.7838921134013
 30
0.0
 10
91.43731280266151
 20
-122.8050794506355
 30
0.0
 10
91.43731280266151
 20
-122.8431477557476
 30
0.0
 10
91.37977970805784
 20
-122.8431477557476
 30
0.0
 10
91.36324324972864
 20
-122.8431477557476
 30
0.0
 10
91.35394149191846
 20
-122.8622680356907
 30
0.0
 10
91.33361542855549
 20
-122.9024033980939
 30
0.0
 10
91.30777721241611
 20
-122.9427110152713
 30
0.0
 10
91.65745440416897
 20
-122.9363375886236
 30
0.0
 10
91.68363712985688
 20
-122.9340982765581
 30
0.0
 10
91.7501274727222
 20
-122.9278971046847
 30
0.0
 10
91.7501274727222
 20
-122.9278971046847
 30
0.0
 10
91.7501274727222
 20
-123.1097981463059
 30
0.0
 10
91.7501274727222
 20
-123.1097981463059
 30
0.0
 10
91.733591014393
 20
-123.1097981463059
 30
0.0
 10
91.71119789373887
 20
-123.1075588342405
 30
0.0
 10
91.5186170561134
 20
-123.0991183503016
 30
0.0
 10
91.47417532435368
 20
-123.0970512930105
 30
0.0
 10
91.28159448672821
 20
-123.0929171784282
 30
0.0
 10
91.2426649077449
 20
-123.0929171784282
 30
0.0
 10
91.2426649077449
 20
-123.0929171784282
 30
0.0
 10
91.0538736751532
 20
-123.0929171784282
 30
0.0
 10
91.0538736751532
 20
-123.0929171784282
 30
0.0
 10
91.0538736751532
 20
-123.0929171784282
 30
0.0
 10
91.0538736751532
 20
-123.2112562083465
 30
0.0
 10
91.0538736751532
 20
-123.2112562083465
 30
0.0
 10
91.0538736751532
 20
-123.2112562083465
 30
0.0
 10
91.20580238605272
 20
-123.2112562083465
 30
0.0
 10
91.20580238605272
 20
-123.2112562083465
 30
0.0
 10
91.34842933914206
 20
-123.2112562083465
 30
0.0
 10
91.51517196062815
 20
-123.2112562083465
 30
0.0
 10
91.65194225139257
 20
-123.2007486671165
 30
0.0
 10
91.65194225139257
 20
-123.2007486671165
 30
0.0
 10
91.65194225139257
 20
-123.3721421675077
 30
0.0
 10
91.65194225139257
 20
-123.3721421675077
 30
0.0
 10
91.46866317157728
 20
-123.3637016835688
 30
0.0
 10
91.29640839731479
 20
-123.3614623715034
 30
0.0
 10
91.20580238605272
 20
-123.3614623715034
 30
0.0
 10
91.20580238605272
 20
-123.3614623715034
 30
0.0
 10
91.0538736751532
 20
-123.3614623715034
 30
0.0
 10
91.0538736751532
 20
-123.3614623715034
 30
0.0
 10
91.0538736751532
 20
-123.3614623715034
 30
0.0
 10
91.0538736751532
 20
-123.469466114966
 30
0.0
 10
91.0538736751532
 20
-123.469466114966
 30
0.0
 10
91.0538736751532
 20
-123.469466114966
 30
0.0
 10
91.25575627058885
 20
-123.469466114966
 30
0.0
 10
91.25575627058885
 20
-123.469466114966
 30
0.0
 10
91.37254500753882
 20
-123.469466114966
 30
0.0
 10
91.62438148751058
 20
-123.4651597456094
 30
0.0
 10
91.80766056732587
 20
-123.4587863189617
 30
0.0
 10
91.80766056732587
 20
-123.4587863189617
 30
0.0
 10
91.80766056732587
 20
-123.6365532460006
 30
0.0
 10
91.80766056732587
 20
-123.6365532460006
 30
0.0
 10
91.63919539809714
 20
-123.6301798193529
 30
0.0
 10
91.36496579747126
 20
-123.6258734499963
 30
0.0
 10
91.25575627058885
 20
-123.6258734499963
 30
0.0
  0
POLYLINE
  5
60
330
57
100
AcDbEntity
  8
_U+30EC_U+30A4_U+30E4_U+30FC 1
370
     0
100
AcDb2dPolyline
 66
     1
 10
0.0
 20
0.0
 30
0.0
  0
VERTEX
  5
61
330
60
100
AcDbEntity
  8
_U+30EC_U+30A4_U+30E4_U+30FC 1
370
     0
100
AcDbVertex
100
AcDb2dVertex
 10
91.40010577142081
 20
-123.8818440445504
 30
0.0
  0
VERTEX
  5
62
330
60
100
AcDbEntity
  8
_U+30EC_U+30A4_U+30E4_U+30FC 1
370
     0
100
AcDbVertex
100
AcDb2dVertex
 10
90.78171113181847
 20
-123.8818440445504
 30
0.0
  0
VERTEX
  5
63
330
60
100
AcDbEntity
  8
_U+30EC_U+30A4_U+30E4_U+30FC 1
370
     0
100
AcDbVertex
100
AcDb2dVertex
 10
90.78171113181847
 20
-123.989847788013
 30
0.0
  0
VERTEX
  5
64
330
60
100
AcDbEntity
  8
_U+30EC_U+30A4_U+30E4_U+30FC 1
370
     0
100
AcDbVertex
100
AcDb2dVertex
 10
91.40010577142081
 20
-123.989847788013
 30
0.0
  0
VERTEX
  5
65
330
60
100
AcDbEntity
  8
_U+30EC_U+30A4_U+30E4_U+30FC 1
370
     0
100
AcDbVertex
100
AcDb2dVertex
 10
91.40010577142081
 20
-123.8818440445504
 30
0.0
  0
SEQEND
  5
66
330
60
100
AcDbEntity
  8
_U+30EC_U+30A4_U+30E4_U+30FC 1
370
     0
  0
POLYLINE
  5
67
330
57
100
AcDbEntity
  8
_U+30EC_U+30A4_U+30E4_U+30FC 1
370
     0
100
AcDb2dPolyline
 66
     1
 10
0.0
 20
0.0
 30
0.0
  0
VERTEX
  5
68
330
67
100
AcDbEntity
  8
_U+30EC_U+30A4_U+30E4_U+30FC 1
370
     0
100
AcDbVertex
100
AcDb2dVertex
 10
91.40010577142081
 20
-124.114560244579
 30
0.0
  0
VERTEX
  5
69
330
67
100
AcDbEntity
  8
_U+30EC_U+30A4_U+30E4_U+30FC 1
370
     0
100
AcDbVertex
100
AcDb2dVertex
 10
90.78171113181847
 20
-124.114560244579
 30
0.0
  0
VERTEX
  5
6A
330
67
100
AcDbEntity
  8
_U+30EC_U+30A4_U+30E4_U+30FC 1
370
     0
100
AcDbVertex
100
AcDb2dVertex
 10
90.78171113181847
 20
-124.2289374146893
 30
0.0
  0
VERTEX
  5
6B
330
67
100
AcDbEntity
  8
_U+30EC_U+30A4_U+30E4_U+30FC 1
370
     0
100
AcDbVertex
100
AcDb2dVertex
 10
91.40010577142081
 20
-124.2289374146893
 30
0.0
  0
VERTEX
  5
6C
330
67
100
AcDbEntity
  8
_U+30EC_U+30A4_U+30E4_U+30FC 1
370
     0
100
AcDbVertex
100
AcDb2dVertex
 10
91.40010577142081
 20
-124.114560244579
 30
0.0
  0
SEQEND
  5
6D
330
67
100
AcDbEntity
  8
_U+30EC_U+30A4_U+30E4_U+30FC 1
370
     0
  0
POLYLINE
  5
6E
330
57
100
AcDbEntity
  8
_U+30EC_U+30A4_U+30E4_U+30FC 1
370
     0
100
AcDb2dPolyline
 66
     1
 10
0.0
 20
0.0
 30
0.0
  0
VERTEX
  5
6F
330
6E
100
AcDbEntity
  8
_U+30EC_U+30A4_U+30E4_U+30FC 1
370
     0
100
AcDbVertex
100
AcDb2dVertex
 10
91.40010577142081
 20
-124.3579562406119
 30
0.0
  0
VERTEX
  5
70
330
6E
100
AcDbEntity
  8
_U+30EC_U+30A4_U+30E4_U+30FC 1
370
     0
100
AcDbVertex
100
AcDb2dVertex
 10
90.78171113181847
 20
-124.3579562406119
 30
0.0
  0
VERTEX
  5
71
330
6E
100
AcDbEntity
  8
_U+30EC_U+30A4_U+30E4_U+30FC 1
370
     0
100
AcDbVertex
100
AcDb2dVertex
 10
90.78171113181847
 20
-124.4721611559479
 30
0.0
  0
VERTEX
  5
72
330
6E
100
AcDbEntity
  8
_U+30EC_U+30A4_U+30E4_U+30FC 1
370
     0
100
AcDbVertex
100
AcDb2dVertex
 10
91.40010577142081
 20
-124.4721611559479
 30
0.0
  0
VERTEX
  5
73
330
6E
100
AcDbEntity
  8
_U+30EC_U+30A4_U+30E4_U+30FC 1
370
     0
100
AcDbVertex
100
AcDb2dVertex
 10
91.40010577142081
 20
-124.3579562406119
 30
0.0
  0
SEQEND
  5
74
330
6E
100
AcDbEntity
  8
_U+30EC_U+30A4_U+30E4_U+30FC 1
370
     0
  0
HATCH
  5
75
330
57
100
AcDbEntity
  8
_U+30EC_U+30A4_U+30E4_U+30FC 1
 62
   179
420
  2234388
100
AcDbHatch
 10
0.0
 20
0.0
 30
0.0
210
0.0
220
0.0
230
1.0
  2
SOLID
 70
     1
 71
     0
 91
        4
 92
        1
 93
        1
 72
     4
 94
        3
 73
     0
 74
     1
 95
      203
 96
      199
 40
0.0
 40
0.0
 40
0.0
 40
0.0
 40
1.0
 40
1.0
 40
1.0
 40
2.0
 40
2.0
 40
2.0
 40
3.0
 40
3.0
 40
3.0
 40
4.0
 40
4.0
 40
4.0
 40
5.0
 40
5.0
 40
5.0
 40
6.0
 40
6.0
 40
6.0
 40
7.0
 40
7.0
 40
7.0
 40
8.0
 40
8.0
 40
8.0
 40
9.0
 40
9.0
 40
9.0
 40
10.0
 40
10.0
 40
10.0
 40
11.0
 40
11.0
 40
11.0
 40
12.0
 40
12.0
 40
12.0
 40
13.0
 40
13.0
 40
13.0
 40
14.0
 40
14.0
 40
14.0
 40
15.0
 40
15.0
 40
15.0
 40
16.0
 40
16.0
 40
16.0
 40
17.0
 40
17.0
 40
17.0
 40
18.0
 40
18.0
 40
18.0
 40
19.0
 40
19.0
 40
19.0
 40
20.0
 40
20.0
 40
20.0
 40
21.0
 40
21.0
 40
21.0
 40
22.0
 40
22.0
 40
22.0
 40
23.0
 40
23.0
 40
23.0
 40
24.0
 40
24.0
 40
24.0
 40
25.0
 40
25.0
 40
25.0
 40
26.0
 40
26.0
 40
26.0
 40
27.0
 40
27.0
 40
27.0
 40
28.0
 40
28.0
 40
28.0
 40
29.0
 40
29.0
 40
29.0
 40
30.0
 40
30.0
 40
30.0
 40
31.0
 40
31.0
 40
31.0
 40
32.0
 40
32.0
 40
32.0
 40
33.0
 40
33.0
 40
33.0
 40
34.0
 40
34.0
 40
34.0
 40
35.0
 40
35.0
 40
35.0
 40
36.0
 40
36.0
 40
36.0
 40
37.0
 40
37.0
 40
37.0
 40
38.0
 40
38.0
 40
38.0
 40
39.0
 40
39.0
 40
39.0
 40
40.0
 40
40.0
 40
40.0
 40
41.0
 40
41.0
 40
41.0
 40
42.0
 40
42.0
 40
42.0
 40
43.0
 40
43.0
 40
43.0
 40
44.0
 40
44.0
 40
44.0
 40
45.0
 40
45.0
 40
45.0
 40
46.0
 40
46.0
 40
46.0
 40
47.0
 40
47.0
 40
47.0
 40
48.0
 40
48.0
 40
48.0
 40
49.0
 40
49.0
 40
49.0
 40
50.0
 40
50.0
 40
50.0
 40
51.0
 40
51.0
 40
51.0
 40
52.0
 40
52.0
 40
52.0
 40
53.0
 40
53.0
 40
53.0
 40
54.0
 40
54.0
 40
54.0
 40
55.0
 40
55.0
 40
55.0
 40
56.0
 40
56.0
 40
56.0
 40
57.0
 40
57.0
 40
57.0
 40
58.0
 40
58.0
 40
58.0
 40
59.0
 40
59.0
 40
59.0
 40
60.0
 40
60.0
 40
60.0
 40
61.0
 40
61.0
 40
61.0
 40
62.0
 40
62.0
 40
62.0
 40
63.0
 40
63.0
 40
63.0
 40
64.0
 40
64.0
 40
64.0
 40
65.0
 40
65.0
 40
65.0
 40
66.0
 40
66.0
 40
66.0
 40
66.0
 10
91.25575627058885
 20
-123.6258734499963
 10
91.25575627058885
 20
-123.6258734499963
 10
90.76689722123189
 20
-123.6258734499963
 10
90.76689722123189
 20
-123.6258734499963
 10
90.75759546342172
 20
-123.670315181756
 10
90.75036076290269
 20
-123.7020100602203
 10
90.73899194780137
 20
-123.7402506201066
 10
90.7613850684555
 20
-123.7402506201066
 10
90.77447643129945
 20
-123.7423176773978
 10
90.77998858407584
 20
-123.7423176773978
 10
90.77998858407584
 20
-123.7423176773978
 10
90.94466414827079
 20
-123.7423176773978
 10
90.94466414827079
 20
-123.7423176773978
 10
90.94466414827079
 20
-123.7423176773978
 10
91.27229272891805
 20
-123.7423176773978
 10
91.27229272891805
 20
-123.7423176773978
 10
91.31707897022629
 20
-123.7423176773978
 10
91.56512584516427
 20
-123.7295708241023
 10
91.59268660904628
 20
-123.7295708241023
 10
91.59096406130365
 20
-123.7571315879843
 10
91.58924151356102
 20
-123.7760796131532
 10
91.58924151356102
 20
-123.8057074343264
 10
91.58717445626988
 20
-123.8374023127907
 10
91.58717445626988
 20
-123.972794565361
 10
91.58717445626988
 20
-124.000355329243
 10
91.58717445626988
 20
-124.000355329243
 10
91.58717445626988
 20
-124.245818382567
 10
91.58717445626988
 20
-124.245818382567
 10
91.58717445626988
 20
-124.2902601143267
 10
91.59096406130365
 20
-124.4869750665345
 10
91.59475366633743
 20
-124.6392482869825
 10
91.59475366633743
 20
-124.6392482869825
 10
91.39666067593556
 20
-124.6392482869825
 10
91.39666067593556
 20
-124.6392482869825
 10
91.39666067593556
 20
-124.6392482869825
 10
91.39838322367818
 20
-124.6054863512271
 10
91.39838322367818
 20
-124.6054863512271
 10
91.39838322367818
 20
-124.6054863512271
 10
90.78377818910961
 20
-124.6054863512271
 10
90.78377818910961
 20
-124.6054863512271
 10
90.78377818910961
 20
-124.6054863512271
 10
90.78550073685224
 20
-124.6392482869825
 10
90.78550073685224
 20
-124.6392482869825
 10
90.78550073685224
 20
-124.6392482869825
 10
90.5946424469694
 20
-124.6392482869825
 10
90.5946424469694
 20
-124.6392482869825
 10
90.59843205200318
 20
-124.5842990139928
 10
90.59843205200318
 20
-124.5715521606974
 10
90.60394420477958
 20
-124.4573472453614
 10
90.60601126207072
 20
-124.4297864814794
 10
90.60773380981335
 20
-124.2966335409745
 10
90.60773380981335
 20
-124.2775132610313
 10
90.60773380981335
 20
-124.2775132610313
 10
90.60773380981335
 20
-124.0744248821758
 10
90.60773380981335
 20
-124.0744248821758
 10
90.48543292008698
 20
-124.3240220500822
 10
90.33729381422124
 20
-124.4552801880702
 10
90.24462074566802
 20
-124.52073700229
 10
90.24462074566802
 20
-124.52073700229
 10
90.09303654431702
 20
-124.3812106351373
 10
90.09303654431702
 20
-124.3812106351373
 10
90.17055119273515
 20
-124.3303954767299
 10
90.29664168749528
 20
-124.2435790705016
 10
90.41687551993051
 20
-124.0491034303593
 10
90.49645722563977
 20
-123.9221516617278
 10
90.55399032024346
 20
-123.7783189252186
 10
90.5836181414166
 20
-123.6258734499963
 10
90.38345809372359
 20
-123.6281127620617
 10
90.22636173959619
 20
-123.6344861887094
 10
90.14299042885314
 20
-123.6365532460006
 10
90.14299042885314
 20
-123.6365532460006
 10
90.14299042885314
 20
-123.4587863189617
 10
90.14299042885314
 20
-123.4587863189617
 10
90.31524520311564
 20
-123.4651597456094
 10
90.56329207805362
 20
-123.469466114966
 10
90.69489472559017
 20
-123.469466114966
 10
90.69489472559017
 20
-123.469466114966
 10
90.88161890089071
 20
-123.469466114966
 10
90.88161890089071
 20
-123.469466114966
 10
90.88161890089071
 20
-123.469466114966
 10
90.88161890089071
 20
-123.3614623715034
 10
90.88161890089071
 20
-123.3614623715034
 10
90.88161890089071
 20
-123.3614623715034
 10
90.75415036793646
 20
-123.3614623715034
 10
90.75415036793646
 20
-123.3614623715034
 10
90.60601126207072
 20
-123.3614623715034
 10
90.45787215620499
 20
-123.3657687408599
 10
90.31145559808186
 20
-123.3721421675077
 10
90.31145559808186
 20
-123.3721421675077
 10
90.31145559808186
 20
-123.2007486671165
 10
90.31145559808186
 20
-123.2007486671165
 10
90.44650334110365
 20
-123.2112562083465
 10
90.60945635755597
 20
-123.2112562083465
 10
90.75415036793646
 20
-123.2112562083465
 10
90.75415036793646
 20
-123.2112562083465
 10
90.88161890089071
 20
-123.2112562083465
 10
90.88161890089071
 20
-123.2112562083465
 10
90.88161890089071
 20
-123.2112562083465
 10
90.88161890089071
 20
-123.0929171784282
 10
90.88161890089071
 20
-123.0929171784282
 10
90.88161890089071
 20
-123.0929171784282
 10
90.76689722123189
 20
-123.0929171784282
 10
90.76689722123189
 20
-123.0929171784282
 10
90.72624509450594
 20
-123.0929171784282
 10
90.54847816746705
 20
-123.101357662367
 10
90.51127113622636
 20
-123.101357662367
 10
90.33350420918747
 20
-123.1054917769493
 10
90.26701386632215
 20
-123.1075588342405
 10
90.19845646616567
 20
-123.1097981463059
 10
90.19845646616567
 20
-123.1097981463059
 10
90.19845646616567
 20
-122.9256577926193
 10
90.19845646616567
 20
-122.9256577926193
 10
90.29836423523791
 20
-122.9340982765581
 10
90.33729381422124
 20
-122.9340982765581
 10
90.67250160493604
 20
-122.9427110152713
 10
90.61703556762352
 20
-122.8474541251041
 10
90.59291989922677
 20
-122.8198933612221
 10
90.56122502076248
 20
-122.7838921134013
 10
90.56122502076248
 20
-122.7838921134013
 10
90.71522078895315
 20
-122.7013820765295
 10
90.71522078895315
 20
-122.7013820765295
 10
90.75036076290269
 20
-122.7373833243504
 10
90.78929034188602
 20
-122.779757998819
 10
90.8540581370087
 20
-122.8896565447984
 10
90.8540581370087
 20
-122.8896565447984
 10
90.75415036793646
 20
-122.9447780725624
 10
90.75415036793646
 20
-122.9447780725624
 10
90.75415036793646
 20
-122.9447780725624
 10
90.76310761619811
 20
-122.9447780725624
 10
90.76310761619811
 20
-122.9447780725624
 10
90.76310761619811
 20
-122.9447780725624
 10
91.22061629663929
 20
-122.9447780725624
 10
91.22061629663929
 20
-122.9447780725624
 10
91.22061629663929
 20
-122.9447780725624
 10
91.13724498589625
 20
-122.9003363408027
 10
91.13724498589625
 20
-122.9003363408027
 10
91.16136065429299
 20
-122.8622680356907
 10
91.21131453882911
 20
-122.7818250561101
 10
91.22440590167307
 20
-122.7077555031772
 10
91.22440590167307
 20
-122.7077555031772
 10
91.41147458652213
 20
-122.7713175148801
 10
91.41147458652213
 20
-122.7713175148801
 10
91.41870928704115
 20
-122.7733845721712
 10
91.43731280266151
 20
-122.7838921134013
 10
91.43731280266151
 20
-122.8050794506355
 10
91.43731280266151
 20
-122.8431477557476
 10
91.37977970805784
 20
-122.8431477557476
 10
91.36324324972864
 20
-122.8431477557476
 10
91.35394149191846
 20
-122.8622680356907
 10
91.33361542855549
 20
-122.9024033980939
 10
91.30777721241611
 20
-122.9427110152713
 10
91.65745440416897
 20
-122.9363375886236
 10
91.68363712985688
 20
-122.9340982765581
 10
91.7501274727222
 20
-122.9278971046847
 10
91.7501274727222
 20
-122.9278971046847
 10
91.7501274727222
 20
-123.1097981463059
 10
91.7501274727222
 20
-123.1097981463059
 10
91.733591014393
 20
-123.1097981463059
 10
91.71119789373887
 20
-123.1075588342405
 10
91.5186170561134
 20
-123.0991183503016
 10
91.47417532435368
 20
-123.0970512930105
 10
91.28159448672821
 20
-123.0929171784282
 10
91.2426649077449
 20
-123.0929171784282
 10
91.2426649077449
 20
-123.0929171784282
 10
91.0538736751532
 20
-123.0929171784282
 10
91.0538736751532
 20
-123.0929171784282
 10
91.0538736751532
 20
-123.0929171784282
 10
91.0538736751532
 20
-123.2112562083465
 10
91.0538736751532
 20
-123.2112562083465
 10
91.0538736751532
 20
-123.2112562083465
 10
91.20580238605272
 20
-123.2112562083465
 10
91.20580238605272
 20
-123.2112562083465
 10
91.34842933914206
 20
-123.2112562083465
 10
91.51517196062815
 20
-123.2112562083465
 10
91.65194225139257
 20
-123.2007486671165
 10
91.65194225139257
 20
-123.2007486671165
 10
91.65194225139257
 20
-123.3721421675077
 10
91.65194225139257
 20
-123.3721421675077
 10
91.46866317157728
 20
-123.3637016835688
 10
91.29640839731479
 20
-123.3614623715034
 10
91.20580238605272
 20
-123.3614623715034
 10
91.20580238605272
 20
-123.3614623715034
 10
91.0538736751532
 20
-123.3614623715034
 10
91.0538736751532
 20
-123.3614623715034
 10
91.0538736751532
 20
-123.3614623715034
 10
91.0538736751532
 20
-123.469466114966
 10
91.0538736751532
 20
-123.469466114966
 10
91.0538736751532
 20
-123.469466114966
 10
91.25575627058885
 20
-123.469466114966
 10
91.25575627058885
 20
-123.469466114966
 10
91.37254500753882
 20
-123.469466114966
 10
91.62438148751058
 20
-123.4651597456094
 10
91.80766056732587
 20
-123.4587863189617
 10
91.80766056732587
 20
-123.4587863189617
 10
91.80766056732587
 20
-123.6365532460006
 10
91.80766056732587
 20
-123.6365532460006
 10
91.63919539809714
 20
-123.6301798193529
 10
91.36496579747126
 20
-123.6258734499963
 10
91.25575627058885
 20
-123.6258734499963
 97
        0
 97
        0
 92
        1
 93
        4
 72
     1
 10
91.40010577142081
 20
-123.8818440445504
 11
90.78171113181847
 21
-123.8818440445504
 72
     1
 10
90.78171113181847
 20
-123.8818440445504
 11
90.78171113181847
 21
-123.989847788013
 72
     1
 10
90.78171113181847
 20
-123.989847788013
 11
91.40010577142081
 21
-123.989847788013
 72
     1
 10
91.40010577142081
 20
-123.989847788013
 11
91.40010577142081
 21
-123.8818440445504
 97
        0
 92
        1
 93
        4
 72
     1
 10
91.40010577142081
 20
-124.114560244579
 11
90.78171113181847
 21
-124.114560244579
 72
     1
 10
90.78171113181847
 20
-124.114560244579
 11
90.78171113181847
 21
-124.2289374146893
 72
     1
 10
90.78171113181847
 20
-124.2289374146893
 11
91.40010577142081
 21
-124.2289374146893
 72
     1
 10
91.40010577142081
 20
-124.2289374146893
 11
91.40010577142081
 21
-124.114560244579
 97
        0
 92
        1
 93
        4
 72
     1
 10
91.40010577142081
 20
-124.3579562406119
 11
90.78171113181847
 21
-124.3579562406119
 72
     1
 10
90.78171113181847
 20
-124.3579562406119
 11
90.78171113181847
 21
-124.4721611559479
 72
     1
 10
90.78171113181847
 20
-124.4721611559479
 11
91.40010577142081
 21
-124.4721611559479
 72
     1
 10
91.40010577142081
 20
-124.4721611559479
 11
91.40010577142081
 21
-124.3579562406119
 97
        0
 75
     2
 76
     1
 98
        0
  0
SPLINE
  5
76
330
57
100
AcDbEntity
  8
_U+30EC_U+30A4_U+30E4_U+30FC 1
370
     0
100
AcDbSpline
210
0.0
220
0.0
230
1.0
 70
    11
 71
     3
 72
    47
 73
    43
 74
     0
 42
0.0000000001
 43
0.0000000001
 12
1.0
 22
0.0
 32
0.0
 13
1.0
 23
0.0
 33
0.0
 40
0.0
 40
0.0
 40
0.0
 40
0.0
 40
1.0
 40
1.0
 40
1.0
 40
2.0
 40
2.0
 40
2.0
 40
3.0
 40
3.0
 40
3.0
 40
4.0
 40
4.0
 40
4.0
 40
5.0
 40
5.0
 40
5.0
 40
6.0
 40
6.0
 40
6.0
 40
7.0
 40
7.0
 40
7.0
 40
8.0
 40
8.0
 40
8.0
 40
9.0
 40
9.0
 40
9.0
 40
10.0
 40
10.0
 40
10.0
 40
11.0
 40
11.0
 40
11.0
 40
12.0
 40
12.0
 40
12.0
 40
13.0
 40
13.0
 40
13.0
 40
14.0
 40
14.0
 40
14.0
 40
14.0
 10
92.98760577102394
 20
-123.6026190554709
 30
0.0
 10
92.98760577102394
 20
-123.6026190554709
 30
0.0
 10
92.89872230750449
 20
-123.6026190554709
 30
0.0
 10
92.89872230750449
 20
-123.6026190554709
 30
0.0
 10
92.89872230750449
 20
-123.6894354616992
 30
0.0
 10
92.88011879188414
 20
-124.0787312515324
 30
0.0
 10
92.70786401762165
 20
-124.2987005982656
 30
0.0
 10
92.57453882234248
 20
-124.4678547865914
 30
0.0
 10
92.39298229026981
 20
-124.5377902249419
 30
0.0
 10
92.31891273733694
 20
-124.5651787340497
 30
0.0
 10
92.31891273733694
 20
-124.5651787340497
 30
0.0
 10
92.1487250203656
 20
-124.3980916030151
 30
0.0
 10
92.1487250203656
 20
-124.3980916030151
 30
0.0
 10
92.23381887885127
 20
-124.3853447497196
 30
0.0
 10
92.38747013749341
 20
-124.3620903551942
 30
0.0
 10
92.55249021123689
 20
-124.1738158869253
 30
0.0
 10
92.61725800635958
 20
-124.1019856460578
 30
0.0
 10
92.70786401762165
 20
-123.962287024131
 30
0.0
 10
92.70786401762165
 20
-123.6026190554709
 30
0.0
 10
92.70786401762165
 20
-123.6026190554709
 30
0.0
 10
92.50598142218601
 20
-123.6026190554709
 30
0.0
 10
92.50598142218601
 20
-123.6026190554709
 30
0.0
 10
92.34302840573369
 20
-123.6026190554709
 30
0.0
 10
92.18007538928137
 20
-123.6069254248274
 30
0.0
 10
92.01712237282905
 20
-123.621739335414
 30
0.0
 10
92.01712237282905
 20
-123.621739335414
 30
0.0
 10
92.01712237282905
 20
-123.4017699886808
 30
0.0
 10
92.01712237282905
 20
-123.4017699886808
 30
0.0
 10
92.181797937024
 20
-123.4165838992674
 30
0.0
 10
92.43191186925314
 20
-123.4207180138497
 30
0.0
 10
92.50598142218601
 20
-123.4207180138497
 30
0.0
 10
92.50598142218601
 20
-123.4207180138497
 30
0.0
 10
92.98760577102394
 20
-123.4207180138497
 30
0.0
 10
92.98760577102394
 20
-123.4207180138497
 30
0.0
 10
93.00414222935314
 20
-123.4207180138497
 30
0.0
 10
93.28181692546427
 20
-123.4207180138497
 30
0.0
 10
93.48197697315729
 20
-123.4017699886808
 30
0.0
 10
93.48197697315729
 20
-123.4017699886808
 30
0.0
 10
93.48197697315729
 20
-123.621739335414
 30
0.0
 10
93.48197697315729
 20
-123.621739335414
 30
0.0
 10
93.31695689941382
 20
-123.6069254248274
 30
0.0
 10
93.15228133521887
 20
-123.6026190554709
 30
0.0
 10
92.98760577102394
 20
-123.6026190554709
 30
0.0
  0
SPLINE
  5
77
330
57
100
AcDbEntity
  8
_U+30EC_U+30A4_U+30E4_U+30FC 1
370
     0
100
AcDbSpline
210
0.0
220
0.0
230
1.0
 70
    11
 71
     3
 72
    29
 73
    25
 74
     0
 42
0.0000000001
 43
0.0000000001
 12
1.0
 22
0.0
 32
0.0
 13
1.0
 23
0.0
 33
0.0
 40
0.0
 40
0.0
 40
0.0
 40
0.0
 40
1.0
 40
1.0
 40
1.0
 40
2.0
 40
2.0
 40
2.0
 40
3.0
 40
3.0
 40
3.0
 40
4.0
 40
4.0
 40
4.0
 40
5.0
 40
5.0
 40
5.0
 40
6.0
 40
6.0
 40
6.0
 40
7.0
 40
7.0
 40
7.0
 40
8.0
 40
8.0
 40
8.0
 40
8.0
 10
92.89872230750449
 20
-123.073796898485
 30
0.0
 10
92.89872230750449
 20
-123.073796898485
 30
0.0
 10
92.58935273292906
 20
-123.073796898485
 30
0.0
 10
92.58935273292906
 20
-123.073796898485
 30
0.0
 10
92.49116751159943
 20
-123.073796898485
 30
0.0
 10
92.36886662187307
 20
-123.0801703251327
 30
0.0
 10
92.27447100557723
 20
-123.0929171784282
 30
0.0
 10
92.27447100557723
 20
-123.0929171784282
 30
0.0
 10
92.27447100557723
 20
-122.8579616663341
 30
0.0
 10
92.27447100557723
 20
-122.8579616663341
 30
0.0
 10
92.37816837968325
 20
-122.8727755769207
 30
0.0
 10
92.53939884839293
 20
-122.8770819462773
 30
0.0
 10
92.58935273292906
 20
-122.8770819462773
 30
0.0
 10
92.58935273292906
 20
-122.8770819462773
 30
0.0
 10
92.89872230750449
 20
-122.8770819462773
 30
0.0
 10
92.89872230750449
 20
-122.8770819462773
 30
0.0
 10
92.91525876583368
 20
-122.8770819462773
 30
0.0
 10
93.09302569287259
 20
-122.8770819462773
 30
0.0
 10
93.21704913034158
 20
-122.8579616663341
 30
0.0
 10
93.21704913034158
 20
-122.8579616663341
 30
0.0
 10
93.21704913034158
 20
-123.0929171784282
 30
0.0
 10
93.21704913034158
 20
-123.0929171784282
 30
0.0
 10
93.07993433002864
 20
-123.073796898485
 30
0.0
 10
92.91353621809107
 20
-123.073796898485
 30
0.0
 10
92.89872230750449
 20
-123.073796898485
 30
0.0
  0
HATCH
  5
78
330
57
100
AcDbEntity
  8
_U+30EC_U+30A4_U+30E4_U+30FC 1
 62
   179
420
  2234388
100
AcDbHatch
 10
0.0
 20
0.0
 30
0.0
210
0.0
220
0.0
230
1.0
  2
SOLID
 70
     1
 71
     0
 91
        2
 92
        1
 93
        1
 72
     4
 94
        3
 73
     0
 74
     1
 95
       47
 96
       43
 40
0.0
 40
0.0
 40
0.0
 40
0.0
 40
1.0
 40
1.0
 40
1.0
 40
2.0
 40
2.0
 40
2.0
 40
3.0
 40
3.0
 40
3.0
 40
4.0
 40
4.0
 40
4.0
 40
5.0
 40
5.0
 40
5.0
 40
6.0
 40
6.0
 40
6.0
 40
7.0
 40
7.0
 40
7.0
 40
8.0
 40
8.0
 40
8.0
 40
9.0
 40
9.0
 40
9.0
 40
10.0
 40
10.0
 40
10.0
 40
11.0
 40
11.0
 40
11.0
 40
12.0
 40
12.0
 40
12.0
 40
13.0
 40
13.0
 40
13.0
 40
14.0
 40
14.0
 40
14.0
 40
14.0
 10
92.98760577102394
 20
-123.6026190554709
 10
92.98760577102394
 20
-123.6026190554709
 10
92.89872230750449
 20
-123.6026190554709
 10
92.89872230750449
 20
-123.6026190554709
 10
92.89872230750449
 20
-123.6894354616992
 10
92.88011879188414
 20
-124.0787312515324
 10
92.70786401762165
 20
-124.2987005982656
 10
92.57453882234248
 20
-124.4678547865914
 10
92.39298229026981
 20
-124.5377902249419
 10
92.31891273733694
 20
-124.5651787340497
 10
92.31891273733694
 20
-124.5651787340497
 10
92.1487250203656
 20
-124.3980916030151
 10
92.1487250203656
 20
-124.3980916030151
 10
92.23381887885127
 20
-124.3853447497196
 10
92.38747013749341
 20
-124.3620903551942
 10
92.55249021123689
 20
-124.1738158869253
 10
92.61725800635958
 20
-124.1019856460578
 10
92.70786401762165
 20
-123.962287024131
 10
92.70786401762165
 20
-123.6026190554709
 10
92.70786401762165
 20
-123.6026190554709
 10
92.50598142218601
 20
-123.6026190554709
 10
92.50598142218601
 20
-123.6026190554709
 10
92.34302840573369
 20
-123.6026190554709
 10
92.18007538928137
 20
-123.6069254248274
 10
92.01712237282905
 20
-123.621739335414
 10
92.01712237282905
 20
-123.621739335414
 10
92.01712237282905
 20
-123.4017699886808
 10
92.01712237282905
 20
-123.4017699886808
 10
92.181797937024
 20
-123.4165838992674
 10
92.43191186925314
 20
-123.4207180138497
 10
92.50598142218601
 20
-123.4207180138497
 10
92.50598142218601
 20
-123.4207180138497
 10
92.98760577102394
 20
-123.4207180138497
 10
92.98760577102394
 20
-123.4207180138497
 10
93.00414222935314
 20
-123.4207180138497
 10
93.28181692546427
 20
-123.4207180138497
 10
93.48197697315729
 20
-123.4017699886808
 10
93.48197697315729
 20
-123.4017699886808
 10
93.48197697315729
 20
-123.621739335414
 10
93.48197697315729
 20
-123.621739335414
 10
93.31695689941382
 20
-123.6069254248274
 10
93.15228133521887
 20
-123.6026190554709
 10
92.98760577102394
 20
-123.6026190554709
 97
        0
 97
        0
 92
        1
 93
        1
 72
     4
 94
        3
 73
     0
 74
     1
 95
       29
 96
       25
 40
0.0
 40
0.0
 40
0.0
 40
0.0
 40
1.0
 40
1.0
 40
1.0
 40
2.0
 40
2.0
 40
2.0
 40
3.0
 40
3.0
 40
3.0
 40
4.0
 40
4.0
 40
4.0
 40
5.0
 40
5.0
 40
5.0
 40
6.0
 40
6.0
 40
6.0
 40
7.0
 40
7.0
 40
7.0
 40
8.0
 40
8.0
 40
8.0
 40
8.0
 10
92.89872230750449
 20
-123.073796898485
 10
92.89872230750449
 20
-123.073796898485
 10
92.58935273292906
 20
-123.073796898485
 10
92.58935273292906
 20
-123.073796898485
 10
92.49116751159943
 20
-123.073796898485
 10
92.36886662187307
 20
-123.0801703251327
 10
92.27447100557723
 20
-123.0929171784282
 10
92.27447100557723
 20
-123.0929171784282
 10
92.27447100557723
 20
-122.8579616663341
 10
92.27447100557723
 20
-122.8579616663341
 10
92.37816837968325
 20
-122.8727755769207
 10
92.53939884839293
 20
-122.8770819462773
 10
92.58935273292906
 20
-122.8770819462773
 10
92.58935273292906
 20
-122.8770819462773
 10
92.89872230750449
 20
-122.8770819462773
 10
92.89872230750449
 20
-122.8770819462773
 10
92.91525876583368
 20
-122.8770819462773
 10
93.09302569287259
 20
-122.8770819462773
 10
93.21704913034158
 20
-122.8579616663341
 10
93.21704913034158
 20
-122.8579616663341
 10
93.21704913034158
 20
-123.0929171784282
 10
93.21704913034158
 20
-123.0929171784282
 10
93.07993433002864
 20
-123.073796898485
 10
92.91353621809107
 20
-123.073796898485
 10
92.89872230750449
 20
-123.073796898485
 97
        0
 97
        0
 75
     2
 76
     1
 98
        0
  0
SPLINE
  5
79
330
57
100
AcDbEntity
  8
_U+30EC_U+30A4_U+30E4_U+30FC 1
370
     0
100
AcDbSpline
210
0.0
220
0.0
230
1.0
 70
    11
 71
     3
 72
    29
 73
    25
 74
     0
 42
0.0000000001
 43
0.0000000001
 12
1.0
 22
0.0
 32
0.0
 13
1.0
 23
0.0
 33
0.0
 40
0.0
 40
0.0
 40
0.0
 40
0.0
 40
1.0
 40
1.0
 40
1.0
 40
2.0
 40
2.0
 40
2.0
 40
3.0
 40
3.0
 40
3.0
 40
4.0
 40
4.0
 40
4.0
 40
5.0
 40
5.0
 40
5.0
 40
6.0
 40
6.0
 40
6.0
 40
7.0
 40
7.0
 40
7.0
 40
8.0
 40
8.0
 40
8.0
 40
8.0
 10
94.60438908225169
 20
-123.7655720719232
 30
0.0
 10
94.60438908225169
 20
-123.7655720719232
 30
0.0
 10
94.18029782801743
 20
-123.7655720719232
 30
0.0
 10
94.18029782801743
 20
-123.7655720719232
 30
0.0
 10
94.15618215962068
 20
-123.7655720719232
 30
0.0
 10
93.87816295396102
 20
-123.7655720719232
 30
0.0
 10
93.6931613264031
 20
-123.7908935237398
 30
0.0
 10
93.6931613264031
 20
-123.7908935237398
 30
0.0
 10
93.6931613264031
 20
-123.5604166357766
 30
0.0
 10
93.6931613264031
 20
-123.5604166357766
 30
0.0
 10
93.83199867445867
 20
-123.583671030302
 30
0.0
 10
93.99874129594477
 20
-123.5857380875932
 30
0.0
 10
94.18029782801743
 20
-123.5857380875932
 30
0.0
 10
94.18029782801743
 20
-123.5857380875932
 30
0.0
 10
94.60438908225169
 20
-123.5857380875932
 30
0.0
 10
94.60438908225169
 20
-123.5857380875932
 30
0.0
 10
94.76699758915548
 20
-123.5857380875932
 30
0.0
 10
94.93029511515633
 20
-123.583671030302
 30
0.0
 10
95.09118107431749
 20
-123.5604166357766
 30
0.0
 10
95.09118107431749
 20
-123.5604166357766
 30
0.0
 10
95.09118107431749
 20
-123.7908935237398
 30
0.0
 10
95.09118107431749
 20
-123.7908935237398
 30
0.0
 10
94.93029511515633
 20
-123.7676391292143
 30
0.0
 10
94.71359860913411
 20
-123.7655720719232
 30
0.0
 10
94.60438908225169
 20
-123.7655720719232
 30
0.0
  0
HATCH
  5
7A
330
57
100
AcDbEntity
  8
_U+30EC_U+30A4_U+30E4_U+30FC 1
 62
   179
420
  2234388
100
AcDbHatch
 10
0.0
 20
0.0
 30
0.0
210
0.0
220
0.0
230
1.0
  2
SOLID
 70
     1
 71
     0
 91
        1
 92
        1
 93
        1
 72
     4
 94
        3
 73
     0
 74
     1
 95
       29
 96
       25
 40
0.0
 40
0.0
 40
0.0
 40
0.0
 40
1.0
 40
1.0
 40
1.0
 40
2.0
 40
2.0
 40
2.0
 40
3.0
 40
3.0
 40
3.0
 40
4.0
 40
4.0
 40
4.0
 40
5.0
 40
5.0
 40
5.0
 40
6.0
 40
6.0
 40
6.0
 40
7.0
 40
7.0
 40
7.0
 40
8.0
 40
8.0
 40
8.0
 40
8.0
 10
94.60438908225169
 20
-123.7655720719232
 10
94.60438908225169
 20
-123.7655720719232
 10
94.18029782801743
 20
-123.7655720719232
 10
94.18029782801743
 20
-123.7655720719232
 10
94.15618215962068
 20
-123.7655720719232
 10
93.87816295396102
 20
-123.7655720719232
 10
93.6931613264031
 20
-123.7908935237398
 10
93.6931613264031
 20
-123.7908935237398
 10
93.6931613264031
 20
-123.5604166357766
 10
93.6931613264031
 20
-123.5604166357766
 10
93.83199867445867
 20
-123.583671030302
 10
93.99874129594477
 20
-123.5857380875932
 10
94.18029782801743
 20
-123.5857380875932
 10
94.18029782801743
 20
-123.5857380875932
 10
94.60438908225169
 20
-123.5857380875932
 10
94.60438908225169
 20
-123.5857380875932
 10
94.76699758915548
 20
-123.5857380875932
 10
94.93029511515633
 20
-123.583671030302
 10
95.09118107431749
 20
-123.5604166357766
 10
95.09118107431749
 20
-123.5604166357766
 10
95.09118107431749
 20
-123.7908935237398
 10
95.09118107431749
 20
-123.7908935237398
 10
94.93029511515633
 20
-123.7676391292143
 10
94.71359860913411
 20
-123.7655720719232
 10
94.60438908225169
 20
-123.7655720719232
 97
        0
 97
        0
 75
     2
 76
     1
 98
        0
  0
SPLINE
  5
7B
330
57
100
AcDbEntity
  8
_U+30EC_U+30A4_U+30E4_U+30FC 1
370
     0
100
AcDbSpline
210
0.0
220
0.0
230
1.0
 70
    11
 71
     3
 72
    44
 73
    40
 74
     0
 42
0.0000000001
 43
0.0000000001
 12
1.0
 22
0.0
 32
0.0
 13
1.0
 23
0.0
 33
0.0
 40
0.0
 40
0.0
 40
0.0
 40
0.0
 40
1.0
 40
1.0
 40
1.0
 40
2.0
 40
2.0
 40
2.0
 40
3.0
 40
3.0
 40
3.0
 40
4.0
 40
4.0
 40
4.0
 40
5.0
 40
5.0
 40
5.0
 40
6.0
 40
6.0
 40
6.0
 40
7.0
 40
7.0
 40
7.0
 40
8.0
 40
8.0
 40
8.0
 40
9.0
 40
9.0
 40
9.0
 40
10.0
 40
10.0
 40
10.0
 40
11.0
 40
11.0
 40
11.0
 40
12.0
 40
12.0
 40
12.0
 40
13.0
 40
13.0
 40
13.0
 40
13.0
 10
96.54122176405915
 20
-123.3277004357479
 30
0.0
 10
96.44303654272953
 20
-123.6958088883469
 30
0.0
 10
96.3985948109698
 20
-123.8544555354426
 30
0.0
 10
96.22634003670731
 20
-124.104052703349
 30
0.0
 10
96.06545407754614
 20
-124.3347018460865
 30
0.0
 10
95.8580593293341
 20
-124.52073700229
 30
0.0
 10
95.61345754988136
 20
-124.613926835166
 30
0.0
 10
95.61345754988136
 20
-124.613926835166
 30
0.0
 10
95.44499238065265
 20
-124.4340928508359
 30
0.0
 10
95.44499238065265
 20
-124.4340928508359
 30
0.0
 10
96.00619843519985
 20
-124.2818196303879
 30
0.0
 10
96.29489743686378
 20
-123.72543670952
 30
0.0
 10
96.3503634741763
 20
-123.2853257612794
 30
0.0
 10
96.3503634741763
 20
-123.2853257612794
 30
0.0
 10
95.68029240229521
 20
-123.2853257612794
 30
0.0
 10
95.68029240229521
 20
-123.2853257612794
 30
0.0
 10
95.59864363929479
 20
-123.2853257612794
 30
0.0
 10
95.43775768013361
 20
-123.2896321306359
 30
0.0
 10
95.30064287982067
 20
-123.3085801558048
 30
0.0
 10
95.30064287982067
 20
-123.3085801558048
 30
0.0
 10
95.30064287982067
 20
-123.0886108090716
 30
0.0
 10
95.30064287982067
 20
-123.0886108090716
 30
0.0
 10
95.37643498049617
 20
-123.1097981463059
 30
0.0
 10
95.59692109155216
 20
-123.1097981463059
 30
0.0
 10
95.68408200732898
 20
-123.1097981463059
 30
0.0
 10
95.68408200732898
 20
-123.1097981463059
 30
0.0
 10
96.06166447251236
 20
-123.1097981463059
 30
0.0
 10
96.06166447251236
 20
-123.1097981463059
 30
0.0
 10
96.09887150375306
 20
-123.1097981463059
 30
0.0
 10
96.30419919467396
 20
-123.1075588342405
 30
0.0
 10
96.33761662088088
 20
-123.101357662367
 30
0.0
 10
96.37447914257305
 20
-123.0949842357193
 30
0.0
 10
96.37654619986421
 20
-123.0929171784282
 30
0.0
 10
96.4302896894341
 20
-123.0526095612507
 30
0.0
 10
96.4302896894341
 20
-123.0526095612507
 30
0.0
 10
96.59496525362904
 20
-123.2071220937642
 30
0.0
 10
96.59496525362904
 20
-123.2071220937642
 30
0.0
 10
96.56912703748966
 20
-123.2367499149373
 30
0.0
 10
96.55603567464571
 20
-123.2684447934016
 30
0.0
 10
96.54122176405915
 20
-123.3277004357479
 30
0.0
  0
SPLINE
  5
7C
330
57
100
AcDbEntity
  8
_U+30EC_U+30A4_U+30E4_U+30FC 1
370
     0
100
AcDbSpline
210
0.0
220
0.0
230
1.0
 70
    11
 71
     3
 72
    17
 73
    13
 74
     0
 42
0.0000000001
 43
0.0000000001
 12
1.0
 22
0.0
 32
0.0
 13
1.0
 23
0.0
 33
0.0
 40
0.0
 40
0.0
 40
0.0
 40
0.0
 40
1.0
 40
1.0
 40
1.0
 40
2.0
 40
2.0
 40
2.0
 40
3.0
 40
3.0
 40
3.0
 40
4.0
 40
4.0
 40
4.0
 40
4.0
 10
96.72450084387444
 20
-123.1287461714748
 30
0.0
 10
96.61356876924938
 20
-123.1287461714748
 30
0.0
 10
96.52468530572995
 20
-123.0272881094342
 30
0.0
 10
96.52468530572995
 20
-122.9003363408027
 30
0.0
 10
96.52468530572995
 20
-122.7733845721712
 30
0.0
 10
96.61356876924938
 20
-122.6696871980652
 30
0.0
 10
96.72450084387444
 20
-122.6696871980652
 30
0.0
 10
96.835777428048
 20
-122.6696871980652
 30
0.0
 10
96.92638343931007
 20
-122.7733845721712
 30
0.0
 10
96.92638343931007
 20
-122.9003363408027
 30
0.0
 10
96.92638343931007
 20
-123.0272881094342
 30
0.0
 10
96.835777428048
 20
-123.1287461714748
 30
0.0
 10
96.72450084387444
 20
-123.1287461714748
 30
0.0
  0
SPLINE
  5
7D
330
57
100
AcDbEntity
  8
_U+30EC_U+30A4_U+30E4_U+30FC 1
370
     0
100
AcDbSpline
210
0.0
220
0.0
230
1.0
 70
    11
 71
     3
 72
    17
 73
    13
 74
     0
 42
0.0000000001
 43
0.0000000001
 12
1.0
 22
0.0
 32
0.0
 13
1.0
 23
0.0
 33
0.0
 40
0.0
 40
0.0
 40
0.0
 40
0.0
 40
1.0
 40
1.0
 40
1.0
 40
2.0
 40
2.0
 40
2.0
 40
3.0
 40
3.0
 40
3.0
 40
4.0
 40
4.0
 40
4.0
 40
4.0
 10
96.7227782961318
 20
-122.7987060239878
 30
0.0
 10
96.67454695933831
 20
-122.7987060239878
 30
0.0
 10
96.63561738035499
 20
-122.8431477557476
 30
0.0
 10
96.63561738035499
 20
-122.8982692835116
 30
0.0
 10
96.63561738035499
 20
-122.9552856137924
 30
0.0
 10
96.67454695933831
 20
-123.0040337149087
 30
0.0
 10
96.72656790116558
 20
-123.0040337149087
 30
0.0
 10
96.77824433344433
 20
-123.0040337149087
 30
0.0
 10
96.81338430739387
 20
-122.9532185565013
 30
0.0
 10
96.81338430739387
 20
-122.9003363408027
 30
0.0
 10
96.81338430739387
 20
-122.8431477557476
 30
0.0
 10
96.77273218066793
 20
-122.7987060239878
 30
0.0
 10
96.7227782961318
 20
-122.7987060239878
 30
0.0
  0
HATCH
  5
7E
330
57
100
AcDbEntity
  8
_U+30EC_U+30A4_U+30E4_U+30FC 1
 62
   179
420
  2234388
100
AcDbHatch
 10
0.0
 20
0.0
 30
0.0
210
0.0
220
0.0
230
1.0
  2
SOLID
 70
     1
 71
     0
 91
        3
 92
        1
 93
        1
 72
     4
 94
        3
 73
     0
 74
     1
 95
       44
 96
       40
 40
0.0
 40
0.0
 40
0.0
 40
0.0
 40
1.0
 40
1.0
 40
1.0
 40
2.0
 40
2.0
 40
2.0
 40
3.0
 40
3.0
 40
3.0
 40
4.0
 40
4.0
 40
4.0
 40
5.0
 40
5.0
 40
5.0
 40
6.0
 40
6.0
 40
6.0
 40
7.0
 40
7.0
 40
7.0
 40
8.0
 40
8.0
 40
8.0
 40
9.0
 40
9.0
 40
9.0
 40
10.0
 40
10.0
 40
10.0
 40
11.0
 40
11.0
 40
11.0
 40
12.0
 40
12.0
 40
12.0
 40
13.0
 40
13.0
 40
13.0
 40
13.0
 10
96.54122176405915
 20
-123.3277004357479
 10
96.44303654272953
 20
-123.6958088883469
 10
96.3985948109698
 20
-123.8544555354426
 10
96.22634003670731
 20
-124.104052703349
 10
96.06545407754614
 20
-124.3347018460865
 10
95.8580593293341
 20
-124.52073700229
 10
95.61345754988136
 20
-124.613926835166
 10
95.61345754988136
 20
-124.613926835166
 10
95.44499238065265
 20
-124.4340928508359
 10
95.44499238065265
 20
-124.4340928508359
 10
96.00619843519985
 20
-124.2818196303879
 10
96.29489743686378
 20
-123.72543670952
 10
96.3503634741763
 20
-123.2853257612794
 10
96.3503634741763
 20
-123.2853257612794
 10
95.68029240229521
 20
-123.2853257612794
 10
95.68029240229521
 20
-123.2853257612794
 10
95.59864363929479
 20
-123.2853257612794
 10
95.43775768013361
 20
-123.2896321306359
 10
95.30064287982067
 20
-123.3085801558048
 10
95.30064287982067
 20
-123.3085801558048
 10
95.30064287982067
 20
-123.0886108090716
 10
95.30064287982067
 20
-123.0886108090716
 10
95.37643498049617
 20
-123.1097981463059
 10
95.59692109155216
 20
-123.1097981463059
 10
95.68408200732898
 20
-123.1097981463059
 10
95.68408200732898
 20
-123.1097981463059
 10
96.06166447251236
 20
-123.1097981463059
 10
96.06166447251236
 20
-123.1097981463059
 10
96.09887150375306
 20
-123.1097981463059
 10
96.30419919467396
 20
-123.1075588342405
 10
96.33761662088088
 20
-123.101357662367
 10
96.37447914257305
 20
-123.0949842357193
 10
96.37654619986421
 20
-123.0929171784282
 10
96.4302896894341
 20
-123.0526095612507
 10
96.4302896894341
 20
-123.0526095612507
 10
96.59496525362904
 20
-123.2071220937642
 10
96.59496525362904
 20
-123.2071220937642
 10
96.56912703748966
 20
-123.2367499149373
 10
96.55603567464571
 20
-123.2684447934016
 10
96.54122176405915
 20
-123.3277004357479
 97
        0
 97
        0
 92
        1
 93
        1
 72
     4
 94
        3
 73
     0
 74
     1
 95
       17
 96
       13
 40
0.0
 40
0.0
 40
0.0
 40
0.0
 40
1.0
 40
1.0
 40
1.0
 40
2.0
 40
2.0
 40
2.0
 40
3.0
 40
3.0
 40
3.0
 40
4.0
 40
4.0
 40
4.0
 40
4.0
 10
96.72450084387444
 20
-123.1287461714748
 10
96.61356876924938
 20
-123.1287461714748
 10
96.52468530572995
 20
-123.0272881094342
 10
96.52468530572995
 20
-122.9003363408027
 10
96.52468530572995
 20
-122.7733845721712
 10
96.61356876924938
 20
-122.6696871980652
 10
96.72450084387444
 20
-122.6696871980652
 10
96.835777428048
 20
-122.6696871980652
 10
96.92638343931007
 20
-122.7733845721712
 10
96.92638343931007
 20
-122.9003363408027
 10
96.92638343931007
 20
-123.0272881094342
 10
96.835777428048
 20
-123.1287461714748
 10
96.72450084387444
 20
-123.1287461714748
 97
        0
 97
        0
 92
        1
 93
        1
 72
     4
 94
        3
 73
     0
 74
     1
 95
       17
 96
       13
 40
0.0
 40
0.0
 40
0.0
 40
0.0
 40
1.0
 40
1.0
 40
1.0
 40
2.0
 40
2.0
 40
2.0
 40
3.0
 40
3.0
 40
3.0
 40
4.0
 40
4.0
 40
4.0
 40
4.0
 10
96.7227782961318
 20
-122.7987060239878
 10
96.67454695933831
 20
-122.7987060239878
 10
96.63561738035499
 20
-122.8431477557476
 10
96.63561738035499
 20
-122.8982692835116
 10
96.63561738035499
 20
-122.9552856137924
 10
96.67454695933831
 20
-123.0040337149087
 10
96.72656790116558
 20
-123.0040337149087
 10
96.77824433344433
 20
-123.0040337149087
 10
96.81338430739387
 20
-122.9532185565013
 10
96.81338430739387
 20
-122.9003363408027
 10
96.81338430739387
 20
-122.8431477557476
 10
96.77273218066793
 20
-122.7987060239878
 10
96.7227782961318
 20
-122.7987060239878
 97
        0
 97
        0
 75
     2
 76
     1
 98
        0
  0
ENDBLK
  5
5A
330
57
100
AcDbEntity
  8
0
100
AcDbBlockEnd
  0
BLOCK
  5
B5
330
B3
100
AcDbEntity
  8
0
100
AcDbBlockBegin
  2
block 3
 70
     0
 10
0.0
 20
0.0
 30
0.0
  3
block 3
  1

  0
SPLINE
  5
B7
330
B3
100
AcDbEntity
  8
_U+30EC_U+30A4_U+30E4_U+30FC 1
370
     0
100
AcDbSpline
210
0.0
220
0.0
230
1.0
 70
    11
 71
     3
 72
    29
 73
    25
 74
     0
 42
0.0000000001
 43
0.0000000001
 12
1.0
 22
0.0
 32
0.0
 13
1.0
 23
0.0
 33
0.0
 40
0.0
 40
0.0
 40
0.0
 40
0.0
 40
1.0
 40
1.0
 40
1.0
 40
2.0
 40
2.0
 40
2.0
 40
3.0
 40
3.0
 40
3.0
 40
4.0
 40
4.0
 40
4.0
 40
5.0
 40
5.0
 40
5.0
 40
6.0
 40
6.0
 40
6.0
 40
7.0
 40
7.0
 40
7.0
 40
8.0
 40
8.0
 40
8.0
 40
8.0
 10
105.0647325041158
 20
-133.3465548711773
 30
0.0
 10
105.274194309619
 20
-133.4547308694141
 30
0.0
 10
105.2931423347878
 20
-133.6280191723222
 30
0.0
 10
105.2931423347878
 20
-133.7444633997236
 30
0.0
 10
105.2931423347878
 20
-133.9053493588848
 30
0.0
 10
105.246633545737
 20
-134.0469427833285
 30
0.0
 10
105.0647325041158
 20
-134.1420274187215
 30
0.0
 10
104.8700846091992
 20
-134.2457247928275
 30
0.0
 10
104.6334065493625
 20
-134.2650173275449
 30
0.0
 10
104.4704535329102
 20
-134.2650173275449
 30
0.0
 10
104.3264485416267
 20
-134.2650173275449
 30
0.0
 10
104.074612061655
 20
-134.2477918501186
 30
0.0
 10
103.875830052156
 20
-134.1420274187215
 30
0.0
 10
103.6729139280748
 20
-134.0341959300331
 30
0.0
 10
103.6494872787751
 20
-133.873309970872
 30
0.0
 10
103.6494872787751
 20
-133.7444633997236
 30
0.0
 10
103.6494872787751
 20
-133.5856444978536
 30
0.0
 10
103.6939290105349
 20
-133.4419840161187
 30
0.0
 10
103.875830052156
 20
-133.3465548711773
 30
0.0
 10
104.0684108897815
 20
-133.2473361212021
 30
0.0
 10
104.2968207204536
 20
-133.2239094719024
 30
0.0
 10
104.4704535329102
 20
-133.2239094719024
 30
0.0
 10
104.6416747785271
 20
-133.2239094719024
 30
0.0
 10
104.8721516664903
 20
-133.2452690639109
 30
0.0
 10
105.0647325041158
 20
-133.3465548711773
 30
0.0
  0
SPLINE
  5
B8
330
B3
100
AcDbEntity
  8
_U+30EC_U+30A4_U+30E4_U+30FC 1
370
     0
100
AcDbSpline
210
0.0
220
0.0
230
1.0
 70
    11
 71
     3
 72
    17
 73
    13
 74
     0
 42
0.0000000001
 43
0.0000000001
 12
1.0
 22
0.0
 32
0.0
 13
1.0
 23
0.0
 33
0.0
 40
0.0
 40
0.0
 40
0.0
 40
0.0
 40
1.0
 40
1.0
 40
1.0
 40
2.0
 40
2.0
 40
2.0
 40
3.0
 40
3.0
 40
3.0
 40
4.0
 40
4.0
 40
4.0
 40
4.0
 10
103.8420681164006
 20
-133.7444633997236
 30
0.0
 10
103.8420681164006
 20
-133.9942328224042
 30
0.0
 10
104.1255994748367
 20
-134.0407416114551
 30
0.0
 10
104.4704535329102
 20
-134.0407416114551
 30
0.0
 10
104.7898138843928
 20
-134.0407416114551
 30
0.0
 10
105.0984944398712
 20
-134.00456810886
 30
0.0
 10
105.0984944398712
 20
-133.7444633997236
 30
0.0
 10
105.0984944398712
 20
-133.4967610343342
 30
0.0
 10
104.8173746482748
 20
-133.4481851879921
 30
0.0
 10
104.4704535329102
 20
-133.4481851879921
 30
0.0
 10
104.150748671879
 20
-133.4481851879921
 30
0.0
 10
103.8420681164006
 20
-133.4864257478784
 30
0.0
 10
103.8420681164006
 20
-133.7444633997236
 30
0.0
  0
HATCH
  5
B9
330
B3
100
AcDbEntity
  8
_U+30EC_U+30A4_U+30E4_U+30FC 1
 62
   179
420
  2234388
100
AcDbHatch
 10
0.0
 20
0.0
 30
0.0
210
0.0
220
0.0
230
1.0
  2
SOLID
 70
     1
 71
     0
 91
        2
 92
        1
 93
        1
 72
     4
 94
        3
 73
     0
 74
     1
 95
       29
 96
       25
 40
0.0
 40
0.0
 40
0.0
 40
0.0
 40
1.0
 40
1.0
 40
1.0
 40
2.0
 40
2.0
 40
2.0
 40
3.0
 40
3.0
 40
3.0
 40
4.0
 40
4.0
 40
4.0
 40
5.0
 40
5.0
 40
5.0
 40
6.0
 40
6.0
 40
6.0
 40
7.0
 40
7.0
 40
7.0
 40
8.0
 40
8.0
 40
8.0
 40
8.0
 10
105.0647325041158
 20
-133.3465548711773
 10
105.274194309619
 20
-133.4547308694141
 10
105.2931423347878
 20
-133.6280191723222
 10
105.2931423347878
 20
-133.7444633997236
 10
105.2931423347878
 20
-133.9053493588848
 10
105.246633545737
 20
-134.0469427833285
 10
105.0647325041158
 20
-134.1420274187215
 10
104.8700846091992
 20
-134.2457247928275
 10
104.6334065493625
 20
-134.2650173275449
 10
104.4704535329102
 20
-134.2650173275449
 10
104.3264485416267
 20
-134.2650173275449
 10
104.074612061655
 20
-134.2477918501186
 10
103.875830052156
 20
-134.1420274187215
 10
103.6729139280748
 20
-134.0341959300331
 10
103.6494872787751
 20
-133.873309970872
 10
103.6494872787751
 20
-133.7444633997236
 10
103.6494872787751
 20
-133.5856444978536
 10
103.6939290105349
 20
-133.4419840161187
 10
103.875830052156
 20
-133.3465548711773
 10
104.0684108897815
 20
-133.2473361212021
 10
104.2968207204536
 20
-133.2239094719024
 10
104.4704535329102
 20
-133.2239094719024
 10
104.6416747785271
 20
-133.2239094719024
 10
104.8721516664903
 20
-133.2452690639109
 10
105.0647325041158
 20
-133.3465548711773
 97
        0
 97
        0
 92
        1
 93
        1
 72
     4
 94
        3
 73
     0
 74
     1
 95
       17
 96
       13
 40
0.0
 40
0.0
 40
0.0
 40
0.0
 40
1.0
 40
1.0
 40
1.0
 40
2.0
 40
2.0
 40
2.0
 40
3.0
 40
3.0
 40
3.0
 40
4.0
 40
4.0
 40
4.0
 40
4.0
 10
103.8420681164006
 20
-133.7444633997236
 10
103.8420681164006
 20
-133.9942328224042
 10
104.1255994748367
 20
-134.0407416114551
 10
104.4704535329102
 20
-134.0407416114551
 10
104.7898138843928
 20
-134.0407416114551
 10
105.0984944398712
 20
-134.00456810886
 10
105.0984944398712
 20
-133.7444633997236
 10
105.0984944398712
 20
-133.4967610343342
 10
104.8173746482748
 20
-133.4481851879921
 10
104.4704535329102
 20
-133.4481851879921
 10
104.150748671879
 20
-133.4481851879921
 10
103.8420681164006
 20
-133.4864257478784
 10
103.8420681164006
 20
-133.7444633997236
 97
        0
 97
        0
 75
     2
 76
     1
 98
        0
  0
POLYLINE
  5
BA
330
B3
100
AcDbEntity
  8
_U+30EC_U+30A4_U+30E4_U+30FC 1
370
     0
100
AcDb2dPolyline
 66
     1
 10
0.0
 20
0.0
 30
0.0
  0
VERTEX
  5
BB
330
BA
100
AcDbEntity
  8
_U+30EC_U+30A4_U+30E4_U+30FC 1
370
     0
100
AcDbVertex
100
AcDb2dVertex
 10
105.2424994311547
 20
-133.0075574754287
 30
0.0
  0
VERTEX
  5
BC
330
BA
100
AcDbEntity
  8
_U+30EC_U+30A4_U+30E4_U+30FC 1
370
     0
100
AcDbVertex
100
AcDb2dVertex
 10
104.9906629511829
 20
-133.0075574754287
 30
0.0
  0
VERTEX
  5
BD
330
BA
100
AcDbEntity
  8
_U+30EC_U+30A4_U+30E4_U+30FC 1
370
     0
100
AcDbVertex
100
AcDb2dVertex
 10
104.9906629511829
 20
-132.7557209954569
 30
0.0
  0
VERTEX
  5
BE
330
BA
100
AcDbEntity
  8
_U+30EC_U+30A4_U+30E4_U+30FC 1
370
     0
100
AcDbVertex
100
AcDb2dVertex
 10
105.2424994311547
 20
-132.7557209954569
 30
0.0
  0
VERTEX
  5
BF
330
BA
100
AcDbEntity
  8
_U+30EC_U+30A4_U+30E4_U+30FC 1
370
     0
100
AcDbVertex
100
AcDb2dVertex
 10
105.2424994311547
 20
-133.0075574754287
 30
0.0
  0
SEQEND
  5
C0
330
BA
100
AcDbEntity
  8
_U+30EC_U+30A4_U+30E4_U+30FC 1
370
     0
  0
HATCH
  5
C1
330
B3
100
AcDbEntity
  8
_U+30EC_U+30A4_U+30E4_U+30FC 1
 62
   179
420
  2234388
100
AcDbHatch
 10
0.0
 20
0.0
 30
0.0
210
0.0
220
0.0
230
1.0
  2
SOLID
 70
     1
 71
     0
 91
        1
 92
        1
 93
        4
 72
     1
 10
105.2424994311547
 20
-133.0075574754287
 11
104.9906629511829
 21
-133.0075574754287
 72
     1
 10
104.9906629511829
 20
-133.0075574754287
 11
104.9906629511829
 21
-132.7557209954569
 72
     1
 10
104.9906629511829
 20
-132.7557209954569
 11
105.2424994311547
 21
-132.7557209954569
 72
     1
 10
105.2424994311547
 20
-132.7557209954569
 11
105.2424994311547
 21
-133.0075574754287
 97
        0
 75
     2
 76
     1
 98
        0
  0
SPLINE
  5
C2
330
B3
100
AcDbEntity
  8
_U+30EC_U+30A4_U+30E4_U+30FC 1
370
     0
100
AcDbSpline
210
0.0
220
0.0
230
1.0
 70
    11
 71
     3
 72
    29
 73
    25
 74
     0
 42
0.0000000001
 43
0.0000000001
 12
1.0
 22
0.0
 32
0.0
 13
1.0
 23
0.0
 33
0.0
 40
0.0
 40
0.0
 40
0.0
 40
0.0
 40
1.0
 40
1.0
 40
1.0
 40
2.0
 40
2.0
 40
2.0
 40
3.0
 40
3.0
 40
3.0
 40
4.0
 40
4.0
 40
4.0
 40
5.0
 40
5.0
 40
5.0
 40
6.0
 40
6.0
 40
6.0
 40
7.0
 40
7.0
 40
7.0
 40
8.0
 40
8.0
 40
8.0
 40
8.0
 10
105.2931423347878
 20
-132.019504090259
 30
0.0
 10
105.2931423347878
 20
-132.2861544808173
 30
0.0
 10
105.1556830249264
 20
-132.5397135085317
 30
0.0
 10
104.8066948522706
 20
-132.5397135085317
 30
0.0
 10
104.5507242577165
 20
-132.5397135085317
 30
0.0
 10
104.4556396223236
 20
-132.398120084088
 30
0.0
 10
104.3943169226861
 20
-132.2923556526908
 30
0.0
 10
104.3350612803399
 20
-132.4170681092569
 30
0.0
 10
104.2206841102296
 20
-132.4932047194809
 30
0.0
 10
104.0597981510684
 20
-132.4932047194809
 30
0.0
 10
103.7848795313455
 20
-132.4932047194809
 30
0.0
 10
103.6494872787751
 20
-132.2944227099819
 30
0.0
 10
103.6494872787751
 20
-132.019504090259
 30
0.0
 10
103.6494872787751
 20
-131.735972731823
 30
0.0
 10
103.7934922700586
 20
-131.5454589514887
 30
0.0
 10
104.0597981510684
 20
-131.5454589514887
 30
0.0
 10
104.2206841102296
 20
-131.5454589514887
 30
0.0
 10
104.3350612803399
 20
-131.6240071285523
 30
0.0
 10
104.3943169226861
 20
-131.7487195851184
 30
0.0
 10
104.4449598263193
 20
-131.6598361215989
 30
0.0
 10
104.5400444617122
 20
-131.5010172197289
 30
0.0
 10
104.8025607376883
 20
-131.5010172197289
 30
0.0
 10
105.1770426169349
 20
-131.5010172197289
 30
0.0
 10
105.2931423347878
 20
-131.7804144635827
 30
0.0
 10
105.2931423347878
 20
-132.019504090259
 30
0.0
  0
SPLINE
  5
C3
330
B3
100
AcDbEntity
  8
_U+30EC_U+30A4_U+30E4_U+30FC 1
370
     0
100
AcDbSpline
210
0.0
220
0.0
230
1.0
 70
    11
 71
     3
 72
    17
 73
    13
 74
     0
 42
0.0000000001
 43
0.0000000001
 12
1.0
 22
0.0
 32
0.0
 13
1.0
 23
0.0
 33
0.0
 40
0.0
 40
0.0
 40
0.0
 40
0.0
 40
1.0
 40
1.0
 40
1.0
 40
2.0
 40
2.0
 40
2.0
 40
3.0
 40
3.0
 40
3.0
 40
4.0
 40
4.0
 40
4.0
 40
4.0
 10
103.8420681164006
 20
-132.019504090259
 30
0.0
 10
103.8420681164006
 20
-132.1845241640025
 30
0.0
 10
103.9371527517935
 20
-132.2689290033911
 30
0.0
 10
104.0725450043638
 20
-132.2689290033911
 30
0.0
 10
104.1951904036387
 20
-132.2689290033911
 30
0.0
 10
104.3137016883313
 20
-132.1972710172979
 30
0.0
 10
104.3137016883313
 20
-132.019504090259
 30
0.0
 10
104.3137016883313
 20
-131.8417371632201
 30
0.0
 10
104.1951904036387
 20
-131.7697346675784
 30
0.0
 10
104.0725450043638
 20
-131.7697346675784
 30
0.0
 10
103.9371527517935
 20
-131.7697346675784
 30
0.0
 10
103.8420681164006
 20
-131.8565510738067
 30
0.0
 10
103.8420681164006
 20
-132.019504090259
 30
0.0
  0
SPLINE
  5
C4
330
B3
100
AcDbEntity
  8
_U+30EC_U+30A4_U+30E4_U+30FC 1
370
     0
100
AcDbSpline
210
0.0
220
0.0
230
1.0
 70
    11
 71
     3
 72
    17
 73
    13
 74
     0
 42
0.0000000001
 43
0.0000000001
 12
1.0
 22
0.0
 32
0.0
 13
1.0
 23
0.0
 33
0.0
 40
0.0
 40
0.0
 40
0.0
 40
0.0
 40
1.0
 40
1.0
 40
1.0
 40
2.0
 40
2.0
 40
2.0
 40
3.0
 40
3.0
 40
3.0
 40
4.0
 40
4.0
 40
4.0
 40
4.0
 10
104.5021484113745
 20
-132.019504090259
 30
0.0
 10
104.5021484113745
 20
-132.1631645719939
 30
0.0
 10
104.5889648176028
 20
-132.3157823019905
 30
0.0
 10
104.791880941684
 20
-132.3157823019905
 30
0.0
 10
104.9972086326049
 20
-132.3157823019905
 30
0.0
 10
105.0984944398712
 20
-132.1886582785848
 30
0.0
 10
105.0984944398712
 20
-132.019504090259
 30
0.0
 10
105.0984944398712
 20
-131.8334689340555
 30
0.0
 10
104.9758490405963
 20
-131.7232258785275
 30
0.0
 10
104.7980821135574
 20
-131.7232258785275
 30
0.0
 10
104.5762179643073
 20
-131.7232258785275
 30
0.0
 10
104.5021484113745
 20
-131.8861788949798
 30
0.0
 10
104.5021484113745
 20
-132.019504090259
 30
0.0
  0
HATCH
  5
C5
330
B3
100
AcDbEntity
  8
_U+30EC_U+30A4_U+30E4_U+30FC 1
 62
   179
420
  2234388
100
AcDbHatch
 10
0.0
 20
0.0
 30
0.0
210
0.0
220
0.0
230
1.0
  2
SOLID
 70
     1
 71
     0
 91
        3
 92
        1
 93
        1
 72
     4
 94
        3
 73
     0
 74
     1
 95
       29
 96
       25
 40
0.0
 40
0.0
 40
0.0
 40
0.0
 40
1.0
 40
1.0
 40
1.0
 40
2.0
 40
2.0
 40
2.0
 40
3.0
 40
3.0
 40
3.0
 40
4.0
 40
4.0
 40
4.0
 40
5.0
 40
5.0
 40
5.0
 40
6.0
 40
6.0
 40
6.0
 40
7.0
 40
7.0
 40
7.0
 40
8.0
 40
8.0
 40
8.0
 40
8.0
 10
105.2931423347878
 20
-132.019504090259
 10
105.2931423347878
 20
-132.2861544808173
 10
105.1556830249264
 20
-132.5397135085317
 10
104.8066948522706
 20
-132.5397135085317
 10
104.5507242577165
 20
-132.5397135085317
 10
104.4556396223236
 20
-132.398120084088
 10
104.3943169226861
 20
-132.2923556526908
 10
104.3350612803399
 20
-132.4170681092569
 10
104.2206841102296
 20
-132.4932047194809
 10
104.0597981510684
 20
-132.4932047194809
 10
103.7848795313455
 20
-132.4932047194809
 10
103.6494872787751
 20
-132.2944227099819
 10
103.6494872787751
 20
-132.019504090259
 10
103.6494872787751
 20
-131.735972731823
 10
103.7934922700586
 20
-131.5454589514887
 10
104.0597981510684
 20
-131.5454589514887
 10
104.2206841102296
 20
-131.5454589514887
 10
104.3350612803399
 20
-131.6240071285523
 10
104.3943169226861
 20
-131.7487195851184
 10
104.4449598263193
 20
-131.6598361215989
 10
104.5400444617122
 20
-131.5010172197289
 10
104.8025607376883
 20
-131.5010172197289
 10
105.1770426169349
 20
-131.5010172197289
 10
105.2931423347878
 20
-131.7804144635827
 10
105.2931423347878
 20
-132.019504090259
 97
        0
 97
        0
 92
        1
 93
        1
 72
     4
 94
        3
 73
     0
 74
     1
 95
       17
 96
       13
 40
0.0
 40
0.0
 40
0.0
 40
0.0
 40
1.0
 40
1.0
 40
1.0
 40
2.0
 40
2.0
 40
2.0
 40
3.0
 40
3.0
 40
3.0
 40
4.0
 40
4.0
 40
4.0
 40
4.0
 10
103.8420681164006
 20
-132.019504090259
 10
103.8420681164006
 20
-132.1845241640025
 10
103.9371527517935
 20
-132.2689290033911
 10
104.0725450043638
 20
-132.2689290033911
 10
104.1951904036387
 20
-132.2689290033911
 10
104.3137016883313
 20
-132.1972710172979
 10
104.3137016883313
 20
-132.019504090259
 10
104.3137016883313
 20
-131.8417371632201
 10
104.1951904036387
 20
-131.7697346675784
 10
104.0725450043638
 20
-131.7697346675784
 10
103.9371527517935
 20
-131.7697346675784
 10
103.8420681164006
 20
-131.8565510738067
 10
103.8420681164006
 20
-132.019504090259
 97
        0
 97
        0
 92
        1
 93
        1
 72
     4
 94
        3
 73
     0
 74
     1
 95
       17
 96
       13
 40
0.0
 40
0.0
 40
0.0
 40
0.0
 40
1.0
 40
1.0
 40
1.0
 40
2.0
 40
2.0
 40
2.0
 40
3.0
 40
3.0
 40
3.0
 40
4.0
 40
4.0
 40
4.0
 40
4.0
 10
104.5021484113745
 20
-132.019504090259
 10
104.5021484113745
 20
-132.1631645719939
 10
104.5889648176028
 20
-132.3157823019905
 10
104.791880941684
 20
-132.3157823019905
 10
104.9972086326049
 20
-132.3157823019905
 10
105.0984944398712
 20
-132.1886582785848
 10
105.0984944398712
 20
-132.019504090259
 10
105.0984944398712
 20
-131.8334689340555
 10
104.9758490405963
 20
-131.7232258785275
 10
104.7980821135574
 20
-131.7232258785275
 10
104.5762179643073
 20
-131.7232258785275
 10
104.5021484113745
 20
-131.8861788949798
 10
104.5021484113745
 20
-132.019504090259
 97
        0
 97
        0
 75
     2
 76
     1
 98
        0
  0
ENDBLK
  5
B6
330
B3
100
AcDbEntity
  8
0
100
AcDbBlockEnd
  0
BLOCK
  5
D4
330
D2
100
AcDbEntity
  8
0
100
AcDbBlockBegin
  2
block 4
 70
     0
 10
0.0
 20
0.0
 30
0.0
  3
block 4
  1

  0
SPLINE
  5
D6
330
D2
100
AcDbEntity
  8
_U+30EC_U+30A4_U+30E4_U+30FC 1
370
     0
100
AcDbSpline
210
0.0
220
0.0
230
1.0
 70
    11
 71
     3
 72
    26
 73
    22
 74
     0
 42
0.0000000001
 43
0.0000000001
 12
1.0
 22
0.0
 32
0.0
 13
1.0
 23
0.0
 33
0.0
 40
0.0
 40
0.0
 40
0.0
 40
0.0
 40
1.0
 40
1.0
 40
1.0
 40
2.0
 40
2.0
 40
2.0
 40
3.0
 40
3.0
 40
3.0
 40
4.0
 40
4.0
 40
4.0
 40
5.0
 40
5.0
 40
5.0
 40
6.0
 40
6.0
 40
6.0
 40
7.0
 40
7.0
 40
7.0
 40
7.0
 10
78.17231714625554
 20
-126.5149305239268
 30
0.0
 10
78.17231714625554
 20
-126.5149305239268
 30
0.0
 10
77.06816404323297
 20
-126.5149305239268
 30
0.0
 10
77.06816404323297
 20
-126.5149305239268
 30
0.0
 10
77.06816404323297
 20
-126.5149305239268
 30
0.0
 10
77.06816404323297
 20
-126.8449706714138
 30
0.0
 10
77.06816404323297
 20
-126.8449706714138
 30
0.0
 10
77.06816404323297
 20
-126.8449706714138
 30
0.0
 10
76.92002493736722
 20
-126.8449706714138
 30
0.0
 10
76.92002493736722
 20
-126.8449706714138
 30
0.0
 10
76.90521102678065
 20
-126.5128634666357
 30
0.0
 10
76.74225801032833
 20
-126.4663546775848
 30
0.0
 10
76.62788084021804
 20
-126.4367268564117
 30
0.0
 10
76.62788084021804
 20
-126.4367268564117
 30
0.0
 10
76.62788084021804
 20
-126.2906548078371
 30
0.0
 10
76.62788084021804
 20
-126.2906548078371
 30
0.0
 10
76.62788084021804
 20
-126.2906548078371
 30
0.0
 10
78.17231714625554
 20
-126.2906548078371
 30
0.0
 10
78.17231714625554
 20
-126.2906548078371
 30
0.0
 10
78.17231714625554
 20
-126.2906548078371
 30
0.0
 10
78.17231714625554
 20
-126.5149305239268
 30
0.0
 10
78.17231714625554
 20
-126.5149305239268
 30
0.0
  0
HATCH
  5
D7
330
D2
100
AcDbEntity
  8
_U+30EC_U+30A4_U+30E4_U+30FC 1
 62
   179
420
  2234388
100
AcDbHatch
 10
0.0
 20
0.0
 30
0.0
210
0.0
220
0.0
230
1.0
  2
SOLID
 70
     1
 71
     0
 91
        1
 92
        1
 93
        1
 72
     4
 94
        3
 73
     0
 74
     1
 95
       26
 96
       22
 40
0.0
 40
0.0
 40
0.0
 40
0.0
 40
1.0
 40
1.0
 40
1.0
 40
2.0
 40
2.0
 40
2.0
 40
3.0
 40
3.0
 40
3.0
 40
4.0
 40
4.0
 40
4.0
 40
5.0
 40
5.0
 40
5.0
 40
6.0
 40
6.0
 40
6.0
 40
7.0
 40
7.0
 40
7.0
 40
7.0
 10
78.17231714625554
 20
-126.5149305239268
 10
78.17231714625554
 20
-126.5149305239268
 10
77.06816404323297
 20
-126.5149305239268
 10
77.06816404323297
 20
-126.5149305239268
 10
77.06816404323297
 20
-126.5149305239268
 10
77.06816404323297
 20
-126.8449706714138
 10
77.06816404323297
 20
-126.8449706714138
 10
77.06816404323297
 20
-126.8449706714138
 10
76.92002493736722
 20
-126.8449706714138
 10
76.92002493736722
 20
-126.8449706714138
 10
76.90521102678065
 20
-126.5128634666357
 10
76.74225801032833
 20
-126.4663546775848
 10
76.62788084021804
 20
-126.4367268564117
 10
76.62788084021804
 20
-126.4367268564117
 10
76.62788084021804
 20
-126.2906548078371
 10
76.62788084021804
 20
-126.2906548078371
 10
76.62788084021804
 20
-126.2906548078371
 10
78.17231714625554
 20
-126.2906548078371
 10
78.17231714625554
 20
-126.2906548078371
 10
78.17231714625554
 20
-126.2906548078371
 10
78.17231714625554
 20
-126.5149305239268
 10
78.17231714625554
 20
-126.5149305239268
 97
        0
 97
        0
 75
     2
 76
     1
 98
        0
  0
SPLINE
  5
D8
330
D2
100
AcDbEntity
  8
_U+30EC_U+30A4_U+30E4_U+30FC 1
370
     0
100
AcDbSpline
210
0.0
220
0.0
230
1.0
 70
    11
 71
     3
 72
    53
 73
    49
 74
     0
 42
0.0000000001
 43
0.0000000001
 12
1.0
 22
0.0
 32
0.0
 13
1.0
 23
0.0
 33
0.0
 40
0.0
 40
0.0
 40
0.0
 40
0.0
 40
1.0
 40
1.0
 40
1.0
 40
2.0
 40
2.0
 40
2.0
 40
3.0
 40
3.0
 40
3.0
 40
4.0
 40
4.0
 40
4.0
 40
5.0
 40
5.0
 40
5.0
 40
6.0
 40
6.0
 40
6.0
 40
7.0
 40
7.0
 40
7.0
 40
8.0
 40
8.0
 40
8.0
 40
9.0
 40
9.0
 40
9.0
 40
10.0
 40
10.0
 40
10.0
 40
11.0
 40
11.0
 40
11.0
 40
12.0
 40
12.0
 40
12.0
 40
13.0
 40
13.0
 40
13.0
 40
14.0
 40
14.0
 40
14.0
 40
15.0
 40
15.0
 40
15.0
 40
16.0
 40
16.0
 40
16.0
 40
16.0
 10
78.22296004988871
 20
-125.3084580849923
 30
0.0
 10
78.22296004988871
 20
-125.3866617525075
 30
0.0
 10
78.20607908201099
 20
-125.4882920693224
 30
0.0
 10
78.14268932508239
 20
-125.5899223861372
 30
0.0
 10
78.03279077910291
 20
-125.7632106890453
 30
0.0
 10
77.9015326411149
 20
-125.7845702810539
 30
0.0
 10
77.79370115242658
 20
-125.8035183062227
 30
0.0
 10
77.79370115242658
 20
-125.8035183062227
 30
0.0
 10
77.79370115242658
 20
-125.5813096474241
 30
0.0
 10
77.79370115242658
 20
-125.5813096474241
 30
0.0
 10
77.99248316192549
 20
-125.5265326292086
 30
0.0
 10
78.02211098309864
 20
-125.3994086058029
 30
0.0
 10
78.02211098309864
 20
-125.3063910277012
 30
0.0
 10
78.02211098309864
 20
-125.1668646605486
 30
0.0
 10
77.92254772357492
 20
-125.0145914401005
 30
0.0
 10
77.69000377832056
 20
-125.0145914401005
 30
0.0
 10
77.4340331837665
 20
-125.0145914401005
 30
0.0
 10
77.36409774541592
 20
-125.1944254244306
 30
0.0
 10
77.36409774541592
 20
-125.3150037664143
 30
0.0
 10
77.36409774541592
 20
-125.3466986448786
 30
0.0
 10
77.36409774541592
 20
-125.4882920693224
 30
0.0
 10
77.49328882611279
 20
-125.5771755328418
 30
0.0
 10
77.49328882611279
 20
-125.5771755328418
 30
0.0
 10
77.47434080094392
 20
-125.7528754025896
 30
0.0
 10
77.47434080094392
 20
-125.7528754025896
 30
0.0
 10
77.47434080094392
 20
-125.7528754025896
 30
0.0
 10
76.62788084021804
 20
-125.6322970606058
 30
0.0
 10
76.62788084021804
 20
-125.6322970606058
 30
0.0
 10
76.62788084021804
 20
-125.6322970606058
 30
0.0
 10
76.62788084021804
 20
-124.8537054809394
 30
0.0
 10
76.62788084021804
 20
-124.8537054809394
 30
0.0
 10
76.62788084021804
 20
-124.8537054809394
 30
0.0
 10
76.82252873513465
 20
-124.8537054809394
 30
0.0
 10
76.82252873513465
 20
-124.8537054809394
 30
0.0
 10
76.82252873513465
 20
-124.8537054809394
 30
0.0
 10
76.82252873513465
 20
-125.4693440441535
 30
0.0
 10
76.82252873513465
 20
-125.4693440441535
 30
0.0
 10
76.82252873513465
 20
-125.4693440441535
 30
0.0
 10
77.24558646072333
 20
-125.5348008583732
 30
0.0
 10
77.24558646072333
 20
-125.5348008583732
 30
0.0
 10
77.21182452496788
 20
-125.4734781587358
 30
0.0
 10
77.17151690779046
 20
-125.3911403766383
 30
0.0
 10
77.17151690779046
 20
-125.2726290919457
 30
0.0
 10
77.17151690779046
 20
-125.0187255546828
 30
0.0
 10
77.35789657354248
 20
-124.7817029852976
 30
0.0
 10
77.67105575315168
 20
-124.7817029852976
 30
0.0
 10
77.98834904734319
 20
-124.7817029852976
 30
0.0
 10
78.22296004988871
 20
-125.0059787013874
 30
0.0
 10
78.22296004988871
 20
-125.3084580849923
 30
0.0
  0
HATCH
  5
D9
330
D2
100
AcDbEntity
  8
_U+30EC_U+30A4_U+30E4_U+30FC 1
 62
   179
420
  2234388
100
AcDbHatch
 10
0.0
 20
0.0
 30
0.0
210
0.0
220
0.0
230
1.0
  2
SOLID
 70
     1
 71
     0
 91
        1
 92
        1
 93
        1
 72
     4
 94
        3
 73
     0
 74
     1
 95
       53
 96
       49
 40
0.0
 40
0.0
 40
0.0
 40
0.0
 40
1.0
 40
1.0
 40
1.0
 40
2.0
 40
2.0
 40
2.0
 40
3.0
 40
3.0
 40
3.0
 40
4.0
 40
4.0
 40
4.0
 40
5.0
 40
5.0
 40
5.0
 40
6.0
 40
6.0
 40
6.0
 40
7.0
 40
7.0
 40
7.0
 40
8.0
 40
8.0
 40
8.0
 40
9.0
 40
9.0
 40
9.0
 40
10.0
 40
10.0
 40
10.0
 40
11.0
 40
11.0
 40
11.0
 40
12.0
 40
12.0
 40
12.0
 40
13.0
 40
13.0
 40
13.0
 40
14.0
 40
14.0
 40
14.0
 40
15.0
 40
15.0
 40
15.0
 40
16.0
 40
16.0
 40
16.0
 40
16.0
 10
78.22296004988871
 20
-125.3084580849923
 10
78.22296004988871
 20
-125.3866617525075
 10
78.20607908201099
 20
-125.4882920693224
 10
78.14268932508239
 20
-125.5899223861372
 10
78.03279077910291
 20
-125.7632106890453
 10
77.9015326411149
 20
-125.7845702810539
 10
77.79370115242658
 20
-125.8035183062227
 10
77.79370115242658
 20
-125.8035183062227
 10
77.79370115242658
 20
-125.5813096474241
 10
77.79370115242658
 20
-125.5813096474241
 10
77.99248316192549
 20
-125.5265326292086
 10
78.02211098309864
 20
-125.3994086058029
 10
78.02211098309864
 20
-125.3063910277012
 10
78.02211098309864
 20
-125.1668646605486
 10
77.92254772357492
 20
-125.0145914401005
 10
77.69000377832056
 20
-125.0145914401005
 10
77.4340331837665
 20
-125.0145914401005
 10
77.36409774541592
 20
-125.1944254244306
 10
77.36409774541592
 20
-125.3150037664143
 10
77.36409774541592
 20
-125.3466986448786
 10
77.36409774541592
 20
-125.4882920693224
 10
77.49328882611279
 20
-125.5771755328418
 10
77.49328882611279
 20
-125.5771755328418
 10
77.47434080094392
 20
-125.7528754025896
 10
77.47434080094392
 20
-125.7528754025896
 10
77.47434080094392
 20
-125.7528754025896
 10
76.62788084021804
 20
-125.6322970606058
 10
76.62788084021804
 20
-125.6322970606058
 10
76.62788084021804
 20
-125.6322970606058
 10
76.62788084021804
 20
-124.8537054809394
 10
76.62788084021804
 20
-124.8537054809394
 10
76.62788084021804
 20
-124.8537054809394
 10
76.82252873513465
 20
-124.8537054809394
 10
76.82252873513465
 20
-124.8537054809394
 10
76.82252873513465
 20
-124.8537054809394
 10
76.82252873513465
 20
-125.4693440441535
 10
76.82252873513465
 20
-125.4693440441535
 10
76.82252873513465
 20
-125.4693440441535
 10
77.24558646072333
 20
-125.5348008583732
 10
77.24558646072333
 20
-125.5348008583732
 10
77.21182452496788
 20
-125.4734781587358
 10
77.17151690779046
 20
-125.3911403766383
 10
77.17151690779046
 20
-125.2726290919457
 10
77.17151690779046
 20
-125.0187255546828
 10
77.35789657354248
 20
-124.7817029852976
 10
77.67105575315168
 20
-124.7817029852976
 10
77.98834904734319
 20
-124.7817029852976
 10
78.22296004988871
 20
-125.0059787013874
 10
78.22296004988871
 20
-125.3084580849923
 97
        0
 97
        0
 75
     2
 76
     1
 98
        0
  0
ENDBLK
  5
D5
330
D2
100
AcDbEntity
  8
0
100
AcDbBlockEnd
  0
BLOCK
  5
E8
330
E6
100
AcDbEntity
  8
0
100
AcDbBlockBegin
  2
block 5
 70
     0
 10
0.0
 20
0.0
 30
0.0
  3
block 5
  1

  0
SPLINE
  5
EA
330
E6
100
AcDbEntity
  8
_U+30EC_U+30A4_U+30E4_U+30FC 1
370
     0
100
AcDbSpline
210
0.0
220
0.0
230
1.0
 70
    11
 71
     3
 72
    26
 73
    22
 74
     0
 42
0.0000000001
 43
0.0000000001
 12
1.0
 22
0.0
 32
0.0
 13
1.0
 23
0.0
 33
0.0
 40
0.0
 40
0.0
 40
0.0
 40
0.0
 40
1.0
 40
1.0
 40
1.0
 40
2.0
 40
2.0
 40
2.0
 40
3.0
 40
3.0
 40
3.0
 40
4.0
 40
4.0
 40
4.0
 40
5.0
 40
5.0
 40
5.0
 40
6.0
 40
6.0
 40
6.0
 40
7.0
 40
7.0
 40
7.0
 40
7.0
 10
89.55560164861805
 20
-136.7051784597473
 30
0.0
 10
89.55560164861805
 20
-136.7051784597473
 30
0.0
 10
89.55560164861805
 20
-135.6010253567248
 30
0.0
 10
89.55560164861805
 20
-135.6010253567248
 30
0.0
 10
89.55560164861805
 20
-135.6010253567248
 30
0.0
 10
89.22556150113111
 20
-135.6010253567248
 30
0.0
 10
89.22556150113111
 20
-135.6010253567248
 30
0.0
 10
89.22556150113111
 20
-135.6010253567248
 30
0.0
 10
89.22556150113111
 20
-135.452886250859
 30
0.0
 10
89.22556150113111
 20
-135.452886250859
 30
0.0
 10
89.5576687059092
 20
-135.4380723402724
 30
0.0
 10
89.60417749496007
 20
-135.2751193238201
 30
0.0
 10
89.63380531613322
 20
-135.1607421537098
 30
0.0
 10
89.63380531613322
 20
-135.1607421537098
 30
0.0
 10
89.77987736470781
 20
-135.1607421537098
 30
0.0
 10
89.77987736470781
 20
-135.1607421537098
 30
0.0
 10
89.77987736470781
 20
-135.1607421537098
 30
0.0
 10
89.77987736470781
 20
-136.7051784597473
 30
0.0
 10
89.77987736470781
 20
-136.7051784597473
 30
0.0
 10
89.77987736470781
 20
-136.7051784597473
 30
0.0
 10
89.55560164861805
 20
-136.7051784597473
 30
0.0
 10
89.55560164861805
 20
-136.7051784597473
 30
0.0
  0
HATCH
  5
EB
330
E6
100
AcDbEntity
  8
_U+30EC_U+30A4_U+30E4_U+30FC 1
 62
   179
420
  2234388
100
AcDbHatch
 10
0.0
 20
0.0
 30
0.0
210
0.0
220
0.0
230
1.0
  2
SOLID
 70
     1
 71
     0
 91
        1
 92
        1
 93
        1
 72
     4
 94
        3
 73
     0
 74
     1
 95
       26
 96
       22
 40
0.0
 40
0.0
 40
0.0
 40
0.0
 40
1.0
 40
1.0
 40
1.0
 40
2.0
 40
2.0
 40
2.0
 40
3.0
 40
3.0
 40
3.0
 40
4.0
 40
4.0
 40
4.0
 40
5.0
 40
5.0
 40
5.0
 40
6.0
 40
6.0
 40
6.0
 40
7.0
 40
7.0
 40
7.0
 40
7.0
 10
89.55560164861805
 20
-136.7051784597473
 10
89.55560164861805
 20
-136.7051784597473
 10
89.55560164861805
 20
-135.6010253567248
 10
89.55560164861805
 20
-135.6010253567248
 10
89.55560164861805
 20
-135.6010253567248
 10
89.22556150113111
 20
-135.6010253567248
 10
89.22556150113111
 20
-135.6010253567248
 10
89.22556150113111
 20
-135.6010253567248
 10
89.22556150113111
 20
-135.452886250859
 10
89.22556150113111
 20
-135.452886250859
 10
89.5576687059092
 20
-135.4380723402724
 10
89.60417749496007
 20
-135.2751193238201
 10
89.63380531613322
 20
-135.1607421537098
 10
89.63380531613322
 20
-135.1607421537098
 10
89.77987736470781
 20
-135.1607421537098
 10
89.77987736470781
 20
-135.1607421537098
 10
89.77987736470781
 20
-135.1607421537098
 10
89.77987736470781
 20
-136.7051784597473
 10
89.77987736470781
 20
-136.7051784597473
 10
89.77987736470781
 20
-136.7051784597473
 10
89.55560164861805
 20
-136.7051784597473
 10
89.55560164861805
 20
-136.7051784597473
 97
        0
 97
        0
 75
     2
 76
     1
 98
        0
  0
SPLINE
  5
EC
330
E6
100
AcDbEntity
  8
_U+30EC_U+30A4_U+30E4_U+30FC 1
370
     0
100
AcDbSpline
210
0.0
220
0.0
230
1.0
 70
    11
 71
     3
 72
    53
 73
    49
 74
     0
 42
0.0000000001
 43
0.0000000001
 12
1.0
 22
0.0
 32
0.0
 13
1.0
 23
0.0
 33
0.0
 40
0.0
 40
0.0
 40
0.0
 40
0.0
 40
1.0
 40
1.0
 40
1.0
 40
2.0
 40
2.0
 40
2.0
 40
3.0
 40
3.0
 40
3.0
 40
4.0
 40
4.0
 40
4.0
 40
5.0
 40
5.0
 40
5.0
 40
6.0
 40
6.0
 40
6.0
 40
7.0
 40
7.0
 40
7.0
 40
8.0
 40
8.0
 40
8.0
 40
9.0
 40
9.0
 40
9.0
 40
10.0
 40
10.0
 40
10.0
 40
11.0
 40
11.0
 40
11.0
 40
12.0
 40
12.0
 40
12.0
 40
13.0
 40
13.0
 40
13.0
 40
14.0
 40
14.0
 40
14.0
 40
15.0
 40
15.0
 40
15.0
 40
16.0
 40
16.0
 40
16.0
 40
16.0
 10
90.76207408755253
 20
-136.7558213633805
 30
0.0
 10
90.68387042003737
 20
-136.7558213633805
 30
0.0
 10
90.5822401032225
 20
-136.7389403955028
 30
0.0
 10
90.48060978640763
 20
-136.6755506385742
 30
0.0
 10
90.30732148349956
 20
-136.5656520925947
 30
0.0
 10
90.28596189149101
 20
-136.4343939546067
 30
0.0
 10
90.26701386632215
 20
-136.3265624659184
 30
0.0
 10
90.26701386632215
 20
-136.3265624659184
 30
0.0
 10
90.48922252512075
 20
-136.3265624659184
 30
0.0
 10
90.48922252512075
 20
-136.3265624659184
 30
0.0
 10
90.54399954333623
 20
-136.5253444754173
 30
0.0
 10
90.67112356674194
 20
-136.5549722965904
 30
0.0
 10
90.76414114484369
 20
-136.5549722965904
 30
0.0
 10
90.9036675119963
 20
-136.5549722965904
 30
0.0
 10
91.05594073244436
 20
-136.4554090370667
 30
0.0
 10
91.05594073244436
 20
-136.2228650918123
 30
0.0
 10
91.05594073244436
 20
-135.9668944972583
 30
0.0
 10
90.87610674811431
 20
-135.8969590589077
 30
0.0
 10
90.75552840613057
 20
-135.8969590589077
 30
0.0
 10
90.72383352766627
 20
-135.8969590589077
 30
0.0
 10
90.5822401032225
 20
-135.8969590589077
 30
0.0
 10
90.49335663970305
 20
-136.0261501396046
 30
0.0
 10
90.49335663970305
 20
-136.0261501396046
 30
0.0
 10
90.3176567699553
 20
-136.0072021144357
 30
0.0
 10
90.3176567699553
 20
-136.0072021144357
 30
0.0
 10
90.3176567699553
 20
-136.0072021144357
 30
0.0
 10
90.43823511193905
 20
-135.1607421537098
 30
0.0
 10
90.43823511193905
 20
-135.1607421537098
 30
0.0
 10
90.43823511193905
 20
-135.1607421537098
 30
0.0
 10
91.21682669160552
 20
-135.1607421537098
 30
0.0
 10
91.21682669160552
 20
-135.1607421537098
 30
0.0
 10
91.21682669160552
 20
-135.1607421537098
 30
0.0
 10
91.21682669160552
 20
-135.3553900486264
 30
0.0
 10
91.21682669160552
 20
-135.3553900486264
 30
0.0
 10
91.21682669160552
 20
-135.3553900486264
 30
0.0
 10
90.60118812839137
 20
-135.3553900486264
 30
0.0
 10
90.60118812839137
 20
-135.3553900486264
 30
0.0
 10
90.60118812839137
 20
-135.3553900486264
 30
0.0
 10
90.53573131417163
 20
-135.7784477742151
 30
0.0
 10
90.53573131417163
 20
-135.7784477742151
 30
0.0
 10
90.59705401380907
 20
-135.7446858384597
 30
0.0
 10
90.67939179590654
 20
-135.7043782212822
 30
0.0
 10
90.79790308059914
 20
-135.7043782212822
 30
0.0
 10
91.05180661786206
 20
-135.7043782212822
 30
0.0
 10
91.28882918724725
 20
-135.8907578870343
 30
0.0
 10
91.28882918724725
 20
-136.2039170666435
 30
0.0
 10
91.28882918724725
 20
-136.521210360835
 30
0.0
 10
91.06455347115748
 20
-136.7558213633805
 30
0.0
 10
90.76207408755253
 20
-136.7558213633805
 30
0.0
  0
HATCH
  5
ED
330
E6
100
AcDbEntity
  8
_U+30EC_U+30A4_U+30E4_U+30FC 1
 62
   179
420
  2234388
100
AcDbHatch
 10
0.0
 20
0.0
 30
0.0
210
0.0
220
0.0
230
1.0
  2
SOLID
 70
     1
 71
     0
 91
        1
 92
        1
 93
        1
 72
     4
 94
        3
 73
     0
 74
     1
 95
       53
 96
       49
 40
0.0
 40
0.0
 40
0.0
 40
0.0
 40
1.0
 40
1.0
 40
1.0
 40
2.0
 40
2.0
 40
2.0
 40
3.0
 40
3.0
 40
3.0
 40
4.0
 40
4.0
 40
4.0
 40
5.0
 40
5.0
 40
5.0
 40
6.0
 40
6.0
 40
6.0
 40
7.0
 40
7.0
 40
7.0
 40
8.0
 40
8.0
 40
8.0
 40
9.0
 40
9.0
 40
9.0
 40
10.0
 40
10.0
 40
10.0
 40
11.0
 40
11.0
 40
11.0
 40
12.0
 40
12.0
 40
12.0
 40
13.0
 40
13.0
 40
13.0
 40
14.0
 40
14.0
 40
14.0
 40
15.0
 40
15.0
 40
15.0
 40
16.0
 40
16.0
 40
16.0
 40
16.0
 10
90.76207408755253
 20
-136.7558213633805
 10
90.68387042003737
 20
-136.7558213633805
 10
90.5822401032225
 20
-136.7389403955028
 10
90.48060978640763
 20
-136.6755506385742
 10
90.30732148349956
 20
-136.5656520925947
 10
90.28596189149101
 20
-136.4343939546067
 10
90.26701386632215
 20
-136.3265624659184
 10
90.26701386632215
 20
-136.3265624659184
 10
90.48922252512075
 20
-136.3265624659184
 10
90.48922252512075
 20
-136.3265624659184
 10
90.54399954333623
 20
-136.5253444754173
 10
90.67112356674194
 20
-136.5549722965904
 10
90.76414114484369
 20
-136.5549722965904
 10
90.9036675119963
 20
-136.5549722965904
 10
91.05594073244436
 20
-136.4554090370667
 10
91.05594073244436
 20
-136.2228650918123
 10
91.05594073244436
 20
-135.9668944972583
 10
90.87610674811431
 20
-135.8969590589077
 10
90.75552840613057
 20
-135.8969590589077
 10
90.72383352766627
 20
-135.8969590589077
 10
90.5822401032225
 20
-135.8969590589077
 10
90.49335663970305
 20
-136.0261501396046
 10
90.49335663970305
 20
-136.0261501396046
 10
90.3176567699553
 20
-136.0072021144357
 10
90.3176567699553
 20
-136.0072021144357
 10
90.3176567699553
 20
-136.0072021144357
 10
90.43823511193905
 20
-135.1607421537098
 10
90.43823511193905
 20
-135.1607421537098
 10
90.43823511193905
 20
-135.1607421537098
 10
91.21682669160552
 20
-135.1607421537098
 10
91.21682669160552
 20
-135.1607421537098
 10
91.21682669160552
 20
-135.1607421537098
 10
91.21682669160552
 20
-135.3553900486264
 10
91.21682669160552
 20
-135.3553900486264
 10
91.21682669160552
 20
-135.3553900486264
 10
90.60118812839137
 20
-135.3553900486264
 10
90.60118812839137
 20
-135.3553900486264
 10
90.60118812839137
 20
-135.3553900486264
 10
90.53573131417163
 20
-135.7784477742151
 10
90.53573131417163
 20
-135.7784477742151
 10
90.59705401380907
 20
-135.7446858384597
 10
90.67939179590654
 20
-135.7043782212822
 10
90.79790308059914
 20
-135.7043782212822
 10
91.05180661786206
 20
-135.7043782212822
 10
91.28882918724725
 20
-135.8907578870343
 10
91.28882918724725
 20
-136.2039170666435
 10
91.28882918724725
 20
-136.521210360835
 10
91.06455347115748
 20
-136.7558213633805
 10
90.76207408755253
 20
-136.7558213633805
 97
        0
 97
        0
 75
     2
 76
     1
 98
        0
  0
ENDBLK
  5
E9
330
E6
100
AcDbEntity
  8
0
100
AcDbBlockEnd
  0
ENDSEC
  0
SECTION
  2
ENTITIES
  0
POLYLINE
  5
41
330
1F
100
AcDbEntity
  8
_U+30EC_U+30A4_U+30E4_U+30FC 1
  6
AI-Linetype-1
 62
   154
420
    23468
370
    25
100
AcDb2dPolyline
 66
     1
 10
0.0
 20
0.0
 30
0.0
  0
VERTEX
  5
42
330
41
100
AcDbEntity
  8
_U+30EC_U+30A4_U+30E4_U+30FC 1
  6
AI-Linetype-1
 62
   154
420
    23468
370
    25
100
AcDbVertex
100
AcDb2dVertex
 10
84.30026951598762
 20
-118.3021580259799
 30
0.0
  0
VERTEX
  5
43
330
41
100
AcDbEntity
  8
_U+30EC_U+30A4_U+30E4_U+30FC 1
  6
AI-Linetype-1
 62
   154
420
    23468
370
    25
100
AcDbVertex
100
AcDb2dVertex
 10
84.30026951598762
 20
-128.3020674679244
 30
0.0
  0
SEQEND
  5
45
330
41
100
AcDbEntity
  8
_U+30EC_U+30A4_U+30E4_U+30FC 1
  6
AI-Linetype-1
 62
   154
420
    23468
370
    25
  0
POLYLINE
  5
46
330
1F
100
AcDbEntity
  8
_U+30EC_U+30A4_U+30E4_U+30FC 1
  6
AI-Linetype-2
 62
   154
420
    23468
370
    25
100
AcDb2dPolyline
 66
     1
 10
0.0
 20
0.0
 30
0.0
  0
VERTEX
  5
47
330
46
100
AcDbEntity
  8
_U+30EC_U+30A4_U+30E4_U+30FC 1
  6
AI-Linetype-2
 62
   154
420
    23468
370
    25
100
AcDbVertex
100
AcDb2dVertex
 10
87.5682969326133
 20
-131.7783396892779
 30
0.0
  0
VERTEX
  5
48
330
46
100
AcDbEntity
  8
_U+30EC_U+30A4_U+30E4_U+30FC 1
  6
AI-Linetype-2
 62
   154
420
    23468
370
    25
100
AcDbVertex
100
AcDb2dVertex
 10
97.56855889970758
 20
-131.7783396892779
 30
0.0
  0
SEQEND
  5
4A
330
46
100
AcDbEntity
  8
_U+30EC_U+30A4_U+30E4_U+30FC 1
  6
AI-Linetype-2
 62
   154
420
    23468
370
    25
  0
POLYLINE
  5
4B
330
1F
100
AcDbEntity
  8
_U+30EC_U+30A4_U+30E4_U+30FC 1
 62
   179
420
  2234388
370
     9
100
AcDb2dPolyline
 66
     1
 10
0.0
 20
0.0
 30
0.0
  0
VERTEX
  5
4C
330
4B
100
AcDbEntity
  8
_U+30EC_U+30A4_U+30E4_U+30FC 1
 62
   179
420
  2234388
370
     9
100
AcDbVertex
100
AcDb2dVertex
 10
84.76914644847001
 20
-123.6963419135203
 30
0.0
  0
VERTEX
  5
4D
330
4B
100
AcDbEntity
  8
_U+30EC_U+30A4_U+30E4_U+30FC 1
 62
   179
420
  2234388
370
     9
100
AcDbVertex
100
AcDb2dVertex
 10
87.6003291540183
 20
-123.6963419135203
 30
0.0
  0
SEQEND
  5
4E
330
4B
100
AcDbEntity
  8
_U+30EC_U+30A4_U+30E4_U+30FC 1
 62
   179
420
  2234388
370
     9
  0
POLYLINE
  5
4F
330
1F
100
AcDbEntity
  8
_U+30EC_U+30A4_U+30E4_U+30FC 1
 62
   179
420
  2234388
370
     9
100
AcDb2dPolyline
 66
     1
 10
0.0
 20
0.0
 30
0.0
  0
VERTEX
  5
50
330
4F
100
AcDbEntity
  8
_U+30EC_U+30A4_U+30E4_U+30FC 1
 62
   179
420
  2234388
370
     9
100
AcDbVertex
100
AcDb2dVertex
 10
84.76914644847001
 20
-123.6963419135203
 30
0.0
  0
VERTEX
  5
51
330
4F
100
AcDbEntity
  8
_U+30EC_U+30A4_U+30E4_U+30FC 1
 62
   179
420
  2234388
370
     9
100
AcDbVertex
100
AcDb2dVertex
 10
85.7351578127139
 20
-123.4374383024739
 30
0.0
  0
SEQEND
  5
52
330
4F
100
AcDbEntity
  8
_U+30EC_U+30A4_U+30E4_U+30FC 1
 62
   179
420
  2234388
370
     9
  0
POLYLINE
  5
53
330
1F
100
AcDbEntity
  8
_U+30EC_U+30A4_U+30E4_U+30FC 1
 62
   179
420
  2234388
370
     9
100
AcDb2dPolyline
 66
     1
 10
0.0
 20
0.0
 30
0.0
  0
VERTEX
  5
54
330
53
100
AcDbEntity
  8
_U+30EC_U+30A4_U+30E4_U+30FC 1
 62
   179
420
  2234388
370
     9
100
AcDbVertex
100
AcDb2dVertex
 10
84.76914644847001
 20
-123.6963419135203
 30
0.0
  0
VERTEX
  5
55
330
53
100
AcDbEntity
  8
_U+30EC_U+30A4_U+30E4_U+30FC 1
 62
   179
420
  2234388
370
     9
100
AcDbVertex
100
AcDb2dVertex
 10
85.7351578127139
 20
-123.9550691356779
 30
0.0
  0
SEQEND
  5
56
330
53
100
AcDbEntity
  8
_U+30EC_U+30A4_U+30E4_U+30FC 1
 62
   179
420
  2234388
370
     9
  0
INSERT
  5
58
330
1F
100
AcDbEntity
  8
_U+30EC_U+30A4_U+30E4_U+30FC 1
100
AcDbBlockReference
  2
block 2
 10
0.0
 20
0.0
 30
0.0
  0
POLYLINE
  5
7F
330
1F
100
AcDbEntity
  8
_U+30EC_U+30A4_U+30E4_U+30FC 1
370
     0
100
AcDb2dPolyline
 66
     1
 10
0.0
 20
0.0
 30
0.0
  0
VERTEX
  5
80
330
7F
100
AcDbEntity
  8
_U+30EC_U+30A4_U+30E4_U+30FC 1
370
     0
100
AcDbVertex
100
AcDb2dVertex
 10
83.66844453210682
 20
-118.3021580259799
 30
0.0
  0
VERTEX
  5
81
330
7F
100
AcDbEntity
  8
_U+30EC_U+30A4_U+30E4_U+30FC 1
370
     0
100
AcDbVertex
100
AcDb2dVertex
 10
82.76857899950875
 20
-118.3021580259799
 30
0.0
  0
VERTEX
  5
82
330
7F
100
AcDbEntity
  8
_U+30EC_U+30A4_U+30E4_U+30FC 1
370
     0
100
AcDbVertex
100
AcDb2dVertex
 10
82.76857899950875
 20
-133.30244552223
 30
0.0
  0
VERTEX
  5
83
330
7F
100
AcDbEntity
  8
_U+30EC_U+30A4_U+30E4_U+30FC 1
370
     0
100
AcDbVertex
100
AcDb2dVertex
 10
97.76837222794325
 20
-133.30244552223
 30
0.0
  0
VERTEX
  5
84
330
7F
100
AcDbEntity
  8
_U+30EC_U+30A4_U+30E4_U+30FC 1
370
     0
100
AcDbVertex
100
AcDb2dVertex
 10
97.76837222794325
 20
-132.4022624668995
 30
0.0
  0
VERTEX
  5
85
330
7F
100
AcDbEntity
  8
_U+30EC_U+30A4_U+30E4_U+30FC 1
370
     0
100
AcDbVertex
100
AcDb2dVertex
 10
83.66844453210682
 20
-132.4022624668995
 30
0.0
  0
VERTEX
  5
86
330
7F
100
AcDbEntity
  8
_U+30EC_U+30A4_U+30E4_U+30FC 1
370
     0
100
AcDbVertex
100
AcDb2dVertex
 10
83.66844453210682
 20
-118.3021580259799
 30
0.0
  0
SEQEND
  5
88
330
7F
100
AcDbEntity
  8
_U+30EC_U+30A4_U+30E4_U+30FC 1
370
     0
  0
HATCH
  5
87
330
1F
100
AcDbEntity
  8
_U+30EC_U+30A4_U+30E4_U+30FC 1
 62
   253
420
 11711154
100
AcDbHatch
 10
0.0
 20
0.0
 30
0.0
210
0.0
220
0.0
230
1.0
  2
SOLID
 70
     1
 71
     0
 91
        1
 92
        1
 93
        6
 72
     1
 10
83.66844453210682
 20
-118.3021580259799
 11
82.76857899950875
 21
-118.3021580259799
 72
     1
 10
82.76857899950875
 20
-118.3021580259799
 11
82.76857899950875
 21
-133.30244552223
 72
     1
 10
82.76857899950875
 20
-133.30244552223
 11
97.76837222794325
 21
-133.30244552223
 72
     1
 10
97.76837222794325
 20
-133.30244552223
 11
97.76837222794325
 21
-132.4022624668995
 72
     1
 10
97.76837222794325
 20
-132.4022624668995
 11
83.66844453210682
 21
-132.4022624668995
 72
     1
 10
83.66844453210682
 20
-132.4022624668995
 11
83.66844453210682
 21
-118.3021580259799
 97
        0
 75
     2
 76
     1
 98
        0
  0
POLYLINE
  5
89
330
1F
100
AcDbEntity
  8
_U+30EC_U+30A4_U+30E4_U+30FC 1
 62
   179
420
  2234388
370
    25
100
AcDb2dPolyline
 66
     1
 10
0.0
 20
0.0
 30
0.0
  0
VERTEX
  5
8A
330
89
100
AcDbEntity
  8
_U+30EC_U+30A4_U+30E4_U+30FC 1
 62
   179
420
  2234388
370
    25
100
AcDbVertex
100
AcDb2dVertex
 10
82.76857899950875
 20
-118.3021580259799
 30
0.0
  0
VERTEX
  5
8B
330
89
100
AcDbEntity
  8
_U+30EC_U+30A4_U+30E4_U+30FC 1
 62
   179
420
  2234388
370
    25
100
AcDbVertex
100
AcDb2dVertex
 10
82.76857899950875
 20
-133.30244552223
 30
0.0
  0
SEQEND
  5
8C
330
89
100
AcDbEntity
  8
_U+30EC_U+30A4_U+30E4_U+30FC 1
 62
   179
420
  2234388
370
    25
  0
POLYLINE
  5
8D
330
1F
100
AcDbEntity
  8
_U+30EC_U+30A4_U+30E4_U+30FC 1
 62
   179
420
  2234388
370
    25
100
AcDb2dPolyline
 66
     1
 10
0.0
 20
0.0
 30
0.0
  0
VERTEX
  5
8E
330
8D
100
AcDbEntity
  8
_U+30EC_U+30A4_U+30E4_U+30FC 1
 62
   179
420
  2234388
370
    25
100
AcDbVertex
100
AcDb2dVertex
 10
82.76857899950875
 20
-133.30244552223
 30
0.0
  0
VERTEX
  5
8F
330
8D
100
AcDbEntity
  8
_U+30EC_U+30A4_U+30E4_U+30FC 1
 62
   179
420
  2234388
370
    25
100
AcDbVertex
100
AcDb2dVertex
 10
97.76837222794325
 20
-133.30244552223
 30
0.0
  0
SEQEND
  5
90
330
8D
100
AcDbEntity
  8
_U+30EC_U+30A4_U+30E4_U+30FC 1
 62
   179
420
  2234388
370
    25
  0
POLYLINE
  5
91
330
1F
100
AcDbEntity
  8
_U+30EC_U+30A4_U+30E4_U+30FC 1
 62
   179
420
  2234388
370
    25
100
AcDb2dPolyline
 66
     1
 10
0.0
 20
0.0
 30
0.0
  0
VERTEX
  5
92
330
91
100
AcDbEntity
  8
_U+30EC_U+30A4_U+30E4_U+30FC 1
 62
   179
420
  2234388
370
    25
100
AcDbVertex
100
AcDb2dVertex
 10
83.66844453210682
 20
-132.4022624668995
 30
0.0
  0
VERTEX
  5
93
330
91
100
AcDbEntity
  8
_U+30EC_U+30A4_U+30E4_U+30FC 1
 62
   179
420
  2234388
370
    25
100
AcDbVertex
100
AcDb2dVertex
 10
97.76837222794325
 20
-132.4022624668995
 30
0.0
  0
SEQEND
  5
94
330
91
100
AcDbEntity
  8
_U+30EC_U+30A4_U+30E4_U+30FC 1
 62
   179
420
  2234388
370
    25
  0
POLYLINE
  5
95
330
1F
100
AcDbEntity
  8
_U+30EC_U+30A4_U+30E4_U+30FC 1
 62
   179
420
  2234388
370
    25
100
AcDb2dPolyline
 66
     1
 10
0.0
 20
0.0
 30
0.0
  0
VERTEX
  5
96
330
95
100
AcDbEntity
  8
_U+30EC_U+30A4_U+30E4_U+30FC 1
 62
   179
420
  2234388
370
    25
100
AcDbVertex
100
AcDb2dVertex
 10
83.66844453210682
 20
-118.3021580259799
 30
0.0
  0
VERTEX
  5
97
330
95
100
AcDbEntity
  8
_U+30EC_U+30A4_U+30E4_U+30FC 1
 62
   179
420
  2234388
370
    25
100
AcDbVertex
100
AcDb2dVertex
 10
83.66844453210682
 20
-132.4022624668995
 30
0.0
  0
SEQEND
  5
98
330
95
100
AcDbEntity
  8
_U+30EC_U+30A4_U+30E4_U+30FC 1
 62
   179
420
  2234388
370
    25
  0
POLYLINE
  5
99
330
1F
100
AcDbEntity
  8
_U+30EC_U+30A4_U+30E4_U+30FC 1
 62
   179
420
  2234388
370
    25
100
AcDb2dPolyline
 66
     1
 10
0.0
 20
0.0
 30
0.0
  0
VERTEX
  5
9A
330
99
100
AcDbEntity
  8
_U+30EC_U+30A4_U+30E4_U+30FC 1
 62
   179
420
  2234388
370
    25
100
AcDbVertex
100
AcDb2dVertex
 10
82.76857899950875
 20
-118.3021580259799
 30
0.0
  0
VERTEX
  5
9B
330
99
100
AcDbEntity
  8
_U+30EC_U+30A4_U+30E4_U+30FC 1
 62
   179
420
  2234388
370
    25
100
AcDbVertex
100
AcDb2dVertex
 10
83.66844453210682
 20
-118.3021580259799
 30
0.0
  0
SEQEND
  5
9C
330
99
100
AcDbEntity
  8
_U+30EC_U+30A4_U+30E4_U+30FC 1
 62
   179
420
  2234388
370
    25
  0
POLYLINE
  5
9D
330
1F
100
AcDbEntity
  8
_U+30EC_U+30A4_U+30E4_U+30FC 1
 62
   179
420
  2234388
370
    25
100
AcDb2dPolyline
 66
     1
 10
0.0
 20
0.0
 30
0.0
  0
VERTEX
  5
9E
330
9D
100
AcDbEntity
  8
_U+30EC_U+30A4_U+30E4_U+30FC 1
 62
   179
420
  2234388
370
    25
100
AcDbVertex
100
AcDb2dVertex
 10
97.76837222794325
 20
-132.4022624668995
 30
0.0
  0
VERTEX
  5
9F
330
9D
100
AcDbEntity
  8
_U+30EC_U+30A4_U+30E4_U+30FC 1
 62
   179
420
  2234388
370
    25
100
AcDbVertex
100
AcDb2dVertex
 10
97.76837222794325
 20
-133.30244552223
 30
0.0
  0
SEQEND
  5
A0
330
9D
100
AcDbEntity
  8
_U+30EC_U+30A4_U+30E4_U+30FC 1
 62
   179
420
  2234388
370
    25
  0
SPLINE
  5
A1
330
1F
100
AcDbEntity
  8
_U+30EC_U+30A4_U+30E4_U+30FC 1
 62
   179
420
  2234388
370
     9
100
AcDbSpline
210
0.0
220
0.0
230
1.0
 70
    11
 71
     3
 72
    17
 73
    13
 74
     0
 42
0.0000000001
 43
0.0000000001
 12
1.0
 22
0.0
 32
0.0
 13
1.0
 23
0.0
 33
0.0
 40
0.0
 40
0.0
 40
0.0
 40
0.0
 40
1.0
 40
1.0
 40
1.0
 40
2.0
 40
2.0
 40
2.0
 40
3.0
 40
3.0
 40
3.0
 40
4.0
 40
4.0
 40
4.0
 40
4.0
 10
101.8687082344461
 20
-132.4022624668995
 30
0.0
 10
101.8687082344461
 20
-132.3468058002468
 30
0.0
 10
101.8239407355882
 20
-132.3020030224801
 30
0.0
 10
101.7688015703282
 20
-132.3020030224801
 30
0.0
 10
101.7136976828452
 20
-132.3020030224801
 30
0.0
 10
101.6688949062104
 20
-132.3468058002468
 30
0.0
 10
101.6688949062104
 20
-132.4022624668995
 30
0.0
 10
101.6688949062104
 20
-132.4573663557744
 30
0.0
 10
101.7136976828452
 20
-132.5021691335411
 30
0.0
 10
101.7688015703282
 20
-132.5021691335411
 30
0.0
 10
101.8239407355882
 20
-132.5021691335411
 30
0.0
 10
101.8687082344461
 20
-132.4573663557744
 30
0.0
 10
101.8687082344461
 20
-132.4022624668995
 30
0.0
  0
SPLINE
  5
A2
330
1F
100
AcDbEntity
  8
_U+30EC_U+30A4_U+30E4_U+30FC 1
 62
   179
420
  2234388
370
     9
100
AcDbSpline
210
0.0
220
0.0
230
1.0
 70
    11
 71
     3
 72
    17
 73
    13
 74
     0
 42
0.0000000001
 43
0.0000000001
 12
1.0
 22
0.0
 32
0.0
 13
1.0
 23
0.0
 33
0.0
 40
0.0
 40
0.0
 40
0.0
 40
0.0
 40
1.0
 40
1.0
 40
1.0
 40
2.0
 40
2.0
 40
2.0
 40
3.0
 40
3.0
 40
3.0
 40
4.0
 40
4.0
 40
4.0
 40
4.0
 10
101.8687082344461
 20
-133.30244552223
 30
0.0
 10
101.8687082344461
 20
-133.2473416333551
 30
0.0
 10
101.8239407355882
 20
-133.2025388555884
 30
0.0
 10
101.7688015703282
 20
-133.2025388555884
 30
0.0
 10
101.7136976828452
 20
-133.2025388555884
 30
0.0
 10
101.6688949062104
 20
-133.2473416333551
 30
0.0
 10
101.6688949062104
 20
-133.30244552223
 30
0.0
 10
101.6688949062104
 20
-133.3575846888831
 30
0.0
 10
101.7136976828452
 20
-133.4023521888716
 30
0.0
 10
101.7688015703282
 20
-133.4023521888716
 30
0.0
 10
101.8239407355882
 20
-133.4023521888716
 30
0.0
 10
101.8687082344461
 20
-133.3575846888831
 30
0.0
 10
101.8687082344461
 20
-133.30244552223
 30
0.0
  0
SPLINE
  5
A3
330
1F
100
AcDbEntity
  8
_U+30EC_U+30A4_U+30E4_U+30FC 1
 62
   179
420
  2234388
370
     9
100
AcDbSpline
210
0.0
220
0.0
230
1.0
 70
    11
 71
     3
 72
    17
 73
    13
 74
     0
 42
0.0000000001
 43
0.0000000001
 12
1.0
 22
0.0
 32
0.0
 13
1.0
 23
0.0
 33
0.0
 40
0.0
 40
0.0
 40
0.0
 40
0.0
 40
1.0
 40
1.0
 40
1.0
 40
2.0
 40
2.0
 40
2.0
 40
3.0
 40
3.0
 40
3.0
 40
4.0
 40
4.0
 40
4.0
 40
4.0
 10
97.86894916982176
 20
-137.3022046878969
 30
0.0
 10
97.86894916982176
 20
-137.2471007990214
 30
0.0
 10
97.82418167096387
 20
-137.2022980212553
 30
0.0
 10
97.76837222794325
 20
-137.2022980212553
 30
0.0
 10
97.7132330626833
 20
-137.2022980212553
 30
0.0
 10
97.66846556382541
 20
-137.2471007990214
 30
0.0
 10
97.66846556382541
 20
-137.3022046878969
 30
0.0
 10
97.66846556382541
 20
-137.3573438545493
 30
0.0
 10
97.7132330626833
 20
-137.4021113545385
 30
0.0
 10
97.76837222794325
 20
-137.4021113545385
 30
0.0
 10
97.82418167096387
 20
-137.4021113545385
 30
0.0
 10
97.86894916982176
 20
-137.3573438545493
 30
0.0
 10
97.86894916982176
 20
-137.3022046878969
 30
0.0
  0
SPLINE
  5
A4
330
1F
100
AcDbEntity
  8
_U+30EC_U+30A4_U+30E4_U+30FC 1
 62
   179
420
  2234388
370
     9
100
AcDbSpline
210
0.0
220
0.0
230
1.0
 70
    11
 71
     3
 72
    17
 73
    13
 74
     0
 42
0.0000000001
 43
0.0000000001
 12
1.0
 22
0.0
 32
0.0
 13
1.0
 23
0.0
 33
0.0
 40
0.0
 40
0.0
 40
0.0
 40
0.0
 40
1.0
 40
1.0
 40
1.0
 40
2.0
 40
2.0
 40
2.0
 40
3.0
 40
3.0
 40
3.0
 40
4.0
 40
4.0
 40
4.0
 40
4.0
 10
82.86848566362657
 20
-137.3022046878969
 30
0.0
 10
82.86848566362657
 20
-137.2471007990214
 30
0.0
 10
82.82371816476869
 20
-137.2022980212553
 30
0.0
 10
82.76857899950875
 20
-137.2022980212553
 30
0.0
 10
82.71347511202568
 20
-137.2022980212553
 30
0.0
 10
82.66867233539091
 20
-137.2471007990214
 30
0.0
 10
82.66867233539091
 20
-137.3022046878969
 30
0.0
 10
82.66867233539091
 20
-137.3573438545493
 30
0.0
 10
82.71347511202568
 20
-137.4021113545385
 30
0.0
 10
82.76857899950875
 20
-137.4021113545385
 30
0.0
 10
82.82371816476869
 20
-137.4021113545385
 30
0.0
 10
82.86848566362657
 20
-137.3573438545493
 30
0.0
 10
82.86848566362657
 20
-137.3022046878969
 30
0.0
  0
SPLINE
  5
A5
330
1F
100
AcDbEntity
  8
_U+30EC_U+30A4_U+30E4_U+30FC 1
 62
   179
420
  2234388
370
     9
100
AcDbSpline
210
0.0
220
0.0
230
1.0
 70
    11
 71
     3
 72
    17
 73
    13
 74
     0
 42
0.0000000001
 43
0.0000000001
 12
1.0
 22
0.0
 32
0.0
 13
1.0
 23
0.0
 33
0.0
 40
0.0
 40
0.0
 40
0.0
 40
0.0
 40
1.0
 40
1.0
 40
1.0
 40
2.0
 40
2.0
 40
2.0
 40
3.0
 40
3.0
 40
3.0
 40
4.0
 40
4.0
 40
4.0
 40
4.0
 10
78.86872659900226
 20
-133.30244552223
 30
0.0
 10
78.86872659900226
 20
-133.2473416333551
 30
0.0
 10
78.82396109140517
 20
-133.2025388555884
 30
0.0
 10
78.76881993488443
 20
-133.2025388555884
 30
0.0
 10
78.71336326963258
 20
-133.2025388555884
 30
0.0
 10
78.6685957707747
 20
-133.2473416333551
 30
0.0
 10
78.6685957707747
 20
-133.30244552223
 30
0.0
 10
78.6685957707747
 20
-133.3575846888831
 30
0.0
 10
78.71336326963258
 20
-133.4023521888716
 30
0.0
 10
78.76881993488443
 20
-133.4023521888716
 30
0.0
 10
78.82396109140517
 20
-133.4023521888716
 30
0.0
 10
78.86872659900226
 20
-133.3575846888831
 30
0.0
 10
78.86872659900226
 20
-133.30244552223
 30
0.0
  0
SPLINE
  5
A6
330
1F
100
AcDbEntity
  8
_U+30EC_U+30A4_U+30E4_U+30FC 1
 62
   179
420
  2234388
370
     9
100
AcDbSpline
210
0.0
220
0.0
230
1.0
 70
    11
 71
     3
 72
    17
 73
    13
 74
     0
 42
0.0000000001
 43
0.0000000001
 12
1.0
 22
0.0
 32
0.0
 13
1.0
 23
0.0
 33
0.0
 40
0.0
 40
0.0
 40
0.0
 40
0.0
 40
1.0
 40
1.0
 40
1.0
 40
2.0
 40
2.0
 40
2.0
 40
3.0
 40
3.0
 40
3.0
 40
4.0
 40
4.0
 40
4.0
 40
4.0
 10
78.86872659900226
 20
-118.3021580259799
 30
0.0
 10
78.86872659900226
 20
-118.247054137105
 30
0.0
 10
78.82396109140517
 20
-118.2022513593383
 30
0.0
 10
78.76881993488443
 20
-118.2022513593383
 30
0.0
 10
78.71336326963258
 20
-118.2022513593383
 30
0.0
 10
78.6685957707747
 20
-118.247054137105
 30
0.0
 10
78.6685957707747
 20
-118.3021580259799
 30
0.0
 10
78.6685957707747
 20
-118.357297192633
 30
0.0
 10
78.71336326963258
 20
-118.4020646926218
 30
0.0
 10
78.76881993488443
 20
-118.4020646926218
 30
0.0
 10
78.82396109140517
 20
-118.4020646926218
 30
0.0
 10
78.86872659900226
 20
-118.357297192633
 30
0.0
 10
78.86872659900226
 20
-118.3021580259799
 30
0.0
  0
POLYLINE
  5
A7
330
1F
100
AcDbEntity
  8
_U+30EC_U+30A4_U+30E4_U+30FC 1
 62
   179
420
  2234388
370
     9
100
AcDb2dPolyline
 66
     1
 10
0.0
 20
0.0
 30
0.0
  0
VERTEX
  5
A8
330
A7
100
AcDbEntity
  8
_U+30EC_U+30A4_U+30E4_U+30FC 1
 62
   179
420
  2234388
370
     9
100
AcDbVertex
100
AcDb2dVertex
 10
101.7688015703282
 20
-132.4022624668995
 30
0.0
  0
VERTEX
  5
A9
330
A7
100
AcDbEntity
  8
_U+30EC_U+30A4_U+30E4_U+30FC 1
 62
   179
420
  2234388
370
     9
100
AcDbVertex
100
AcDb2dVertex
 10
101.7688015703282
 20
-134.3022177442019
 30
0.0
  0
SEQEND
  5
AA
330
A7
100
AcDbEntity
  8
_U+30EC_U+30A4_U+30E4_U+30FC 1
 62
   179
420
  2234388
370
     9
  0
POLYLINE
  5
AB
330
1F
100
AcDbEntity
  8
_U+30EC_U+30A4_U+30E4_U+30FC 1
 62
   179
420
  2234388
370
     9
100
AcDb2dPolyline
 66
     1
 10
0.0
 20
0.0
 30
0.0
  0
VERTEX
  5
AC
330
AB
100
AcDbEntity
  8
_U+30EC_U+30A4_U+30E4_U+30FC 1
 62
   179
420
  2234388
370
     9
100
AcDbVertex
100
AcDb2dVertex
 10
100.3087602186881
 20
-132.4022624668995
 30
0.0
  0
VERTEX
  5
AD
330
AB
100
AcDbEntity
  8
_U+30EC_U+30A4_U+30E4_U+30FC 1
 62
   179
420
  2234388
370
     9
100
AcDbVertex
100
AcDb2dVertex
 10
102.7685737670441
 20
-132.4022624668995
 30
0.0
  0
SEQEND
  5
AE
330
AB
100
AcDbEntity
  8
_U+30EC_U+30A4_U+30E4_U+30FC 1
 62
   179
420
  2234388
370
     9
  0
POLYLINE
  5
AF
330
1F
100
AcDbEntity
  8
_U+30EC_U+30A4_U+30E4_U+30FC 1
 62
   179
420
  2234388
370
     9
100
AcDb2dPolyline
 66
     1
 10
0.0
 20
0.0
 30
0.0
  0
VERTEX
  5
B0
330
AF
100
AcDbEntity
  8
_U+30EC_U+30A4_U+30E4_U+30FC 1
 62
   179
420
  2234388
370
     9
100
AcDbVertex
100
AcDb2dVertex
 10
100.3087602186881
 20
-133.30244552223
 30
0.0
  0
VERTEX
  5
B1
330
AF
100
AcDbEntity
  8
_U+30EC_U+30A4_U+30E4_U+30FC 1
 62
   179
420
  2234388
370
     9
100
AcDbVertex
100
AcDb2dVertex
 10
102.7685737670441
 20
-133.30244552223
 30
0.0
  0
SEQEND
  5
B2
330
AF
100
AcDbEntity
  8
_U+30EC_U+30A4_U+30E4_U+30FC 1
 62
   179
420
  2234388
370
     9
  0
INSERT
  5
B4
330
1F
100
AcDbEntity
  8
_U+30EC_U+30A4_U+30E4_U+30FC 1
100
AcDbBlockReference
  2
block 3
 10
0.0
 20
0.0
 30
0.0
  0
POLYLINE
  5
C6
330
1F
100
AcDbEntity
  8
_U+30EC_U+30A4_U+30E4_U+30FC 1
 62
   179
420
  2234388
370
     9
100
AcDb2dPolyline
 66
     1
 10
0.0
 20
0.0
 30
0.0
  0
VERTEX
  5
C7
330
C6
100
AcDbEntity
  8
_U+30EC_U+30A4_U+30E4_U+30FC 1
 62
   179
420
  2234388
370
     9
100
AcDbVertex
100
AcDb2dVertex
 10
78.76881993488443
 20
-118.3021580259799
 30
0.0
  0
VERTEX
  5
C8
330
C6
100
AcDbEntity
  8
_U+30EC_U+30A4_U+30E4_U+30FC 1
 62
   179
420
  2234388
370
     9
100
AcDbVertex
100
AcDb2dVertex
 10
78.76881993488443
 20
-133.30244552223
 30
0.0
  0
SEQEND
  5
C9
330
C6
100
AcDbEntity
  8
_U+30EC_U+30A4_U+30E4_U+30FC 1
 62
   179
420
  2234388
370
     9
  0
POLYLINE
  5
CA
330
1F
100
AcDbEntity
  8
_U+30EC_U+30A4_U+30E4_U+30FC 1
 62
   179
420
  2234388
370
     9
100
AcDb2dPolyline
 66
     1
 10
0.0
 20
0.0
 30
0.0
  0
VERTEX
  5
CB
330
CA
100
AcDbEntity
  8
_U+30EC_U+30A4_U+30E4_U+30FC 1
 62
   179
420
  2234388
370
     9
100
AcDbVertex
100
AcDb2dVertex
 10
80.22886128652456
 20
-118.3021580259799
 30
0.0
  0
VERTEX
  5
CC
330
CA
100
AcDbEntity
  8
_U+30EC_U+30A4_U+30E4_U+30FC 1
 62
   179
420
  2234388
370
     9
100
AcDbVertex
100
AcDb2dVertex
 10
77.76873023817662
 20
-118.3021580259799
 30
0.0
  0
SEQEND
  5
CD
330
CA
100
AcDbEntity
  8
_U+30EC_U+30A4_U+30E4_U+30FC 1
 62
   179
420
  2234388
370
     9
  0
POLYLINE
  5
CE
330
1F
100
AcDbEntity
  8
_U+30EC_U+30A4_U+30E4_U+30FC 1
 62
   179
420
  2234388
370
     9
100
AcDb2dPolyline
 66
     1
 10
0.0
 20
0.0
 30
0.0
  0
VERTEX
  5
CF
330
CE
100
AcDbEntity
  8
_U+30EC_U+30A4_U+30E4_U+30FC 1
 62
   179
420
  2234388
370
     9
100
AcDbVertex
100
AcDb2dVertex
 10
80.22886128652456
 20
-133.30244552223
 30
0.0
  0
VERTEX
  5
D0
330
CE
100
AcDbEntity
  8
_U+30EC_U+30A4_U+30E4_U+30FC 1
 62
   179
420
  2234388
370
     9
100
AcDbVertex
100
AcDb2dVertex
 10
77.76873023817662
 20
-133.30244552223
 30
0.0
  0
SEQEND
  5
D1
330
CE
100
AcDbEntity
  8
_U+30EC_U+30A4_U+30E4_U+30FC 1
 62
   179
420
  2234388
370
     9
  0
INSERT
  5
D3
330
1F
100
AcDbEntity
  8
_U+30EC_U+30A4_U+30E4_U+30FC 1
100
AcDbBlockReference
  2
block 4
 10
0.0
 20
0.0
 30
0.0
  0
POLYLINE
  5
DA
330
1F
100
AcDbEntity
  8
_U+30EC_U+30A4_U+30E4_U+30FC 1
 62
   179
420
  2234388
370
     9
100
AcDb2dPolyline
 66
     1
 10
0.0
 20
0.0
 30
0.0
  0
VERTEX
  5
DB
330
DA
100
AcDbEntity
  8
_U+30EC_U+30A4_U+30E4_U+30FC 1
 62
   179
420
  2234388
370
     9
100
AcDbVertex
100
AcDb2dVertex
 10
82.76857899950875
 20
-137.3022046878969
 30
0.0
  0
VERTEX
  5
DC
330
DA
100
AcDbEntity
  8
_U+30EC_U+30A4_U+30E4_U+30FC 1
 62
   179
420
  2234388
370
     9
100
AcDbVertex
100
AcDb2dVertex
 10
97.76837222794325
 20
-137.3022046878969
 30
0.0
  0
SEQEND
  5
DD
330
DA
100
AcDbEntity
  8
_U+30EC_U+30A4_U+30E4_U+30FC 1
 62
   179
420
  2234388
370
     9
  0
POLYLINE
  5
DE
330
1F
100
AcDbEntity
  8
_U+30EC_U+30A4_U+30E4_U+30FC 1
 62
   179
420
  2234388
370
     9
100
AcDb2dPolyline
 66
     1
 10
0.0
 20
0.0
 30
0.0
  0
VERTEX
  5
DF
330
DE
100
AcDbEntity
  8
_U+30EC_U+30A4_U+30E4_U+30FC 1
 62
   179
420
  2234388
370
     9
100
AcDbVertex
100
AcDb2dVertex
 10
82.76857899950875
 20
-135.8421985771507
 30
0.0
  0
VERTEX
  5
E0
330
DE
100
AcDbEntity
  8
_U+30EC_U+30A4_U+30E4_U+30FC 1
 62
   179
420
  2234388
370
     9
100
AcDbVertex
100
AcDb2dVertex
 10
82.76857899950875
 20
-138.3019769098688
 30
0.0
  0
SEQEND
  5
E1
330
DE
100
AcDbEntity
  8
_U+30EC_U+30A4_U+30E4_U+30FC 1
 62
   179
420
  2234388
370
     9
  0
POLYLINE
  5
E2
330
1F
100
AcDbEntity
  8
_U+30EC_U+30A4_U+30E4_U+30FC 1
 62
   179
420
  2234388
370
     9
100
AcDb2dPolyline
 66
     1
 10
0.0
 20
0.0
 30
0.0
  0
VERTEX
  5
E3
330
E2
100
AcDbEntity
  8
_U+30EC_U+30A4_U+30E4_U+30FC 1
 62
   179
420
  2234388
370
     9
100
AcDbVertex
100
AcDb2dVertex
 10
97.76837222794325
 20
-135.8421985771507
 30
0.0
  0
VERTEX
  5
E4
330
E2
100
AcDbEntity
  8
_U+30EC_U+30A4_U+30E4_U+30FC 1
 62
   179
420
  2234388
370
     9
100
AcDbVertex
100
AcDb2dVertex
 10
97.76837222794325
 20
-138.3019769098688
 30
0.0
  0
SEQEND
  5
E5
330
E2
100
AcDbEntity
  8
_U+30EC_U+30A4_U+30E4_U+30FC 1
 62
   179
420
  2234388
370
     9
  0
INSERT
  5
E7
330
1F
100
AcDbEntity
  8
_U+30EC_U+30A4_U+30E4_U+30FC 1
100
AcDbBlockReference
  2
block 5
 10
0.0
 20
0.0
 30
0.0
  0
POLYLINE
  5
EE
330
1F
100
AcDbEntity
  8
_U+30EC_U+30A4_U+30E4_U+30FC 1
 62
   179
420
  2234388
370
     9
100
AcDb2dPolyline
 66
     1
 10
0.0
 20
0.0
 30
0.0
  0
VERTEX
  5
EF
330
EE
100
AcDbEntity
  8
_U+30EC_U+30A4_U+30E4_U+30FC 1
 62
   179
420
  2234388
370
     9
100
AcDbVertex
100
AcDb2dVertex
 10
89.34580299837644
 20
-131.5199652448978
 30
0.0
  0
VERTEX
  5
F0
330
EE
100
AcDbEntity
  8
_U+30EC_U+30A4_U+30E4_U+30FC 1
 62
   179
420
  2234388
370
     9
100
AcDbVertex
100
AcDb2dVertex
 10
89.60417743622921
 20
-130.5539538562501
 30
0.0
  0
SEQEND
  5
F1
330
EE
100
AcDbEntity
  8
_U+30EC_U+30A4_U+30E4_U+30FC 1
 62
   179
420
  2234388
370
     9
  0
POLYLINE
  5
F2
330
1F
100
AcDbEntity
  8
_U+30EC_U+30A4_U+30E4_U+30FC 1
 62
   179
420
  2234388
370
     9
100
AcDb2dPolyline
 66
     1
 10
0.0
 20
0.0
 30
0.0
  0
VERTEX
  5
F3
330
F2
100
AcDbEntity
  8
_U+30EC_U+30A4_U+30E4_U+30FC 1
 62
   179
420
  2234388
370
     9
100
AcDbVertex
100
AcDb2dVertex
 10
89.34580299837644
 20
-131.5199652448978
 30
0.0
  0
VERTEX
  5
F4
330
F2
100
AcDbEntity
  8
_U+30EC_U+30A4_U+30E4_U+30FC 1
 62
   179
420
  2234388
370
     9
100
AcDbVertex
100
AcDb2dVertex
 10
89.34580299837644
 20
-125.1975171909228
 30
0.0
  0
SEQEND
  5
F5
330
F2
100
AcDbEntity
  8
_U+30EC_U+30A4_U+30E4_U+30FC 1
 62
   179
420
  2234388
370
     9
  0
POLYLINE
  5
F6
330
1F
100
AcDbEntity
  8
_U+30EC_U+30A4_U+30E4_U+30FC 1
 62
   179
420
  2234388
370
     9
100
AcDb2dPolyline
 66
     1
 10
0.0
 20
0.0
 30
0.0
  0
VERTEX
  5
F7
330
F6
100
AcDbEntity
  8
_U+30EC_U+30A4_U+30E4_U+30FC 1
 62
   179
420
  2234388
370
     9
100
AcDbVertex
100
AcDb2dVertex
 10
89.34580299837644
 20
-131.5199652448978
 30
0.0
  0
VERTEX
  5
F8
330
F6
100
AcDbEntity
  8
_U+30EC_U+30A4_U+30E4_U+30FC 1
 62
   179
420
  2234388
370
     9
100
AcDbVertex
100
AcDb2dVertex
 10
89.08672300498613
 20
-130.5539538562501
 30
0.0
  0
SEQEND
  5
F9
330
F6
100
AcDbEntity
  8
_U+30EC_U+30A4_U+30E4_U+30FC 1
 62
   179
420
  2234388
370
     9
  0
ENDSEC
  0
SECTION
  2
OBJECTS
  0
DICTIONARY
  5
C
330
0
100
AcDbDictionary
281
     1
  3
ACAD_GROUP
350
D
  3
ACAD_LAYOUT
350
1A
  3
ACAD_MATERIAL
350
3B
  3
ACAD_MLEADERSTYLE
350
FB
  3
ACAD_MLINESTYLE
350
17
  3
ACAD_PLOTSETTINGS
350
19
  3
ACAD_PLOTSTYLENAME
350
E
  3
ACAD_TABLESTYLE
350
FA
  3
ACAD_VISUALSTYLE
350
2A
  0
SUN
  5
3F
330
29
100
AcDbSun
 90
        1
290
     0
 63
     7
421
 16777215
 40
1.0
291
     1
 91
  2455826
 92
 54000000
292
     0
 70
     2
 71
   256
280
     1
  0
DICTIONARY
  5
D
102
{ACAD_REACTORS
330
C
102
}
330
C
100
AcDbDictionary
281
     1
  0
DICTIONARY
  5
1A
102
{ACAD_REACTORS
330
C
102
}
330
C
100
AcDbDictionary
281
     1
  3
Layout1
350
1E
  3
Layout2
350
26
  3
Model
350
22
  0
DICTIONARY
  5
3B
102
{ACAD_REACTORS
330
C
102
}
330
C
100
AcDbDictionary
281
     1
  3
ByBlock
350
3D
  3
ByLayer
350
3C
  3
Global
350
3E
  0
DICTIONARY
  5
FB
102
{ACAD_REACTORS
330
C
102
}
330
C
100
AcDbDictionary
281
     1
  0
DICTIONARY
  5
17
102
{ACAD_REACTORS
330
C
102
}
330
C
100
AcDbDictionary
281
     1
  3
Standard
350
18
  0
DICTIONARY
  5
19
102
{ACAD_REACTORS
330
C
102
}
330
C
100
AcDbDictionary
281
     1
  0
ACDBDICTIONARYWDFLT
  5
E
102
{ACAD_REACTORS
330
C
102
}
330
C
100
AcDbDictionary
281
     1
  3
Normal
350
F
100
AcDbDictionaryWithDefault
340
F
  0
DICTIONARY
  5
FA
102
{ACAD_REACTORS
330
C
102
}
330
C
100
AcDbDictionary
281
     1
  0
DICTIONARY
  5
2A
102
{ACAD_REACTORS
330
C
102
}
330
C
100
AcDbDictionary
281
     1
  3
2dWireframe
350
2F
  3
3D Hidden
350
31
  3
3dWireframe
350
30
  3
Basic
350
32
  3
Brighten
350
36
  3
ColorChange
350
3A
  3
Conceptual
350
34
  3
Dim
350
35
  3
Facepattern
350
39
  3
Flat
350
2B
  3
FlatWithEdges
350
2C
  3
Gouraud
350
2D
  3
GouraudWithEdges
350
2E
  3
Linepattern
350
38
  3
Realistic
350
33
  3
Thicken
350
37
  0
LAYOUT
  5
1E
102
{ACAD_REACTORS
330
1A
102
}
330
1A
100
AcDbPlotSettings
  1

  2
none_device
  4

  6

 40
0.0
 41
0.0
 42
0.0
 43
0.0
 44
0.0
 45
0.0
 46
0.0
 47
0.0
 48
0.0
 49
0.0
140
0.0
141
0.0
142
1.0
143
1.0
 70
   688
 72
     0
 73
     0
 74
     5
  7

 75
    16
 76
     0
 77
     2
 78
   300
147
1.0
148
0.0
149
0.0
100
AcDbLayout
  1
Layout1
 70
     1
 71
     1
 10
0.0
 20
0.0
 11
12.0
 21
9.0
 12
0.0
 22
0.0
 32
0.0
 14
1.000000000000000E+20
 24
1.000000000000000E+20
 34
1.000000000000000E+20
 15
-1.000000000000000E+20
 25
-1.000000000000000E+20
 35
-1.000000000000000E+20
146
0.0
 13
0.0
 23
0.0
 33
0.0
 16
1.0
 26
0.0
 36
0.0
 17
0.0
 27
1.0
 37
0.0
 76
     0
330
1B
  0
LAYOUT
  5
26
102
{ACAD_REACTORS
330
1A
102
}
330
1A
100
AcDbPlotSettings
  1

  2
none_device
  4

  6

 40
0.0
 41
0.0
 42
0.0
 43
0.0
 44
0.0
 45
0.0
 46
0.0
 47
0.0
 48
0.0
 49
0.0
140
0.0
141
0.0
142
1.0
143
1.0
 70
   688
 72
     0
 73
     0
 74
     5
  7

 75
    16
 76
     0
 77
     2
 78
   300
147
1.0
148
0.0
149
0.0
100
AcDbLayout
  1
Layout2
 70
     1
 71
     2
 10
0.0
 20
0.0
 11
0.0
 21
0.0
 12
0.0
 22
0.0
 32
0.0
 14
0.0
 24
0.0
 34
0.0
 15
0.0
 25
0.0
 35
0.0
146
0.0
 13
0.0
 23
0.0
 33
0.0
 16
1.0
 26
0.0
 36
0.0
 17
0.0
 27
1.0
 37
0.0
 76
     0
330
23
  0
LAYOUT
  5
22
102
{ACAD_REACTORS
330
1A
102
}
330
1A
100
AcDbPlotSettings
  1

  2
none_device
  4

  6

 40
0.0
 41
0.0
 42
0.0
 43
0.0
 44
0.0
 45
0.0
 46
0.0
 47
0.0
 48
0.0
 49
0.0
140
0.0
141
0.0
142
1.0
143
1.0
 70
  1712
 72
     0
 73
     0
 74
     0
  7

 75
     0
 76
     0
 77
     2
 78
   300
147
1.0
148
0.0
149
0.0
100
AcDbLayout
  1
Model
 70
     1
 71
     0
 10
0.0
 20
0.0
 11
12.0
 21
9.0
 12
0.0
 22
0.0
 32
0.0
 14
1.000000000000000E+20
 24
1.000000000000000E+20
 34
1.000000000000000E+20
 15
-1.000000000000000E+20
 25
-1.000000000000000E+20
 35
-1.000000000000000E+20
146
0.0
 13
0.0
 23
0.0
 33
0.0
 16
1.0
 26
0.0
 36
0.0
 17
0.0
 27
1.0
 37
0.0
 76
     0
330
1F
331
29
  0
MATERIAL
  5
3D
102
{ACAD_REACTORS
330
3B
102
}
330
3B
100
AcDbMaterial
  1
ByBlock
 72
     1
 94
      127
  0
MATERIAL
  5
3C
102
{ACAD_REACTORS
330
3B
102
}
330
3B
100
AcDbMaterial
  1
ByLayer
 72
     1
 94
      127
  0
MATERIAL
  5
3E
102
{ACAD_REACTORS
330
3B
102
}
330
3B
100
AcDbMaterial
  1
Global
 72
     1
 94
      127
  0
MLINESTYLE
  5
18
102
{ACAD_REACTORS
330
17
102
}
330
17
100
AcDbMlineStyle
  2
Standard
 70
     0
  3

 62
   256
 51
90.0
 52
90.0
 71
     2
 49
0.5
 62
   256
  6
BYLAYER
 49
-0.5
 62
   256
  6
BYLAYER
  0
ACDBPLACEHOLDER
  5
F
102
{ACAD_REACTORS
330
E
102
}
330
E
  0
VISUALSTYLE
  5
2F
102
{ACAD_REACTORS
330
2A
102
}
330
2A
100
AcDbVisualStyle
  2
2dWireframe
 70
     4
177
     2
291
     0
 71
     0
176
     1
 72
     2
176
     1
 73
     0
176
     1
 90
        0
176
     1
 40
-0.6
176
     1
 41
-30.0
176
     1
 62
     5
 63
     7
421
 16777215
176
     1
 74
     1
176
     1
 91
        4
176
     1
 64
     7
176
     1
 65
   257
176
     1
 75
     1
176
     1
175
     1
176
     1
 42
1.0
176
     1
 92
        0
176
     1
 66
   257
176
     1
 43
1.0
176
     1
 76
     1
176
     1
 77
     6
176
     1
 78
     2
176
     1
 67
     7
176
     1
 79
     5
176
     1
170
     0
176
     1
171
     0
176
     1
290
     0
176
     1
 93
        1
176
     1
 44
0.0
176
     1
173
     0
176
     1
  0
VISUALSTYLE
  5
31
102
{ACAD_REACTORS
330
2A
102
}
330
2A
100
AcDbVisualStyle
  2
3D Hidden
 70
     6
177
     2
291
     0
 71
     1
176
     1
 72
     2
176
     1
 73
     2
176
     1
 90
        0
176
     1
 40
-0.6
176
     1
 41
-30.0
176
     1
 62
     5
 63
     7
421
 16777215
176
     1
 74
     2
176
     1
 91
        2
176
     1
 64
     7
176
     1
 65
   257
176
     1
 75
     2
176
     1
175
     1
176
     1
 42
40.0
176
     1
 92
        0
176
     1
 66
   257
176
     1
 43
1.0
176
     1
 76
     1
176
     1
 77
     6
176
     1
 78
     2
176
     1
 67
     7
176
     1
 79
     3
176
     1
170
     0
176
     1
171
     0
176
     1
290
     0
176
     1
 93
        1
176
     1
 44
0.0
176
     1
173
     0
176
     1
  0
VISUALSTYLE
  5
30
102
{ACAD_REACTORS
330
2A
102
}
330
2A
100
AcDbVisualStyle
  2
3dWireframe
 70
     5
177
     2
291
     0
 71
     0
176
     1
 72
     2
176
     1
 73
     0
176
     1
 90
        0
176
     1
 40
-0.6
176
     1
 41
-30.0
176
     1
 62
     5
 63
     7
421
 16777215
176
     1
 74
     1
176
     1
 91
        4
176
     1
 64
     7
176
     1
 65
   257
176
     1
 75
     1
176
     1
175
     1
176
     1
 42
1.0
176
     1
 92
        0
176
     1
 66
   257
176
     1
 43
1.0
176
     1
 76
     1
176
     1
 77
     6
176
     1
 78
     2
176
     1
 67
     7
176
     1
 79
     5
176
     1
170
     0
176
     1
171
     0
176
     1
290
     0
176
     1
 93
        1
176
     1
 44
0.0
176
     1
173
     0
176
     1
  0
VISUALSTYLE
  5
32
102
{ACAD_REACTORS
330
2A
102
}
330
2A
100
AcDbVisualStyle
  2
Basic
 70
     7
177
     2
291
     1
 71
     1
176
     1
 72
     0
176
     1
 73
     1
176
     1
 90
        0
176
     1
 40
-0.6
176
     1
 41
-30.0
176
     1
 62
     5
 63
     7
421
 16777215
176
     1
 74
     0
176
     1
 91
        4
176
     1
 64
     7
176
     1
 65
   257
176
     1
 75
     1
176
     1
175
     1
176
     1
 42
1.0
176
     1
 92
        8
176
     1
 66
     7
176
     1
 43
1.0
176
     1
 76
     1
176
     1
 77
     6
176
     1
 78
     2
176
     1
 67
     7
176
     1
 79
     5
176
     1
170
     0
176
     1
171
     0
176
     1
290
     0
176
     1
 93
        1
176
     1
 44
0.0
176
     1
173
     0
176
     1
  0
VISUALSTYLE
  5
36
102
{ACAD_REACTORS
330
2A
102
}
330
2A
100
AcDbVisualStyle
  2
Brighten
 70
    12
177
     2
291
     1
 71
     2
176
     1
 72
     2
176
     1
 73
     0
176
     1
 90
        0
176
     1
 40
-0.6
176
     1
 41
-30.0
176
     1
 62
     5
 63
     7
421
 16777215
176
     1
 74
     1
176
     1
 91
        4
176
     1
 64
     7
176
     1
 65
   257
176
     1
 75
     1
176
     1
175
     1
176
     1
 42
1.0
176
     1
 92
        8
176
     1
 66
     7
176
     1
 43
1.0
176
     1
 76
     1
176
     1
 77
     6
176
     1
 78
     2
176
     1
 67
     7
176
     1
 79
     5
176
     1
170
     0
176
     1
171
     0
176
     1
290
     0
176
     1
 93
        1
176
     1
 44
50.0
176
     1
173
     0
176
     1
  0
VISUALSTYLE
  5
3A
102
{ACAD_REACTORS
330
2A
102
}
330
2A
100
AcDbVisualStyle
  2
ColorChange
 70
    16
177
     2
291
     1
 71
     2
176
     1
 72
     2
176
     1
 73
     3
176
     1
 90
        0
176
     1
 40
-0.6
176
     1
 41
-30.0
176
     1
 62
     5
 63
     8
421
  8421504
176
     1
 74
     1
176
     1
 91
        4
176
     1
 64
     7
176
     1
 65
   257
176
     1
 75
     1
176
     1
175
     1
176
     1
 42
1.0
176
     1
 92
        8
176
     1
 66
     8
424
  8421504
176
     1
 43
1.0
176
     1
 76
     1
176
     1
 77
     6
176
     1
 78
     2
176
     1
 67
     7
176
     1
 79
     5
176
     1
170
     0
176
     1
171
     0
176
     1
290
     0
176
     1
 93
        1
176
     1
 44
0.0
176
     1
173
     0
176
     1
  0
VISUALSTYLE
  5
34
102
{ACAD_REACTORS
330
2A
102
}
330
2A
100
AcDbVisualStyle
  2
Conceptual
 70
     9
177
     2
291
     0
 71
     3
176
     1
 72
     2
176
     1
 73
     0
176
     1
 90
        0
176
     1
 40
-0.6
176
     1
 41
-30.0
176
     1
 62
     5
 63
     7
421
 16777215
176
     1
 74
     2
176
     1
 91
        2
176
     1
 64
     7
176
     1
 65
   257
176
     1
 75
     1
176
     1
175
     1
176
     1
 42
40.0
176
     1
 92
        8
176
     1
 66
     7
176
     1
 43
1.0
176
     1
 76
     1
176
     1
 77
     6
176
     1
 78
     2
176
     1
 67
     7
176
     1
 79
     3
176
     1
170
     0
176
     1
171
     0
176
     1
290
     0
176
     1
 93
        1
176
     1
 44
0.0
176
     1
173
     0
176
     1
  0
VISUALSTYLE
  5
35
102
{ACAD_REACTORS
330
2A
102
}
330
2A
100
AcDbVisualStyle
  2
Dim
 70
    11
177
     2
291
     1
 71
     2
176
     1
 72
     2
176
     1
 73
     0
176
     1
 90
        0
176
     1
 40
-0.6
176
     1
 41
-30.0
176
     1
 62
     5
 63
     7
421
 16777215
176
     1
 74
     1
176
     1
 91
        4
176
     1
 64
     7
176
     1
 65
   257
176
     1
 75
     1
176
     1
175
     1
176
     1
 42
1.0
176
     1
 92
        8
176
     1
 66
     7
176
     1
 43
1.0
176
     1
 76
     1
176
     1
 77
     6
176
     1
 78
     2
176
     1
 67
     7
176
     1
 79
     5
176
     1
170
     0
176
     1
171
     0
176
     1
290
     0
176
     1
 93
        1
176
     1
 44
-50.0
176
     1
173
     0
176
     1
  0
VISUALSTYLE
  5
39
102
{ACAD_REACTORS
330
2A
102
}
330
2A
100
AcDbVisualStyle
  2
Facepattern
 70
    15
177
     2
291
     1
 71
     2
176
     1
 72
     2
176
     1
 73
     0
176
     1
 90
        0
176
     1
 40
-0.6
176
     1
 41
-30.0
176
     1
 62
     5
 63
     7
421
 16777215
176
     1
 74
     1
176
     1
 91
        4
176
     1
 64
     7
176
     1
 65
   257
176
     1
 75
     1
176
     1
175
     1
176
     1
 42
1.0
176
     1
 92
        8
176
     1
 66
     7
176
     1
 43
1.0
176
     1
 76
     1
176
     1
 77
     6
176
     1
 78
     2
176
     1
 67
     7
176
     1
 79
     5
176
     1
170
     0
176
     1
171
     0
176
     1
290
     0
176
     1
 93
        1
176
     1
 44
0.0
176
     1
173
     0
176
     1
  0
VISUALSTYLE
  5
2B
102
{ACAD_REACTORS
330
2A
102
}
330
2A
100
AcDbVisualStyle
  2
Flat
 70
     0
177
     2
291
     1
 71
     2
176
     1
 72
     1
176
     1
 73
     1
176
     1
 90
        2
176
     1
 40
-0.6
176
     1
 41
30.0
176
     1
 62
     5
 63
     7
421
 16777215
176
     1
 74
     0
176
     1
 91
        4
176
     1
 64
     7
176
     1
 65
   257
176
     1
 75
     1
176
     1
175
     1
176
     1
 42
1.0
176
     1
 92
        8
176
     1
 66
     7
176
     1
 43
1.0
176
     1
 76
     1
176
     1
 77
     6
176
     1
 78
     2
176
     1
 67
     7
176
     1
 79
     5
176
     1
170
     0
176
     1
171
     0
176
     1
290
     0
176
     1
 93
       13
176
     1
 44
0.0
176
     1
173
     0
176
     1
  0
VISUALSTYLE
  5
2C
102
{ACAD_REACTORS
330
2A
102
}
330
2A
100
AcDbVisualStyle
  2
FlatWithEdges
 70
     1
177
     2
291
     1
 71
     2
176
     1
 72
     1
176
     1
 73
     1
176
     1
 90
        2
176
     1
 40
-0.6
176
     1
 41
30.0
176
     1
 62
     5
 63
     7
421
 16777215
176
     1
 74
     1
176
     1
 91
        4
176
     1
 64
     7
176
     1
 65
   257
176
     1
 75
     1
176
     1
175
     1
176
     1
 42
1.0
176
     1
 92
        0
176
     1
 66
   257
176
     1
 43
1.0
176
     1
 76
     1
176
     1
 77
     6
176
     1
 78
     2
176
     1
 67
     7
176
     1
 79
     5
176
     1
170
     0
176
     1
171
     0
176
     1
290
     0
176
     1
 93
       13
176
     1
 44
0.0
176
     1
173
     0
176
     1
  0
VISUALSTYLE
  5
2D
102
{ACAD_REACTORS
330
2A
102
}
330
2A
100
AcDbVisualStyle
  2
Gouraud
 70
     2
177
     2
291
     1
 71
     2
176
     1
 72
     2
176
     1
 73
     1
176
     1
 90
        2
176
     1
 40
-0.6
176
     1
 41
30.0
176
     1
 62
     5
 63
     7
421
 16777215
176
     1
 74
     0
176
     1
 91
        4
176
     1
 64
     7
176
     1
 65
   257
176
     1
 75
     1
176
     1
175
     1
176
     1
 42
1.0
176
     1
 92
        0
176
     1
 66
     7
176
     1
 43
1.0
176
     1
 76
     1
176
     1
 77
     6
176
     1
 78
     2
176
     1
 67
     7
176
     1
 79
     5
176
     1
170
     0
176
     1
171
     0
176
     1
290
     0
176
     1
 93
       13
176
     1
 44
0.0
176
     1
173
     0
176
     1
  0
VISUALSTYLE
  5
2E
102
{ACAD_REACTORS
330
2A
102
}
330
2A
100
AcDbVisualStyle
  2
GouraudWithEdges
 70
     3
177
     2
291
     1
 71
     2
176
     1
 72
     2
176
     1
 73
     1
176
     1
 90
        2
176
     1
 40
-0.6
176
     1
 41
30.0
176
     1
 62
     5
 63
     7
421
 16777215
176
     1
 74
     1
176
     1
 91
        4
176
     1
 64
     7
176
     1
 65
   257
176
     1
 75
     1
176
     1
175
     1
176
     1
 42
1.0
176
     1
 92
        0
176
     1
 66
   257
176
     1
 43
1.0
176
     1
 76
     1
176
     1
 77
     6
176
     1
 78
     2
176
     1
 67
     7
176
     1
 79
     5
176
     1
170
     0
176
     1
171
     0
176
     1
290
     0
176
     1
 93
       13
176
     1
 44
0.0
176
     1
173
     0
176
     1
  0
VISUALSTYLE
  5
38
102
{ACAD_REACTORS
330
2A
102
}
330
2A
100
AcDbVisualStyle
  2
Linepattern
 70
    14
177
     2
291
     1
 71
     2
176
     1
 72
     2
176
     1
 73
     0
176
     1
 90
        0
176
     1
 40
-0.6
176
     1
 41
-30.0
176
     1
 62
     5
 63
     7
421
 16777215
176
     1
 74
     1
176
     1
 91
        4
176
     1
 64
     7
176
     1
 65
   257
176
     1
 75
     7
176
     1
175
     7
176
     1
 42
1.0
176
     1
 92
        8
176
     1
 66
     7
176
     1
 43
1.0
176
     1
 76
     1
176
     1
 77
     6
176
     1
 78
     2
176
     1
 67
     7
176
     1
 79
     5
176
     1
170
     0
176
     1
171
     0
176
     1
290
     0
176
     1
 93
        1
176
     1
 44
0.0
176
     1
173
     0
176
     1
  0
VISUALSTYLE
  5
33
102
{ACAD_REACTORS
330
2A
102
}
330
2A
100
AcDbVisualStyle
  2
Realistic
 70
     8
177
     2
291
     0
 71
     2
176
     1
 72
     2
176
     1
 73
     0
176
     1
 90
        0
176
     1
 40
-0.6
176
     1
 41
-30.0
176
     1
 62
     5
 63
     7
421
 16777215
176
     1
 74
     1
176
     1
 91
        0
176
     1
 64
     7
176
     1
 65
   257
176
     1
 75
     1
176
     1
175
     1
176
     1
 42
1.0
176
     1
 92
        8
176
     1
 66
     8
424
  7895160
176
     1
 43
1.0
176
     1
 76
     1
176
     1
 77
     6
176
     1
 78
     2
176
     1
 67
     7
176
     1
 79
     5
176
     1
170
     0
176
     1
171
     0
176
     1
290
     0
176
     1
 93
       13
176
     1
 44
0.0
176
     1
173
     0
176
     1
  0
VISUALSTYLE
  5
37
102
{ACAD_REACTORS
330
2A
102
}
330
2A
100
AcDbVisualStyle
  2
Thicken
 70
    13
177
     2
291
     1
 71
     2
176
     1
 72
     2
176
     1
 73
     0
176
     1
 90
        0
176
     1
 40
-0.6
176
     1
 41
-30.0
176
     1
 62
     5
 63
     7
421
 16777215
176
     1
 74
     1
176
     1
 91
        4
176
     1
 64
     7
176
     1
 65
   257
176
     1
 75
     1
176
     1
175
     1
176
     1
 42
1.0
176
     1
 92
       12
176
     1
 66
     7
176
     1
 43
1.0
176
     1
 76
     1
176
     1
 77
     6
176
     1
 78
     2
176
     1
 67
     7
176
     1
 79
     5
176
     1
170
     0
176
     1
171
     0
176
     1
290
     0
176
     1
 93
        1
176
     1
 44
0.0
176
     1
173
     0
176
     1
  0
ENDSEC
  0
EOF
