  0
SECTION
  2
HEADER
  9
$ACADVER
  1
AC1024
  9
$ACADMAINTVER
 70
     6
  9
$DWGCODEPAGE
  3
UNDEFINED
  9
$INSBASE
 10
0.0
 20
0.0
 30
0.0
  9
$EXTMIN
 10
1.000000000000000E+20
 20
1.000000000000000E+20
 30
1.000000000000000E+20
  9
$EXTMAX
 10
-1.000000000000000E+20
 20
-1.000000000000000E+20
 30
-1.000000000000000E+20
  9
$LIMMIN
 10
0.0
 20
0.0
  9
$LIMMAX
 10
12.0
 20
9.0
  9
$ORTHOMODE
 70
     0
  9
$REGENMODE
 70
     1
  9
$FILLMODE
 70
     1
  9
$QTEXTMODE
 70
     0
  9
$MIRRTEXT
 70
     1
  9
$LTSCALE
 40
1.0
  9
$ATTMODE
 70
     1
  9
$TEXTSIZE
 40
0.2
  9
$TRACEWID
 40
0.05
  9
$TEXTSTYLE
  7
Standard
  9
$CLAYER
  8
0
  9
$CELTYPE
  6
ByLayer
  9
$CECOLOR
 62
   256
  9
$CELTSCALE
 40
1.0
  9
$DISPSILH
 70
     0
  9
$DIMSCALE
 40
1.0
  9
$DIMASZ
 40
0.18
  9
$DIMEXO
 40
0.0625
  9
$DIMDLI
 40
0.38
  9
$DIMRND
 40
0.0
  9
$DIMDLE
 40
0.0
  9
$DIMEXE
 40
0.18
  9
$DIMTP
 40
0.0
  9
$DIMTM
 40
0.0
  9
$DIMTXT
 40
0.18
  9
$DIMCEN
 40
0.09
  9
$DIMTSZ
 40
0.0
  9
$DIMTOL
 70
     0
  9
$DIMLIM
 70
     0
  9
$DIMTIH
 70
     1
  9
$DIMTOH
 70
     1
  9
$DIMSE1
 70
     0
  9
$DIMSE2
 70
     0
  9
$DIMTAD
 70
     0
  9
$DIMZIN
 70
     0
  9
$DIMBLK
  1

  9
$DIMASO
 70
     1
  9
$DIMSHO
 70
     1
  9
$DIMPOST
  1

  9
$DIMAPOST
  1

  9
$DIMALT
 70
     0
  9
$DIMALTD
 70
     2
  9
$DIMALTF
 40
25.4
  9
$DIMLFAC
 40
1.0
  9
$DIMTOFL
 70
     0
  9
$DIMTVP
 40
0.0
  9
$DIMTIX
 70
     0
  9
$DIMSOXD
 70
     0
  9
$DIMSAH
 70
     0
  9
$DIMBLK1
  1

  9
$DIMBLK2
  1

  9
$DIMSTYLE
  2
Standard
  9
$DIMCLRD
 70
     0
  9
$DIMCLRE
 70
     0
  9
$DIMCLRT
 70
     0
  9
$DIMTFAC
 40
1.0
  9
$DIMGAP
 40
0.09
  9
$DIMJUST
 70
     0
  9
$DIMSD1
 70
     0
  9
$DIMSD2
 70
     0
  9
$DIMTOLJ
 70
     1
  9
$DIMTZIN
 70
     0
  9
$DIMALTZ
 70
     0
  9
$DIMALTTZ
 70
     0
  9
$DIMUPT
 70
     0
  9
$DIMDEC
 70
     4
  9
$DIMTDEC
 70
     4
  9
$DIMALTU
 70
     2
  9
$DIMALTTD
 70
     2
  9
$DIMTXSTY
  7
Standard
  9
$DIMAUNIT
 70
     0
  9
$DIMADEC
 70
     0
  9
$DIMALTRND
 40
0.0
  9
$DIMAZIN
 70
     0
  9
$DIMDSEP
 70
    46
  9
$DIMATFIT
 70
     3
  9
$DIMFRAC
 70
     0
  9
$DIMLDRBLK
  1

  9
$DIMLUNIT
 70
     2
  9
$DIMLWD
 70
    -2
  9
$DIMLWE
 70
    -2
  9
$DIMTMOVE
 70
     0
  9
$DIMFXL
 40
1.0
  9
$DIMFXLON
 70
     0
  9
$DIMJOGANG
 40
0.7853981633974483
  9
$DIMTFILL
 70
     0
  9
$DIMTFILLCLR
 70
     0
  9
$DIMARCSYM
 70
     0
  9
$DIMLTYPE
  6

  9
$DIMLTEX1
  6

  9
$DIMLTEX2
  6

  9
$DIMTXTDIRECTION
 70
     0
  9
$LUNITS
 70
     2
  9
$LUPREC
 70
     4
  9
$SKETCHINC
 40
0.1
  9
$FILLETRAD
 40
0.5
  9
$AUNITS
 70
     0
  9
$AUPREC
 70
     0
  9
$MENU
  1
.
  9
$ELEVATION
 40
0.0
  9
$PELEVATION
 40
0.0
  9
$THICKNESS
 40
0.0
  9
$LIMCHECK
 70
     0
  9
$CHAMFERA
 40
0.5
  9
$CHAMFERB
 40
0.5
  9
$CHAMFERC
 40
1.0
  9
$CHAMFERD
 40
0.0
  9
$SKPOLY
 70
     0
  9
$TDCREATE
 40
2457917.620150463
  9
$TDUCREATE
 40
2457917.245150463
  9
$TDUPDATE
 40
2457917.620150463
  9
$TDUUPDATE
 40
2457917.245150463
  9
$TDINDWG
 40
0.0000000116
  9
$TDUSRTIMER
 40
0.0000000116
  9
$USRTIMER
 70
     1
  9
$ANGBASE
 50
0.0
  9
$ANGDIR
 70
     0
  9
$PDMODE
 70
     0
  9
$PDSIZE
 40
0.0
  9
$PLINEWID
 40
0.0
  9
$SPLFRAME
 70
     0
  9
$SPLINETYPE
 70
     6
  9
$SPLINESEGS
 70
     8
  9
$HANDSEED
  5
A4
  9
$SURFTAB1
 70
     6
  9
$SURFTAB2
 70
     6
  9
$SURFTYPE
 70
     6
  9
$SURFU
 70
     6
  9
$SURFV
 70
     6
  9
$UCSBASE
  2

  9
$UCSNAME
  2

  9
$UCSORG
 10
0.0
 20
0.0
 30
0.0
  9
$UCSXDIR
 10
1.0
 20
0.0
 30
0.0
  9
$UCSYDIR
 10
0.0
 20
1.0
 30
0.0
  9
$UCSORTHOREF
  2

  9
$UCSORTHOVIEW
 70
     0
  9
$UCSORGTOP
 10
0.0
 20
0.0
 30
0.0
  9
$UCSORGBOTTOM
 10
0.0
 20
0.0
 30
0.0
  9
$UCSORGLEFT
 10
0.0
 20
0.0
 30
0.0
  9
$UCSORGRIGHT
 10
0.0
 20
0.0
 30
0.0
  9
$UCSORGFRONT
 10
0.0
 20
0.0
 30
0.0
  9
$UCSORGBACK
 10
0.0
 20
0.0
 30
0.0
  9
$PUCSBASE
  2

  9
$PUCSNAME
  2

  9
$PUCSORG
 10
0.0
 20
0.0
 30
0.0
  9
$PUCSXDIR
 10
1.0
 20
0.0
 30
0.0
  9
$PUCSYDIR
 10
0.0
 20
1.0
 30
0.0
  9
$PUCSORTHOREF
  2

  9
$PUCSORTHOVIEW
 70
     0
  9
$PUCSORGTOP
 10
0.0
 20
0.0
 30
0.0
  9
$PUCSORGBOTTOM
 10
0.0
 20
0.0
 30
0.0
  9
$PUCSORGLEFT
 10
0.0
 20
0.0
 30
0.0
  9
$PUCSORGRIGHT
 10
0.0
 20
0.0
 30
0.0
  9
$PUCSORGFRONT
 10
0.0
 20
0.0
 30
0.0
  9
$PUCSORGBACK
 10
0.0
 20
0.0
 30
0.0
  9
$USERI1
 70
     0
  9
$USERI2
 70
     0
  9
$USERI3
 70
     0
  9
$USERI4
 70
     0
  9
$USERI5
 70
     0
  9
$USERR1
 40
0.0
  9
$USERR2
 40
0.0
  9
$USERR3
 40
0.0
  9
$USERR4
 40
0.0
  9
$USERR5
 40
0.0
  9
$WORLDVIEW
 70
     1
  9
$SHADEDGE
 70
     3
  9
$SHADEDIF
 70
    70
  9
$TILEMODE
 70
     1
  9
$MAXACTVP
 70
    64
  9
$PINSBASE
 10
0.0
 20
0.0
 30
0.0
  9
$PLIMCHECK
 70
     0
  9
$PEXTMIN
 10
1.000000000000000E+20
 20
1.000000000000000E+20
 30
1.000000000000000E+20
  9
$PEXTMAX
 10
-1.000000000000000E+20
 20
-1.000000000000000E+20
 30
-1.000000000000000E+20
  9
$PLIMMIN
 10
0.0
 20
0.0
  9
$PLIMMAX
 10
12.0
 20
9.0
  9
$UNITMODE
 70
     0
  9
$VISRETAIN
 70
     1
  9
$PLINEGEN
 70
     0
  9
$PSLTSCALE
 70
     1
  9
$TREEDEPTH
 70
  3020
  9
$CMLSTYLE
  2
Standard
  9
$CMLJUST
 70
     0
  9
$CMLSCALE
 40
1.0
  9
$PROXYGRAPHICS
 70
     1
  9
$MEASUREMENT
 70
     0
  9
$CELWEIGHT
370
    -1
  9
$ENDCAPS
280
     0
  9
$JOINSTYLE
280
     0
  9
$LWDISPLAY
290
     1
  9
$INSUNITS
 70
     1
  9
$HYPERLINKBASE
  1

  9
$STYLESHEET
  1

  9
$XEDIT
290
     1
  9
$CEPSNTYPE
380
     0
  9
$PSTYLEMODE
290
     1
  9
$FINGERPRINTGUID
  2
{99B5C29B-9B38-B8DF-6F6D-B7591EDE61C5}
  9
$VERSIONGUID
  2
{FAEB1C32-E019-11D5-929B-00C0DF256EC4}
  9
$EXTNAMES
290
     1
  9
$PSVPSCALE
 40
0.0
  9
$OLESTARTUP
290
     0
  9
$SORTENTS
280
   127
  9
$INDEXCTL
280
     0
  9
$HIDETEXT
280
     1
  9
$XCLIPFRAME
280
     2
  9
$HALOGAP
280
     0
  9
$OBSCOLOR
 70
   257
  9
$OBSLTYPE
280
     0
  9
$INTERSECTIONDISPLAY
280
     0
  9
$INTERSECTIONCOLOR
 70
   257
  9
$DIMASSOC
280
     2
  9
$PROJECTNAME
  1

  9
$CAMERADISPLAY
290
     0
  9
$LENSLENGTH
 40
50.0
  9
$CAMERAHEIGHT
 40
0.0
  9
$STEPSPERSEC
 40
2.0
  9
$STEPSIZE
 40
6.0
  9
$3DDWFPREC
 40
2.0
  9
$PSOLWIDTH
 40
0.25
  9
$PSOLHEIGHT
 40
4.0
  9
$LOFTANG1
 40
1.570796326794897
  9
$LOFTANG2
 40
1.570796326794897
  9
$LOFTMAG1
 40
0.0
  9
$LOFTMAG2
 40
0.0
  9
$LOFTPARAM
 70
     7
  9
$LOFTNORMALS
280
     1
  9
$LATITUDE
 40
37.795
  9
$LONGITUDE
 40
-122.394
  9
$NORTHDIRECTION
 40
0.0
  9
$TIMEZONE
 70
 -8000
  9
$LIGHTGLYPHDISPLAY
280
     1
  9
$TILEMODELIGHTSYNCH
280
     1
  9
$CMATERIAL
347
3C
  9
$SOLIDHIST
280
     1
  9
$SHOWHIST
280
     1
  9
$DWFFRAME
280
     2
  9
$DGNFRAME
280
     2
  9
$REALWORLDSCALE
290
     1
  9
$INTERFERECOLOR
 62
   256
  9
$CSHADOW
280
     0
  9
$SHADOWPLANELOCATION
 40
0.0
  0
ENDSEC
  0
SECTION
  2
CLASSES
  0
CLASS
  1
ACDBDICTIONARYWDFLT
  2
AcDbDictionaryWithDefault
  3
ObjectDBX Classes
 90
        0
 91
        4
280
     0
281
     0
  0
CLASS
  1
VISUALSTYLE
  2
AcDbVisualStyle
  3
ObjectDBX Classes
 90
     4095
 91
        4
280
     0
281
     0
  0
CLASS
  1
MATERIAL
  2
AcDbMaterial
  3
ObjectDBX Classes
 90
     1153
 91
        4
280
     0
281
     0
  0
CLASS
  1
SUN
  2
AcDbSun
  3
SCENEOE
 90
     1024
 91
        4
280
     0
281
     0
  0
ENDSEC
  0
SECTION
  2
TABLES
  0
TABLE
  2
VPORT
  5
8
330
0
100
AcDbSymbolTable
 70
     1
  0
VPORT
  5
29
330
8
100
AcDbSymbolTableRecord
100
AcDbViewportTableRecord
  2
*Active
 70
     0
 10
0.0
 20
0.0
 11
1.0
 21
1.0
 12
0.0
 22
0.0
 13
0.0
 23
0.0
 14
0.5
 24
0.5
 15
0.5
 25
0.5
 16
0.0
 26
0.0
 36
1.0
 17
91.00082462281999
 27
-128.4993055234307
 37
0.0
 40
256.9986110468615
 41
0.7081814508812795
 42
50.0
 43
0.0
 44
0.0
 50
0.0
 51
0.0
 71
     0
 72
   100
 73
     1
 74
     3
 75
     0
 76
     0
 77
     0
 78
     0
281
     0
 65
     1
110
0.0
120
0.0
130
0.0
111
1.0
121
0.0
131
0.0
112
0.0
122
1.0
132
0.0
 79
     0
146
0.0
 60
     3
 61
     5
292
     1
282
     1
141
0.0
142
0.0
 63
   250
361
3F
  0
ENDTAB
  0
TABLE
  2
LTYPE
  5
5
330
0
100
AcDbSymbolTable
 70
     1
  0
LTYPE
  5
14
330
5
100
AcDbSymbolTableRecord
100
AcDbLinetypeTableRecord
  2
ByBlock
 70
     0
  3

 72
    65
 73
     0
 40
0.0
  0
LTYPE
  5
15
330
5
100
AcDbSymbolTableRecord
100
AcDbLinetypeTableRecord
  2
ByLayer
 70
     0
  3

 72
    65
 73
     0
 40
0.0
  0
LTYPE
  5
16
330
5
100
AcDbSymbolTableRecord
100
AcDbLinetypeTableRecord
  2
Continuous
 70
     0
  3
Solid line
 72
    65
 73
     0
 40
0.0
  0
ENDTAB
  0
TABLE
  2
LAYER
  5
2
330
0
100
AcDbSymbolTable
 70
     2
  0
LAYER
  5
10
330
2
100
AcDbSymbolTableRecord
100
AcDbLayerTableRecord
  2
0
 70
     0
 62
     7
  6
Continuous
370
    -3
390
F
347
3E
  0
LAYER
  5
40
330
2
100
AcDbSymbolTableRecord
100
AcDbLayerTableRecord
  2
_U+30EC_U+30A4_U+30E4_U+30FC 1
 70
     0
 62
     7
  6
Continuous
370
    -3
390
F
347
3E
  0
ENDTAB
  0
TABLE
  2
STYLE
  5
3
330
0
100
AcDbSymbolTable
 70
     1
  0
STYLE
  5
11
330
3
100
AcDbSymbolTableRecord
100
AcDbTextStyleTableRecord
  2
Standard
 70
     0
 40
0.0
 41
1.0
 50
0.0
 71
     0
 42
0.2
  3
txt
  4

  0
ENDTAB
  0
TABLE
  2
VIEW
  5
6
330
0
100
AcDbSymbolTable
 70
     0
  0
ENDTAB
  0
TABLE
  2
UCS
  5
7
330
0
100
AcDbSymbolTable
 70
     0
  0
ENDTAB
  0
TABLE
  2
APPID
  5
9
330
0
100
AcDbSymbolTable
 70
     1
  0
APPID
  5
12
330
9
100
AcDbSymbolTableRecord
100
AcDbRegAppTableRecord
  2
ACAD
 70
     0
  0
ENDTAB
  0
TABLE
  2
DIMSTYLE
  5
A
330
0
100
AcDbSymbolTable
 70
     1
100
AcDbDimStyleTable
  0
DIMSTYLE
105
27
330
A
100
AcDbSymbolTableRecord
100
AcDbDimStyleTableRecord
  2
Standard
 70
     0
178
     0
340
11
  0
ENDTAB
  0
TABLE
  2
BLOCK_RECORD
  5
1
330
0
100
AcDbSymbolTable
 70
     6
  0
BLOCK_RECORD
  5
1F
330
1
100
AcDbSymbolTableRecord
100
AcDbBlockTableRecord
  2
*Model_Space
340
22
 70
     0
280
     1
281
     0
  0
BLOCK_RECORD
  5
1B
330
1
100
AcDbSymbolTableRecord
100
AcDbBlockTableRecord
  2
*Paper_Space
340
1E
 70
     0
280
     1
281
     0
  0
BLOCK_RECORD
  5
23
330
1
100
AcDbSymbolTableRecord
100
AcDbBlockTableRecord
  2
*Paper_Space0
340
26
 70
     0
280
     1
281
     0
  0
BLOCK_RECORD
  5
5A
330
1
100
AcDbSymbolTableRecord
100
AcDbBlockTableRecord
  2
block 2
340
0
102
{BLKREFS
331
5B
102
}
 70
     0
280
     1
281
     0
  0
BLOCK_RECORD
  5
62
330
1
100
AcDbSymbolTableRecord
100
AcDbBlockTableRecord
  2
block 3
340
0
102
{BLKREFS
331
63
102
}
 70
     0
280
     1
281
     0
  0
BLOCK_RECORD
  5
76
330
1
100
AcDbSymbolTableRecord
100
AcDbBlockTableRecord
  2
block 4
340
0
102
{BLKREFS
331
77
102
}
 70
     0
280
     1
281
     0
  0
BLOCK_RECORD
  5
8C
330
1
100
AcDbSymbolTableRecord
100
AcDbBlockTableRecord
  2
block 5
340
0
102
{BLKREFS
331
8D
102
}
 70
     0
280
     1
281
     0
  0
BLOCK_RECORD
  5
94
330
1
100
AcDbSymbolTableRecord
100
AcDbBlockTableRecord
  2
block 6
340
0
102
{BLKREFS
331
95
102
}
 70
     0
280
     1
281
     0
  0
ENDTAB
  0
ENDSEC
  0
SECTION
  2
BLOCKS
  0
BLOCK
  5
20
330
1F
100
AcDbEntity
  8
0
100
AcDbBlockBegin
  2
*Model_Space
 70
     0
 10
0.0
 20
0.0
 30
0.0
  3
*Model_Space
  1

  0
ENDBLK
  5
21
330
1F
100
AcDbEntity
  8
0
100
AcDbBlockEnd
  0
BLOCK
  5
1C
330
1B
100
AcDbEntity
 67
     1
  8
0
100
AcDbBlockBegin
  2
*Paper_Space
 70
     0
 10
0.0
 20
0.0
 30
0.0
  3
*Paper_Space
  1

  0
ENDBLK
  5
1D
330
1B
100
AcDbEntity
 67
     1
  8
0
100
AcDbBlockEnd
  0
BLOCK
  5
24
330
23
100
AcDbEntity
  8
0
100
AcDbBlockBegin
  2
*Paper_Space0
 70
     0
 10
0.0
 20
0.0
 30
0.0
  3
*Paper_Space0
  1

  0
ENDBLK
  5
25
330
23
100
AcDbEntity
  8
0
100
AcDbBlockEnd
  0
BLOCK
  5
5C
330
5A
100
AcDbEntity
  8
0
100
AcDbBlockBegin
  2
block 2
 70
     0
 10
0.0
 20
0.0
 30
0.0
  3
block 2
  1

  0
SPLINE
  5
5E
330
5A
100
AcDbEntity
  8
_U+30EC_U+30A4_U+30E4_U+30FC 1
370
     0
100
AcDbSpline
210
0.0
220
0.0
230
1.0
 70
    11
 71
     3
 72
    26
 73
    22
 74
     0
 42
0.0000000001
 43
0.0000000001
 12
1.0
 22
0.0
 32
0.0
 13
1.0
 23
0.0
 33
0.0
 40
0.0
 40
0.0
 40
0.0
 40
0.0
 40
1.0
 40
1.0
 40
1.0
 40
2.0
 40
2.0
 40
2.0
 40
3.0
 40
3.0
 40
3.0
 40
4.0
 40
4.0
 40
4.0
 40
5.0
 40
5.0
 40
5.0
 40
6.0
 40
6.0
 40
6.0
 40
7.0
 40
7.0
 40
7.0
 40
7.0
 10
107.5234971519386
 20
-132.3743489252398
 30
0.0
 10
107.5234971519386
 20
-132.3743489252398
 30
0.0
 10
106.4189995393675
 20
-132.3743489252398
 30
0.0
 10
106.4189995393675
 20
-132.3743489252398
 30
0.0
 10
106.4189995393675
 20
-132.3743489252398
 30
0.0
 10
106.4189995393675
 20
-132.7043890727267
 30
0.0
 10
106.4189995393675
 20
-132.7043890727267
 30
0.0
 10
106.4189995393675
 20
-132.7043890727267
 30
0.0
 10
106.2708604335017
 20
-132.7043890727267
 30
0.0
 10
106.2708604335017
 20
-132.7043890727267
 30
0.0
 10
106.2563910324637
 20
-132.3722818679486
 30
0.0
 10
106.0930935064628
 20
-132.3257730788977
 30
0.0
 10
105.9787163363525
 20
-132.2961452577246
 30
0.0
 10
105.9787163363525
 20
-132.2961452577246
 30
0.0
 10
105.9787163363525
 20
-132.15007320915
 30
0.0
 10
105.9787163363525
 20
-132.15007320915
 30
0.0
 10
105.9787163363525
 20
-132.15007320915
 30
0.0
 10
107.5234971519386
 20
-132.15007320915
 30
0.0
 10
107.5234971519386
 20
-132.15007320915
 30
0.0
 10
107.5234971519386
 20
-132.15007320915
 30
0.0
 10
107.5234971519386
 20
-132.3743489252398
 30
0.0
 10
107.5234971519386
 20
-132.3743489252398
 30
0.0
  0
HATCH
  5
5F
330
5A
100
AcDbEntity
  8
_U+30EC_U+30A4_U+30E4_U+30FC 1
 62
   179
420
  2234388
100
AcDbHatch
 10
0.0
 20
0.0
 30
0.0
210
0.0
220
0.0
230
1.0
  2
SOLID
 70
     1
 71
     0
 91
        1
 92
        1
 93
        1
 72
     4
 94
        3
 73
     0
 74
     1
 95
       26
 96
       22
 40
0.0
 40
0.0
 40
0.0
 40
0.0
 40
1.0
 40
1.0
 40
1.0
 40
2.0
 40
2.0
 40
2.0
 40
3.0
 40
3.0
 40
3.0
 40
4.0
 40
4.0
 40
4.0
 40
5.0
 40
5.0
 40
5.0
 40
6.0
 40
6.0
 40
6.0
 40
7.0
 40
7.0
 40
7.0
 40
7.0
 10
107.5234971519386
 20
-132.3743489252398
 10
107.5234971519386
 20
-132.3743489252398
 10
106.4189995393675
 20
-132.3743489252398
 10
106.4189995393675
 20
-132.3743489252398
 10
106.4189995393675
 20
-132.3743489252398
 10
106.4189995393675
 20
-132.7043890727267
 10
106.4189995393675
 20
-132.7043890727267
 10
106.4189995393675
 20
-132.7043890727267
 10
106.2708604335017
 20
-132.7043890727267
 10
106.2708604335017
 20
-132.7043890727267
 10
106.2563910324637
 20
-132.3722818679486
 10
106.0930935064628
 20
-132.3257730788977
 10
105.9787163363525
 20
-132.2961452577246
 10
105.9787163363525
 20
-132.2961452577246
 10
105.9787163363525
 20
-132.15007320915
 10
105.9787163363525
 20
-132.15007320915
 10
105.9787163363525
 20
-132.15007320915
 10
107.5234971519386
 20
-132.15007320915
 10
107.5234971519386
 20
-132.15007320915
 10
107.5234971519386
 20
-132.15007320915
 10
107.5234971519386
 20
-132.3743489252398
 10
107.5234971519386
 20
-132.3743489252398
 97
        0
 97
        0
 75
     2
 76
     1
 98
        0
  0
SPLINE
  5
60
330
5A
100
AcDbEntity
  8
_U+30EC_U+30A4_U+30E4_U+30FC 1
370
     0
100
AcDbSpline
210
0.0
220
0.0
230
1.0
 70
    11
 71
     3
 72
    62
 73
    58
 74
     0
 42
0.0000000001
 43
0.0000000001
 12
1.0
 22
0.0
 32
0.0
 13
1.0
 23
0.0
 33
0.0
 40
0.0
 40
0.0
 40
0.0
 40
0.0
 40
1.0
 40
1.0
 40
1.0
 40
2.0
 40
2.0
 40
2.0
 40
3.0
 40
3.0
 40
3.0
 40
4.0
 40
4.0
 40
4.0
 40
5.0
 40
5.0
 40
5.0
 40
6.0
 40
6.0
 40
6.0
 40
7.0
 40
7.0
 40
7.0
 40
8.0
 40
8.0
 40
8.0
 40
9.0
 40
9.0
 40
9.0
 40
10.0
 40
10.0
 40
10.0
 40
11.0
 40
11.0
 40
11.0
 40
12.0
 40
12.0
 40
12.0
 40
13.0
 40
13.0
 40
13.0
 40
14.0
 40
14.0
 40
14.0
 40
15.0
 40
15.0
 40
15.0
 40
16.0
 40
16.0
 40
16.0
 40
17.0
 40
17.0
 40
17.0
 40
18.0
 40
18.0
 40
18.0
 40
19.0
 40
19.0
 40
19.0
 40
19.0
 10
107.5737955460232
 20
-131.157196690301
 30
0.0
 10
107.5737955460232
 20
-131.2526258352424
 30
0.0
 10
107.5531249731117
 20
-131.4703558699102
 30
0.0
 10
107.3670898169082
 20
-131.5954128360248
 30
0.0
 10
107.2547797040891
 20
-131.6694823889576
 30
0.0
 10
107.1555609541139
 20
-131.6736165035399
 30
0.0
 10
107.0708116051767
 20
-131.6777506181222
 30
0.0
 10
107.0708116051767
 20
-131.6777506181222
 30
0.0
 10
107.0708116051767
 20
-131.4576090166148
 30
0.0
 10
107.0708116051767
 20
-131.4576090166148
 30
0.0
 10
107.1445366485611
 20
-131.4555419593236
 30
0.0
 10
107.3794921606551
 20
-131.4452066728679
 30
0.0
 10
107.3794921606551
 20
-131.1616753144318
 30
0.0
 10
107.3794921606551
 20
-131.0242160045703
 30
0.0
 10
107.3099012318531
 20
-130.8715982745738
 30
0.0
 10
107.0811468916325
 20
-130.8715982745738
 30
0.0
 10
106.9647026642311
 20
-130.8715982745738
 30
0.0
 10
106.9164713274375
 20
-130.90983883446
 30
0.0
 10
106.8847764489733
 20
-130.9415337129244
 30
0.0
 10
106.8103623864919
 20
-131.0156032658572
 30
0.0
 10
106.797960042745
 20
-131.1320474932587
 30
0.0
 10
106.797960042745
 20
-131.1868245114741
 30
0.0
 10
106.797960042745
 20
-131.2061170461915
 30
0.0
 10
106.8000271000361
 20
-131.2419460392381
 30
0.0
 10
106.8041612146184
 20
-131.2695068031201
 30
0.0
 10
106.8041612146184
 20
-131.2695068031201
 30
0.0
 10
106.6091688101533
 20
-131.2695068031201
 30
0.0
 10
106.6091688101533
 20
-131.2695068031201
 30
0.0
 10
106.6160590011238
 20
-131.2312662432338
 30
0.0
 10
106.6181260584149
 20
-131.1892360783138
 30
0.0
 10
106.6181260584149
 20
-131.1826903968918
 30
0.0
 10
106.6181260584149
 20
-131.1172335826721
 30
0.0
 10
106.5967664664064
 20
-130.9184515731732
 30
0.0
 10
106.3597438970212
 20
-130.9184515731732
 30
0.0
 10
106.1819769699823
 20
-130.9184515731732
 30
0.0
 10
106.1268554422183
 20
-131.0493652016127
 30
0.0
 10
106.1268554422183
 20
-131.1596082571407
 30
0.0
 10
106.1268554422183
 20
-131.4238470808593
 30
0.0
 10
106.3597438970212
 20
-131.4324598195724
 30
0.0
 10
106.4314018831144
 20
-131.4365939341548
 30
0.0
 10
106.4314018831144
 20
-131.4365939341548
 30
0.0
 10
106.4314018831144
 20
-131.6398545677845
 30
0.0
 10
106.4314018831144
 20
-131.6398545677845
 30
0.0
 10
106.3066894265483
 20
-131.6312418290714
 30
0.0
 10
105.9304849995591
 20
-131.6036810651894
 30
0.0
 10
105.9304849995591
 20
-131.1468614038452
 30
0.0
 10
105.9304849995591
 20
-130.9225856877555
 30
0.0
 10
106.0572645134162
 20
-130.681429003788
 30
0.0
 10
106.3535427251477
 20
-130.681429003788
 30
0.0
 10
106.5395778813512
 20
-130.681429003788
 30
0.0
 10
106.6222601729972
 20
-130.7765136391809
 30
0.0
 10
106.6835828726347
 20
-130.8760768987046
 30
0.0
 10
106.7111436365167
 20
-130.8147541990672
 30
0.0
 10
106.7910698517745
 20
-130.632853157446
 30
0.0
 10
107.0687445478856
 20
-130.632853157446
 30
0.0
 10
107.4070529245371
 20
-130.632853157446
 30
0.0
 10
107.5737955460232
 20
-130.8802110132869
 30
0.0
 10
107.5737955460232
 20
-131.157196690301
 30
0.0
  0
HATCH
  5
61
330
5A
100
AcDbEntity
  8
_U+30EC_U+30A4_U+30E4_U+30FC 1
 62
   179
420
  2234388
100
AcDbHatch
 10
0.0
 20
0.0
 30
0.0
210
0.0
220
0.0
230
1.0
  2
SOLID
 70
     1
 71
     0
 91
        1
 92
        1
 93
        1
 72
     4
 94
        3
 73
     0
 74
     1
 95
       62
 96
       58
 40
0.0
 40
0.0
 40
0.0
 40
0.0
 40
1.0
 40
1.0
 40
1.0
 40
2.0
 40
2.0
 40
2.0
 40
3.0
 40
3.0
 40
3.0
 40
4.0
 40
4.0
 40
4.0
 40
5.0
 40
5.0
 40
5.0
 40
6.0
 40
6.0
 40
6.0
 40
7.0
 40
7.0
 40
7.0
 40
8.0
 40
8.0
 40
8.0
 40
9.0
 40
9.0
 40
9.0
 40
10.0
 40
10.0
 40
10.0
 40
11.0
 40
11.0
 40
11.0
 40
12.0
 40
12.0
 40
12.0
 40
13.0
 40
13.0
 40
13.0
 40
14.0
 40
14.0
 40
14.0
 40
15.0
 40
15.0
 40
15.0
 40
16.0
 40
16.0
 40
16.0
 40
17.0
 40
17.0
 40
17.0
 40
18.0
 40
18.0
 40
18.0
 40
19.0
 40
19.0
 40
19.0
 40
19.0
 10
107.5737955460232
 20
-131.157196690301
 10
107.5737955460232
 20
-131.2526258352424
 10
107.5531249731117
 20
-131.4703558699102
 10
107.3670898169082
 20
-131.5954128360248
 10
107.2547797040891
 20
-131.6694823889576
 10
107.1555609541139
 20
-131.6736165035399
 10
107.0708116051767
 20
-131.6777506181222
 10
107.0708116051767
 20
-131.6777506181222
 10
107.0708116051767
 20
-131.4576090166148
 10
107.0708116051767
 20
-131.4576090166148
 10
107.1445366485611
 20
-131.4555419593236
 10
107.3794921606551
 20
-131.4452066728679
 10
107.3794921606551
 20
-131.1616753144318
 10
107.3794921606551
 20
-131.0242160045703
 10
107.3099012318531
 20
-130.8715982745738
 10
107.0811468916325
 20
-130.8715982745738
 10
106.9647026642311
 20
-130.8715982745738
 10
106.9164713274375
 20
-130.90983883446
 10
106.8847764489733
 20
-130.9415337129244
 10
106.8103623864919
 20
-131.0156032658572
 10
106.797960042745
 20
-131.1320474932587
 10
106.797960042745
 20
-131.1868245114741
 10
106.797960042745
 20
-131.2061170461915
 10
106.8000271000361
 20
-131.2419460392381
 10
106.8041612146184
 20
-131.2695068031201
 10
106.8041612146184
 20
-131.2695068031201
 10
106.6091688101533
 20
-131.2695068031201
 10
106.6091688101533
 20
-131.2695068031201
 10
106.6160590011238
 20
-131.2312662432338
 10
106.6181260584149
 20
-131.1892360783138
 10
106.6181260584149
 20
-131.1826903968918
 10
106.6181260584149
 20
-131.1172335826721
 10
106.5967664664064
 20
-130.9184515731732
 10
106.3597438970212
 20
-130.9184515731732
 10
106.1819769699823
 20
-130.9184515731732
 10
106.1268554422183
 20
-131.0493652016127
 10
106.1268554422183
 20
-131.1596082571407
 10
106.1268554422183
 20
-131.4238470808593
 10
106.3597438970212
 20
-131.4324598195724
 10
106.4314018831144
 20
-131.4365939341548
 10
106.4314018831144
 20
-131.4365939341548
 10
106.4314018831144
 20
-131.6398545677845
 10
106.4314018831144
 20
-131.6398545677845
 10
106.3066894265483
 20
-131.6312418290714
 10
105.9304849995591
 20
-131.6036810651894
 10
105.9304849995591
 20
-131.1468614038452
 10
105.9304849995591
 20
-130.9225856877555
 10
106.0572645134162
 20
-130.681429003788
 10
106.3535427251477
 20
-130.681429003788
 10
106.5395778813512
 20
-130.681429003788
 10
106.6222601729972
 20
-130.7765136391809
 10
106.6835828726347
 20
-130.8760768987046
 10
106.7111436365167
 20
-130.8147541990672
 10
106.7910698517745
 20
-130.632853157446
 10
107.0687445478856
 20
-130.632853157446
 10
107.4070529245371
 20
-130.632853157446
 10
107.5737955460232
 20
-130.8802110132869
 10
107.5737955460232
 20
-131.157196690301
 97
        0
 97
        0
 75
     2
 76
     1
 98
        0
  0
ENDBLK
  5
5D
330
5A
100
AcDbEntity
  8
0
100
AcDbBlockEnd
  0
BLOCK
  5
64
330
62
100
AcDbEntity
  8
0
100
AcDbBlockBegin
  2
block 3
 70
     0
 10
0.0
 20
0.0
 30
0.0
  3
block 3
  1

  0
SPLINE
  5
66
330
62
100
AcDbEntity
  8
_U+30EC_U+30A4_U+30E4_U+30FC 1
370
     0
100
AcDbSpline
210
0.0
220
0.0
230
1.0
 70
    11
 71
     3
 72
    26
 73
    22
 74
     0
 42
0.0000000001
 43
0.0000000001
 12
1.0
 22
0.0
 32
0.0
 13
1.0
 23
0.0
 33
0.0
 40
0.0
 40
0.0
 40
0.0
 40
0.0
 40
1.0
 40
1.0
 40
1.0
 40
2.0
 40
2.0
 40
2.0
 40
3.0
 40
3.0
 40
3.0
 40
4.0
 40
4.0
 40
4.0
 40
5.0
 40
5.0
 40
5.0
 40
6.0
 40
6.0
 40
6.0
 40
7.0
 40
7.0
 40
7.0
 40
7.0
 10
107.5234971519386
 20
-123.3674912886026
 30
0.0
 10
107.5234971519386
 20
-123.3674912886026
 30
0.0
 10
106.4189995393675
 20
-123.3674912886026
 30
0.0
 10
106.4189995393675
 20
-123.3674912886026
 30
0.0
 10
106.4189995393675
 20
-123.3674912886026
 30
0.0
 10
106.4189995393675
 20
-123.6975314360895
 30
0.0
 10
106.4189995393675
 20
-123.6975314360895
 30
0.0
 10
106.4189995393675
 20
-123.6975314360895
 30
0.0
 10
106.2708604335017
 20
-123.6975314360895
 30
0.0
 10
106.2708604335017
 20
-123.6975314360895
 30
0.0
 10
106.2563910324637
 20
-123.3654242313114
 30
0.0
 10
106.0930935064628
 20
-123.3189154422606
 30
0.0
 10
105.9787163363525
 20
-123.2892876210874
 30
0.0
 10
105.9787163363525
 20
-123.2892876210874
 30
0.0
 10
105.9787163363525
 20
-123.1432155725128
 30
0.0
 10
105.9787163363525
 20
-123.1432155725128
 30
0.0
 10
105.9787163363525
 20
-123.1432155725128
 30
0.0
 10
107.5234971519386
 20
-123.1432155725128
 30
0.0
 10
107.5234971519386
 20
-123.1432155725128
 30
0.0
 10
107.5234971519386
 20
-123.1432155725128
 30
0.0
 10
107.5234971519386
 20
-123.3674912886026
 30
0.0
 10
107.5234971519386
 20
-123.3674912886026
 30
0.0
  0
HATCH
  5
67
330
62
100
AcDbEntity
  8
_U+30EC_U+30A4_U+30E4_U+30FC 1
 62
   179
420
  2234388
100
AcDbHatch
 10
0.0
 20
0.0
 30
0.0
210
0.0
220
0.0
230
1.0
  2
SOLID
 70
     1
 71
     0
 91
        1
 92
        1
 93
        1
 72
     4
 94
        3
 73
     0
 74
     1
 95
       26
 96
       22
 40
0.0
 40
0.0
 40
0.0
 40
0.0
 40
1.0
 40
1.0
 40
1.0
 40
2.0
 40
2.0
 40
2.0
 40
3.0
 40
3.0
 40
3.0
 40
4.0
 40
4.0
 40
4.0
 40
5.0
 40
5.0
 40
5.0
 40
6.0
 40
6.0
 40
6.0
 40
7.0
 40
7.0
 40
7.0
 40
7.0
 10
107.5234971519386
 20
-123.3674912886026
 10
107.5234971519386
 20
-123.3674912886026
 10
106.4189995393675
 20
-123.3674912886026
 10
106.4189995393675
 20
-123.3674912886026
 10
106.4189995393675
 20
-123.3674912886026
 10
106.4189995393675
 20
-123.6975314360895
 10
106.4189995393675
 20
-123.6975314360895
 10
106.4189995393675
 20
-123.6975314360895
 10
106.2708604335017
 20
-123.6975314360895
 10
106.2708604335017
 20
-123.6975314360895
 10
106.2563910324637
 20
-123.3654242313114
 10
106.0930935064628
 20
-123.3189154422606
 10
105.9787163363525
 20
-123.2892876210874
 10
105.9787163363525
 20
-123.2892876210874
 10
105.9787163363525
 20
-123.1432155725128
 10
105.9787163363525
 20
-123.1432155725128
 10
105.9787163363525
 20
-123.1432155725128
 10
107.5234971519386
 20
-123.1432155725128
 10
107.5234971519386
 20
-123.1432155725128
 10
107.5234971519386
 20
-123.1432155725128
 10
107.5234971519386
 20
-123.3674912886026
 10
107.5234971519386
 20
-123.3674912886026
 97
        0
 97
        0
 75
     2
 76
     1
 98
        0
  0
ENDBLK
  5
65
330
62
100
AcDbEntity
  8
0
100
AcDbBlockEnd
  0
BLOCK
  5
78
330
76
100
AcDbEntity
  8
0
100
AcDbBlockBegin
  2
block 4
 70
     0
 10
0.0
 20
0.0
 30
0.0
  3
block 4
  1

  0
SPLINE
  5
7A
330
76
100
AcDbEntity
  8
_U+30EC_U+30A4_U+30E4_U+30FC 1
370
     0
100
AcDbSpline
210
0.0
220
0.0
230
1.0
 70
    11
 71
     3
 72
    26
 73
    22
 74
     0
 42
0.0000000001
 43
0.0000000001
 12
1.0
 22
0.0
 32
0.0
 13
1.0
 23
0.0
 33
0.0
 40
0.0
 40
0.0
 40
0.0
 40
0.0
 40
1.0
 40
1.0
 40
1.0
 40
2.0
 40
2.0
 40
2.0
 40
3.0
 40
3.0
 40
3.0
 40
4.0
 40
4.0
 40
4.0
 40
5.0
 40
5.0
 40
5.0
 40
6.0
 40
6.0
 40
6.0
 40
7.0
 40
7.0
 40
7.0
 40
7.0
 10
93.21119246801665
 20
-142.6410779808328
 30
0.0
 10
93.21119246801665
 20
-142.6410779808328
 30
0.0
 10
93.21119246801665
 20
-141.5369248778102
 30
0.0
 10
93.21119246801665
 20
-141.5369248778102
 30
0.0
 10
93.21119246801665
 20
-141.5369248778102
 30
0.0
 10
92.88115232052972
 20
-141.5369248778102
 30
0.0
 10
92.88115232052972
 20
-141.5369248778102
 30
0.0
 10
92.88115232052972
 20
-141.5369248778102
 30
0.0
 10
92.88115232052972
 20
-141.3887857719445
 30
0.0
 10
92.88115232052972
 20
-141.3887857719445
 30
0.0
 10
93.2132595253078
 20
-141.3739718613579
 30
0.0
 10
93.25976831435867
 20
-141.2110188449056
 30
0.0
 10
93.28939613553182
 20
-141.0966416747953
 30
0.0
 10
93.28939613553182
 20
-141.0966416747953
 30
0.0
 10
93.43546818410641
 20
-141.0966416747953
 30
0.0
 10
93.43546818410641
 20
-141.0966416747953
 30
0.0
 10
93.43546818410641
 20
-141.0966416747953
 30
0.0
 10
93.43546818410641
 20
-142.6410779808328
 30
0.0
 10
93.43546818410641
 20
-142.6410779808328
 30
0.0
 10
93.43546818410641
 20
-142.6410779808328
 30
0.0
 10
93.21119246801665
 20
-142.6410779808328
 30
0.0
 10
93.21119246801665
 20
-142.6410779808328
 30
0.0
  0
HATCH
  5
7B
330
76
100
AcDbEntity
  8
_U+30EC_U+30A4_U+30E4_U+30FC 1
 62
   179
420
  2234388
100
AcDbHatch
 10
0.0
 20
0.0
 30
0.0
210
0.0
220
0.0
230
1.0
  2
SOLID
 70
     1
 71
     0
 91
        1
 92
        1
 93
        1
 72
     4
 94
        3
 73
     0
 74
     1
 95
       26
 96
       22
 40
0.0
 40
0.0
 40
0.0
 40
0.0
 40
1.0
 40
1.0
 40
1.0
 40
2.0
 40
2.0
 40
2.0
 40
3.0
 40
3.0
 40
3.0
 40
4.0
 40
4.0
 40
4.0
 40
5.0
 40
5.0
 40
5.0
 40
6.0
 40
6.0
 40
6.0
 40
7.0
 40
7.0
 40
7.0
 40
7.0
 10
93.21119246801665
 20
-142.6410779808328
 10
93.21119246801665
 20
-142.6410779808328
 10
93.21119246801665
 20
-141.5369248778102
 10
93.21119246801665
 20
-141.5369248778102
 10
93.21119246801665
 20
-141.5369248778102
 10
92.88115232052972
 20
-141.5369248778102
 10
92.88115232052972
 20
-141.5369248778102
 10
92.88115232052972
 20
-141.5369248778102
 10
92.88115232052972
 20
-141.3887857719445
 10
92.88115232052972
 20
-141.3887857719445
 10
93.2132595253078
 20
-141.3739718613579
 10
93.25976831435867
 20
-141.2110188449056
 10
93.28939613553182
 20
-141.0966416747953
 10
93.28939613553182
 20
-141.0966416747953
 10
93.43546818410641
 20
-141.0966416747953
 10
93.43546818410641
 20
-141.0966416747953
 10
93.43546818410641
 20
-141.0966416747953
 10
93.43546818410641
 20
-142.6410779808328
 10
93.43546818410641
 20
-142.6410779808328
 10
93.43546818410641
 20
-142.6410779808328
 10
93.21119246801665
 20
-142.6410779808328
 10
93.21119246801665
 20
-142.6410779808328
 97
        0
 97
        0
 75
     2
 76
     1
 98
        0
  0
SPLINE
  5
7C
330
76
100
AcDbEntity
  8
_U+30EC_U+30A4_U+30E4_U+30FC 1
370
     0
100
AcDbSpline
210
0.0
220
0.0
230
1.0
 70
    11
 71
     3
 72
    26
 73
    22
 74
     0
 42
0.0000000001
 43
0.0000000001
 12
1.0
 22
0.0
 32
0.0
 13
1.0
 23
0.0
 33
0.0
 40
0.0
 40
0.0
 40
0.0
 40
0.0
 40
1.0
 40
1.0
 40
1.0
 40
2.0
 40
2.0
 40
2.0
 40
3.0
 40
3.0
 40
3.0
 40
4.0
 40
4.0
 40
4.0
 40
5.0
 40
5.0
 40
5.0
 40
6.0
 40
6.0
 40
6.0
 40
7.0
 40
7.0
 40
7.0
 40
7.0
 10
94.34772946860058
 20
-142.6410779808328
 30
0.0
 10
94.34772946860058
 20
-142.6410779808328
 30
0.0
 10
94.11070689921539
 20
-142.6410779808328
 30
0.0
 10
94.11070689921539
 20
-142.6410779808328
 30
0.0
 10
94.13620060580624
 20
-142.3320529158059
 30
0.0
 10
94.3287814434317
 20
-141.8139105548243
 30
0.0
 10
94.73495820114266
 20
-141.3081705375896
 30
0.0
 10
94.73495820114266
 20
-141.3081705375896
 30
0.0
 10
93.89711097912989
 20
-141.3081705375896
 30
0.0
 10
93.89711097912989
 20
-141.3081705375896
 30
0.0
 10
93.89711097912989
 20
-141.3081705375896
 30
0.0
 10
93.89711097912989
 20
-141.0966416747953
 30
0.0
 10
93.89711097912989
 20
-141.0966416747953
 30
0.0
 10
93.89711097912989
 20
-141.0966416747953
 30
0.0
 10
94.97198077052784
 20
-141.0966416747953
 30
0.0
 10
94.97198077052784
 20
-141.0966416747953
 30
0.0
 10
94.97198077052784
 20
-141.0966416747953
 30
0.0
 10
94.97198077052784
 20
-141.3081705375896
 30
0.0
 10
94.97198077052784
 20
-141.3081705375896
 30
0.0
 10
94.64814179491435
 20
-141.5982475774477
 30
0.0
 10
94.38149140435603
 20
-142.1904594913621
 30
0.0
 10
94.34772946860058
 20
-142.6410779808328
 30
0.0
  0
HATCH
  5
7D
330
76
100
AcDbEntity
  8
_U+30EC_U+30A4_U+30E4_U+30FC 1
 62
   179
420
  2234388
100
AcDbHatch
 10
0.0
 20
0.0
 30
0.0
210
0.0
220
0.0
230
1.0
  2
SOLID
 70
     1
 71
     0
 91
        1
 92
        1
 93
        1
 72
     4
 94
        3
 73
     0
 74
     1
 95
       26
 96
       22
 40
0.0
 40
0.0
 40
0.0
 40
0.0
 40
1.0
 40
1.0
 40
1.0
 40
2.0
 40
2.0
 40
2.0
 40
3.0
 40
3.0
 40
3.0
 40
4.0
 40
4.0
 40
4.0
 40
5.0
 40
5.0
 40
5.0
 40
6.0
 40
6.0
 40
6.0
 40
7.0
 40
7.0
 40
7.0
 40
7.0
 10
94.34772946860058
 20
-142.6410779808328
 10
94.34772946860058
 20
-142.6410779808328
 10
94.11070689921539
 20
-142.6410779808328
 10
94.11070689921539
 20
-142.6410779808328
 10
94.13620060580624
 20
-142.3320529158059
 10
94.3287814434317
 20
-141.8139105548243
 10
94.73495820114266
 20
-141.3081705375896
 10
94.73495820114266
 20
-141.3081705375896
 10
93.89711097912989
 20
-141.3081705375896
 10
93.89711097912989
 20
-141.3081705375896
 10
93.89711097912989
 20
-141.3081705375896
 10
93.89711097912989
 20
-141.0966416747953
 10
93.89711097912989
 20
-141.0966416747953
 10
93.89711097912989
 20
-141.0966416747953
 10
94.97198077052784
 20
-141.0966416747953
 10
94.97198077052784
 20
-141.0966416747953
 10
94.97198077052784
 20
-141.0966416747953
 10
94.97198077052784
 20
-141.3081705375896
 10
94.97198077052784
 20
-141.3081705375896
 10
94.64814179491435
 20
-141.5982475774477
 10
94.38149140435603
 20
-142.1904594913621
 10
94.34772946860058
 20
-142.6410779808328
 97
        0
 97
        0
 75
     2
 76
     1
 98
        0
  0
ENDBLK
  5
79
330
76
100
AcDbEntity
  8
0
100
AcDbBlockEnd
  0
BLOCK
  5
8E
330
8C
100
AcDbEntity
  8
0
100
AcDbBlockBegin
  2
block 5
 70
     0
 10
0.0
 20
0.0
 30
0.0
  3
block 5
  1

  0
SPLINE
  5
90
330
8C
100
AcDbEntity
  8
_U+30EC_U+30A4_U+30E4_U+30FC 1
370
     0
100
AcDbSpline
210
0.0
220
0.0
230
1.0
 70
    11
 71
     3
 72
    29
 73
    25
 74
     0
 42
0.0000000001
 43
0.0000000001
 12
1.0
 22
0.0
 32
0.0
 13
1.0
 23
0.0
 33
0.0
 40
0.0
 40
0.0
 40
0.0
 40
0.0
 40
1.0
 40
1.0
 40
1.0
 40
2.0
 40
2.0
 40
2.0
 40
3.0
 40
3.0
 40
3.0
 40
4.0
 40
4.0
 40
4.0
 40
5.0
 40
5.0
 40
5.0
 40
6.0
 40
6.0
 40
6.0
 40
7.0
 40
7.0
 40
7.0
 40
8.0
 40
8.0
 40
8.0
 40
8.0
 10
95.61449107852694
 20
-114.5239311779662
 30
0.0
 10
95.3478406879686
 20
-114.5239311779662
 30
0.0
 10
95.09393715070568
 20
-114.3864718681048
 30
0.0
 10
95.09393715070568
 20
-114.037483695449
 30
0.0
 10
95.09393715070568
 20
-113.7815131008949
 30
0.0
 10
95.23587508469798
 20
-113.686428465502
 30
0.0
 10
95.34163951609516
 20
-113.6251057658646
 30
0.0
 10
95.21692705952911
 20
-113.5658501235183
 30
0.0
 10
95.14079044930509
 20
-113.451472953408
 30
0.0
 10
95.14079044930509
 20
-113.2905869942468
 30
0.0
 10
95.14079044930509
 20
-113.0156683745239
 30
0.0
 10
95.339572458804
 20
-112.8802761219535
 30
0.0
 10
95.61449107852694
 20
-112.8802761219535
 30
0.0
 10
95.898022436963
 20
-112.8802761219535
 30
0.0
 10
96.08853621729732
 20
-113.024281113237
 30
0.0
 10
96.08853621729732
 20
-113.2905869942468
 30
0.0
 10
96.08853621729732
 20
-113.451472953408
 30
0.0
 10
96.00998804023362
 20
-113.5658501235183
 30
0.0
 10
95.88527558366758
 20
-113.6251057658646
 30
0.0
 10
95.97415904718702
 20
-113.6757486694977
 30
0.0
 10
96.13297794905704
 20
-113.7708333048906
 30
0.0
 10
96.13297794905704
 20
-114.0333495808667
 30
0.0
 10
96.13297794905704
 20
-114.4078314601133
 30
0.0
 10
95.85358070520327
 20
-114.5239311779662
 30
0.0
 10
95.61449107852694
 20
-114.5239311779662
 30
0.0
  0
SPLINE
  5
91
330
8C
100
AcDbEntity
  8
_U+30EC_U+30A4_U+30E4_U+30FC 1
370
     0
100
AcDbSpline
210
0.0
220
0.0
230
1.0
 70
    11
 71
     3
 72
    17
 73
    13
 74
     0
 42
0.0000000001
 43
0.0000000001
 12
1.0
 22
0.0
 32
0.0
 13
1.0
 23
0.0
 33
0.0
 40
0.0
 40
0.0
 40
0.0
 40
0.0
 40
1.0
 40
1.0
 40
1.0
 40
2.0
 40
2.0
 40
2.0
 40
3.0
 40
3.0
 40
3.0
 40
4.0
 40
4.0
 40
4.0
 40
4.0
 10
95.61449107852694
 20
-113.7329372545529
 30
0.0
 10
95.47083059679201
 20
-113.7329372545529
 30
0.0
 10
95.31821286679545
 20
-113.8197536607812
 30
0.0
 10
95.31821286679545
 20
-114.0226697848624
 30
0.0
 10
95.31821286679545
 20
-114.2279974757833
 30
0.0
 10
95.44533689020118
 20
-114.3292832830496
 30
0.0
 10
95.61449107852694
 20
-114.3292832830496
 30
0.0
 10
95.80052623473043
 20
-114.3292832830496
 30
0.0
 10
95.91076929025843
 20
-114.2066378837747
 30
0.0
 10
95.91076929025843
 20
-114.0288709567358
 30
0.0
 10
95.91076929025843
 20
-113.8070068074857
 30
0.0
 10
95.74781627380611
 20
-113.7329372545529
 30
0.0
 10
95.61449107852694
 20
-113.7329372545529
 30
0.0
  0
SPLINE
  5
92
330
8C
100
AcDbEntity
  8
_U+30EC_U+30A4_U+30E4_U+30FC 1
370
     0
100
AcDbSpline
210
0.0
220
0.0
230
1.0
 70
    11
 71
     3
 72
    17
 73
    13
 74
     0
 42
0.0000000001
 43
0.0000000001
 12
1.0
 22
0.0
 32
0.0
 13
1.0
 23
0.0
 33
0.0
 40
0.0
 40
0.0
 40
0.0
 40
0.0
 40
1.0
 40
1.0
 40
1.0
 40
2.0
 40
2.0
 40
2.0
 40
3.0
 40
3.0
 40
3.0
 40
4.0
 40
4.0
 40
4.0
 40
4.0
 10
95.61449107852694
 20
-113.072856959579
 30
0.0
 10
95.44947100478348
 20
-113.072856959579
 30
0.0
 10
95.36472165584632
 20
-113.1679415949719
 30
0.0
 10
95.36472165584632
 20
-113.3033338475422
 30
0.0
 10
95.36472165584632
 20
-113.4259792468171
 30
0.0
 10
95.43672415148805
 20
-113.5444905315097
 30
0.0
 10
95.61449107852694
 20
-113.5444905315097
 30
0.0
 10
95.79225800556583
 20
-113.5444905315097
 30
0.0
 10
95.86426050120755
 20
-113.4259792468171
 30
0.0
 10
95.86426050120755
 20
-113.3033338475422
 30
0.0
 10
95.86426050120755
 20
-113.1679415949719
 30
0.0
 10
95.77744409497926
 20
-113.072856959579
 30
0.0
 10
95.61449107852694
 20
-113.072856959579
 30
0.0
  0
HATCH
  5
93
330
8C
100
AcDbEntity
  8
_U+30EC_U+30A4_U+30E4_U+30FC 1
 62
   179
420
  2234388
100
AcDbHatch
 10
0.0
 20
0.0
 30
0.0
210
0.0
220
0.0
230
1.0
  2
SOLID
 70
     1
 71
     0
 91
        3
 92
        1
 93
        1
 72
     4
 94
        3
 73
     0
 74
     1
 95
       29
 96
       25
 40
0.0
 40
0.0
 40
0.0
 40
0.0
 40
1.0
 40
1.0
 40
1.0
 40
2.0
 40
2.0
 40
2.0
 40
3.0
 40
3.0
 40
3.0
 40
4.0
 40
4.0
 40
4.0
 40
5.0
 40
5.0
 40
5.0
 40
6.0
 40
6.0
 40
6.0
 40
7.0
 40
7.0
 40
7.0
 40
8.0
 40
8.0
 40
8.0
 40
8.0
 10
95.61449107852694
 20
-114.5239311779662
 10
95.3478406879686
 20
-114.5239311779662
 10
95.09393715070568
 20
-114.3864718681048
 10
95.09393715070568
 20
-114.037483695449
 10
95.09393715070568
 20
-113.7815131008949
 10
95.23587508469798
 20
-113.686428465502
 10
95.34163951609516
 20
-113.6251057658646
 10
95.21692705952911
 20
-113.5658501235183
 10
95.14079044930509
 20
-113.451472953408
 10
95.14079044930509
 20
-113.2905869942468
 10
95.14079044930509
 20
-113.0156683745239
 10
95.339572458804
 20
-112.8802761219535
 10
95.61449107852694
 20
-112.8802761219535
 10
95.898022436963
 20
-112.8802761219535
 10
96.08853621729732
 20
-113.024281113237
 10
96.08853621729732
 20
-113.2905869942468
 10
96.08853621729732
 20
-113.451472953408
 10
96.00998804023362
 20
-113.5658501235183
 10
95.88527558366758
 20
-113.6251057658646
 10
95.97415904718702
 20
-113.6757486694977
 10
96.13297794905704
 20
-113.7708333048906
 10
96.13297794905704
 20
-114.0333495808667
 10
96.13297794905704
 20
-114.4078314601133
 10
95.85358070520327
 20
-114.5239311779662
 10
95.61449107852694
 20
-114.5239311779662
 97
        0
 97
        0
 92
        1
 93
        1
 72
     4
 94
        3
 73
     0
 74
     1
 95
       17
 96
       13
 40
0.0
 40
0.0
 40
0.0
 40
0.0
 40
1.0
 40
1.0
 40
1.0
 40
2.0
 40
2.0
 40
2.0
 40
3.0
 40
3.0
 40
3.0
 40
4.0
 40
4.0
 40
4.0
 40
4.0
 10
95.61449107852694
 20
-113.7329372545529
 10
95.47083059679201
 20
-113.7329372545529
 10
95.31821286679545
 20
-113.8197536607812
 10
95.31821286679545
 20
-114.0226697848624
 10
95.31821286679545
 20
-114.2279974757833
 10
95.44533689020118
 20
-114.3292832830496
 10
95.61449107852694
 20
-114.3292832830496
 10
95.80052623473043
 20
-114.3292832830496
 10
95.91076929025843
 20
-114.2066378837747
 10
95.91076929025843
 20
-114.0288709567358
 10
95.91076929025843
 20
-113.8070068074857
 10
95.74781627380611
 20
-113.7329372545529
 10
95.61449107852694
 20
-113.7329372545529
 97
        0
 97
        0
 92
        1
 93
        1
 72
     4
 94
        3
 73
     0
 74
     1
 95
       17
 96
       13
 40
0.0
 40
0.0
 40
0.0
 40
0.0
 40
1.0
 40
1.0
 40
1.0
 40
2.0
 40
2.0
 40
2.0
 40
3.0
 40
3.0
 40
3.0
 40
4.0
 40
4.0
 40
4.0
 40
4.0
 10
95.61449107852694
 20
-113.072856959579
 10
95.44947100478348
 20
-113.072856959579
 10
95.36472165584632
 20
-113.1679415949719
 10
95.36472165584632
 20
-113.3033338475422
 10
95.36472165584632
 20
-113.4259792468171
 10
95.43672415148805
 20
-113.5444905315097
 10
95.61449107852694
 20
-113.5444905315097
 10
95.79225800556583
 20
-113.5444905315097
 10
95.86426050120755
 20
-113.4259792468171
 10
95.86426050120755
 20
-113.3033338475422
 10
95.86426050120755
 20
-113.1679415949719
 10
95.77744409497926
 20
-113.072856959579
 10
95.61449107852694
 20
-113.072856959579
 97
        0
 97
        0
 75
     2
 76
     1
 98
        0
  0
ENDBLK
  5
8F
330
8C
100
AcDbEntity
  8
0
100
AcDbBlockEnd
  0
BLOCK
  5
96
330
94
100
AcDbEntity
  8
0
100
AcDbBlockBegin
  2
block 6
 70
     0
 10
0.0
 20
0.0
 30
0.0
  3
block 6
  1

  0
SPLINE
  5
98
330
94
100
AcDbEntity
  8
_U+30EC_U+30A4_U+30E4_U+30FC 1
370
     0
100
AcDbSpline
210
0.0
220
0.0
230
1.0
 70
    11
 71
     3
 72
    26
 73
    22
 74
     0
 42
0.0000000001
 43
0.0000000001
 12
1.0
 22
0.0
 32
0.0
 13
1.0
 23
0.0
 33
0.0
 40
0.0
 40
0.0
 40
0.0
 40
0.0
 40
1.0
 40
1.0
 40
1.0
 40
2.0
 40
2.0
 40
2.0
 40
3.0
 40
3.0
 40
3.0
 40
4.0
 40
4.0
 40
4.0
 40
5.0
 40
5.0
 40
5.0
 40
6.0
 40
6.0
 40
6.0
 40
7.0
 40
7.0
 40
7.0
 40
7.0
 10
92.49254554979353
 20
-118.9873968886559
 30
0.0
 10
92.49254554979353
 20
-118.9873968886559
 30
0.0
 10
92.76884220771058
 20
-117.9183837595829
 30
0.0
 10
92.76884220771058
 20
-117.9183837595829
 30
0.0
 10
92.76884220771058
 20
-117.9183837595829
 30
0.0
 10
92.4491373466794
 20
-117.8360459774854
 30
0.0
 10
92.4491373466794
 20
-117.8360459774854
 30
0.0
 10
92.4491373466794
 20
-117.8360459774854
 30
0.0
 10
92.48634437792009
 20
-117.6923854957505
 30
0.0
 10
92.48634437792009
 20
-117.6923854957505
 30
0.0
 10
92.81156139172766
 20
-117.7612874054555
 30
0.0
 10
92.89768877885892
 20
-117.6152153568809
 30
0.0
 10
92.95487736391406
 20
-117.5118624923234
 30
0.0
 10
92.95487736391406
 20
-117.5118624923234
 30
0.0
 10
93.09612627880931
 20
-117.5483805044671
 30
0.0
 10
93.09612627880931
 20
-117.5483805044671
 30
0.0
 10
93.09612627880931
 20
-117.5483805044671
 30
0.0
 10
92.70958656536428
 20
-119.0435519450655
 30
0.0
 10
92.70958656536428
 20
-119.0435519450655
 30
0.0
 10
92.70958656536428
 20
-119.0435519450655
 30
0.0
 10
92.49254554979353
 20
-118.9873968886559
 30
0.0
 10
92.49254554979353
 20
-118.9873968886559
 30
0.0
  0
HATCH
  5
99
330
94
100
AcDbEntity
  8
_U+30EC_U+30A4_U+30E4_U+30FC 1
 62
   179
420
  2234388
100
AcDbHatch
 10
0.0
 20
0.0
 30
0.0
210
0.0
220
0.0
230
1.0
  2
SOLID
 70
     1
 71
     0
 91
        1
 92
        1
 93
        1
 72
     4
 94
        3
 73
     0
 74
     1
 95
       26
 96
       22
 40
0.0
 40
0.0
 40
0.0
 40
0.0
 40
1.0
 40
1.0
 40
1.0
 40
2.0
 40
2.0
 40
2.0
 40
3.0
 40
3.0
 40
3.0
 40
4.0
 40
4.0
 40
4.0
 40
5.0
 40
5.0
 40
5.0
 40
6.0
 40
6.0
 40
6.0
 40
7.0
 40
7.0
 40
7.0
 40
7.0
 10
92.49254554979353
 20
-118.9873968886559
 10
92.49254554979353
 20
-118.9873968886559
 10
92.76884220771058
 20
-117.9183837595829
 10
92.76884220771058
 20
-117.9183837595829
 10
92.76884220771058
 20
-117.9183837595829
 10
92.4491373466794
 20
-117.8360459774854
 10
92.4491373466794
 20
-117.8360459774854
 10
92.4491373466794
 20
-117.8360459774854
 10
92.48634437792009
 20
-117.6923854957505
 10
92.48634437792009
 20
-117.6923854957505
 10
92.81156139172766
 20
-117.7612874054555
 10
92.89768877885892
 20
-117.6152153568809
 10
92.95487736391406
 20
-117.5118624923234
 10
92.95487736391406
 20
-117.5118624923234
 10
93.09612627880931
 20
-117.5483805044671
 10
93.09612627880931
 20
-117.5483805044671
 10
93.09612627880931
 20
-117.5483805044671
 10
92.70958656536428
 20
-119.0435519450655
 10
92.70958656536428
 20
-119.0435519450655
 10
92.70958656536428
 20
-119.0435519450655
 10
92.49254554979353
 20
-118.9873968886559
 10
92.49254554979353
 20
-118.9873968886559
 97
        0
 97
        0
 75
     2
 76
     1
 98
        0
  0
SPLINE
  5
9A
330
94
100
AcDbEntity
  8
_U+30EC_U+30A4_U+30E4_U+30FC 1
370
     0
100
AcDbSpline
210
0.0
220
0.0
230
1.0
 70
    11
 71
     3
 72
    62
 73
    58
 74
     0
 42
0.0000000001
 43
0.0000000001
 12
1.0
 22
0.0
 32
0.0
 13
1.0
 23
0.0
 33
0.0
 40
0.0
 40
0.0
 40
0.0
 40
0.0
 40
1.0
 40
1.0
 40
1.0
 40
2.0
 40
2.0
 40
2.0
 40
3.0
 40
3.0
 40
3.0
 40
4.0
 40
4.0
 40
4.0
 40
5.0
 40
5.0
 40
5.0
 40
6.0
 40
6.0
 40
6.0
 40
7.0
 40
7.0
 40
7.0
 40
8.0
 40
8.0
 40
8.0
 40
9.0
 40
9.0
 40
9.0
 40
10.0
 40
10.0
 40
10.0
 40
11.0
 40
11.0
 40
11.0
 40
12.0
 40
12.0
 40
12.0
 40
13.0
 40
13.0
 40
13.0
 40
14.0
 40
14.0
 40
14.0
 40
15.0
 40
15.0
 40
15.0
 40
16.0
 40
16.0
 40
16.0
 40
17.0
 40
17.0
 40
17.0
 40
18.0
 40
18.0
 40
18.0
 40
19.0
 40
19.0
 40
19.0
 40
19.0
 10
93.65836586200209
 20
-119.3412081949911
 30
0.0
 10
93.56603730299739
 20
-119.3174370361429
 30
0.0
 10
93.36002059297944
 20
-119.2426784641129
 30
0.0
 10
93.28560653049804
 20
-119.0311496013186
 30
0.0
 10
93.2421983273839
 20
-118.9036810683644
 30
0.0
 10
93.2628689002954
 20
-118.8065293756803
 30
0.0
 10
93.28009437772165
 20
-118.7235025744858
 30
0.0
 10
93.28009437772165
 20
-118.7235025744858
 30
0.0
 10
93.49334578825861
 20
-118.7786241022498
 30
0.0
 10
93.49334578825861
 20
-118.7786241022498
 30
0.0
 10
93.47646482038088
 20
-118.85097110744
 30
0.0
 10
93.42823348358739
 20
-119.0807589763062
 30
0.0
 10
93.70246308421328
 20
-119.1517279433023
 30
0.0
 10
93.83544376994392
 20
-119.1861788981549
 30
0.0
 10
94.00080835323591
 20
-119.1568955865302
 30
0.0
 10
94.05799693829105
 20
-118.9357204563772
 30
0.0
 10
94.08693574036715
 20
-118.8230658340095
 30
0.0
 10
94.06213105287335
 20
-118.7665662680514
 30
0.0
 10
94.03939342267071
 20
-118.7276366890681
 30
0.0
 10
93.98633895219787
 20
-118.6377196969031
 30
0.0
 10
93.87678491576692
 20
-118.5960340415316
 30
0.0
 10
93.82373044529407
 20
-118.5822536595905
 30
0.0
 10
93.80512692967372
 20
-118.5774305259112
 30
0.0
 10
93.76998695572418
 20
-118.5705403349407
 30
0.0
 10
93.74242619184217
 20
-118.567439749004
 30
0.0
 10
93.74242619184217
 20
-118.567439749004
 30
0.0
 10
93.79065752863568
 20
-118.3793375355093
 30
0.0
 10
93.79065752863568
 20
-118.3793375355093
 30
0.0
 10
93.82648652168227
 20
-118.3951849747415
 30
0.0
 10
93.86644962931118
 20
-118.4075873184884
 30
0.0
 10
93.87265080118462
 20
-118.409309866231
 30
0.0
 10
93.93604055811322
 20
-118.4258463245602
 30
0.0
 10
94.13378903896655
 20
-118.4547851266363
 30
0.0
 10
94.19304468131286
 20
-118.2256862768672
 30
0.0
 10
94.2378309226211
 20
-118.0534315026047
 30
0.0
 10
94.1248317907049
 20
-117.9673041154735
 30
0.0
 10
94.01803383066216
 20
-117.9397433515915
 30
0.0
 10
93.76240774565663
 20
-117.8735975182747
 30
0.0
 10
93.69557289324278
 20
-118.0968397057188
 30
0.0
 10
93.67352428213718
 20
-118.1650525963268
 30
0.0
 10
93.67352428213718
 20
-118.1650525963268
 30
0.0
 10
93.47680932992941
 20
-118.1144096926936
 30
0.0
 10
93.47680932992941
 20
-118.1144096926936
 30
0.0
 10
93.51642792800979
 20
-117.9955538984525
 30
0.0
 10
93.63769528909059
 20
-117.6379529870836
 30
0.0
 10
94.0793565302996
 20
-117.7523301571939
 30
0.0
 10
94.2970865649674
 20
-117.808829723152
 30
0.0
 10
94.49828014130598
 20
-117.9921088029673
 30
0.0
 10
94.42455509792164
 20
-118.27874074734
 30
0.0
 10
94.37770179932224
 20
-118.4592637507671
 30
0.0
 10
94.26504717695458
 20
-118.5150742976282
 30
0.0
 10
94.15308157368396
 20
-118.5495252524807
 30
0.0
 10
94.20579153460828
 20
-118.5915554174007
 30
0.0
 10
94.36185436009009
 20
-118.7148898357727
 30
0.0
 10
94.29226343128805
 20
-118.9832627740736
 30
0.0
 10
94.2075140823509
 20
-119.3108913547209
 30
0.0
 10
93.92639429075452
 20
-119.4107991237931
 30
0.0
 10
93.65836586200209
 20
-119.3412081949911
 30
0.0
  0
HATCH
  5
9B
330
94
100
AcDbEntity
  8
_U+30EC_U+30A4_U+30E4_U+30FC 1
 62
   179
420
  2234388
100
AcDbHatch
 10
0.0
 20
0.0
 30
0.0
210
0.0
220
0.0
230
1.0
  2
SOLID
 70
     1
 71
     0
 91
        1
 92
        1
 93
        1
 72
     4
 94
        3
 73
     0
 74
     1
 95
       62
 96
       58
 40
0.0
 40
0.0
 40
0.0
 40
0.0
 40
1.0
 40
1.0
 40
1.0
 40
2.0
 40
2.0
 40
2.0
 40
3.0
 40
3.0
 40
3.0
 40
4.0
 40
4.0
 40
4.0
 40
5.0
 40
5.0
 40
5.0
 40
6.0
 40
6.0
 40
6.0
 40
7.0
 40
7.0
 40
7.0
 40
8.0
 40
8.0
 40
8.0
 40
9.0
 40
9.0
 40
9.0
 40
10.0
 40
10.0
 40
10.0
 40
11.0
 40
11.0
 40
11.0
 40
12.0
 40
12.0
 40
12.0
 40
13.0
 40
13.0
 40
13.0
 40
14.0
 40
14.0
 40
14.0
 40
15.0
 40
15.0
 40
15.0
 40
16.0
 40
16.0
 40
16.0
 40
17.0
 40
17.0
 40
17.0
 40
18.0
 40
18.0
 40
18.0
 40
19.0
 40
19.0
 40
19.0
 40
19.0
 10
93.65836586200209
 20
-119.3412081949911
 10
93.56603730299739
 20
-119.3174370361429
 10
93.36002059297944
 20
-119.2426784641129
 10
93.28560653049804
 20
-119.0311496013186
 10
93.2421983273839
 20
-118.9036810683644
 10
93.2628689002954
 20
-118.8065293756803
 10
93.28009437772165
 20
-118.7235025744858
 10
93.28009437772165
 20
-118.7235025744858
 10
93.49334578825861
 20
-118.7786241022498
 10
93.49334578825861
 20
-118.7786241022498
 10
93.47646482038088
 20
-118.85097110744
 10
93.42823348358739
 20
-119.0807589763062
 10
93.70246308421328
 20
-119.1517279433023
 10
93.83544376994392
 20
-119.1861788981549
 10
94.00080835323591
 20
-119.1568955865302
 10
94.05799693829105
 20
-118.9357204563772
 10
94.08693574036715
 20
-118.8230658340095
 10
94.06213105287335
 20
-118.7665662680514
 10
94.03939342267071
 20
-118.7276366890681
 10
93.98633895219787
 20
-118.6377196969031
 10
93.87678491576692
 20
-118.5960340415316
 10
93.82373044529407
 20
-118.5822536595905
 10
93.80512692967372
 20
-118.5774305259112
 10
93.76998695572418
 20
-118.5705403349407
 10
93.74242619184217
 20
-118.567439749004
 10
93.74242619184217
 20
-118.567439749004
 10
93.79065752863568
 20
-118.3793375355093
 10
93.79065752863568
 20
-118.3793375355093
 10
93.82648652168227
 20
-118.3951849747415
 10
93.86644962931118
 20
-118.4075873184884
 10
93.87265080118462
 20
-118.409309866231
 10
93.93604055811322
 20
-118.4258463245602
 10
94.13378903896655
 20
-118.4547851266363
 10
94.19304468131286
 20
-118.2256862768672
 10
94.2378309226211
 20
-118.0534315026047
 10
94.1248317907049
 20
-117.9673041154735
 10
94.01803383066216
 20
-117.9397433515915
 10
93.76240774565663
 20
-117.8735975182747
 10
93.69557289324278
 20
-118.0968397057188
 10
93.67352428213718
 20
-118.1650525963268
 10
93.67352428213718
 20
-118.1650525963268
 10
93.47680932992941
 20
-118.1144096926936
 10
93.47680932992941
 20
-118.1144096926936
 10
93.51642792800979
 20
-117.9955538984525
 10
93.63769528909059
 20
-117.6379529870836
 10
94.0793565302996
 20
-117.7523301571939
 10
94.2970865649674
 20
-117.808829723152
 10
94.49828014130598
 20
-117.9921088029673
 10
94.42455509792164
 20
-118.27874074734
 10
94.37770179932224
 20
-118.4592637507671
 10
94.26504717695458
 20
-118.5150742976282
 10
94.15308157368396
 20
-118.5495252524807
 10
94.20579153460828
 20
-118.5915554174007
 10
94.36185436009009
 20
-118.7148898357727
 10
94.29226343128805
 20
-118.9832627740736
 10
94.2075140823509
 20
-119.3108913547209
 10
93.92639429075452
 20
-119.4107991237931
 10
93.65836586200209
 20
-119.3412081949911
 97
        0
 97
        0
 75
     2
 76
     1
 98
        0
  0
SPLINE
  5
9C
330
94
100
AcDbEntity
  8
_U+30EC_U+30A4_U+30E4_U+30FC 1
370
     0
100
AcDbSpline
210
0.0
220
0.0
230
1.0
 70
    11
 71
     3
 72
    53
 73
    49
 74
     0
 42
0.0000000001
 43
0.0000000001
 12
1.0
 22
0.0
 32
0.0
 13
1.0
 23
0.0
 33
0.0
 40
0.0
 40
0.0
 40
0.0
 40
0.0
 40
1.0
 40
1.0
 40
1.0
 40
2.0
 40
2.0
 40
2.0
 40
3.0
 40
3.0
 40
3.0
 40
4.0
 40
4.0
 40
4.0
 40
5.0
 40
5.0
 40
5.0
 40
6.0
 40
6.0
 40
6.0
 40
7.0
 40
7.0
 40
7.0
 40
8.0
 40
8.0
 40
8.0
 40
9.0
 40
9.0
 40
9.0
 40
10.0
 40
10.0
 40
10.0
 40
11.0
 40
11.0
 40
11.0
 40
12.0
 40
12.0
 40
12.0
 40
13.0
 40
13.0
 40
13.0
 40
14.0
 40
14.0
 40
14.0
 40
15.0
 40
15.0
 40
15.0
 40
16.0
 40
16.0
 40
16.0
 40
16.0
 10
94.78697914296993
 20
-119.6333522921403
 30
0.0
 10
94.71118704229443
 20
-119.6137152478744
 30
0.0
 10
94.61748044509564
 20
-119.5720295925028
 30
0.0
 10
94.53479815344964
 20
-119.4852131862745
 30
0.0
 10
94.39458276719996
 20
-119.3353515326662
 30
0.0
 10
94.40664060139835
 20
-119.202715356484
 30
0.0
 10
94.41559784965999
 20
-119.0935058296016
 30
0.0
 10
94.41559784965999
 20
-119.0935058296016
 30
0.0
 10
94.63057180793959
 20
-119.1493163764627
 30
0.0
 10
94.63057180793959
 20
-119.1493163764627
 30
0.0
 10
94.63401690342484
 20
-119.3556775960291
 30
0.0
 10
94.74908309263218
 20
-119.415966767021
 30
0.0
 10
94.83934459434572
 20
-119.4393934163207
 30
0.0
 10
94.97439233736752
 20
-119.4741888807217
 30
0.0
 10
95.14664711163
 20
-119.415966767021
 30
0.0
 10
95.20521373487925
 20
-119.1910020318342
 30
0.0
 10
95.2692925109049
 20
-118.9429551568962
 30
0.0
 10
95.11288517587457
 20
-118.8303005345285
 30
0.0
 10
94.99575192937607
 20
-118.8003282038069
 30
0.0
 10
94.96543508910587
 20
-118.7920599746423
 30
0.0
 10
94.82832028879292
 20
-118.7569200006927
 30
0.0
 10
94.70980900410034
 20
-118.8595838461532
 30
0.0
 10
94.70980900410034
 20
-118.8595838461532
 30
0.0
 10
94.54444442080833
 20
-118.7972276178701
 30
0.0
 10
94.54444442080833
 20
-118.7972276178701
 30
0.0
 10
94.54444442080833
 20
-118.7972276178701
 30
0.0
 10
94.87310653010117
 20
-118.0079562421994
 30
0.0
 10
94.87310653010117
 20
-118.0079562421994
 30
0.0
 10
94.87310653010117
 20
-118.0079562421994
 30
0.0
 10
95.62689342227384
 20
-118.2029486466646
 30
0.0
 10
95.62689342227384
 20
-118.2029486466646
 30
0.0
 10
95.62689342227384
 20
-118.2029486466646
 30
0.0
 10
95.5779730663833
 20
-118.3913953697077
 30
0.0
 10
95.5779730663833
 20
-118.3913953697077
 30
0.0
 10
95.5779730663833
 20
-118.3913953697077
 30
0.0
 10
94.98197154743507
 20
-118.2370550919685
 30
0.0
 10
94.98197154743507
 20
-118.2370550919685
 30
0.0
 10
94.98197154743507
 20
-118.2370550919685
 30
0.0
 10
94.81247284956078
 20
-118.6304849963841
 30
0.0
 10
94.81247284956078
 20
-118.6304849963841
 30
0.0
 10
94.88068574016872
 20
-118.6129150094093
 30
0.0
 10
94.97025822278522
 20
-118.5943114937889
 30
0.0
 10
95.08532441199256
 20
-118.6242838245106
 30
0.0
 10
95.33095972009087
 20
-118.6876735814392
 30
0.0
 10
95.51389429035764
 20
-118.9277967367611
 30
0.0
 10
95.43534611329395
 20
-119.2309651394631
 30
0.0
 10
95.3561089171332
 20
-119.5379231471989
 30
0.0
 10
95.07981225921617
 20
-119.7091443928158
 30
0.0
 10
94.78697914296993
 20
-119.6333522921403
 30
0.0
  0
HATCH
  5
9D
330
94
100
AcDbEntity
  8
_U+30EC_U+30A4_U+30E4_U+30FC 1
 62
   179
420
  2234388
100
AcDbHatch
 10
0.0
 20
0.0
 30
0.0
210
0.0
220
0.0
230
1.0
  2
SOLID
 70
     1
 71
     0
 91
        1
 92
        1
 93
        1
 72
     4
 94
        3
 73
     0
 74
     1
 95
       53
 96
       49
 40
0.0
 40
0.0
 40
0.0
 40
0.0
 40
1.0
 40
1.0
 40
1.0
 40
2.0
 40
2.0
 40
2.0
 40
3.0
 40
3.0
 40
3.0
 40
4.0
 40
4.0
 40
4.0
 40
5.0
 40
5.0
 40
5.0
 40
6.0
 40
6.0
 40
6.0
 40
7.0
 40
7.0
 40
7.0
 40
8.0
 40
8.0
 40
8.0
 40
9.0
 40
9.0
 40
9.0
 40
10.0
 40
10.0
 40
10.0
 40
11.0
 40
11.0
 40
11.0
 40
12.0
 40
12.0
 40
12.0
 40
13.0
 40
13.0
 40
13.0
 40
14.0
 40
14.0
 40
14.0
 40
15.0
 40
15.0
 40
15.0
 40
16.0
 40
16.0
 40
16.0
 40
16.0
 10
94.78697914296993
 20
-119.6333522921403
 10
94.71118704229443
 20
-119.6137152478744
 10
94.61748044509564
 20
-119.5720295925028
 10
94.53479815344964
 20
-119.4852131862745
 10
94.39458276719996
 20
-119.3353515326662
 10
94.40664060139835
 20
-119.202715356484
 10
94.41559784965999
 20
-119.0935058296016
 10
94.41559784965999
 20
-119.0935058296016
 10
94.63057180793959
 20
-119.1493163764627
 10
94.63057180793959
 20
-119.1493163764627
 10
94.63401690342484
 20
-119.3556775960291
 10
94.74908309263218
 20
-119.415966767021
 10
94.83934459434572
 20
-119.4393934163207
 10
94.97439233736752
 20
-119.4741888807217
 10
95.14664711163
 20
-119.415966767021
 10
95.20521373487925
 20
-119.1910020318342
 10
95.2692925109049
 20
-118.9429551568962
 10
95.11288517587457
 20
-118.8303005345285
 10
94.99575192937607
 20
-118.8003282038069
 10
94.96543508910587
 20
-118.7920599746423
 10
94.82832028879292
 20
-118.7569200006927
 10
94.70980900410034
 20
-118.8595838461532
 10
94.70980900410034
 20
-118.8595838461532
 10
94.54444442080833
 20
-118.7972276178701
 10
94.54444442080833
 20
-118.7972276178701
 10
94.54444442080833
 20
-118.7972276178701
 10
94.87310653010117
 20
-118.0079562421994
 10
94.87310653010117
 20
-118.0079562421994
 10
94.87310653010117
 20
-118.0079562421994
 10
95.62689342227384
 20
-118.2029486466646
 10
95.62689342227384
 20
-118.2029486466646
 10
95.62689342227384
 20
-118.2029486466646
 10
95.5779730663833
 20
-118.3913953697077
 10
95.5779730663833
 20
-118.3913953697077
 10
95.5779730663833
 20
-118.3913953697077
 10
94.98197154743507
 20
-118.2370550919685
 10
94.98197154743507
 20
-118.2370550919685
 10
94.98197154743507
 20
-118.2370550919685
 10
94.81247284956078
 20
-118.6304849963841
 10
94.81247284956078
 20
-118.6304849963841
 10
94.88068574016872
 20
-118.6129150094093
 10
94.97025822278522
 20
-118.5943114937889
 10
95.08532441199256
 20
-118.6242838245106
 10
95.33095972009087
 20
-118.6876735814392
 10
95.51389429035764
 20
-118.9277967367611
 10
95.43534611329395
 20
-119.2309651394631
 10
95.3561089171332
 20
-119.5379231471989
 10
95.07981225921617
 20
-119.7091443928158
 10
94.78697914296993
 20
-119.6333522921403
 97
        0
 97
        0
 75
     2
 76
     1
 98
        0
  0
SPLINE
  5
9E
330
94
100
AcDbEntity
  8
_U+30EC_U+30A4_U+30E4_U+30FC 1
370
     0
100
AcDbSpline
210
0.0
220
0.0
230
1.0
 70
    11
 71
     3
 72
    17
 73
    13
 74
     0
 42
0.0000000001
 43
0.0000000001
 12
1.0
 22
0.0
 32
0.0
 13
1.0
 23
0.0
 33
0.0
 40
0.0
 40
0.0
 40
0.0
 40
0.0
 40
1.0
 40
1.0
 40
1.0
 40
2.0
 40
2.0
 40
2.0
 40
3.0
 40
3.0
 40
3.0
 40
4.0
 40
4.0
 40
4.0
 40
4.0
 10
96.40341794464915
 20
-118.6680365371733
 30
0.0
 10
96.36207679882615
 20
-118.8278889676889
 30
0.0
 10
96.19809025372825
 20
-118.9298637940523
 30
0.0
 10
96.03203665133921
 20
-118.8868001004866
 30
0.0
 10
95.86805010624133
 20
-118.8444254260181
 30
0.0
 10
95.77158743265433
 20
-118.6773382949834
 30
0.0
 10
95.81361759757438
 20
-118.5157633167252
 30
0.0
 10
95.85564776249443
 20
-118.3538438289185
 30
0.0
 10
96.02101234578642
 20
-118.2546250789433
 30
0.0
 10
96.18430987178726
 20
-118.2969997534119
 30
0.0
 10
96.3503634741763
 20
-118.339718937429
 30
0.0
 10
96.44475909047215
 20
-118.5081841066577
 30
0.0
 10
96.40341794464915
 20
-118.6680365371733
 30
0.0
  0
SPLINE
  5
9F
330
94
100
AcDbEntity
  8
_U+30EC_U+30A4_U+30E4_U+30FC 1
370
     0
100
AcDbSpline
210
0.0
220
0.0
230
1.0
 70
    11
 71
     3
 72
    17
 73
    13
 74
     0
 42
0.0000000001
 43
0.0000000001
 12
1.0
 22
0.0
 32
0.0
 13
1.0
 23
0.0
 33
0.0
 40
0.0
 40
0.0
 40
0.0
 40
0.0
 40
1.0
 40
1.0
 40
1.0
 40
2.0
 40
2.0
 40
2.0
 40
3.0
 40
3.0
 40
3.0
 40
4.0
 40
4.0
 40
4.0
 40
4.0
 10
95.93419593955812
 20
-118.5467691760925
 30
0.0
 10
95.90939125206432
 20
-118.6432318496795
 30
0.0
 10
95.96726885621652
 20
-118.7410725614606
 30
0.0
 10
96.06304251070647
 20
-118.7658772489544
 30
0.0
 10
96.15950518429347
 20
-118.7906819364482
 30
0.0
 10
96.25734589607455
 20
-118.7331488418445
 30
0.0
 10
96.28249509311688
 20
-118.637030677806
 30
0.0
 10
96.30729978061068
 20
-118.540568004219
 30
0.0
 10
96.25183374329816
 20
-118.4430718019865
 30
0.0
 10
96.15330401242001
 20
-118.4175780953956
 30
0.0
 10
96.05477428154187
 20
-118.3924288983533
 30
0.0
 10
95.95900062705192
 20
-118.450651012054
 30
0.0
 10
95.93419593955812
 20
-118.5467691760925
 30
0.0
  0
HATCH
  5
A0
330
94
100
AcDbEntity
  8
_U+30EC_U+30A4_U+30E4_U+30FC 1
 62
   179
420
  2234388
100
AcDbHatch
 10
0.0
 20
0.0
 30
0.0
210
0.0
220
0.0
230
1.0
  2
SOLID
 70
     1
 71
     0
 91
        2
 92
        1
 93
        1
 72
     4
 94
        3
 73
     0
 74
     1
 95
       17
 96
       13
 40
0.0
 40
0.0
 40
0.0
 40
0.0
 40
1.0
 40
1.0
 40
1.0
 40
2.0
 40
2.0
 40
2.0
 40
3.0
 40
3.0
 40
3.0
 40
4.0
 40
4.0
 40
4.0
 40
4.0
 10
96.40341794464915
 20
-118.6680365371733
 10
96.36207679882615
 20
-118.8278889676889
 10
96.19809025372825
 20
-118.9298637940523
 10
96.03203665133921
 20
-118.8868001004866
 10
95.86805010624133
 20
-118.8444254260181
 10
95.77158743265433
 20
-118.6773382949834
 10
95.81361759757438
 20
-118.5157633167252
 10
95.85564776249443
 20
-118.3538438289185
 10
96.02101234578642
 20
-118.2546250789433
 10
96.18430987178726
 20
-118.2969997534119
 10
96.3503634741763
 20
-118.339718937429
 10
96.44475909047215
 20
-118.5081841066577
 10
96.40341794464915
 20
-118.6680365371733
 97
        0
 97
        0
 92
        1
 93
        1
 72
     4
 94
        3
 73
     0
 74
     1
 95
       17
 96
       13
 40
0.0
 40
0.0
 40
0.0
 40
0.0
 40
1.0
 40
1.0
 40
1.0
 40
2.0
 40
2.0
 40
2.0
 40
3.0
 40
3.0
 40
3.0
 40
4.0
 40
4.0
 40
4.0
 40
4.0
 10
95.93419593955812
 20
-118.5467691760925
 10
95.90939125206432
 20
-118.6432318496795
 10
95.96726885621652
 20
-118.7410725614606
 10
96.06304251070647
 20
-118.7658772489544
 10
96.15950518429347
 20
-118.7906819364482
 10
96.25734589607455
 20
-118.7331488418445
 10
96.28249509311688
 20
-118.637030677806
 10
96.30729978061068
 20
-118.540568004219
 10
96.25183374329816
 20
-118.4430718019865
 10
96.15330401242001
 20
-118.4175780953956
 10
96.05477428154187
 20
-118.3924288983533
 10
95.95900062705192
 20
-118.450651012054
 10
95.93419593955812
 20
-118.5467691760925
 97
        0
 97
        0
 75
     2
 76
     1
 98
        0
  0
ENDBLK
  5
97
330
94
100
AcDbEntity
  8
0
100
AcDbBlockEnd
  0
ENDSEC
  0
SECTION
  2
ENTITIES
  0
POLYLINE
  5
41
330
1F
100
AcDbEntity
  8
_U+30EC_U+30A4_U+30E4_U+30FC 1
 62
   179
420
  2234388
370
    25
100
AcDb2dPolyline
 66
     1
 10
0.0
 20
0.0
 30
0.0
  0
VERTEX
  5
42
330
41
100
AcDbEntity
  8
_U+30EC_U+30A4_U+30E4_U+30FC 1
 62
   179
420
  2234388
370
    25
100
AcDbVertex
100
AcDb2dVertex
 10
88.84006078905678
 20
-124.9935763576405
 30
0.0
  0
VERTEX
  5
A1
330
41
100
AcDbEntity
  8
0
100
AcDbVertex
100
AcDb2dVertex
 10
88.84006078905678
 20
-124.9935763576405
 30
0.0
  0
SEQEND
  5
43
330
41
100
AcDbEntity
  8
_U+30EC_U+30A4_U+30E4_U+30FC 1
 62
   179
420
  2234388
370
    25
  0
SPLINE
  5
44
330
1F
100
AcDbEntity
  8
_U+30EC_U+30A4_U+30E4_U+30FC 1
 62
     7
420
 16777215
370
     9
100
AcDbSpline
210
0.0
220
0.0
230
1.0
 70
     8
 71
     3
 72
    11
 73
     7
 74
     0
 42
0.0000000001
 43
0.0000000001
 12
1.0
 22
0.0
 32
0.0
 13
1.0
 23
0.0
 33
0.0
 40
0.0
 40
0.0
 40
0.0
 40
0.0
 40
1.0
 40
1.0
 40
1.0
 40
2.0
 40
2.0
 40
2.0
 40
2.0
 10
88.28746969204344
 20
-122.0018444139441
 30
0.0
 10
89.11910800415991
 20
-119.9554863588999
 30
0.0
 10
91.45142766687971
 20
-118.970178025813
 30
0.0
 10
93.49919678130343
 20
-119.8018163589384
 30
0.0
 10
95.54421664278088
 20
-120.6334546920638
 30
0.0
 10
96.53089837062494
 20
-122.9664799692583
 30
0.0
 10
95.69855450297092
 20
-125.0135435798577
 30
0.0
  0
SPLINE
  5
45
330
1F
100
AcDbEntity
  8
_U+30EC_U+30A4_U+30E4_U+30FC 1
 62
   179
420
  2234388
370
    25
100
AcDbSpline
210
0.0
220
0.0
230
1.0
 70
    11
 71
     3
 72
    62
 73
    58
 74
     0
 42
0.0000000001
 43
0.0000000001
 12
1.0
 22
0.0
 32
0.0
 13
1.0
 23
0.0
 33
0.0
 40
0.0
 40
0.0
 40
0.0
 40
0.0
 40
1.0
 40
1.0
 40
1.0
 40
2.0
 40
2.0
 40
2.0
 40
3.0
 40
3.0
 40
3.0
 40
4.0
 40
4.0
 40
4.0
 40
5.0
 40
5.0
 40
5.0
 40
6.0
 40
6.0
 40
6.0
 40
7.0
 40
7.0
 40
7.0
 40
8.0
 40
8.0
 40
8.0
 40
9.0
 40
9.0
 40
9.0
 40
10.0
 40
10.0
 40
10.0
 40
11.0
 40
11.0
 40
11.0
 40
12.0
 40
12.0
 40
12.0
 40
13.0
 40
13.0
 40
13.0
 40
14.0
 40
14.0
 40
14.0
 40
15.0
 40
15.0
 40
15.0
 40
16.0
 40
16.0
 40
16.0
 40
17.0
 40
17.0
 40
17.0
 40
18.0
 40
18.0
 40
18.0
 40
19.0
 40
19.0
 40
19.0
 40
19.0
 10
84.76794700405617
 20
-138.4824932987129
 30
0.0
 10
84.76794700405617
 20
-138.4824932987129
 30
0.0
 10
73.30750257421424
 20
-127.4313413570311
 30
0.0
 10
73.30750257421424
 20
-127.4313413570311
 30
0.0
 10
73.55554062344181
 20
-127.1729316348735
 30
0.0
 10
74.11501088694632
 20
-127.2377016348574
 30
0.0
 10
74.5118858768212
 20
-127.6228644125386
 30
0.0
 10
74.5118858768212
 20
-127.6228644125386
 30
0.0
 10
79.76912129825351
 20
-132.7009594112693
 30
0.0
 10
79.76912129825351
 20
-132.7009594112693
 30
0.0
 10
79.76912129825351
 20
-132.7009594112693
 30
0.0
 10
80.221805731149
 20
-132.7098846890446
 30
0.0
 10
80.221805731149
 20
-132.7098846890446
 30
0.0
 10
80.221805731149
 20
-132.7098846890446
 30
0.0
 10
85.55206615071829
 20
-137.8534199655369
 30
0.0
 10
85.55206615071829
 20
-137.8534199655369
 30
0.0
 10
85.55206615071829
 20
-137.8534199655369
 30
0.0
 10
90.80722018331481
 20
-124.8571571910079
 30
0.0
 10
90.80722018331481
 20
-124.8571571910079
 30
0.0
 10
90.80722018331481
 20
-124.8571571910079
 30
0.0
 10
85.14827671657537
 20
-119.3946049701512
 30
0.0
 10
85.14827671657537
 20
-119.3946049701512
 30
0.0
 10
85.14827671657537
 20
-119.3946049701512
 30
0.0
 10
86.56146918052183
 20
-119.3704749701572
 30
0.0
 10
86.56146918052183
 20
-119.3704749701572
 30
0.0
 10
86.56146918052183
 20
-119.3704749701572
 30
0.0
 10
91.60576794071993
 20
-124.2404663578289
 30
0.0
 10
91.60576794071993
 20
-124.2404663578289
 30
0.0
 10
91.60576794071993
 20
-124.2404663578289
 30
0.0
 10
98.61722609517606
 20
-124.2384202467183
 30
0.0
 10
98.61722609517606
 20
-124.2384202467183
 30
0.0
 10
98.61722609517606
 20
-124.2384202467183
 30
0.0
 10
99.61770384742954
 20
-125.2368166353576
 30
0.0
 10
99.61770384742954
 20
-125.2368166353576
 30
0.0
 10
99.61770384742954
 20
-125.2368166353576
 30
0.0
 10
91.75252349253144
 20
-125.2388627464682
 30
0.0
 10
91.75252349253144
 20
-125.2388627464682
 30
0.0
 10
91.75252349253144
 20
-125.2388627464682
 30
0.0
 10
86.51462029282816
 20
-138.2420399654397
 30
0.0
 10
86.51462029282816
 20
-138.2420399654397
 30
0.0
 10
86.51462029282816
 20
-138.2420399654397
 30
0.0
 10
93.85335275431419
 20
-138.2385827432184
 30
0.0
 10
93.85335275431419
 20
-138.2385827432184
 30
0.0
 10
93.85335275431419
 20
-138.2385827432184
 30
0.0
 10
94.25368259538823
 20
-138.5472632986968
 30
0.0
 10
94.25368259538823
 20
-138.5472632986968
 30
0.0
 10
94.25368259538823
 20
-138.5472632986968
 30
0.0
 10
101.5627793533621
 20
-138.5403841320317
 30
0.0
 10
101.5627793533621
 20
-138.5403841320317
 30
0.0
 10
102.116076005913
 20
-138.5383027431433
 30
0.0
 10
102.5632571056155
 20
-138.8800738541692
 30
0.0
 10
102.5632571056155
 20
-139.2383549651903
 30
0.0
 10
102.5632571056155
 20
-139.2383549651903
 30
0.0
 10
86.64207890068752
 20
-139.2390605207458
 30
0.0
 10
86.64207890068752
 20
-139.2390605207458
 30
0.0
 10
86.64207890068752
 20
-139.2390605207458
 30
0.0
 10
84.76794700405617
 20
-138.4824932987129
 30
0.0
 10
84.76794700405617
 20
-138.4824932987129
 30
0.0
  0
HATCH
  5
46
330
1F
100
AcDbEntity
  8
_U+30EC_U+30A4_U+30E4_U+30FC 1
 62
   253
420
 11711154
100
AcDbHatch
 10
0.0
 20
0.0
 30
0.0
210
0.0
220
0.0
230
1.0
  2
SOLID
 70
     1
 71
     0
 91
        1
 92
        1
 93
        1
 72
     4
 94
        3
 73
     0
 74
     1
 95
       62
 96
       58
 40
0.0
 40
0.0
 40
0.0
 40
0.0
 40
1.0
 40
1.0
 40
1.0
 40
2.0
 40
2.0
 40
2.0
 40
3.0
 40
3.0
 40
3.0
 40
4.0
 40
4.0
 40
4.0
 40
5.0
 40
5.0
 40
5.0
 40
6.0
 40
6.0
 40
6.0
 40
7.0
 40
7.0
 40
7.0
 40
8.0
 40
8.0
 40
8.0
 40
9.0
 40
9.0
 40
9.0
 40
10.0
 40
10.0
 40
10.0
 40
11.0
 40
11.0
 40
11.0
 40
12.0
 40
12.0
 40
12.0
 40
13.0
 40
13.0
 40
13.0
 40
14.0
 40
14.0
 40
14.0
 40
15.0
 40
15.0
 40
15.0
 40
16.0
 40
16.0
 40
16.0
 40
17.0
 40
17.0
 40
17.0
 40
18.0
 40
18.0
 40
18.0
 40
19.0
 40
19.0
 40
19.0
 40
19.0
 10
84.76794700405617
 20
-138.4824932987129
 10
84.76794700405617
 20
-138.4824932987129
 10
73.30750257421424
 20
-127.4313413570311
 10
73.30750257421424
 20
-127.4313413570311
 10
73.55554062344181
 20
-127.1729316348735
 10
74.11501088694632
 20
-127.2377016348574
 10
74.5118858768212
 20
-127.6228644125386
 10
74.5118858768212
 20
-127.6228644125386
 10
79.76912129825351
 20
-132.7009594112693
 10
79.76912129825351
 20
-132.7009594112693
 10
79.76912129825351
 20
-132.7009594112693
 10
80.221805731149
 20
-132.7098846890446
 10
80.221805731149
 20
-132.7098846890446
 10
80.221805731149
 20
-132.7098846890446
 10
85.55206615071829
 20
-137.8534199655369
 10
85.55206615071829
 20
-137.8534199655369
 10
85.55206615071829
 20
-137.8534199655369
 10
90.80722018331481
 20
-124.8571571910079
 10
90.80722018331481
 20
-124.8571571910079
 10
90.80722018331481
 20
-124.8571571910079
 10
85.14827671657537
 20
-119.3946049701512
 10
85.14827671657537
 20
-119.3946049701512
 10
85.14827671657537
 20
-119.3946049701512
 10
86.56146918052183
 20
-119.3704749701572
 10
86.56146918052183
 20
-119.3704749701572
 10
86.56146918052183
 20
-119.3704749701572
 10
91.60576794071993
 20
-124.2404663578289
 10
91.60576794071993
 20
-124.2404663578289
 10
91.60576794071993
 20
-124.2404663578289
 10
98.61722609517606
 20
-124.2384202467183
 10
98.61722609517606
 20
-124.2384202467183
 10
98.61722609517606
 20
-124.2384202467183
 10
99.61770384742954
 20
-125.2368166353576
 10
99.61770384742954
 20
-125.2368166353576
 10
99.61770384742954
 20
-125.2368166353576
 10
91.75252349253144
 20
-125.2388627464682
 10
91.75252349253144
 20
-125.2388627464682
 10
91.75252349253144
 20
-125.2388627464682
 10
86.51462029282816
 20
-138.2420399654397
 10
86.51462029282816
 20
-138.2420399654397
 10
86.51462029282816
 20
-138.2420399654397
 10
93.85335275431419
 20
-138.2385827432184
 10
93.85335275431419
 20
-138.2385827432184
 10
93.85335275431419
 20
-138.2385827432184
 10
94.25368259538823
 20
-138.5472632986968
 10
94.25368259538823
 20
-138.5472632986968
 10
94.25368259538823
 20
-138.5472632986968
 10
101.5627793533621
 20
-138.5403841320317
 10
101.5627793533621
 20
-138.5403841320317
 10
102.116076005913
 20
-138.5383027431433
 10
102.5632571056155
 20
-138.8800738541692
 10
102.5632571056155
 20
-139.2383549651903
 10
102.5632571056155
 20
-139.2383549651903
 10
86.64207890068752
 20
-139.2390605207458
 10
86.64207890068752
 20
-139.2390605207458
 10
86.64207890068752
 20
-139.2390605207458
 10
84.76794700405617
 20
-138.4824932987129
 10
84.76794700405617
 20
-138.4824932987129
 97
        0
 97
        0
 75
     2
 76
     1
 98
        0
  0
POLYLINE
  5
47
330
1F
100
AcDbEntity
  8
_U+30EC_U+30A4_U+30E4_U+30FC 1
 62
   179
420
  2234388
370
     9
100
AcDb2dPolyline
 66
     1
 10
0.0
 20
0.0
 30
0.0
  0
VERTEX
  5
48
330
47
100
AcDbEntity
  8
_U+30EC_U+30A4_U+30E4_U+30FC 1
 62
   179
420
  2234388
370
     9
100
AcDbVertex
100
AcDb2dVertex
 10
105.2797164807573
 20
-120.4550196921084
 30
0.0
  0
VERTEX
  5
49
330
47
100
AcDbEntity
  8
_U+30EC_U+30A4_U+30E4_U+30FC 1
 62
   179
420
  2234388
370
     9
100
AcDbVertex
100
AcDb2dVertex
 10
105.2797164807573
 20
-138.2399585765513
 30
0.0
  0
SEQEND
  5
4A
330
47
100
AcDbEntity
  8
_U+30EC_U+30A4_U+30E4_U+30FC 1
 62
   179
420
  2234388
370
     9
  0
SPLINE
  5
4B
330
1F
100
AcDbEntity
  8
_U+30EC_U+30A4_U+30E4_U+30FC 1
 62
   179
420
  2234388
370
     9
100
AcDbSpline
210
0.0
220
0.0
230
1.0
 70
    11
 71
     3
 72
    17
 73
    13
 74
     0
 42
0.0000000001
 43
0.0000000001
 12
1.0
 22
0.0
 32
0.0
 13
1.0
 23
0.0
 33
0.0
 40
0.0
 40
0.0
 40
0.0
 40
0.0
 40
1.0
 40
1.0
 40
1.0
 40
2.0
 40
2.0
 40
2.0
 40
3.0
 40
3.0
 40
3.0
 40
4.0
 40
4.0
 40
4.0
 40
4.0
 10
105.1798098166395
 20
-124.2384202467183
 30
0.0
 10
105.1798098166395
 20
-124.2935241355932
 30
0.0
 10
105.2245773154974
 20
-124.3383269133599
 30
0.0
 10
105.2797164807573
 20
-124.3383269133599
 30
0.0
 10
105.3348203682404
 20
-124.3383269133599
 30
0.0
 10
105.3796231448752
 20
-124.2935241355932
 30
0.0
 10
105.3796231448752
 20
-124.2384202467183
 30
0.0
 10
105.3796231448752
 20
-124.1826108022878
 30
0.0
 10
105.3348203682404
 20
-124.1378080245211
 30
0.0
 10
105.2797164807573
 20
-124.1378080245211
 30
0.0
 10
105.2245773154974
 20
-124.1378080245211
 30
0.0
 10
105.1798098166395
 20
-124.1826108022878
 30
0.0
 10
105.1798098166395
 20
-124.2384202467183
 30
0.0
  0
POLYLINE
  5
4C
330
1F
100
AcDbEntity
  8
_U+30EC_U+30A4_U+30E4_U+30FC 1
 62
   179
420
  2234388
370
     9
100
AcDb2dPolyline
 66
     1
 10
0.0
 20
0.0
 30
0.0
  0
VERTEX
  5
4D
330
4C
100
AcDbEntity
  8
_U+30EC_U+30A4_U+30E4_U+30FC 1
 62
   179
420
  2234388
370
     9
100
AcDbVertex
100
AcDb2dVertex
 10
103.6553512444206
 20
-124.2384202467183
 30
0.0
  0
VERTEX
  5
4E
330
4C
100
AcDbEntity
  8
_U+30EC_U+30A4_U+30E4_U+30FC 1
 62
   179
420
  2234388
370
     9
100
AcDbVertex
100
AcDb2dVertex
 10
106.2794533996964
 20
-124.2384202467183
 30
0.0
  0
SEQEND
  5
4F
330
4C
100
AcDbEntity
  8
_U+30EC_U+30A4_U+30E4_U+30FC 1
 62
   179
420
  2234388
370
     9
  0
SPLINE
  5
50
330
1F
100
AcDbEntity
  8
_U+30EC_U+30A4_U+30E4_U+30FC 1
 62
   179
420
  2234388
370
     9
100
AcDbSpline
210
0.0
220
0.0
230
1.0
 70
    11
 71
     3
 72
    17
 73
    13
 74
     0
 42
0.0000000001
 43
0.0000000001
 12
1.0
 22
0.0
 32
0.0
 13
1.0
 23
0.0
 33
0.0
 40
0.0
 40
0.0
 40
0.0
 40
0.0
 40
1.0
 40
1.0
 40
1.0
 40
2.0
 40
2.0
 40
2.0
 40
3.0
 40
3.0
 40
3.0
 40
4.0
 40
4.0
 40
4.0
 40
4.0
 10
105.1798098166395
 20
-125.2381924686905
 30
0.0
 10
105.1798098166395
 20
-125.2932963575654
 30
0.0
 10
105.2245773154974
 20
-125.3380991353321
 30
0.0
 10
105.2797164807573
 20
-125.3380991353321
 30
0.0
 10
105.3348203682404
 20
-125.3380991353321
 30
0.0
 10
105.3796231448752
 20
-125.2932963575654
 30
0.0
 10
105.3796231448752
 20
-125.2381924686905
 30
0.0
 10
105.3796231448752
 20
-125.1823830242601
 30
0.0
 10
105.3348203682404
 20
-125.1375802464933
 30
0.0
 10
105.2797164807573
 20
-125.1375802464933
 30
0.0
 10
105.2245773154974
 20
-125.1375802464933
 30
0.0
 10
105.1798098166395
 20
-125.1823830242601
 30
0.0
 10
105.1798098166395
 20
-125.2381924686905
 30
0.0
  0
POLYLINE
  5
51
330
1F
100
AcDbEntity
  8
_U+30EC_U+30A4_U+30E4_U+30FC 1
 62
   179
420
  2234388
370
     9
100
AcDb2dPolyline
 66
     1
 10
0.0
 20
0.0
 30
0.0
  0
VERTEX
  5
52
330
51
100
AcDbEntity
  8
_U+30EC_U+30A4_U+30E4_U+30FC 1
 62
   179
420
  2234388
370
     9
100
AcDbVertex
100
AcDb2dVertex
 10
103.6553512444206
 20
-125.2381924686905
 30
0.0
  0
VERTEX
  5
53
330
51
100
AcDbEntity
  8
_U+30EC_U+30A4_U+30E4_U+30FC 1
 62
   179
420
  2234388
370
     9
100
AcDbVertex
100
AcDb2dVertex
 10
106.2794533996964
 20
-125.2381924686905
 30
0.0
  0
SEQEND
  5
54
330
51
100
AcDbEntity
  8
_U+30EC_U+30A4_U+30E4_U+30FC 1
 62
   179
420
  2234388
370
     9
  0
SPLINE
  5
55
330
1F
100
AcDbEntity
  8
_U+30EC_U+30A4_U+30E4_U+30FC 1
 62
   179
420
  2234388
370
     9
100
AcDbSpline
210
0.0
220
0.0
230
1.0
 70
    11
 71
     3
 72
    17
 73
    13
 74
     0
 42
0.0000000001
 43
0.0000000001
 12
1.0
 22
0.0
 32
0.0
 13
1.0
 23
0.0
 33
0.0
 40
0.0
 40
0.0
 40
0.0
 40
0.0
 40
1.0
 40
1.0
 40
1.0
 40
2.0
 40
2.0
 40
2.0
 40
3.0
 40
3.0
 40
3.0
 40
4.0
 40
4.0
 40
4.0
 40
4.0
 10
105.1798098166395
 20
-138.2379124654404
 30
0.0
 10
105.1798098166395
 20
-138.2930163543153
 30
0.0
 10
105.2245773154974
 20
-138.337819132082
 30
0.0
 10
105.2797164807573
 20
-138.337819132082
 30
0.0
 10
105.3348203682404
 20
-138.337819132082
 30
0.0
 10
105.3796231448752
 20
-138.2930163543153
 30
0.0
 10
105.3796231448752
 20
-138.2379124654404
 30
0.0
 10
105.3796231448752
 20
-138.18210302101
 30
0.0
 10
105.3348203682404
 20
-138.1373002432433
 30
0.0
 10
105.2797164807573
 20
-138.1373002432433
 30
0.0
 10
105.2245773154974
 20
-138.1373002432433
 30
0.0
 10
105.1798098166395
 20
-138.18210302101
 30
0.0
 10
105.1798098166395
 20
-138.2379124654404
 30
0.0
  0
POLYLINE
  5
56
330
1F
100
AcDbEntity
  8
_U+30EC_U+30A4_U+30E4_U+30FC 1
 62
   179
420
  2234388
370
     9
100
AcDb2dPolyline
 66
     1
 10
0.0
 20
0.0
 30
0.0
  0
VERTEX
  5
57
330
56
100
AcDbEntity
  8
_U+30EC_U+30A4_U+30E4_U+30FC 1
 62
   179
420
  2234388
370
     9
100
AcDbVertex
100
AcDb2dVertex
 10
103.6553512444206
 20
-138.2379124654404
 30
0.0
  0
VERTEX
  5
58
330
56
100
AcDbEntity
  8
_U+30EC_U+30A4_U+30E4_U+30FC 1
 62
   179
420
  2234388
370
     9
100
AcDbVertex
100
AcDb2dVertex
 10
106.2794533996964
 20
-138.2379124654404
 30
0.0
  0
SEQEND
  5
59
330
56
100
AcDbEntity
  8
_U+30EC_U+30A4_U+30E4_U+30FC 1
 62
   179
420
  2234388
370
     9
  0
INSERT
  5
5B
330
1F
100
AcDbEntity
  8
_U+30EC_U+30A4_U+30E4_U+30FC 1
100
AcDbBlockReference
  2
block 2
 10
0.0
 20
0.0
 30
0.0
  0
INSERT
  5
63
330
1F
100
AcDbEntity
  8
_U+30EC_U+30A4_U+30E4_U+30FC 1
100
AcDbBlockReference
  2
block 3
 10
0.0
 20
0.0
 30
0.0
  0
SPLINE
  5
68
330
1F
100
AcDbEntity
  8
_U+30EC_U+30A4_U+30E4_U+30FC 1
 62
   179
420
  2234388
370
     9
100
AcDbSpline
210
0.0
220
0.0
230
1.0
 70
    11
 71
     3
 72
    17
 73
    13
 74
     0
 42
0.0000000001
 43
0.0000000001
 12
1.0
 22
0.0
 32
0.0
 13
1.0
 23
0.0
 33
0.0
 40
0.0
 40
0.0
 40
0.0
 40
0.0
 40
1.0
 40
1.0
 40
1.0
 40
2.0
 40
2.0
 40
2.0
 40
3.0
 40
3.0
 40
3.0
 40
4.0
 40
4.0
 40
4.0
 40
4.0
 10
85.60649976044068
 20
-143.2388196864127
 30
0.0
 10
85.60649976044068
 20
-143.1836805197596
 30
0.0
 10
85.56169698380592
 20
-143.1388777419929
 30
0.0
 10
85.5058875407853
 20
-143.1388777419929
 30
0.0
 10
85.45078365330222
 20
-143.1388777419929
 30
0.0
 10
85.40598087666746
 20
-143.1836805197596
 30
0.0
 10
85.40598087666746
 20
-143.2388196864127
 30
0.0
 10
85.40598087666746
 20
-143.2939235752876
 30
0.0
 10
85.45078365330222
 20
-143.3387263530544
 30
0.0
 10
85.5058875407853
 20
-143.3387263530544
 30
0.0
 10
85.56169698380592
 20
-143.3387263530544
 30
0.0
 10
85.60649976044068
 20
-143.2939235752876
 30
0.0
 10
85.60649976044068
 20
-143.2388196864127
 30
0.0
  0
POLYLINE
  5
69
330
1F
100
AcDbEntity
  8
_U+30EC_U+30A4_U+30E4_U+30FC 1
 62
   179
420
  2234388
370
     9
100
AcDb2dPolyline
 66
     1
 10
0.0
 20
0.0
 30
0.0
  0
VERTEX
  5
6A
330
69
100
AcDbEntity
  8
_U+30EC_U+30A4_U+30E4_U+30FC 1
 62
   179
420
  2234388
370
     9
100
AcDbVertex
100
AcDb2dVertex
 10
85.5058875407853
 20
-143.2388196864127
 30
0.0
  0
VERTEX
  5
6B
330
69
100
AcDbEntity
  8
_U+30EC_U+30A4_U+30E4_U+30FC 1
 62
   179
420
  2234388
370
     9
100
AcDbVertex
100
AcDb2dVertex
 10
102.4054596096413
 20
-143.2388196864127
 30
0.0
  0
SEQEND
  5
6C
330
69
100
AcDbEntity
  8
_U+30EC_U+30A4_U+30E4_U+30FC 1
 62
   179
420
  2234388
370
     9
  0
POLYLINE
  5
6D
330
1F
100
AcDbEntity
  8
_U+30EC_U+30A4_U+30E4_U+30FC 1
 62
   179
420
  2234388
370
     9
100
AcDb2dPolyline
 66
     1
 10
0.0
 20
0.0
 30
0.0
  0
VERTEX
  5
6E
330
6D
100
AcDbEntity
  8
_U+30EC_U+30A4_U+30E4_U+30FC 1
 62
   179
420
  2234388
370
     9
100
AcDbVertex
100
AcDb2dVertex
 10
85.5058875407853
 20
-140.7783005203609
 30
0.0
  0
VERTEX
  5
6F
330
6D
100
AcDbEntity
  8
_U+30EC_U+30A4_U+30E4_U+30FC 1
 62
   179
420
  2234388
370
     9
100
AcDbVertex
100
AcDb2dVertex
 10
85.5058875407853
 20
-144.2385566306071
 30
0.0
  0
SEQEND
  5
70
330
6D
100
AcDbEntity
  8
_U+30EC_U+30A4_U+30E4_U+30FC 1
 62
   179
420
  2234388
370
     9
  0
SPLINE
  5
71
330
1F
100
AcDbEntity
  8
_U+30EC_U+30A4_U+30E4_U+30FC 1
 62
   179
420
  2234388
370
     9
100
AcDbSpline
210
0.0
220
0.0
230
1.0
 70
    11
 71
     3
 72
    17
 73
    13
 74
     0
 42
0.0000000001
 43
0.0000000001
 12
1.0
 22
0.0
 32
0.0
 13
1.0
 23
0.0
 33
0.0
 40
0.0
 40
0.0
 40
0.0
 40
0.0
 40
1.0
 40
1.0
 40
1.0
 40
2.0
 40
2.0
 40
2.0
 40
3.0
 40
3.0
 40
3.0
 40
4.0
 40
4.0
 40
4.0
 40
4.0
 10
102.6066487711752
 20
-143.2388196864127
 30
0.0
 10
102.6066487711752
 20
-143.1836805197596
 30
0.0
 10
102.5618812723173
 20
-143.1388777419929
 30
0.0
 10
102.5060718292967
 20
-143.1388777419929
 30
0.0
 10
102.4509326640367
 20
-143.1388777419929
 30
0.0
 10
102.4061651651788
 20
-143.1836805197596
 30
0.0
 10
102.4061651651788
 20
-143.2388196864127
 30
0.0
 10
102.4061651651788
 20
-143.2939235752876
 30
0.0
 10
102.4509326640367
 20
-143.3387263530544
 30
0.0
 10
102.5060718292967
 20
-143.3387263530544
 30
0.0
 10
102.5618812723173
 20
-143.3387263530544
 30
0.0
 10
102.6066487711752
 20
-143.2939235752876
 30
0.0
 10
102.6066487711752
 20
-143.2388196864127
 30
0.0
  0
POLYLINE
  5
72
330
1F
100
AcDbEntity
  8
_U+30EC_U+30A4_U+30E4_U+30FC 1
 62
   179
420
  2234388
370
     9
100
AcDb2dPolyline
 66
     1
 10
0.0
 20
0.0
 30
0.0
  0
VERTEX
  5
73
330
72
100
AcDbEntity
  8
_U+30EC_U+30A4_U+30E4_U+30FC 1
 62
   179
420
  2234388
370
     9
100
AcDbVertex
100
AcDb2dVertex
 10
102.5060718292967
 20
-140.7783005203609
 30
0.0
  0
VERTEX
  5
74
330
72
100
AcDbEntity
  8
_U+30EC_U+30A4_U+30E4_U+30FC 1
 62
   179
420
  2234388
370
     9
100
AcDbVertex
100
AcDb2dVertex
 10
102.5060718292967
 20
-144.2385566306071
 30
0.0
  0
SEQEND
  5
75
330
72
100
AcDbEntity
  8
_U+30EC_U+30A4_U+30E4_U+30FC 1
 62
   179
420
  2234388
370
     9
  0
INSERT
  5
77
330
1F
100
AcDbEntity
  8
_U+30EC_U+30A4_U+30E4_U+30FC 1
100
AcDbBlockReference
  2
block 4
 10
0.0
 20
0.0
 30
0.0
  0
POLYLINE
  5
7E
330
1F
100
AcDbEntity
  8
_U+30EC_U+30A4_U+30E4_U+30FC 1
 62
   179
420
  2234388
370
     9
100
AcDb2dPolyline
 66
     1
 10
0.0
 20
0.0
 30
0.0
  0
VERTEX
  5
7F
330
7E
100
AcDbEntity
  8
_U+30EC_U+30A4_U+30E4_U+30FC 1
 62
   179
420
  2234388
370
     9
100
AcDbVertex
100
AcDb2dVertex
 10
99.64800745776753
 20
-115.0537802490143
 30
0.0
  0
VERTEX
  5
80
330
7E
100
AcDbEntity
  8
_U+30EC_U+30A4_U+30E4_U+30FC 1
 62
   179
420
  2234388
370
     9
100
AcDbVertex
100
AcDb2dVertex
 10
91.64781905075823
 20
-115.0537802490143
 30
0.0
  0
SEQEND
  5
81
330
7E
100
AcDbEntity
  8
_U+30EC_U+30A4_U+30E4_U+30FC 1
 62
   179
420
  2234388
370
     9
  0
SPLINE
  5
82
330
1F
100
AcDbEntity
  8
_U+30EC_U+30A4_U+30E4_U+30FC 1
 62
   179
420
  2234388
370
     9
100
AcDbSpline
210
0.0
220
0.0
230
1.0
 70
    11
 71
     3
 72
    17
 73
    13
 74
     0
 42
0.0000000001
 43
0.0000000001
 12
1.0
 22
0.0
 32
0.0
 13
1.0
 23
0.0
 33
0.0
 40
0.0
 40
0.0
 40
0.0
 40
0.0
 40
1.0
 40
1.0
 40
1.0
 40
2.0
 40
2.0
 40
2.0
 40
3.0
 40
3.0
 40
3.0
 40
4.0
 40
4.0
 40
4.0
 40
4.0
 10
91.61680988488267
 20
-114.9538735823727
 30
0.0
 10
91.56167071962273
 20
-114.9538735823727
 30
0.0
 10
91.51690553267622
 20
-114.9986763601391
 30
0.0
 10
91.51690553267622
 20
-115.0537802490143
 30
0.0
 10
91.51690553267622
 20
-115.1089194156671
 30
0.0
 10
91.56167071962273
 20
-115.153686915656
 30
0.0
 10
91.61680988488267
 20
-115.153686915656
 30
0.0
 10
91.67191377236574
 20
-115.153686915656
 30
0.0
 10
91.71671654900051
 20
-115.1089194156671
 30
0.0
 10
91.71671654900051
 20
-115.0537802490143
 30
0.0
 10
91.71671654900051
 20
-114.9986763601391
 30
0.0
 10
91.67191377236574
 20
-114.9538735823727
 30
0.0
 10
91.61680988488267
 20
-114.9538735823727
 30
0.0
  0
POLYLINE
  5
83
330
1F
100
AcDbEntity
  8
_U+30EC_U+30A4_U+30E4_U+30FC 1
 62
   179
420
  2234388
370
     9
100
AcDb2dPolyline
 66
     1
 10
0.0
 20
0.0
 30
0.0
  0
VERTEX
  5
84
330
83
100
AcDbEntity
  8
_U+30EC_U+30A4_U+30E4_U+30FC 1
 62
   179
420
  2234388
370
     9
100
AcDbVertex
100
AcDb2dVertex
 10
91.61680988488267
 20
-113.5937388604903
 30
0.0
  0
VERTEX
  5
85
330
83
100
AcDbEntity
  8
_U+30EC_U+30A4_U+30E4_U+30FC 1
 62
   179
420
  2234388
370
     9
100
AcDbVertex
100
AcDb2dVertex
 10
91.61680988488267
 20
-116.333975526472
 30
0.0
  0
SEQEND
  5
86
330
83
100
AcDbEntity
  8
_U+30EC_U+30A4_U+30E4_U+30FC 1
 62
   179
420
  2234388
370
     9
  0
SPLINE
  5
87
330
1F
100
AcDbEntity
  8
_U+30EC_U+30A4_U+30E4_U+30FC 1
 62
   179
420
  2234388
370
     9
100
AcDbSpline
210
0.0
220
0.0
230
1.0
 70
    11
 71
     3
 72
    17
 73
    13
 74
     0
 42
0.0000000001
 43
0.0000000001
 12
1.0
 22
0.0
 32
0.0
 13
1.0
 23
0.0
 33
0.0
 40
0.0
 40
0.0
 40
0.0
 40
0.0
 40
1.0
 40
1.0
 40
1.0
 40
2.0
 40
2.0
 40
2.0
 40
3.0
 40
3.0
 40
3.0
 40
4.0
 40
4.0
 40
4.0
 40
4.0
 10
99.61770384742954
 20
-114.9538735823727
 30
0.0
 10
99.56256468216958
 20
-114.9538735823727
 30
0.0
 10
99.5177971833117
 20
-114.9986763601391
 30
0.0
 10
99.5177971833117
 20
-115.0537802490143
 30
0.0
 10
99.5177971833117
 20
-115.1089194156671
 30
0.0
 10
99.56256468216958
 20
-115.153686915656
 30
0.0
 10
99.61770384742954
 20
-115.153686915656
 30
0.0
 10
99.67280773491261
 20
-115.153686915656
 30
0.0
 10
99.71761051154736
 20
-115.1089194156671
 30
0.0
 10
99.71761051154736
 20
-115.0537802490143
 30
0.0
 10
99.71761051154736
 20
-114.9986763601391
 30
0.0
 10
99.67280773491261
 20
-114.9538735823727
 30
0.0
 10
99.61770384742954
 20
-114.9538735823727
 30
0.0
  0
POLYLINE
  5
88
330
1F
100
AcDbEntity
  8
_U+30EC_U+30A4_U+30E4_U+30FC 1
 62
   179
420
  2234388
370
     9
100
AcDb2dPolyline
 66
     1
 10
0.0
 20
0.0
 30
0.0
  0
VERTEX
  5
89
330
88
100
AcDbEntity
  8
_U+30EC_U+30A4_U+30E4_U+30FC 1
 62
   179
420
  2234388
370
     9
100
AcDbVertex
100
AcDb2dVertex
 10
99.61770384742954
 20
-113.5937388604903
 30
0.0
  0
VERTEX
  5
8A
330
88
100
AcDbEntity
  8
_U+30EC_U+30A4_U+30E4_U+30FC 1
 62
   179
420
  2234388
370
     9
100
AcDbVertex
100
AcDb2dVertex
 10
99.61770384742954
 20
-123.0884352470055
 30
0.0
  0
SEQEND
  5
8B
330
88
100
AcDbEntity
  8
_U+30EC_U+30A4_U+30E4_U+30FC 1
 62
   179
420
  2234388
370
     9
  0
INSERT
  5
8D
330
1F
100
AcDbEntity
  8
_U+30EC_U+30A4_U+30E4_U+30FC 1
100
AcDbBlockReference
  2
block 5
 10
0.0
 20
0.0
 30
0.0
  0
INSERT
  5
95
330
1F
100
AcDbEntity
  8
_U+30EC_U+30A4_U+30E4_U+30FC 1
100
AcDbBlockReference
  2
block 6
 10
0.0
 20
0.0
 30
0.0
  0
ENDSEC
  0
SECTION
  2
OBJECTS
  0
DICTIONARY
  5
C
330
0
100
AcDbDictionary
281
     1
  3
ACAD_GROUP
350
D
  3
ACAD_LAYOUT
350
1A
  3
ACAD_MATERIAL
350
3B
  3
ACAD_MLEADERSTYLE
350
A3
  3
ACAD_MLINESTYLE
350
17
  3
ACAD_PLOTSETTINGS
350
19
  3
ACAD_PLOTSTYLENAME
350
E
  3
ACAD_TABLESTYLE
350
A2
  3
ACAD_VISUALSTYLE
350
2A
  0
SUN
  5
3F
330
29
100
AcDbSun
 90
        1
290
     0
 63
     7
421
 16777215
 40
1.0
291
     1
 91
  2455826
 92
 54000000
292
     0
 70
     2
 71
   256
280
     1
  0
DICTIONARY
  5
D
102
{ACAD_REACTORS
330
C
102
}
330
C
100
AcDbDictionary
281
     1
  0
DICTIONARY
  5
1A
102
{ACAD_REACTORS
330
C
102
}
330
C
100
AcDbDictionary
281
     1
  3
Layout1
350
1E
  3
Layout2
350
26
  3
Model
350
22
  0
DICTIONARY
  5
3B
102
{ACAD_REACTORS
330
C
102
}
330
C
100
AcDbDictionary
281
     1
  3
ByBlock
350
3D
  3
ByLayer
350
3C
  3
Global
350
3E
  0
DICTIONARY
  5
A3
102
{ACAD_REACTORS
330
C
102
}
330
C
100
AcDbDictionary
281
     1
  0
DICTIONARY
  5
17
102
{ACAD_REACTORS
330
C
102
}
330
C
100
AcDbDictionary
281
     1
  3
Standard
350
18
  0
DICTIONARY
  5
19
102
{ACAD_REACTORS
330
C
102
}
330
C
100
AcDbDictionary
281
     1
  0
ACDBDICTIONARYWDFLT
  5
E
102
{ACAD_REACTORS
330
C
102
}
330
C
100
AcDbDictionary
281
     1
  3
Normal
350
F
100
AcDbDictionaryWithDefault
340
F
  0
DICTIONARY
  5
A2
102
{ACAD_REACTORS
330
C
102
}
330
C
100
AcDbDictionary
281
     1
  0
DICTIONARY
  5
2A
102
{ACAD_REACTORS
330
C
102
}
330
C
100
AcDbDictionary
281
     1
  3
2dWireframe
350
2F
  3
3D Hidden
350
31
  3
3dWireframe
350
30
  3
Basic
350
32
  3
Brighten
350
36
  3
ColorChange
350
3A
  3
Conceptual
350
34
  3
Dim
350
35
  3
Facepattern
350
39
  3
Flat
350
2B
  3
FlatWithEdges
350
2C
  3
Gouraud
350
2D
  3
GouraudWithEdges
350
2E
  3
Linepattern
350
38
  3
Realistic
350
33
  3
Thicken
350
37
  0
LAYOUT
  5
1E
102
{ACAD_REACTORS
330
1A
102
}
330
1A
100
AcDbPlotSettings
  1

  2
none_device
  4

  6

 40
0.0
 41
0.0
 42
0.0
 43
0.0
 44
0.0
 45
0.0
 46
0.0
 47
0.0
 48
0.0
 49
0.0
140
0.0
141
0.0
142
1.0
143
1.0
 70
   688
 72
     0
 73
     0
 74
     5
  7

 75
    16
 76
     0
 77
     2
 78
   300
147
1.0
148
0.0
149
0.0
100
AcDbLayout
  1
Layout1
 70
     1
 71
     1
 10
0.0
 20
0.0
 11
12.0
 21
9.0
 12
0.0
 22
0.0
 32
0.0
 14
1.000000000000000E+20
 24
1.000000000000000E+20
 34
1.000000000000000E+20
 15
-1.000000000000000E+20
 25
-1.000000000000000E+20
 35
-1.000000000000000E+20
146
0.0
 13
0.0
 23
0.0
 33
0.0
 16
1.0
 26
0.0
 36
0.0
 17
0.0
 27
1.0
 37
0.0
 76
     0
330
1B
  0
LAYOUT
  5
26
102
{ACAD_REACTORS
330
1A
102
}
330
1A
100
AcDbPlotSettings
  1

  2
none_device
  4

  6

 40
0.0
 41
0.0
 42
0.0
 43
0.0
 44
0.0
 45
0.0
 46
0.0
 47
0.0
 48
0.0
 49
0.0
140
0.0
141
0.0
142
1.0
143
1.0
 70
   688
 72
     0
 73
     0
 74
     5
  7

 75
    16
 76
     0
 77
     2
 78
   300
147
1.0
148
0.0
149
0.0
100
AcDbLayout
  1
Layout2
 70
     1
 71
     2
 10
0.0
 20
0.0
 11
0.0
 21
0.0
 12
0.0
 22
0.0
 32
0.0
 14
0.0
 24
0.0
 34
0.0
 15
0.0
 25
0.0
 35
0.0
146
0.0
 13
0.0
 23
0.0
 33
0.0
 16
1.0
 26
0.0
 36
0.0
 17
0.0
 27
1.0
 37
0.0
 76
     0
330
23
  0
LAYOUT
  5
22
102
{ACAD_REACTORS
330
1A
102
}
330
1A
100
AcDbPlotSettings
  1

  2
none_device
  4

  6

 40
0.0
 41
0.0
 42
0.0
 43
0.0
 44
0.0
 45
0.0
 46
0.0
 47
0.0
 48
0.0
 49
0.0
140
0.0
141
0.0
142
1.0
143
1.0
 70
  1712
 72
     0
 73
     0
 74
     0
  7

 75
     0
 76
     0
 77
     2
 78
   300
147
1.0
148
0.0
149
0.0
100
AcDbLayout
  1
Model
 70
     1
 71
     0
 10
0.0
 20
0.0
 11
12.0
 21
9.0
 12
0.0
 22
0.0
 32
0.0
 14
1.000000000000000E+20
 24
1.000000000000000E+20
 34
1.000000000000000E+20
 15
-1.000000000000000E+20
 25
-1.000000000000000E+20
 35
-1.000000000000000E+20
146
0.0
 13
0.0
 23
0.0
 33
0.0
 16
1.0
 26
0.0
 36
0.0
 17
0.0
 27
1.0
 37
0.0
 76
     0
330
1F
331
29
  0
MATERIAL
  5
3D
102
{ACAD_REACTORS
330
3B
102
}
330
3B
100
AcDbMaterial
  1
ByBlock
 72
     1
 94
      127
  0
MATERIAL
  5
3C
102
{ACAD_REACTORS
330
3B
102
}
330
3B
100
AcDbMaterial
  1
ByLayer
 72
     1
 94
      127
  0
MATERIAL
  5
3E
102
{ACAD_REACTORS
330
3B
102
}
330
3B
100
AcDbMaterial
  1
Global
 72
     1
 94
      127
  0
MLINESTYLE
  5
18
102
{ACAD_REACTORS
330
17
102
}
330
17
100
AcDbMlineStyle
  2
Standard
 70
     0
  3

 62
   256
 51
90.0
 52
90.0
 71
     2
 49
0.5
 62
   256
  6
BYLAYER
 49
-0.5
 62
   256
  6
BYLAYER
  0
ACDBPLACEHOLDER
  5
F
102
{ACAD_REACTORS
330
E
102
}
330
E
  0
VISUALSTYLE
  5
2F
102
{ACAD_REACTORS
330
2A
102
}
330
2A
100
AcDbVisualStyle
  2
2dWireframe
 70
     4
177
     2
291
     0
 71
     0
176
     1
 72
     2
176
     1
 73
     0
176
     1
 90
        0
176
     1
 40
-0.6
176
     1
 41
-30.0
176
     1
 62
     5
 63
     7
421
 16777215
176
     1
 74
     1
176
     1
 91
        4
176
     1
 64
     7
176
     1
 65
   257
176
     1
 75
     1
176
     1
175
     1
176
     1
 42
1.0
176
     1
 92
        0
176
     1
 66
   257
176
     1
 43
1.0
176
     1
 76
     1
176
     1
 77
     6
176
     1
 78
     2
176
     1
 67
     7
176
     1
 79
     5
176
     1
170
     0
176
     1
171
     0
176
     1
290
     0
176
     1
 93
        1
176
     1
 44
0.0
176
     1
173
     0
176
     1
  0
VISUALSTYLE
  5
31
102
{ACAD_REACTORS
330
2A
102
}
330
2A
100
AcDbVisualStyle
  2
3D Hidden
 70
     6
177
     2
291
     0
 71
     1
176
     1
 72
     2
176
     1
 73
     2
176
     1
 90
        0
176
     1
 40
-0.6
176
     1
 41
-30.0
176
     1
 62
     5
 63
     7
421
 16777215
176
     1
 74
     2
176
     1
 91
        2
176
     1
 64
     7
176
     1
 65
   257
176
     1
 75
     2
176
     1
175
     1
176
     1
 42
40.0
176
     1
 92
        0
176
     1
 66
   257
176
     1
 43
1.0
176
     1
 76
     1
176
     1
 77
     6
176
     1
 78
     2
176
     1
 67
     7
176
     1
 79
     3
176
     1
170
     0
176
     1
171
     0
176
     1
290
     0
176
     1
 93
        1
176
     1
 44
0.0
176
     1
173
     0
176
     1
  0
VISUALSTYLE
  5
30
102
{ACAD_REACTORS
330
2A
102
}
330
2A
100
AcDbVisualStyle
  2
3dWireframe
 70
     5
177
     2
291
     0
 71
     0
176
     1
 72
     2
176
     1
 73
     0
176
     1
 90
        0
176
     1
 40
-0.6
176
     1
 41
-30.0
176
     1
 62
     5
 63
     7
421
 16777215
176
     1
 74
     1
176
     1
 91
        4
176
     1
 64
     7
176
     1
 65
   257
176
     1
 75
     1
176
     1
175
     1
176
     1
 42
1.0
176
     1
 92
        0
176
     1
 66
   257
176
     1
 43
1.0
176
     1
 76
     1
176
     1
 77
     6
176
     1
 78
     2
176
     1
 67
     7
176
     1
 79
     5
176
     1
170
     0
176
     1
171
     0
176
     1
290
     0
176
     1
 93
        1
176
     1
 44
0.0
176
     1
173
     0
176
     1
  0
VISUALSTYLE
  5
32
102
{ACAD_REACTORS
330
2A
102
}
330
2A
100
AcDbVisualStyle
  2
Basic
 70
     7
177
     2
291
     1
 71
     1
176
     1
 72
     0
176
     1
 73
     1
176
     1
 90
        0
176
     1
 40
-0.6
176
     1
 41
-30.0
176
     1
 62
     5
 63
     7
421
 16777215
176
     1
 74
     0
176
     1
 91
        4
176
     1
 64
     7
176
     1
 65
   257
176
     1
 75
     1
176
     1
175
     1
176
     1
 42
1.0
176
     1
 92
        8
176
     1
 66
     7
176
     1
 43
1.0
176
     1
 76
     1
176
     1
 77
     6
176
     1
 78
     2
176
     1
 67
     7
176
     1
 79
     5
176
     1
170
     0
176
     1
171
     0
176
     1
290
     0
176
     1
 93
        1
176
     1
 44
0.0
176
     1
173
     0
176
     1
  0
VISUALSTYLE
  5
36
102
{ACAD_REACTORS
330
2A
102
}
330
2A
100
AcDbVisualStyle
  2
Brighten
 70
    12
177
     2
291
     1
 71
     2
176
     1
 72
     2
176
     1
 73
     0
176
     1
 90
        0
176
     1
 40
-0.6
176
     1
 41
-30.0
176
     1
 62
     5
 63
     7
421
 16777215
176
     1
 74
     1
176
     1
 91
        4
176
     1
 64
     7
176
     1
 65
   257
176
     1
 75
     1
176
     1
175
     1
176
     1
 42
1.0
176
     1
 92
        8
176
     1
 66
     7
176
     1
 43
1.0
176
     1
 76
     1
176
     1
 77
     6
176
     1
 78
     2
176
     1
 67
     7
176
     1
 79
     5
176
     1
170
     0
176
     1
171
     0
176
     1
290
     0
176
     1
 93
        1
176
     1
 44
50.0
176
     1
173
     0
176
     1
  0
VISUALSTYLE
  5
3A
102
{ACAD_REACTORS
330
2A
102
}
330
2A
100
AcDbVisualStyle
  2
ColorChange
 70
    16
177
     2
291
     1
 71
     2
176
     1
 72
     2
176
     1
 73
     3
176
     1
 90
        0
176
     1
 40
-0.6
176
     1
 41
-30.0
176
     1
 62
     5
 63
     8
421
  8421504
176
     1
 74
     1
176
     1
 91
        4
176
     1
 64
     7
176
     1
 65
   257
176
     1
 75
     1
176
     1
175
     1
176
     1
 42
1.0
176
     1
 92
        8
176
     1
 66
     8
424
  8421504
176
     1
 43
1.0
176
     1
 76
     1
176
     1
 77
     6
176
     1
 78
     2
176
     1
 67
     7
176
     1
 79
     5
176
     1
170
     0
176
     1
171
     0
176
     1
290
     0
176
     1
 93
        1
176
     1
 44
0.0
176
     1
173
     0
176
     1
  0
VISUALSTYLE
  5
34
102
{ACAD_REACTORS
330
2A
102
}
330
2A
100
AcDbVisualStyle
  2
Conceptual
 70
     9
177
     2
291
     0
 71
     3
176
     1
 72
     2
176
     1
 73
     0
176
     1
 90
        0
176
     1
 40
-0.6
176
     1
 41
-30.0
176
     1
 62
     5
 63
     7
421
 16777215
176
     1
 74
     2
176
     1
 91
        2
176
     1
 64
     7
176
     1
 65
   257
176
     1
 75
     1
176
     1
175
     1
176
     1
 42
40.0
176
     1
 92
        8
176
     1
 66
     7
176
     1
 43
1.0
176
     1
 76
     1
176
     1
 77
     6
176
     1
 78
     2
176
     1
 67
     7
176
     1
 79
     3
176
     1
170
     0
176
     1
171
     0
176
     1
290
     0
176
     1
 93
        1
176
     1
 44
0.0
176
     1
173
     0
176
     1
  0
VISUALSTYLE
  5
35
102
{ACAD_REACTORS
330
2A
102
}
330
2A
100
AcDbVisualStyle
  2
Dim
 70
    11
177
     2
291
     1
 71
     2
176
     1
 72
     2
176
     1
 73
     0
176
     1
 90
        0
176
     1
 40
-0.6
176
     1
 41
-30.0
176
     1
 62
     5
 63
     7
421
 16777215
176
     1
 74
     1
176
     1
 91
        4
176
     1
 64
     7
176
     1
 65
   257
176
     1
 75
     1
176
     1
175
     1
176
     1
 42
1.0
176
     1
 92
        8
176
     1
 66
     7
176
     1
 43
1.0
176
     1
 76
     1
176
     1
 77
     6
176
     1
 78
     2
176
     1
 67
     7
176
     1
 79
     5
176
     1
170
     0
176
     1
171
     0
176
     1
290
     0
176
     1
 93
        1
176
     1
 44
-50.0
176
     1
173
     0
176
     1
  0
VISUALSTYLE
  5
39
102
{ACAD_REACTORS
330
2A
102
}
330
2A
100
AcDbVisualStyle
  2
Facepattern
 70
    15
177
     2
291
     1
 71
     2
176
     1
 72
     2
176
     1
 73
     0
176
     1
 90
        0
176
     1
 40
-0.6
176
     1
 41
-30.0
176
     1
 62
     5
 63
     7
421
 16777215
176
     1
 74
     1
176
     1
 91
        4
176
     1
 64
     7
176
     1
 65
   257
176
     1
 75
     1
176
     1
175
     1
176
     1
 42
1.0
176
     1
 92
        8
176
     1
 66
     7
176
     1
 43
1.0
176
     1
 76
     1
176
     1
 77
     6
176
     1
 78
     2
176
     1
 67
     7
176
     1
 79
     5
176
     1
170
     0
176
     1
171
     0
176
     1
290
     0
176
     1
 93
        1
176
     1
 44
0.0
176
     1
173
     0
176
     1
  0
VISUALSTYLE
  5
2B
102
{ACAD_REACTORS
330
2A
102
}
330
2A
100
AcDbVisualStyle
  2
Flat
 70
     0
177
     2
291
     1
 71
     2
176
     1
 72
     1
176
     1
 73
     1
176
     1
 90
        2
176
     1
 40
-0.6
176
     1
 41
30.0
176
     1
 62
     5
 63
     7
421
 16777215
176
     1
 74
     0
176
     1
 91
        4
176
     1
 64
     7
176
     1
 65
   257
176
     1
 75
     1
176
     1
175
     1
176
     1
 42
1.0
176
     1
 92
        8
176
     1
 66
     7
176
     1
 43
1.0
176
     1
 76
     1
176
     1
 77
     6
176
     1
 78
     2
176
     1
 67
     7
176
     1
 79
     5
176
     1
170
     0
176
     1
171
     0
176
     1
290
     0
176
     1
 93
       13
176
     1
 44
0.0
176
     1
173
     0
176
     1
  0
VISUALSTYLE
  5
2C
102
{ACAD_REACTORS
330
2A
102
}
330
2A
100
AcDbVisualStyle
  2
FlatWithEdges
 70
     1
177
     2
291
     1
 71
     2
176
     1
 72
     1
176
     1
 73
     1
176
     1
 90
        2
176
     1
 40
-0.6
176
     1
 41
30.0
176
     1
 62
     5
 63
     7
421
 16777215
176
     1
 74
     1
176
     1
 91
        4
176
     1
 64
     7
176
     1
 65
   257
176
     1
 75
     1
176
     1
175
     1
176
     1
 42
1.0
176
     1
 92
        0
176
     1
 66
   257
176
     1
 43
1.0
176
     1
 76
     1
176
     1
 77
     6
176
     1
 78
     2
176
     1
 67
     7
176
     1
 79
     5
176
     1
170
     0
176
     1
171
     0
176
     1
290
     0
176
     1
 93
       13
176
     1
 44
0.0
176
     1
173
     0
176
     1
  0
VISUALSTYLE
  5
2D
102
{ACAD_REACTORS
330
2A
102
}
330
2A
100
AcDbVisualStyle
  2
Gouraud
 70
     2
177
     2
291
     1
 71
     2
176
     1
 72
     2
176
     1
 73
     1
176
     1
 90
        2
176
     1
 40
-0.6
176
     1
 41
30.0
176
     1
 62
     5
 63
     7
421
 16777215
176
     1
 74
     0
176
     1
 91
        4
176
     1
 64
     7
176
     1
 65
   257
176
     1
 75
     1
176
     1
175
     1
176
     1
 42
1.0
176
     1
 92
        0
176
     1
 66
     7
176
     1
 43
1.0
176
     1
 76
     1
176
     1
 77
     6
176
     1
 78
     2
176
     1
 67
     7
176
     1
 79
     5
176
     1
170
     0
176
     1
171
     0
176
     1
290
     0
176
     1
 93
       13
176
     1
 44
0.0
176
     1
173
     0
176
     1
  0
VISUALSTYLE
  5
2E
102
{ACAD_REACTORS
330
2A
102
}
330
2A
100
AcDbVisualStyle
  2
GouraudWithEdges
 70
     3
177
     2
291
     1
 71
     2
176
     1
 72
     2
176
     1
 73
     1
176
     1
 90
        2
176
     1
 40
-0.6
176
     1
 41
30.0
176
     1
 62
     5
 63
     7
421
 16777215
176
     1
 74
     1
176
     1
 91
        4
176
     1
 64
     7
176
     1
 65
   257
176
     1
 75
     1
176
     1
175
     1
176
     1
 42
1.0
176
     1
 92
        0
176
     1
 66
   257
176
     1
 43
1.0
176
     1
 76
     1
176
     1
 77
     6
176
     1
 78
     2
176
     1
 67
     7
176
     1
 79
     5
176
     1
170
     0
176
     1
171
     0
176
     1
290
     0
176
     1
 93
       13
176
     1
 44
0.0
176
     1
173
     0
176
     1
  0
VISUALSTYLE
  5
38
102
{ACAD_REACTORS
330
2A
102
}
330
2A
100
AcDbVisualStyle
  2
Linepattern
 70
    14
177
     2
291
     1
 71
     2
176
     1
 72
     2
176
     1
 73
     0
176
     1
 90
        0
176
     1
 40
-0.6
176
     1
 41
-30.0
176
     1
 62
     5
 63
     7
421
 16777215
176
     1
 74
     1
176
     1
 91
        4
176
     1
 64
     7
176
     1
 65
   257
176
     1
 75
     7
176
     1
175
     7
176
     1
 42
1.0
176
     1
 92
        8
176
     1
 66
     7
176
     1
 43
1.0
176
     1
 76
     1
176
     1
 77
     6
176
     1
 78
     2
176
     1
 67
     7
176
     1
 79
     5
176
     1
170
     0
176
     1
171
     0
176
     1
290
     0
176
     1
 93
        1
176
     1
 44
0.0
176
     1
173
     0
176
     1
  0
VISUALSTYLE
  5
33
102
{ACAD_REACTORS
330
2A
102
}
330
2A
100
AcDbVisualStyle
  2
Realistic
 70
     8
177
     2
291
     0
 71
     2
176
     1
 72
     2
176
     1
 73
     0
176
     1
 90
        0
176
     1
 40
-0.6
176
     1
 41
-30.0
176
     1
 62
     5
 63
     7
421
 16777215
176
     1
 74
     1
176
     1
 91
        0
176
     1
 64
     7
176
     1
 65
   257
176
     1
 75
     1
176
     1
175
     1
176
     1
 42
1.0
176
     1
 92
        8
176
     1
 66
     8
424
  7895160
176
     1
 43
1.0
176
     1
 76
     1
176
     1
 77
     6
176
     1
 78
     2
176
     1
 67
     7
176
     1
 79
     5
176
     1
170
     0
176
     1
171
     0
176
     1
290
     0
176
     1
 93
       13
176
     1
 44
0.0
176
     1
173
     0
176
     1
  0
VISUALSTYLE
  5
37
102
{ACAD_REACTORS
330
2A
102
}
330
2A
100
AcDbVisualStyle
  2
Thicken
 70
    13
177
     2
291
     1
 71
     2
176
     1
 72
     2
176
     1
 73
     0
176
     1
 90
        0
176
     1
 40
-0.6
176
     1
 41
-30.0
176
     1
 62
     5
 63
     7
421
 16777215
176
     1
 74
     1
176
     1
 91
        4
176
     1
 64
     7
176
     1
 65
   257
176
     1
 75
     1
176
     1
175
     1
176
     1
 42
1.0
176
     1
 92
       12
176
     1
 66
     7
176
     1
 43
1.0
176
     1
 76
     1
176
     1
 77
     6
176
     1
 78
     2
176
     1
 67
     7
176
     1
 79
     5
176
     1
170
     0
176
     1
171
     0
176
     1
290
     0
176
     1
 93
        1
176
     1
 44
0.0
176
     1
173
     0
176
     1
  0
ENDSEC
  0
EOF
