  0
SECTION
  2
HEADER
  9
$ACADVER
  1
AC1024
  9
$ACADMAINTVER
 70
     6
  9
$DWGCODEPAGE
  3
UNDEFINED
  9
$INSBASE
 10
0.0
 20
0.0
 30
0.0
  9
$EXTMIN
 10
1.000000000000000E+20
 20
1.000000000000000E+20
 30
1.000000000000000E+20
  9
$EXTMAX
 10
-1.000000000000000E+20
 20
-1.000000000000000E+20
 30
-1.000000000000000E+20
  9
$LIMMIN
 10
0.0
 20
0.0
  9
$LIMMAX
 10
12.0
 20
9.0
  9
$ORTHOMODE
 70
     0
  9
$REGENMODE
 70
     1
  9
$FILLMODE
 70
     1
  9
$QTEXTMODE
 70
     0
  9
$MIRRTEXT
 70
     1
  9
$LTSCALE
 40
1.0
  9
$ATTMODE
 70
     1
  9
$TEXTSIZE
 40
0.2
  9
$TRACEWID
 40
0.05
  9
$TEXTSTYLE
  7
Standard
  9
$CLAYER
  8
0
  9
$CELTYPE
  6
ByLayer
  9
$CECOLOR
 62
   256
  9
$CELTSCALE
 40
1.0
  9
$DISPSILH
 70
     0
  9
$DIMSCALE
 40
1.0
  9
$DIMASZ
 40
0.18
  9
$DIMEXO
 40
0.0625
  9
$DIMDLI
 40
0.38
  9
$DIMRND
 40
0.0
  9
$DIMDLE
 40
0.0
  9
$DIMEXE
 40
0.18
  9
$DIMTP
 40
0.0
  9
$DIMTM
 40
0.0
  9
$DIMTXT
 40
0.18
  9
$DIMCEN
 40
0.09
  9
$DIMTSZ
 40
0.0
  9
$DIMTOL
 70
     0
  9
$DIMLIM
 70
     0
  9
$DIMTIH
 70
     1
  9
$DIMTOH
 70
     1
  9
$DIMSE1
 70
     0
  9
$DIMSE2
 70
     0
  9
$DIMTAD
 70
     0
  9
$DIMZIN
 70
     0
  9
$DIMBLK
  1

  9
$DIMASO
 70
     1
  9
$DIMSHO
 70
     1
  9
$DIMPOST
  1

  9
$DIMAPOST
  1

  9
$DIMALT
 70
     0
  9
$DIMALTD
 70
     2
  9
$DIMALTF
 40
25.4
  9
$DIMLFAC
 40
1.0
  9
$DIMTOFL
 70
     0
  9
$DIMTVP
 40
0.0
  9
$DIMTIX
 70
     0
  9
$DIMSOXD
 70
     0
  9
$DIMSAH
 70
     0
  9
$DIMBLK1
  1

  9
$DIMBLK2
  1

  9
$DIMSTYLE
  2
Standard
  9
$DIMCLRD
 70
     0
  9
$DIMCLRE
 70
     0
  9
$DIMCLRT
 70
     0
  9
$DIMTFAC
 40
1.0
  9
$DIMGAP
 40
0.09
  9
$DIMJUST
 70
     0
  9
$DIMSD1
 70
     0
  9
$DIMSD2
 70
     0
  9
$DIMTOLJ
 70
     1
  9
$DIMTZIN
 70
     0
  9
$DIMALTZ
 70
     0
  9
$DIMALTTZ
 70
     0
  9
$DIMUPT
 70
     0
  9
$DIMDEC
 70
     4
  9
$DIMTDEC
 70
     4
  9
$DIMALTU
 70
     2
  9
$DIMALTTD
 70
     2
  9
$DIMTXSTY
  7
Standard
  9
$DIMAUNIT
 70
     0
  9
$DIMADEC
 70
     0
  9
$DIMALTRND
 40
0.0
  9
$DIMAZIN
 70
     0
  9
$DIMDSEP
 70
    46
  9
$DIMATFIT
 70
     3
  9
$DIMFRAC
 70
     0
  9
$DIMLDRBLK
  1

  9
$DIMLUNIT
 70
     2
  9
$DIMLWD
 70
    -2
  9
$DIMLWE
 70
    -2
  9
$DIMTMOVE
 70
     0
  9
$DIMFXL
 40
1.0
  9
$DIMFXLON
 70
     0
  9
$DIMJOGANG
 40
0.7853981633974483
  9
$DIMTFILL
 70
     0
  9
$DIMTFILLCLR
 70
     0
  9
$DIMARCSYM
 70
     0
  9
$DIMLTYPE
  6

  9
$DIMLTEX1
  6

  9
$DIMLTEX2
  6

  9
$DIMTXTDIRECTION
 70
     0
  9
$LUNITS
 70
     2
  9
$LUPREC
 70
     4
  9
$SKETCHINC
 40
0.1
  9
$FILLETRAD
 40
0.5
  9
$AUNITS
 70
     0
  9
$AUPREC
 70
     0
  9
$MENU
  1
.
  9
$ELEVATION
 40
0.0
  9
$PELEVATION
 40
0.0
  9
$THICKNESS
 40
0.0
  9
$LIMCHECK
 70
     0
  9
$CHAMFERA
 40
0.5
  9
$CHAMFERB
 40
0.5
  9
$CHAMFERC
 40
1.0
  9
$CHAMFERD
 40
0.0
  9
$SKPOLY
 70
     0
  9
$TDCREATE
 40
2457917.620069445
  9
$TDUCREATE
 40
2457917.245069445
  9
$TDUPDATE
 40
2457917.620069445
  9
$TDUUPDATE
 40
2457917.245069445
  9
$TDINDWG
 40
0.0000000116
  9
$TDUSRTIMER
 40
0.0000000116
  9
$USRTIMER
 70
     1
  9
$ANGBASE
 50
0.0
  9
$ANGDIR
 70
     0
  9
$PDMODE
 70
     0
  9
$PDSIZE
 40
0.0
  9
$PLINEWID
 40
0.0
  9
$SPLFRAME
 70
     0
  9
$SPLINETYPE
 70
     6
  9
$SPLINESEGS
 70
     8
  9
$HANDSEED
  5
150
  9
$SURFTAB1
 70
     6
  9
$SURFTAB2
 70
     6
  9
$SURFTYPE
 70
     6
  9
$SURFU
 70
     6
  9
$SURFV
 70
     6
  9
$UCSBASE
  2

  9
$UCSNAME
  2

  9
$UCSORG
 10
0.0
 20
0.0
 30
0.0
  9
$UCSXDIR
 10
1.0
 20
0.0
 30
0.0
  9
$UCSYDIR
 10
0.0
 20
1.0
 30
0.0
  9
$UCSORTHOREF
  2

  9
$UCSORTHOVIEW
 70
     0
  9
$UCSORGTOP
 10
0.0
 20
0.0
 30
0.0
  9
$UCSORGBOTTOM
 10
0.0
 20
0.0
 30
0.0
  9
$UCSORGLEFT
 10
0.0
 20
0.0
 30
0.0
  9
$UCSORGRIGHT
 10
0.0
 20
0.0
 30
0.0
  9
$UCSORGFRONT
 10
0.0
 20
0.0
 30
0.0
  9
$UCSORGBACK
 10
0.0
 20
0.0
 30
0.0
  9
$PUCSBASE
  2

  9
$PUCSNAME
  2

  9
$PUCSORG
 10
0.0
 20
0.0
 30
0.0
  9
$PUCSXDIR
 10
1.0
 20
0.0
 30
0.0
  9
$PUCSYDIR
 10
0.0
 20
1.0
 30
0.0
  9
$PUCSORTHOREF
  2

  9
$PUCSORTHOVIEW
 70
     0
  9
$PUCSORGTOP
 10
0.0
 20
0.0
 30
0.0
  9
$PUCSORGBOTTOM
 10
0.0
 20
0.0
 30
0.0
  9
$PUCSORGLEFT
 10
0.0
 20
0.0
 30
0.0
  9
$PUCSORGRIGHT
 10
0.0
 20
0.0
 30
0.0
  9
$PUCSORGFRONT
 10
0.0
 20
0.0
 30
0.0
  9
$PUCSORGBACK
 10
0.0
 20
0.0
 30
0.0
  9
$USERI1
 70
     0
  9
$USERI2
 70
     0
  9
$USERI3
 70
     0
  9
$USERI4
 70
     0
  9
$USERI5
 70
     0
  9
$USERR1
 40
0.0
  9
$USERR2
 40
0.0
  9
$USERR3
 40
0.0
  9
$USERR4
 40
0.0
  9
$USERR5
 40
0.0
  9
$WORLDVIEW
 70
     1
  9
$SHADEDGE
 70
     3
  9
$SHADEDIF
 70
    70
  9
$TILEMODE
 70
     1
  9
$MAXACTVP
 70
    64
  9
$PINSBASE
 10
0.0
 20
0.0
 30
0.0
  9
$PLIMCHECK
 70
     0
  9
$PEXTMIN
 10
1.000000000000000E+20
 20
1.000000000000000E+20
 30
1.000000000000000E+20
  9
$PEXTMAX
 10
-1.000000000000000E+20
 20
-1.000000000000000E+20
 30
-1.000000000000000E+20
  9
$PLIMMIN
 10
0.0
 20
0.0
  9
$PLIMMAX
 10
12.0
 20
9.0
  9
$UNITMODE
 70
     0
  9
$VISRETAIN
 70
     1
  9
$PLINEGEN
 70
     0
  9
$PSLTSCALE
 70
     1
  9
$TREEDEPTH
 70
  3020
  9
$CMLSTYLE
  2
Standard
  9
$CMLJUST
 70
     0
  9
$CMLSCALE
 40
1.0
  9
$PROXYGRAPHICS
 70
     1
  9
$MEASUREMENT
 70
     0
  9
$CELWEIGHT
370
    -1
  9
$ENDCAPS
280
     0
  9
$JOINSTYLE
280
     0
  9
$LWDISPLAY
290
     1
  9
$INSUNITS
 70
     1
  9
$HYPERLINKBASE
  1

  9
$STYLESHEET
  1

  9
$XEDIT
290
     1
  9
$CEPSNTYPE
380
     0
  9
$PSTYLEMODE
290
     1
  9
$FINGERPRINTGUID
  2
{BC10BAD3-CE62-EED7-F597-E21C2394C0C9}
  9
$VERSIONGUID
  2
{FAEB1C32-E019-11D5-929B-00C0DF256EC4}
  9
$EXTNAMES
290
     1
  9
$PSVPSCALE
 40
0.0
  9
$OLESTARTUP
290
     0
  9
$SORTENTS
280
   127
  9
$INDEXCTL
280
     0
  9
$HIDETEXT
280
     1
  9
$XCLIPFRAME
280
     2
  9
$HALOGAP
280
     0
  9
$OBSCOLOR
 70
   257
  9
$OBSLTYPE
280
     0
  9
$INTERSECTIONDISPLAY
280
     0
  9
$INTERSECTIONCOLOR
 70
   257
  9
$DIMASSOC
280
     2
  9
$PROJECTNAME
  1

  9
$CAMERADISPLAY
290
     0
  9
$LENSLENGTH
 40
50.0
  9
$CAMERAHEIGHT
 40
0.0
  9
$STEPSPERSEC
 40
2.0
  9
$STEPSIZE
 40
6.0
  9
$3DDWFPREC
 40
2.0
  9
$PSOLWIDTH
 40
0.25
  9
$PSOLHEIGHT
 40
4.0
  9
$LOFTANG1
 40
1.570796326794897
  9
$LOFTANG2
 40
1.570796326794897
  9
$LOFTMAG1
 40
0.0
  9
$LOFTMAG2
 40
0.0
  9
$LOFTPARAM
 70
     7
  9
$LOFTNORMALS
280
     1
  9
$LATITUDE
 40
37.795
  9
$LONGITUDE
 40
-122.394
  9
$NORTHDIRECTION
 40
0.0
  9
$TIMEZONE
 70
 -8000
  9
$LIGHTGLYPHDISPLAY
280
     1
  9
$TILEMODELIGHTSYNCH
280
     1
  9
$CMATERIAL
347
3C
  9
$SOLIDHIST
280
     1
  9
$SHOWHIST
280
     1
  9
$DWFFRAME
280
     2
  9
$DGNFRAME
280
     2
  9
$REALWORLDSCALE
290
     1
  9
$INTERFERECOLOR
 62
   256
  9
$CSHADOW
280
     0
  9
$SHADOWPLANELOCATION
 40
0.0
  0
ENDSEC
  0
SECTION
  2
CLASSES
  0
CLASS
  1
ACDBDICTIONARYWDFLT
  2
AcDbDictionaryWithDefault
  3
ObjectDBX Classes
 90
        0
 91
        4
280
     0
281
     0
  0
CLASS
  1
VISUALSTYLE
  2
AcDbVisualStyle
  3
ObjectDBX Classes
 90
     4095
 91
        4
280
     0
281
     0
  0
CLASS
  1
MATERIAL
  2
AcDbMaterial
  3
ObjectDBX Classes
 90
     1153
 91
        4
280
     0
281
     0
  0
CLASS
  1
SUN
  2
AcDbSun
  3
SCENEOE
 90
     1024
 91
        4
280
     0
281
     0
  0
ENDSEC
  0
SECTION
  2
TABLES
  0
TABLE
  2
VPORT
  5
8
330
0
100
AcDbSymbolTable
 70
     1
  0
VPORT
  5
29
330
8
100
AcDbSymbolTableRecord
100
AcDbViewportTableRecord
  2
*Active
 70
     0
 10
0.0
 20
0.0
 11
1.0
 21
1.0
 12
0.0
 22
0.0
 13
0.0
 23
0.0
 14
0.5
 24
0.5
 15
0.5
 25
0.5
 16
0.0
 26
0.0
 36
1.0
 17
91.00082462281999
 27
-128.4993055234307
 37
0.0
 40
256.9986110468615
 41
0.7081814508812795
 42
50.0
 43
0.0
 44
0.0
 50
0.0
 51
0.0
 71
     0
 72
   100
 73
     1
 74
     3
 75
     0
 76
     0
 77
     0
 78
     0
281
     0
 65
     1
110
0.0
120
0.0
130
0.0
111
1.0
121
0.0
131
0.0
112
0.0
122
1.0
132
0.0
 79
     0
146
0.0
 60
     3
 61
     5
292
     1
282
     1
141
0.0
142
0.0
 63
   250
361
3F
  0
ENDTAB
  0
TABLE
  2
LTYPE
  5
5
330
0
100
AcDbSymbolTable
 70
     1
  0
LTYPE
  5
14
330
5
100
AcDbSymbolTableRecord
100
AcDbLinetypeTableRecord
  2
ByBlock
 70
     0
  3

 72
    65
 73
     0
 40
0.0
  0
LTYPE
  5
15
330
5
100
AcDbSymbolTableRecord
100
AcDbLinetypeTableRecord
  2
ByLayer
 70
     0
  3

 72
    65
 73
     0
 40
0.0
  0
LTYPE
  5
16
330
5
100
AcDbSymbolTableRecord
100
AcDbLinetypeTableRecord
  2
Continuous
 70
     0
  3
Solid line
 72
    65
 73
     0
 40
0.0
  0
ENDTAB
  0
TABLE
  2
LAYER
  5
2
330
0
100
AcDbSymbolTable
 70
     2
  0
LAYER
  5
10
330
2
100
AcDbSymbolTableRecord
100
AcDbLayerTableRecord
  2
0
 70
     0
 62
     7
  6
Continuous
370
    -3
390
F
347
3E
  0
LAYER
  5
40
330
2
100
AcDbSymbolTableRecord
100
AcDbLayerTableRecord
  2
_U+30EC_U+30A4_U+30E4_U+30FC 1
 70
     0
 62
     7
  6
Continuous
370
    -3
390
F
347
3E
  0
ENDTAB
  0
TABLE
  2
STYLE
  5
3
330
0
100
AcDbSymbolTable
 70
     1
  0
STYLE
  5
11
330
3
100
AcDbSymbolTableRecord
100
AcDbTextStyleTableRecord
  2
Standard
 70
     0
 40
0.0
 41
1.0
 50
0.0
 71
     0
 42
0.2
  3
txt
  4

  0
ENDTAB
  0
TABLE
  2
VIEW
  5
6
330
0
100
AcDbSymbolTable
 70
     0
  0
ENDTAB
  0
TABLE
  2
UCS
  5
7
330
0
100
AcDbSymbolTable
 70
     0
  0
ENDTAB
  0
TABLE
  2
APPID
  5
9
330
0
100
AcDbSymbolTable
 70
     1
  0
APPID
  5
12
330
9
100
AcDbSymbolTableRecord
100
AcDbRegAppTableRecord
  2
ACAD
 70
     0
  0
ENDTAB
  0
TABLE
  2
DIMSTYLE
  5
A
330
0
100
AcDbSymbolTable
 70
     1
100
AcDbDimStyleTable
  0
DIMSTYLE
105
27
330
A
100
AcDbSymbolTableRecord
100
AcDbDimStyleTableRecord
  2
Standard
 70
     0
178
     0
340
11
  0
ENDTAB
  0
TABLE
  2
BLOCK_RECORD
  5
1
330
0
100
AcDbSymbolTable
 70
     8
  0
BLOCK_RECORD
  5
1F
330
1
100
AcDbSymbolTableRecord
100
AcDbBlockTableRecord
  2
*Model_Space
340
22
 70
     0
280
     1
281
     0
  0
BLOCK_RECORD
  5
1B
330
1
100
AcDbSymbolTableRecord
100
AcDbBlockTableRecord
  2
*Paper_Space
340
1E
 70
     0
280
     1
281
     0
  0
BLOCK_RECORD
  5
23
330
1
100
AcDbSymbolTableRecord
100
AcDbBlockTableRecord
  2
*Paper_Space0
340
26
 70
     0
280
     1
281
     0
  0
BLOCK_RECORD
  5
AB
330
1
100
AcDbSymbolTableRecord
100
AcDbBlockTableRecord
  2
block 2
340
0
102
{BLKREFS
331
AC
102
}
 70
     0
280
     1
281
     0
  0
BLOCK_RECORD
  5
B9
330
1
100
AcDbSymbolTableRecord
100
AcDbBlockTableRecord
  2
block 3
340
0
102
{BLKREFS
331
BA
102
}
 70
     0
280
     1
281
     0
  0
BLOCK_RECORD
  5
D0
330
1
100
AcDbSymbolTableRecord
100
AcDbBlockTableRecord
  2
block 4
340
0
102
{BLKREFS
331
D1
102
}
 70
     0
280
     1
281
     0
  0
BLOCK_RECORD
  5
EF
330
1
100
AcDbSymbolTableRecord
100
AcDbBlockTableRecord
  2
block 5
340
0
102
{BLKREFS
331
F0
102
}
 70
     0
280
     1
281
     0
  0
BLOCK_RECORD
  5
11B
330
1
100
AcDbSymbolTableRecord
100
AcDbBlockTableRecord
  2
block 6
340
0
102
{BLKREFS
331
11C
102
}
 70
     0
280
     1
281
     0
  0
BLOCK_RECORD
  5
13A
330
1
100
AcDbSymbolTableRecord
100
AcDbBlockTableRecord
  2
block 7
340
0
102
{BLKREFS
331
13B
102
}
 70
     0
280
     1
281
     0
  0
BLOCK_RECORD
  5
147
330
1
100
AcDbSymbolTableRecord
100
AcDbBlockTableRecord
  2
block 8
340
0
102
{BLKREFS
331
148
102
}
 70
     0
280
     1
281
     0
  0
ENDTAB
  0
ENDSEC
  0
SECTION
  2
BLOCKS
  0
BLOCK
  5
20
330
1F
100
AcDbEntity
  8
0
100
AcDbBlockBegin
  2
*Model_Space
 70
     0
 10
0.0
 20
0.0
 30
0.0
  3
*Model_Space
  1

  0
ENDBLK
  5
21
330
1F
100
AcDbEntity
  8
0
100
AcDbBlockEnd
  0
BLOCK
  5
1C
330
1B
100
AcDbEntity
 67
     1
  8
0
100
AcDbBlockBegin
  2
*Paper_Space
 70
     0
 10
0.0
 20
0.0
 30
0.0
  3
*Paper_Space
  1

  0
ENDBLK
  5
1D
330
1B
100
AcDbEntity
 67
     1
  8
0
100
AcDbBlockEnd
  0
BLOCK
  5
24
330
23
100
AcDbEntity
  8
0
100
AcDbBlockBegin
  2
*Paper_Space0
 70
     0
 10
0.0
 20
0.0
 30
0.0
  3
*Paper_Space0
  1

  0
ENDBLK
  5
25
330
23
100
AcDbEntity
  8
0
100
AcDbBlockEnd
  0
BLOCK
  5
AD
330
AB
100
AcDbEntity
  8
0
100
AcDbBlockBegin
  2
block 2
 70
     0
 10
0.0
 20
0.0
 30
0.0
  3
block 2
  1

  0
SPLINE
  5
AF
330
AB
100
AcDbEntity
  8
_U+30EC_U+30A4_U+30E4_U+30FC 1
370
     0
100
AcDbSpline
210
0.0
220
0.0
230
1.0
 70
    11
 71
     3
 72
    26
 73
    22
 74
     0
 42
0.0000000001
 43
0.0000000001
 12
1.0
 22
0.0
 32
0.0
 13
1.0
 23
0.0
 33
0.0
 40
0.0
 40
0.0
 40
0.0
 40
0.0
 40
1.0
 40
1.0
 40
1.0
 40
2.0
 40
2.0
 40
2.0
 40
3.0
 40
3.0
 40
3.0
 40
4.0
 40
4.0
 40
4.0
 40
5.0
 40
5.0
 40
5.0
 40
6.0
 40
6.0
 40
6.0
 40
7.0
 40
7.0
 40
7.0
 40
7.0
 10
92.97210284134032
 20
-112.5850314388676
 30
0.0
 10
92.97210284134032
 20
-112.5850314388676
 30
0.0
 10
92.71888832317445
 20
-112.5850314388676
 30
0.0
 10
92.71888832317445
 20
-112.5850314388676
 30
0.0
 10
92.74610457750792
 20
-112.276178628615
 30
0.0
 10
92.95177677797734
 20
-111.7578640128591
 30
0.0
 10
93.38585880911882
 20
-111.2522962503987
 30
0.0
 10
93.38585880911882
 20
-111.2522962503987
 30
0.0
 10
92.49047849250239
 20
-111.2522962503987
 30
0.0
 10
92.49047849250239
 20
-111.2522962503987
 30
0.0
 10
92.49047849250239
 20
-111.2522962503987
 30
0.0
 10
92.49047849250239
 20
-111.0407673876044
 30
0.0
 10
92.49047849250239
 20
-111.0407673876044
 30
0.0
 10
92.49047849250239
 20
-111.0407673876044
 30
0.0
 10
93.63907332728468
 20
-111.0407673876044
 30
0.0
 10
93.63907332728468
 20
-111.0407673876044
 30
0.0
 10
93.63907332728468
 20
-111.0407673876044
 30
0.0
 10
93.63907332728468
 20
-111.2522962503987
 30
0.0
 10
93.63907332728468
 20
-111.2522962503987
 30
0.0
 10
93.29318574056559
 20
-111.5420287807083
 30
0.0
 10
93.00827634393544
 20
-112.134412949397
 30
0.0
 10
92.97210284134032
 20
-112.5850314388676
 30
0.0
  0
HATCH
  5
B0
330
AB
100
AcDbEntity
  8
_U+30EC_U+30A4_U+30E4_U+30FC 1
 62
     7
420
 16777215
100
AcDbHatch
 10
0.0
 20
0.0
 30
0.0
210
0.0
220
0.0
230
1.0
  2
SOLID
 70
     1
 71
     0
 91
        1
 92
        1
 93
        1
 72
     4
 94
        3
 73
     0
 74
     1
 95
       26
 96
       22
 40
0.0
 40
0.0
 40
0.0
 40
0.0
 40
1.0
 40
1.0
 40
1.0
 40
2.0
 40
2.0
 40
2.0
 40
3.0
 40
3.0
 40
3.0
 40
4.0
 40
4.0
 40
4.0
 40
5.0
 40
5.0
 40
5.0
 40
6.0
 40
6.0
 40
6.0
 40
7.0
 40
7.0
 40
7.0
 40
7.0
 10
92.97210284134032
 20
-112.5850314388676
 10
92.97210284134032
 20
-112.5850314388676
 10
92.71888832317445
 20
-112.5850314388676
 10
92.71888832317445
 20
-112.5850314388676
 10
92.74610457750792
 20
-112.276178628615
 10
92.95177677797734
 20
-111.7578640128591
 10
93.38585880911882
 20
-111.2522962503987
 10
93.38585880911882
 20
-111.2522962503987
 10
92.49047849250239
 20
-111.2522962503987
 10
92.49047849250239
 20
-111.2522962503987
 10
92.49047849250239
 20
-111.2522962503987
 10
92.49047849250239
 20
-111.0407673876044
 10
92.49047849250239
 20
-111.0407673876044
 10
92.49047849250239
 20
-111.0407673876044
 10
93.63907332728468
 20
-111.0407673876044
 10
93.63907332728468
 20
-111.0407673876044
 10
93.63907332728468
 20
-111.0407673876044
 10
93.63907332728468
 20
-111.2522962503987
 10
93.63907332728468
 20
-111.2522962503987
 10
93.29318574056559
 20
-111.5420287807083
 10
93.00827634393544
 20
-112.134412949397
 10
92.97210284134032
 20
-112.5850314388676
 97
        0
 97
        0
 75
     2
 76
     1
 98
        0
  0
ENDBLK
  5
AE
330
AB
100
AcDbEntity
  8
0
100
AcDbBlockEnd
  0
BLOCK
  5
BB
330
B9
100
AcDbEntity
  8
0
100
AcDbBlockBegin
  2
block 3
 70
     0
 10
0.0
 20
0.0
 30
0.0
  3
block 3
  1

  0
SPLINE
  5
BD
330
B9
100
AcDbEntity
  8
_U+30EC_U+30A4_U+30E4_U+30FC 1
370
     0
100
AcDbSpline
210
0.0
220
0.0
230
1.0
 70
    11
 71
     3
 72
    26
 73
    22
 74
     0
 42
0.0000000001
 43
0.0000000001
 12
1.0
 22
0.0
 32
0.0
 13
1.0
 23
0.0
 33
0.0
 40
0.0
 40
0.0
 40
0.0
 40
0.0
 40
1.0
 40
1.0
 40
1.0
 40
2.0
 40
2.0
 40
2.0
 40
3.0
 40
3.0
 40
3.0
 40
4.0
 40
4.0
 40
4.0
 40
5.0
 40
5.0
 40
5.0
 40
6.0
 40
6.0
 40
6.0
 40
7.0
 40
7.0
 40
7.0
 40
7.0
 10
110.0470295948841
 20
-125.8520941525648
 30
0.0
 10
110.0470295948841
 20
-125.8520941525648
 30
0.0
 10
110.0470295948841
 20
-126.1053086707306
 30
0.0
 10
110.0470295948841
 20
-126.1053086707306
 30
0.0
 10
109.7380045298572
 20
-126.0782646711714
 30
0.0
 10
109.2198621688756
 20
-125.872592470702
 30
0.0
 10
108.7141221516409
 20
-125.4385104395605
 30
0.0
 10
108.7141221516409
 20
-125.4385104395605
 30
0.0
 10
108.7141221516409
 20
-126.3337185014027
 30
0.0
 10
108.7141221516409
 20
-126.3337185014027
 30
0.0
 10
108.7141221516409
 20
-126.3337185014027
 30
0.0
 10
108.5025932888466
 20
-126.3337185014027
 30
0.0
 10
108.5025932888466
 20
-126.3337185014027
 30
0.0
 10
108.5025932888466
 20
-126.3337185014027
 30
0.0
 10
108.5025932888466
 20
-125.1852959213947
 30
0.0
 10
108.5025932888466
 20
-125.1852959213947
 30
0.0
 10
108.5025932888466
 20
-125.1852959213947
 30
0.0
 10
108.7141221516409
 20
-125.1852959213947
 30
0.0
 10
108.7141221516409
 20
-125.1852959213947
 30
0.0
 10
109.004199191499
 20
-125.5311835081137
 30
0.0
 10
109.5964111054134
 20
-125.8159206499696
 30
0.0
 10
110.0470295948841
 20
-125.8520941525648
 30
0.0
  0
HATCH
  5
BE
330
B9
100
AcDbEntity
  8
_U+30EC_U+30A4_U+30E4_U+30FC 1
 62
     7
420
 16777215
100
AcDbHatch
 10
0.0
 20
0.0
 30
0.0
210
0.0
220
0.0
230
1.0
  2
SOLID
 70
     1
 71
     0
 91
        1
 92
        1
 93
        1
 72
     4
 94
        3
 73
     0
 74
     1
 95
       26
 96
       22
 40
0.0
 40
0.0
 40
0.0
 40
0.0
 40
1.0
 40
1.0
 40
1.0
 40
2.0
 40
2.0
 40
2.0
 40
3.0
 40
3.0
 40
3.0
 40
4.0
 40
4.0
 40
4.0
 40
5.0
 40
5.0
 40
5.0
 40
6.0
 40
6.0
 40
6.0
 40
7.0
 40
7.0
 40
7.0
 40
7.0
 10
110.0470295948841
 20
-125.8520941525648
 10
110.0470295948841
 20
-125.8520941525648
 10
110.0470295948841
 20
-126.1053086707306
 10
110.0470295948841
 20
-126.1053086707306
 10
109.7380045298572
 20
-126.0782646711714
 10
109.2198621688756
 20
-125.872592470702
 10
108.7141221516409
 20
-125.4385104395605
 10
108.7141221516409
 20
-125.4385104395605
 10
108.7141221516409
 20
-126.3337185014027
 10
108.7141221516409
 20
-126.3337185014027
 10
108.7141221516409
 20
-126.3337185014027
 10
108.5025932888466
 20
-126.3337185014027
 10
108.5025932888466
 20
-126.3337185014027
 10
108.5025932888466
 20
-126.3337185014027
 10
108.5025932888466
 20
-125.1852959213947
 10
108.5025932888466
 20
-125.1852959213947
 10
108.5025932888466
 20
-125.1852959213947
 10
108.7141221516409
 20
-125.1852959213947
 10
108.7141221516409
 20
-125.1852959213947
 10
109.004199191499
 20
-125.5311835081137
 10
109.5964111054134
 20
-125.8159206499696
 10
110.0470295948841
 20
-125.8520941525648
 97
        0
 97
        0
 75
     2
 76
     1
 98
        0
  0
ENDBLK
  5
BC
330
B9
100
AcDbEntity
  8
0
100
AcDbBlockEnd
  0
BLOCK
  5
D2
330
D0
100
AcDbEntity
  8
0
100
AcDbBlockBegin
  2
block 4
 70
     0
 10
0.0
 20
0.0
 30
0.0
  3
block 4
  1

  0
SPLINE
  5
D4
330
D0
100
AcDbEntity
  8
_U+30EC_U+30A4_U+30E4_U+30FC 1
370
     0
100
AcDbSpline
210
0.0
220
0.0
230
1.0
 70
    11
 71
     3
 72
    26
 73
    22
 74
     0
 42
0.0000000001
 43
0.0000000001
 12
1.0
 22
0.0
 32
0.0
 13
1.0
 23
0.0
 33
0.0
 40
0.0
 40
0.0
 40
0.0
 40
0.0
 40
1.0
 40
1.0
 40
1.0
 40
2.0
 40
2.0
 40
2.0
 40
3.0
 40
3.0
 40
3.0
 40
4.0
 40
4.0
 40
4.0
 40
5.0
 40
5.0
 40
5.0
 40
6.0
 40
6.0
 40
6.0
 40
7.0
 40
7.0
 40
7.0
 40
7.0
 10
110.0466850853356
 20
-136.7751138980979
 30
0.0
 10
110.0466850853356
 20
-136.7751138980979
 30
0.0
 10
108.942531982313
 20
-136.7751138980979
 30
0.0
 10
108.942531982313
 20
-136.7751138980979
 30
0.0
 10
108.942531982313
 20
-136.7751138980979
 30
0.0
 10
108.942531982313
 20
-137.1275471662389
 30
0.0
 10
108.942531982313
 20
-137.1275471662389
 30
0.0
 10
108.942531982313
 20
-137.1275471662389
 30
0.0
 10
108.7943928764472
 20
-137.1275471662389
 30
0.0
 10
108.7943928764472
 20
-137.1275471662389
 30
0.0
 10
108.7795789658607
 20
-136.7727023312582
 30
0.0
 10
108.6166259494083
 20
-136.7230929562706
 30
0.0
 10
108.5022487792981
 20
-136.6913980778063
 30
0.0
 10
108.5022487792981
 20
-136.6913980778063
 30
0.0
 10
108.5022487792981
 20
-136.5353352523245
 30
0.0
 10
108.5022487792981
 20
-136.5353352523245
 30
0.0
 10
108.5022487792981
 20
-136.5353352523245
 30
0.0
 10
110.0466850853356
 20
-136.5353352523245
 30
0.0
 10
110.0466850853356
 20
-136.5353352523245
 30
0.0
 10
110.0466850853356
 20
-136.5353352523245
 30
0.0
 10
110.0466850853356
 20
-136.7751138980979
 30
0.0
 10
110.0466850853356
 20
-136.7751138980979
 30
0.0
  0
HATCH
  5
D5
330
D0
100
AcDbEntity
  8
_U+30EC_U+30A4_U+30E4_U+30FC 1
 62
     7
420
 16777215
100
AcDbHatch
 10
0.0
 20
0.0
 30
0.0
210
0.0
220
0.0
230
1.0
  2
SOLID
 70
     1
 71
     0
 91
        1
 92
        1
 93
        1
 72
     4
 94
        3
 73
     0
 74
     1
 95
       26
 96
       22
 40
0.0
 40
0.0
 40
0.0
 40
0.0
 40
1.0
 40
1.0
 40
1.0
 40
2.0
 40
2.0
 40
2.0
 40
3.0
 40
3.0
 40
3.0
 40
4.0
 40
4.0
 40
4.0
 40
5.0
 40
5.0
 40
5.0
 40
6.0
 40
6.0
 40
6.0
 40
7.0
 40
7.0
 40
7.0
 40
7.0
 10
110.0466850853356
 20
-136.7751138980979
 10
110.0466850853356
 20
-136.7751138980979
 10
108.942531982313
 20
-136.7751138980979
 10
108.942531982313
 20
-136.7751138980979
 10
108.942531982313
 20
-136.7751138980979
 10
108.942531982313
 20
-137.1275471662389
 10
108.942531982313
 20
-137.1275471662389
 10
108.942531982313
 20
-137.1275471662389
 10
108.7943928764472
 20
-137.1275471662389
 10
108.7943928764472
 20
-137.1275471662389
 10
108.7795789658607
 20
-136.7727023312582
 10
108.6166259494083
 20
-136.7230929562706
 10
108.5022487792981
 20
-136.6913980778063
 10
108.5022487792981
 20
-136.6913980778063
 10
108.5022487792981
 20
-136.5353352523245
 10
108.5022487792981
 20
-136.5353352523245
 10
108.5022487792981
 20
-136.5353352523245
 10
110.0466850853356
 20
-136.5353352523245
 10
110.0466850853356
 20
-136.5353352523245
 10
110.0466850853356
 20
-136.5353352523245
 10
110.0466850853356
 20
-136.7751138980979
 10
110.0466850853356
 20
-136.7751138980979
 97
        0
 97
        0
 75
     2
 76
     1
 98
        0
  0
SPLINE
  5
D6
330
D0
100
AcDbEntity
  8
_U+30EC_U+30A4_U+30E4_U+30FC 1
370
     0
100
AcDbSpline
210
0.0
220
0.0
230
1.0
 70
    11
 71
     3
 72
    29
 73
    25
 74
     0
 42
0.0000000001
 43
0.0000000001
 12
1.0
 22
0.0
 32
0.0
 13
1.0
 23
0.0
 33
0.0
 40
0.0
 40
0.0
 40
0.0
 40
0.0
 40
1.0
 40
1.0
 40
1.0
 40
2.0
 40
2.0
 40
2.0
 40
3.0
 40
3.0
 40
3.0
 40
4.0
 40
4.0
 40
4.0
 40
5.0
 40
5.0
 40
5.0
 40
6.0
 40
6.0
 40
6.0
 40
7.0
 40
7.0
 40
7.0
 40
8.0
 40
8.0
 40
8.0
 40
8.0
 10
109.8689181582967
 20
-135.0401638117261
 30
0.0
 10
110.0783799637999
 20
-135.155574510482
 30
0.0
 10
110.0973279889687
 20
-135.3409206475884
 30
0.0
 10
110.0973279889687
 20
-135.4652885946059
 30
0.0
 10
110.0973279889687
 20
-135.6368543497713
 30
0.0
 10
110.0508191999179
 20
-135.7884385511223
 30
0.0
 10
109.8689181582967
 20
-135.8900688679372
 30
0.0
 10
109.6742702633801
 20
-136.0010009425623
 30
0.0
 10
109.4372476939949
 20
-136.0213270059252
 30
0.0
 10
109.2746391870911
 20
-136.0213270059252
 30
0.0
 10
109.1306341958076
 20
-136.0213270059252
 30
0.0
 10
108.8787977158359
 20
-136.0034125094019
 30
0.0
 10
108.6800157063369
 20
-135.8900688679372
 30
0.0
 10
108.4770995822557
 20
-135.7750026787299
 30
0.0
 10
108.453672932956
 20
-135.6030924140159
 30
0.0
 10
108.453672932956
 20
-135.4652885946059
 30
0.0
 10
108.453672932956
 20
-135.2954453871831
 30
0.0
 10
108.4981146647158
 20
-135.1417941285409
 30
0.0
 10
108.6800157063369
 20
-135.0401638117261
 30
0.0
 10
108.8725965439624
 20
-134.9337103612318
 30
0.0
 10
109.1010063746345
 20
-134.908905673738
 30
0.0
 10
109.2746391870911
 20
-134.908905673738
 30
0.0
 10
109.445860432708
 20
-134.908905673738
 30
0.0
 10
109.6763373206712
 20
-134.9316433039407
 30
0.0
 10
109.8689181582967
 20
-135.0401638117261
 30
0.0
  0
SPLINE
  5
D7
330
D0
100
AcDbEntity
  8
_U+30EC_U+30A4_U+30E4_U+30FC 1
370
     0
100
AcDbSpline
210
0.0
220
0.0
230
1.0
 70
    11
 71
     3
 72
    17
 73
    13
 74
     0
 42
0.0000000001
 43
0.0000000001
 12
1.0
 22
0.0
 32
0.0
 13
1.0
 23
0.0
 33
0.0
 40
0.0
 40
0.0
 40
0.0
 40
0.0
 40
1.0
 40
1.0
 40
1.0
 40
2.0
 40
2.0
 40
2.0
 40
3.0
 40
3.0
 40
3.0
 40
4.0
 40
4.0
 40
4.0
 40
4.0
 10
108.6462537705815
 20
-135.4652885946059
 30
0.0
 10
108.6462537705815
 20
-135.7319389851642
 30
0.0
 10
108.9297851290176
 20
-135.7815483601518
 30
0.0
 10
109.2746391870911
 20
-135.7815483601518
 30
0.0
 10
109.5939995385737
 20
-135.7815483601518
 30
0.0
 10
109.9026800940521
 20
-135.7433078002656
 30
0.0
 10
109.9026800940521
 20
-135.4652885946059
 30
0.0
 10
109.9026800940521
 20
-135.2007052613387
 30
0.0
 10
109.6215603024557
 20
-135.1486843195115
 30
0.0
 10
109.2746391870911
 20
-135.1486843195115
 30
0.0
 10
108.9549343260599
 20
-135.1486843195115
 30
0.0
 10
108.6462537705815
 20
-135.1893364462374
 30
0.0
 10
108.6462537705815
 20
-135.4652885946059
 30
0.0
  0
HATCH
  5
D8
330
D0
100
AcDbEntity
  8
_U+30EC_U+30A4_U+30E4_U+30FC 1
 62
     7
420
 16777215
100
AcDbHatch
 10
0.0
 20
0.0
 30
0.0
210
0.0
220
0.0
230
1.0
  2
SOLID
 70
     1
 71
     0
 91
        2
 92
        1
 93
        1
 72
     4
 94
        3
 73
     0
 74
     1
 95
       29
 96
       25
 40
0.0
 40
0.0
 40
0.0
 40
0.0
 40
1.0
 40
1.0
 40
1.0
 40
2.0
 40
2.0
 40
2.0
 40
3.0
 40
3.0
 40
3.0
 40
4.0
 40
4.0
 40
4.0
 40
5.0
 40
5.0
 40
5.0
 40
6.0
 40
6.0
 40
6.0
 40
7.0
 40
7.0
 40
7.0
 40
8.0
 40
8.0
 40
8.0
 40
8.0
 10
109.8689181582967
 20
-135.0401638117261
 10
110.0783799637999
 20
-135.155574510482
 10
110.0973279889687
 20
-135.3409206475884
 10
110.0973279889687
 20
-135.4652885946059
 10
110.0973279889687
 20
-135.6368543497713
 10
110.0508191999179
 20
-135.7884385511223
 10
109.8689181582967
 20
-135.8900688679372
 10
109.6742702633801
 20
-136.0010009425623
 10
109.4372476939949
 20
-136.0213270059252
 10
109.2746391870911
 20
-136.0213270059252
 10
109.1306341958076
 20
-136.0213270059252
 10
108.8787977158359
 20
-136.0034125094019
 10
108.6800157063369
 20
-135.8900688679372
 10
108.4770995822557
 20
-135.7750026787299
 10
108.453672932956
 20
-135.6030924140159
 10
108.453672932956
 20
-135.4652885946059
 10
108.453672932956
 20
-135.2954453871831
 10
108.4981146647158
 20
-135.1417941285409
 10
108.6800157063369
 20
-135.0401638117261
 10
108.8725965439624
 20
-134.9337103612318
 10
109.1010063746345
 20
-134.908905673738
 10
109.2746391870911
 20
-134.908905673738
 10
109.445860432708
 20
-134.908905673738
 10
109.6763373206712
 20
-134.9316433039407
 10
109.8689181582967
 20
-135.0401638117261
 97
        0
 97
        0
 92
        1
 93
        1
 72
     4
 94
        3
 73
     0
 74
     1
 95
       17
 96
       13
 40
0.0
 40
0.0
 40
0.0
 40
0.0
 40
1.0
 40
1.0
 40
1.0
 40
2.0
 40
2.0
 40
2.0
 40
3.0
 40
3.0
 40
3.0
 40
4.0
 40
4.0
 40
4.0
 40
4.0
 10
108.6462537705815
 20
-135.4652885946059
 10
108.6462537705815
 20
-135.7319389851642
 10
108.9297851290176
 20
-135.7815483601518
 10
109.2746391870911
 20
-135.7815483601518
 10
109.5939995385737
 20
-135.7815483601518
 10
109.9026800940521
 20
-135.7433078002656
 10
109.9026800940521
 20
-135.4652885946059
 10
109.9026800940521
 20
-135.2007052613387
 10
109.6215603024557
 20
-135.1486843195115
 10
109.2746391870911
 20
-135.1486843195115
 10
108.9549343260599
 20
-135.1486843195115
 10
108.6462537705815
 20
-135.1893364462374
 10
108.6462537705815
 20
-135.4652885946059
 97
        0
 97
        0
 75
     2
 76
     1
 98
        0
  0
POLYLINE
  5
D9
330
D0
100
AcDbEntity
  8
_U+30EC_U+30A4_U+30E4_U+30FC 1
370
     0
100
AcDb2dPolyline
 66
     1
 10
0.0
 20
0.0
 30
0.0
  0
VERTEX
  5
DA
330
D9
100
AcDbEntity
  8
_U+30EC_U+30A4_U+30E4_U+30FC 1
370
     0
100
AcDbVertex
100
AcDb2dVertex
 10
110.0466850853356
 20
-134.6777397666778
 30
0.0
  0
VERTEX
  5
DB
330
D9
100
AcDbEntity
  8
_U+30EC_U+30A4_U+30E4_U+30FC 1
370
     0
100
AcDbVertex
100
AcDb2dVertex
 10
109.7948486053638
 20
-134.6777397666778
 30
0.0
  0
VERTEX
  5
DC
330
D9
100
AcDbEntity
  8
_U+30EC_U+30A4_U+30E4_U+30FC 1
370
     0
100
AcDbVertex
100
AcDb2dVertex
 10
109.7948486053638
 20
-134.4086778092798
 30
0.0
  0
VERTEX
  5
DD
330
D9
100
AcDbEntity
  8
_U+30EC_U+30A4_U+30E4_U+30FC 1
370
     0
100
AcDbVertex
100
AcDb2dVertex
 10
110.0466850853356
 20
-134.4086778092798
 30
0.0
  0
VERTEX
  5
DE
330
D9
100
AcDbEntity
  8
_U+30EC_U+30A4_U+30E4_U+30FC 1
370
     0
100
AcDbVertex
100
AcDb2dVertex
 10
110.0466850853356
 20
-134.6777397666778
 30
0.0
  0
SEQEND
  5
DF
330
D9
100
AcDbEntity
  8
_U+30EC_U+30A4_U+30E4_U+30FC 1
370
     0
  0
HATCH
  5
E0
330
D0
100
AcDbEntity
  8
_U+30EC_U+30A4_U+30E4_U+30FC 1
 62
     7
420
 16777215
100
AcDbHatch
 10
0.0
 20
0.0
 30
0.0
210
0.0
220
0.0
230
1.0
  2
SOLID
 70
     1
 71
     0
 91
        1
 92
        1
 93
        4
 72
     1
 10
110.0466850853356
 20
-134.6777397666778
 11
109.7948486053638
 21
-134.6777397666778
 72
     1
 10
109.7948486053638
 20
-134.6777397666778
 11
109.7948486053638
 21
-134.4086778092798
 72
     1
 10
109.7948486053638
 20
-134.4086778092798
 11
110.0466850853356
 21
-134.4086778092798
 72
     1
 10
110.0466850853356
 20
-134.4086778092798
 11
110.0466850853356
 21
-134.6777397666778
 97
        0
 75
     2
 76
     1
 98
        0
  0
SPLINE
  5
E1
330
D0
100
AcDbEntity
  8
_U+30EC_U+30A4_U+30E4_U+30FC 1
370
     0
100
AcDbSpline
210
0.0
220
0.0
230
1.0
 70
    11
 71
     3
 72
    53
 73
    49
 74
     0
 42
0.0000000001
 43
0.0000000001
 12
1.0
 22
0.0
 32
0.0
 13
1.0
 23
0.0
 33
0.0
 40
0.0
 40
0.0
 40
0.0
 40
0.0
 40
1.0
 40
1.0
 40
1.0
 40
2.0
 40
2.0
 40
2.0
 40
3.0
 40
3.0
 40
3.0
 40
4.0
 40
4.0
 40
4.0
 40
5.0
 40
5.0
 40
5.0
 40
6.0
 40
6.0
 40
6.0
 40
7.0
 40
7.0
 40
7.0
 40
8.0
 40
8.0
 40
8.0
 40
9.0
 40
9.0
 40
9.0
 40
10.0
 40
10.0
 40
10.0
 40
11.0
 40
11.0
 40
11.0
 40
12.0
 40
12.0
 40
12.0
 40
13.0
 40
13.0
 40
13.0
 40
14.0
 40
14.0
 40
14.0
 40
15.0
 40
15.0
 40
15.0
 40
16.0
 40
16.0
 40
16.0
 40
16.0
 10
110.0973279889687
 20
-133.6421440638117
 30
0.0
 10
110.0973279889687
 20
-133.7255153745547
 30
0.0
 10
110.080447021091
 20
-133.8343803918886
 30
0.0
 10
110.0170572641624
 20
-133.9425563901255
 30
0.0
 10
109.9071587181829
 20
-134.1282470367804
 30
0.0
 10
109.7759005801949
 20
-134.1506401574346
 30
0.0
 10
109.6680690915066
 20
-134.1709662207975
 30
0.0
 10
109.6680690915066
 20
-134.1709662207975
 30
0.0
 10
109.6680690915066
 20
-133.9335991418638
 30
0.0
 10
109.6680690915066
 20
-133.9335991418638
 30
0.0
 10
109.8668511010055
 20
-133.8750325186146
 30
0.0
 10
109.8964789221787
 20
-133.7392957564957
 30
0.0
 10
109.8964789221787
 20
-133.639732496972
 30
0.0
 10
109.8964789221787
 20
-133.4905598624607
 30
0.0
 10
109.7969156626549
 20
-133.3279513555569
 30
0.0
 10
109.5643717174006
 20
-133.3279513555569
 30
0.0
 10
109.3084011228465
 20
-133.3279513555569
 30
0.0
 10
109.2384656844959
 20
-133.5198431740853
 30
0.0
 10
109.2384656844959
 20
-133.6486897452337
 30
0.0
 10
109.2384656844959
 20
-133.6827961905376
 30
0.0
 10
109.2384656844959
 20
-133.8343803918886
 30
0.0
 10
109.3676567651928
 20
-133.929120517733
 30
0.0
 10
109.3676567651928
 20
-133.929120517733
 30
0.0
 10
109.3487087400239
 20
-134.1168782216791
 30
0.0
 10
109.3487087400239
 20
-134.1168782216791
 30
0.0
 10
109.3487087400239
 20
-134.1168782216791
 30
0.0
 10
108.5022487792981
 20
-133.9880316505308
 30
0.0
 10
108.5022487792981
 20
-133.9880316505308
 30
0.0
 10
108.5022487792981
 20
-133.9880316505308
 30
0.0
 10
108.5022487792981
 20
-133.1560410908429
 30
0.0
 10
108.5022487792981
 20
-133.1560410908429
 30
0.0
 10
108.5022487792981
 20
-133.1560410908429
 30
0.0
 10
108.6968966742147
 20
-133.1560410908429
 30
0.0
 10
108.6968966742147
 20
-133.1560410908429
 30
0.0
 10
108.6968966742147
 20
-133.1560410908429
 30
0.0
 10
108.6968966742147
 20
-133.8137098189771
 30
0.0
 10
108.6968966742147
 20
-133.8137098189771
 30
0.0
 10
108.6968966742147
 20
-133.8137098189771
 30
0.0
 10
109.1199543998033
 20
-133.8839897668762
 30
0.0
 10
109.1199543998033
 20
-133.8839897668762
 30
0.0
 10
109.0861924640479
 20
-133.8185329526565
 30
0.0
 10
109.0458848468705
 20
-133.7303385082341
 30
0.0
 10
109.0458848468705
 20
-133.6035589943769
 30
0.0
 10
109.0458848468705
 20
-133.3324299796877
 30
0.0
 10
109.2322645126225
 20
-133.0792154615219
 30
0.0
 10
109.5454236922317
 20
-133.0792154615219
 30
0.0
 10
109.8627169864232
 20
-133.0792154615219
 30
0.0
 10
110.0973279889687
 20
-133.3186495977467
 30
0.0
 10
110.0973279889687
 20
-133.6421440638117
 30
0.0
  0
HATCH
  5
E2
330
D0
100
AcDbEntity
  8
_U+30EC_U+30A4_U+30E4_U+30FC 1
 62
     7
420
 16777215
100
AcDbHatch
 10
0.0
 20
0.0
 30
0.0
210
0.0
220
0.0
230
1.0
  2
SOLID
 70
     1
 71
     0
 91
        1
 92
        1
 93
        1
 72
     4
 94
        3
 73
     0
 74
     1
 95
       53
 96
       49
 40
0.0
 40
0.0
 40
0.0
 40
0.0
 40
1.0
 40
1.0
 40
1.0
 40
2.0
 40
2.0
 40
2.0
 40
3.0
 40
3.0
 40
3.0
 40
4.0
 40
4.0
 40
4.0
 40
5.0
 40
5.0
 40
5.0
 40
6.0
 40
6.0
 40
6.0
 40
7.0
 40
7.0
 40
7.0
 40
8.0
 40
8.0
 40
8.0
 40
9.0
 40
9.0
 40
9.0
 40
10.0
 40
10.0
 40
10.0
 40
11.0
 40
11.0
 40
11.0
 40
12.0
 40
12.0
 40
12.0
 40
13.0
 40
13.0
 40
13.0
 40
14.0
 40
14.0
 40
14.0
 40
15.0
 40
15.0
 40
15.0
 40
16.0
 40
16.0
 40
16.0
 40
16.0
 10
110.0973279889687
 20
-133.6421440638117
 10
110.0973279889687
 20
-133.7255153745547
 10
110.080447021091
 20
-133.8343803918886
 10
110.0170572641624
 20
-133.9425563901255
 10
109.9071587181829
 20
-134.1282470367804
 10
109.7759005801949
 20
-134.1506401574346
 10
109.6680690915066
 20
-134.1709662207975
 10
109.6680690915066
 20
-134.1709662207975
 10
109.6680690915066
 20
-133.9335991418638
 10
109.6680690915066
 20
-133.9335991418638
 10
109.8668511010055
 20
-133.8750325186146
 10
109.8964789221787
 20
-133.7392957564957
 10
109.8964789221787
 20
-133.639732496972
 10
109.8964789221787
 20
-133.4905598624607
 10
109.7969156626549
 20
-133.3279513555569
 10
109.5643717174006
 20
-133.3279513555569
 10
109.3084011228465
 20
-133.3279513555569
 10
109.2384656844959
 20
-133.5198431740853
 10
109.2384656844959
 20
-133.6486897452337
 10
109.2384656844959
 20
-133.6827961905376
 10
109.2384656844959
 20
-133.8343803918886
 10
109.3676567651928
 20
-133.929120517733
 10
109.3676567651928
 20
-133.929120517733
 10
109.3487087400239
 20
-134.1168782216791
 10
109.3487087400239
 20
-134.1168782216791
 10
109.3487087400239
 20
-134.1168782216791
 10
108.5022487792981
 20
-133.9880316505308
 10
108.5022487792981
 20
-133.9880316505308
 10
108.5022487792981
 20
-133.9880316505308
 10
108.5022487792981
 20
-133.1560410908429
 10
108.5022487792981
 20
-133.1560410908429
 10
108.5022487792981
 20
-133.1560410908429
 10
108.6968966742147
 20
-133.1560410908429
 10
108.6968966742147
 20
-133.1560410908429
 10
108.6968966742147
 20
-133.1560410908429
 10
108.6968966742147
 20
-133.8137098189771
 10
108.6968966742147
 20
-133.8137098189771
 10
108.6968966742147
 20
-133.8137098189771
 10
109.1199543998033
 20
-133.8839897668762
 10
109.1199543998033
 20
-133.8839897668762
 10
109.0861924640479
 20
-133.8185329526565
 10
109.0458848468705
 20
-133.7303385082341
 10
109.0458848468705
 20
-133.6035589943769
 10
109.0458848468705
 20
-133.3324299796877
 10
109.2322645126225
 20
-133.0792154615219
 10
109.5454236922317
 20
-133.0792154615219
 10
109.8627169864232
 20
-133.0792154615219
 10
110.0973279889687
 20
-133.3186495977467
 10
110.0973279889687
 20
-133.6421440638117
 97
        0
 97
        0
 75
     2
 76
     1
 98
        0
  0
ENDBLK
  5
D3
330
D0
100
AcDbEntity
  8
0
100
AcDbBlockEnd
  0
BLOCK
  5
F1
330
EF
100
AcDbEntity
  8
0
100
AcDbBlockBegin
  2
block 5
 70
     0
 10
0.0
 20
0.0
 30
0.0
  3
block 5
  1

  0
SPLINE
  5
F3
330
EF
100
AcDbEntity
  8
_U+30EC_U+30A4_U+30E4_U+30FC 1
370
     0
100
AcDbSpline
210
0.0
220
0.0
230
1.0
 70
    11
 71
     3
 72
    44
 73
    40
 74
     0
 42
0.0000000001
 43
0.0000000001
 12
1.0
 22
0.0
 32
0.0
 13
1.0
 23
0.0
 33
0.0
 40
0.0
 40
0.0
 40
0.0
 40
0.0
 40
1.0
 40
1.0
 40
1.0
 40
2.0
 40
2.0
 40
2.0
 40
3.0
 40
3.0
 40
3.0
 40
4.0
 40
4.0
 40
4.0
 40
5.0
 40
5.0
 40
5.0
 40
6.0
 40
6.0
 40
6.0
 40
7.0
 40
7.0
 40
7.0
 40
8.0
 40
8.0
 40
8.0
 40
9.0
 40
9.0
 40
9.0
 40
10.0
 40
10.0
 40
10.0
 40
11.0
 40
11.0
 40
11.0
 40
12.0
 40
12.0
 40
12.0
 40
13.0
 40
13.0
 40
13.0
 40
13.0
 10
71.96477184615811
 20
-130.6235513996358
 30
0.0
 10
72.12341849325387
 20
-130.8564398544387
 30
0.0
 10
72.19748804618675
 20
-130.9560031139624
 30
0.0
 10
72.34132078269592
 20
-131.0080240557897
 30
0.0
 10
72.34132078269592
 20
-131.0080240557897
 30
0.0
 10
72.34132078269592
 20
-130.1756889865533
 30
0.0
 10
72.34132078269592
 20
-130.1756889865533
 30
0.0
 10
72.34132078269592
 20
-130.1756889865533
 30
0.0
 10
72.54647621884256
 20
-130.1756889865533
 30
0.0
 10
72.54647621884256
 20
-130.1756889865533
 30
0.0
 10
72.54647621884256
 20
-130.1756889865533
 30
0.0
 10
72.54647621884256
 20
-131.274674446348
 30
0.0
 10
72.54647621884256
 20
-131.274674446348
 30
0.0
 10
72.18887530747362
 20
-131.240568001044
 30
0.0
 10
72.11067163995844
 20
-131.1706325626935
 30
0.0
 10
71.8123263709358
 20
-130.7592881617546
 30
0.0
 10
71.6135443614369
 20
-130.4857475802258
 30
0.0
 10
71.54584823515174
 20
-130.4154676323267
 30
0.0
 10
71.40838892529027
 20
-130.4154676323267
 30
0.0
 10
71.28987764059767
 20
-130.4154676323267
 30
0.0
 10
71.15861950260965
 20
-130.4922932616478
 30
0.0
 10
71.15861950260965
 20
-130.7027885957965
 30
0.0
 10
71.15861950260965
 20
-130.9808078014562
 30
0.0
 10
71.38926864534713
 20
-130.9897650497178
 30
0.0
 10
71.50571287274857
 20
-130.9942436738487
 30
0.0
 10
71.50571287274857
 20
-130.9942436738487
 30
0.0
 10
71.50571287274857
 20
-131.2340223196221
 30
0.0
 10
71.50571287274857
 20
-131.2340223196221
 30
0.0
 10
71.37876110411712
 20
-131.2250650713604
 30
0.0
 10
71.26662324607224
 20
-131.2136962562591
 30
0.0
 10
71.14811196137964
 20
-131.1275688691278
 30
0.0
 10
70.98739825699273
 20
-131.0100911130808
 30
0.0
 10
70.95346406646303
 20
-130.8113091035819
 30
0.0
 10
70.95346406646303
 20
-130.6869411565644
 30
0.0
 10
70.95346406646303
 20
-130.3906629448329
 30
0.0
 10
71.13760442014963
 20
-130.1691433051313
 30
0.0
 10
71.41045598258141
 20
-130.1691433051313
 30
0.0
 10
71.63886581325347
 20
-130.1691433051313
 30
0.0
 10
71.73842907277721
 20
-130.2935112521488
 30
0.0
 10
71.96477184615811
 20
-130.6235513996358
 30
0.0
  0
HATCH
  5
F4
330
EF
100
AcDbEntity
  8
_U+30EC_U+30A4_U+30E4_U+30FC 1
 62
     7
420
 16777215
100
AcDbHatch
 10
0.0
 20
0.0
 30
0.0
210
0.0
220
0.0
230
1.0
  2
SOLID
 70
     1
 71
     0
 91
        1
 92
        1
 93
        1
 72
     4
 94
        3
 73
     0
 74
     1
 95
       44
 96
       40
 40
0.0
 40
0.0
 40
0.0
 40
0.0
 40
1.0
 40
1.0
 40
1.0
 40
2.0
 40
2.0
 40
2.0
 40
3.0
 40
3.0
 40
3.0
 40
4.0
 40
4.0
 40
4.0
 40
5.0
 40
5.0
 40
5.0
 40
6.0
 40
6.0
 40
6.0
 40
7.0
 40
7.0
 40
7.0
 40
8.0
 40
8.0
 40
8.0
 40
9.0
 40
9.0
 40
9.0
 40
10.0
 40
10.0
 40
10.0
 40
11.0
 40
11.0
 40
11.0
 40
12.0
 40
12.0
 40
12.0
 40
13.0
 40
13.0
 40
13.0
 40
13.0
 10
71.96477184615811
 20
-130.6235513996358
 10
72.12341849325387
 20
-130.8564398544387
 10
72.19748804618675
 20
-130.9560031139624
 10
72.34132078269592
 20
-131.0080240557897
 10
72.34132078269592
 20
-131.0080240557897
 10
72.34132078269592
 20
-130.1756889865533
 10
72.34132078269592
 20
-130.1756889865533
 10
72.34132078269592
 20
-130.1756889865533
 10
72.54647621884256
 20
-130.1756889865533
 10
72.54647621884256
 20
-130.1756889865533
 10
72.54647621884256
 20
-130.1756889865533
 10
72.54647621884256
 20
-131.274674446348
 10
72.54647621884256
 20
-131.274674446348
 10
72.18887530747362
 20
-131.240568001044
 10
72.11067163995844
 20
-131.1706325626935
 10
71.8123263709358
 20
-130.7592881617546
 10
71.6135443614369
 20
-130.4857475802258
 10
71.54584823515174
 20
-130.4154676323267
 10
71.40838892529027
 20
-130.4154676323267
 10
71.28987764059767
 20
-130.4154676323267
 10
71.15861950260965
 20
-130.4922932616478
 10
71.15861950260965
 20
-130.7027885957965
 10
71.15861950260965
 20
-130.9808078014562
 10
71.38926864534713
 20
-130.9897650497178
 10
71.50571287274857
 20
-130.9942436738487
 10
71.50571287274857
 20
-130.9942436738487
 10
71.50571287274857
 20
-131.2340223196221
 10
71.50571287274857
 20
-131.2340223196221
 10
71.37876110411712
 20
-131.2250650713604
 10
71.26662324607224
 20
-131.2136962562591
 10
71.14811196137964
 20
-131.1275688691278
 10
70.98739825699273
 20
-131.0100911130808
 10
70.95346406646303
 20
-130.8113091035819
 10
70.95346406646303
 20
-130.6869411565644
 10
70.95346406646303
 20
-130.3906629448329
 10
71.13760442014963
 20
-130.1691433051313
 10
71.41045598258141
 20
-130.1691433051313
 10
71.63886581325347
 20
-130.1691433051313
 10
71.73842907277721
 20
-130.2935112521488
 10
71.96477184615811
 20
-130.6235513996358
 97
        0
 97
        0
 75
     2
 76
     1
 98
        0
  0
POLYLINE
  5
F5
330
EF
100
AcDbEntity
  8
_U+30EC_U+30A4_U+30E4_U+30FC 1
370
     0
100
AcDb2dPolyline
 66
     1
 10
0.0
 20
0.0
 30
0.0
  0
VERTEX
  5
F6
330
F5
100
AcDbEntity
  8
_U+30EC_U+30A4_U+30E4_U+30FC 1
370
     0
100
AcDbVertex
100
AcDb2dVertex
 10
72.19955510347789
 20
-129.1101209529655
 30
0.0
  0
VERTEX
  5
F7
330
F5
100
AcDbEntity
  8
_U+30EC_U+30A4_U+30E4_U+30FC 1
370
     0
100
AcDbVertex
100
AcDb2dVertex
 10
72.54647621884256
 20
-129.1101209529655
 30
0.0
  0
VERTEX
  5
F8
330
F5
100
AcDbEntity
  8
_U+30EC_U+30A4_U+30E4_U+30FC 1
370
     0
100
AcDbVertex
100
AcDb2dVertex
 10
72.54647621884256
 20
-129.3430094077684
 30
0.0
  0
VERTEX
  5
F9
330
F5
100
AcDbEntity
  8
_U+30EC_U+30A4_U+30E4_U+30FC 1
370
     0
100
AcDbVertex
100
AcDb2dVertex
 10
72.19955510347789
 20
-129.3430094077684
 30
0.0
  0
VERTEX
  5
FA
330
F5
100
AcDbEntity
  8
_U+30EC_U+30A4_U+30E4_U+30FC 1
370
     0
100
AcDbVertex
100
AcDb2dVertex
 10
72.19955510347789
 20
-130.0440863390168
 30
0.0
  0
VERTEX
  5
FB
330
F5
100
AcDbEntity
  8
_U+30EC_U+30A4_U+30E4_U+30FC 1
370
     0
100
AcDbVertex
100
AcDb2dVertex
 10
71.97527938738813
 20
-130.0440863390168
 30
0.0
  0
VERTEX
  5
FC
330
F5
100
AcDbEntity
  8
_U+30EC_U+30A4_U+30E4_U+30FC 1
370
     0
100
AcDbVertex
100
AcDb2dVertex
 10
71.00221216757932
 20
-129.3182047202746
 30
0.0
  0
VERTEX
  5
FD
330
F5
100
AcDbEntity
  8
_U+30EC_U+30A4_U+30E4_U+30FC 1
370
     0
100
AcDbVertex
100
AcDb2dVertex
 10
71.00221216757932
 20
-129.1101209529655
 30
0.0
  0
VERTEX
  5
FE
330
F5
100
AcDbEntity
  8
_U+30EC_U+30A4_U+30E4_U+30FC 1
370
     0
100
AcDbVertex
100
AcDb2dVertex
 10
72.00060083920471
 20
-129.1101209529655
 30
0.0
  0
VERTEX
  5
FF
330
F5
100
AcDbEntity
  8
_U+30EC_U+30A4_U+30E4_U+30FC 1
370
     0
100
AcDbVertex
100
AcDb2dVertex
 10
72.00060083920471
 20
-128.888601313264
 30
0.0
  0
VERTEX
  5
100
330
F5
100
AcDbEntity
  8
_U+30EC_U+30A4_U+30E4_U+30FC 1
370
     0
100
AcDbVertex
100
AcDb2dVertex
 10
72.19955510347789
 20
-128.888601313264
 30
0.0
  0
VERTEX
  5
101
330
F5
100
AcDbEntity
  8
_U+30EC_U+30A4_U+30E4_U+30FC 1
370
     0
100
AcDbVertex
100
AcDb2dVertex
 10
72.19955510347789
 20
-129.1101209529655
 30
0.0
  0
SEQEND
  5
102
330
F5
100
AcDbEntity
  8
_U+30EC_U+30A4_U+30E4_U+30FC 1
370
     0
  0
POLYLINE
  5
103
330
EF
100
AcDbEntity
  8
_U+30EC_U+30A4_U+30E4_U+30FC 1
370
     0
100
AcDb2dPolyline
 66
     1
 10
0.0
 20
0.0
 30
0.0
  0
VERTEX
  5
104
330
103
100
AcDbEntity
  8
_U+30EC_U+30A4_U+30E4_U+30FC 1
370
     0
100
AcDbVertex
100
AcDb2dVertex
 10
71.34482691358741
 20
-129.3430094077684
 30
0.0
  0
VERTEX
  5
105
330
103
100
AcDbEntity
  8
_U+30EC_U+30A4_U+30E4_U+30FC 1
370
     0
100
AcDbVertex
100
AcDb2dVertex
 10
72.00060083920471
 20
-129.8315239475768
 30
0.0
  0
VERTEX
  5
106
330
103
100
AcDbEntity
  8
_U+30EC_U+30A4_U+30E4_U+30FC 1
370
     0
100
AcDbVertex
100
AcDb2dVertex
 10
72.00060083920471
 20
-129.3430094077684
 30
0.0
  0
VERTEX
  5
107
330
103
100
AcDbEntity
  8
_U+30EC_U+30A4_U+30E4_U+30FC 1
370
     0
100
AcDbVertex
100
AcDb2dVertex
 10
71.34482691358741
 20
-129.3430094077684
 30
0.0
  0
SEQEND
  5
108
330
103
100
AcDbEntity
  8
_U+30EC_U+30A4_U+30E4_U+30FC 1
370
     0
  0
HATCH
  5
109
330
EF
100
AcDbEntity
  8
_U+30EC_U+30A4_U+30E4_U+30FC 1
 62
     7
420
 16777215
100
AcDbHatch
 10
0.0
 20
0.0
 30
0.0
210
0.0
220
0.0
230
1.0
  2
SOLID
 70
     1
 71
     0
 91
        2
 92
        1
 93
       11
 72
     1
 10
72.19955510347789
 20
-129.1101209529655
 11
72.54647621884256
 21
-129.1101209529655
 72
     1
 10
72.54647621884256
 20
-129.1101209529655
 11
72.54647621884256
 21
-129.3430094077684
 72
     1
 10
72.54647621884256
 20
-129.3430094077684
 11
72.19955510347789
 21
-129.3430094077684
 72
     1
 10
72.19955510347789
 20
-129.3430094077684
 11
72.19955510347789
 21
-130.0440863390168
 72
     1
 10
72.19955510347789
 20
-130.0440863390168
 11
71.97527938738813
 21
-130.0440863390168
 72
     1
 10
71.97527938738813
 20
-130.0440863390168
 11
71.00221216757932
 21
-129.3182047202746
 72
     1
 10
71.00221216757932
 20
-129.3182047202746
 11
71.00221216757932
 21
-129.1101209529655
 72
     1
 10
71.00221216757932
 20
-129.1101209529655
 11
72.00060083920471
 21
-129.1101209529655
 72
     1
 10
72.00060083920471
 20
-129.1101209529655
 11
72.00060083920471
 21
-128.888601313264
 72
     1
 10
72.00060083920471
 20
-128.888601313264
 11
72.19955510347789
 21
-128.888601313264
 72
     1
 10
72.19955510347789
 20
-128.888601313264
 11
72.19955510347789
 21
-129.1101209529655
 97
        0
 92
        1
 93
        3
 72
     1
 10
71.34482691358741
 20
-129.3430094077684
 11
72.00060083920471
 21
-129.8315239475768
 72
     1
 10
72.00060083920471
 20
-129.8315239475768
 11
72.00060083920471
 21
-129.3430094077684
 72
     1
 10
72.00060083920471
 20
-129.3430094077684
 11
71.34482691358741
 21
-129.3430094077684
 97
        0
 75
     2
 76
     1
 98
        0
  0
ENDBLK
  5
F2
330
EF
100
AcDbEntity
  8
0
100
AcDbBlockEnd
  0
BLOCK
  5
11D
330
11B
100
AcDbEntity
  8
0
100
AcDbBlockBegin
  2
block 6
 70
     0
 10
0.0
 20
0.0
 30
0.0
  3
block 6
  1

  0
SPLINE
  5
11F
330
11B
100
AcDbEntity
  8
_U+30EC_U+30A4_U+30E4_U+30FC 1
370
     0
100
AcDbSpline
210
0.0
220
0.0
230
1.0
 70
    11
 71
     3
 72
    26
 73
    22
 74
     0
 42
0.0000000001
 43
0.0000000001
 12
1.0
 22
0.0
 32
0.0
 13
1.0
 23
0.0
 33
0.0
 40
0.0
 40
0.0
 40
0.0
 40
0.0
 40
1.0
 40
1.0
 40
1.0
 40
2.0
 40
2.0
 40
2.0
 40
3.0
 40
3.0
 40
3.0
 40
4.0
 40
4.0
 40
4.0
 40
5.0
 40
5.0
 40
5.0
 40
6.0
 40
6.0
 40
6.0
 40
7.0
 40
7.0
 40
7.0
 40
7.0
 10
82.04873858625865
 20
-112.5848591840934
 30
0.0
 10
82.04873858625865
 20
-112.5848591840934
 30
0.0
 10
82.04873858625865
 20
-111.4805338262965
 30
0.0
 10
82.04873858625865
 20
-111.4805338262965
 30
0.0
 10
82.04873858625865
 20
-111.4805338262965
 30
0.0
 10
81.69596080856907
 20
-111.4805338262965
 30
0.0
 10
81.69596080856907
 20
-111.4805338262965
 30
0.0
 10
81.69596080856907
 20
-111.4805338262965
 30
0.0
 10
81.69596080856907
 20
-111.3323947204308
 30
0.0
 10
81.69596080856907
 20
-111.3323947204308
 30
0.0
 10
82.05097789832406
 20
-111.3177530646185
 30
0.0
 10
82.10075952808593
 20
-111.1548000481662
 30
0.0
 10
82.13245440655022
 20
-111.0405951328301
 30
0.0
 10
82.13245440655022
 20
-111.0405951328301
 30
0.0
 10
82.28834497725778
 20
-111.0405951328301
 30
0.0
 10
82.28834497725778
 20
-111.0405951328301
 30
0.0
 10
82.28834497725778
 20
-111.0405951328301
 30
0.0
 10
82.28834497725778
 20
-112.5848591840934
 30
0.0
 10
82.28834497725778
 20
-112.5848591840934
 30
0.0
 10
82.28834497725778
 20
-112.5848591840934
 30
0.0
 10
82.04873858625865
 20
-112.5848591840934
 30
0.0
 10
82.04873858625865
 20
-112.5848591840934
 30
0.0
  0
HATCH
  5
120
330
11B
100
AcDbEntity
  8
_U+30EC_U+30A4_U+30E4_U+30FC 1
 62
     7
420
 16777215
100
AcDbHatch
 10
0.0
 20
0.0
 30
0.0
210
0.0
220
0.0
230
1.0
  2
SOLID
 70
     1
 71
     0
 91
        1
 92
        1
 93
        1
 72
     4
 94
        3
 73
     0
 74
     1
 95
       26
 96
       22
 40
0.0
 40
0.0
 40
0.0
 40
0.0
 40
1.0
 40
1.0
 40
1.0
 40
2.0
 40
2.0
 40
2.0
 40
3.0
 40
3.0
 40
3.0
 40
4.0
 40
4.0
 40
4.0
 40
5.0
 40
5.0
 40
5.0
 40
6.0
 40
6.0
 40
6.0
 40
7.0
 40
7.0
 40
7.0
 40
7.0
 10
82.04873858625865
 20
-112.5848591840934
 10
82.04873858625865
 20
-112.5848591840934
 10
82.04873858625865
 20
-111.4805338262965
 10
82.04873858625865
 20
-111.4805338262965
 10
82.04873858625865
 20
-111.4805338262965
 10
81.69596080856907
 20
-111.4805338262965
 10
81.69596080856907
 20
-111.4805338262965
 10
81.69596080856907
 20
-111.4805338262965
 10
81.69596080856907
 20
-111.3323947204308
 10
81.69596080856907
 20
-111.3323947204308
 10
82.05097789832406
 20
-111.3177530646185
 10
82.10075952808593
 20
-111.1548000481662
 10
82.13245440655022
 20
-111.0405951328301
 10
82.13245440655022
 20
-111.0405951328301
 10
82.28834497725778
 20
-111.0405951328301
 10
82.28834497725778
 20
-111.0405951328301
 10
82.28834497725778
 20
-111.0405951328301
 10
82.28834497725778
 20
-112.5848591840934
 10
82.28834497725778
 20
-112.5848591840934
 10
82.28834497725778
 20
-112.5848591840934
 10
82.04873858625865
 20
-112.5848591840934
 10
82.04873858625865
 20
-112.5848591840934
 97
        0
 97
        0
 75
     2
 76
     1
 98
        0
  0
SPLINE
  5
121
330
11B
100
AcDbEntity
  8
_U+30EC_U+30A4_U+30E4_U+30FC 1
370
     0
100
AcDbSpline
210
0.0
220
0.0
230
1.0
 70
    11
 71
     3
 72
    29
 73
    25
 74
     0
 42
0.0000000001
 43
0.0000000001
 12
1.0
 22
0.0
 32
0.0
 13
1.0
 23
0.0
 33
0.0
 40
0.0
 40
0.0
 40
0.0
 40
0.0
 40
1.0
 40
1.0
 40
1.0
 40
2.0
 40
2.0
 40
2.0
 40
3.0
 40
3.0
 40
3.0
 40
4.0
 40
4.0
 40
4.0
 40
5.0
 40
5.0
 40
5.0
 40
6.0
 40
6.0
 40
6.0
 40
7.0
 40
7.0
 40
7.0
 40
8.0
 40
8.0
 40
8.0
 40
8.0
 10
83.7835164178562
 20
-112.4070922570545
 30
0.0
 10
83.6682779738746
 20
-112.6165540625577
 30
0.0
 10
83.48293183676816
 20
-112.6356743425008
 30
0.0
 10
83.35856388975064
 20
-112.6356743425008
 30
0.0
 10
83.18665362503667
 20
-112.6356743425008
 30
0.0
 10
83.03524167845994
 20
-112.5891655534499
 30
0.0
 10
82.93343910687081
 20
-112.4070922570545
 30
0.0
 10
82.82267928702002
 20
-112.2126166169121
 30
0.0
 10
82.80235322365705
 20
-111.9755940475269
 30
0.0
 10
82.80235322365705
 20
-111.8126410310746
 30
0.0
 10
82.80235322365705
 20
-111.6688082945654
 30
0.0
 10
82.82043997495461
 20
-111.4171440693679
 30
0.0
 10
82.93343910687081
 20
-111.2181898050948
 30
0.0
 10
83.04884980562667
 20
-111.0151014262393
 30
0.0
 10
83.22058781556639
 20
-110.9918470317138
 30
0.0
 10
83.35856388975064
 20
-110.9918470317138
 30
0.0
 10
83.52806258762493
 20
-110.9918470317138
 30
0.0
 10
83.68188610104134
 20
-111.0362887634736
 30
0.0
 10
83.7835164178562
 20
-111.2181898050948
 30
0.0
 10
83.88979761357616
 20
-111.4107706427202
 30
0.0
 10
83.91460230106996
 20
-111.6391804733923
 30
0.0
 10
83.91460230106996
 20
-111.8126410310746
 30
0.0
 10
83.91460230106996
 20
-111.9840345314658
 30
0.0
 10
83.89203692564158
 20
-112.2146836742033
 30
0.0
 10
83.7835164178562
 20
-112.4070922570545
 30
0.0
  0
SPLINE
  5
122
330
11B
100
AcDbEntity
  8
_U+30EC_U+30A4_U+30E4_U+30FC 1
370
     0
100
AcDbSpline
210
0.0
220
0.0
230
1.0
 70
    11
 71
     3
 72
    17
 73
    13
 74
     0
 42
0.0000000001
 43
0.0000000001
 12
1.0
 22
0.0
 32
0.0
 13
1.0
 23
0.0
 33
0.0
 40
0.0
 40
0.0
 40
0.0
 40
0.0
 40
1.0
 40
1.0
 40
1.0
 40
2.0
 40
2.0
 40
2.0
 40
3.0
 40
3.0
 40
3.0
 40
4.0
 40
4.0
 40
4.0
 40
4.0
 10
83.35856388975064
 20
-111.1844278693393
 30
0.0
 10
83.09174124441805
 20
-111.1844278693393
 30
0.0
 10
83.04195961465618
 20
-111.4677869730011
 30
0.0
 10
83.04195961465618
 20
-111.8126410310746
 30
0.0
 10
83.04195961465618
 20
-112.1321736373315
 30
0.0
 10
83.08037242931671
 20
-112.4410264475842
 30
0.0
 10
83.35856388975064
 20
-112.4410264475842
 30
0.0
 10
83.62297496824357
 20
-112.4410264475842
 30
0.0
 10
83.67499591007083
 20
-112.1595621464393
 30
0.0
 10
83.67499591007083
 20
-111.8126410310746
 30
0.0
 10
83.67499591007083
 20
-111.493280679592
 30
0.0
 10
83.63434378334489
 20
-111.1844278693393
 30
0.0
 10
83.35856388975064
 20
-111.1844278693393
 30
0.0
  0
HATCH
  5
123
330
11B
100
AcDbEntity
  8
_U+30EC_U+30A4_U+30E4_U+30FC 1
 62
     7
420
 16777215
100
AcDbHatch
 10
0.0
 20
0.0
 30
0.0
210
0.0
220
0.0
230
1.0
  2
SOLID
 70
     1
 71
     0
 91
        2
 92
        1
 93
        1
 72
     4
 94
        3
 73
     0
 74
     1
 95
       29
 96
       25
 40
0.0
 40
0.0
 40
0.0
 40
0.0
 40
1.0
 40
1.0
 40
1.0
 40
2.0
 40
2.0
 40
2.0
 40
3.0
 40
3.0
 40
3.0
 40
4.0
 40
4.0
 40
4.0
 40
5.0
 40
5.0
 40
5.0
 40
6.0
 40
6.0
 40
6.0
 40
7.0
 40
7.0
 40
7.0
 40
8.0
 40
8.0
 40
8.0
 40
8.0
 10
83.7835164178562
 20
-112.4070922570545
 10
83.6682779738746
 20
-112.6165540625577
 10
83.48293183676816
 20
-112.6356743425008
 10
83.35856388975064
 20
-112.6356743425008
 10
83.18665362503667
 20
-112.6356743425008
 10
83.03524167845994
 20
-112.5891655534499
 10
82.93343910687081
 20
-112.4070922570545
 10
82.82267928702002
 20
-112.2126166169121
 10
82.80235322365705
 20
-111.9755940475269
 10
82.80235322365705
 20
-111.8126410310746
 10
82.80235322365705
 20
-111.6688082945654
 10
82.82043997495461
 20
-111.4171440693679
 10
82.93343910687081
 20
-111.2181898050948
 10
83.04884980562667
 20
-111.0151014262393
 10
83.22058781556639
 20
-110.9918470317138
 10
83.35856388975064
 20
-110.9918470317138
 10
83.52806258762493
 20
-110.9918470317138
 10
83.68188610104134
 20
-111.0362887634736
 10
83.7835164178562
 20
-111.2181898050948
 10
83.88979761357616
 20
-111.4107706427202
 10
83.91460230106996
 20
-111.6391804733923
 10
83.91460230106996
 20
-111.8126410310746
 10
83.91460230106996
 20
-111.9840345314658
 10
83.89203692564158
 20
-112.2146836742033
 10
83.7835164178562
 20
-112.4070922570545
 97
        0
 97
        0
 92
        1
 93
        1
 72
     4
 94
        3
 73
     0
 74
     1
 95
       17
 96
       13
 40
0.0
 40
0.0
 40
0.0
 40
0.0
 40
1.0
 40
1.0
 40
1.0
 40
2.0
 40
2.0
 40
2.0
 40
3.0
 40
3.0
 40
3.0
 40
4.0
 40
4.0
 40
4.0
 40
4.0
 10
83.35856388975064
 20
-111.1844278693393
 10
83.09174124441805
 20
-111.1844278693393
 10
83.04195961465618
 20
-111.4677869730011
 10
83.04195961465618
 20
-111.8126410310746
 10
83.04195961465618
 20
-112.1321736373315
 10
83.08037242931671
 20
-112.4410264475842
 10
83.35856388975064
 20
-112.4410264475842
 10
83.62297496824357
 20
-112.4410264475842
 10
83.67499591007083
 20
-112.1595621464393
 10
83.67499591007083
 20
-111.8126410310746
 10
83.67499591007083
 20
-111.493280679592
 10
83.63434378334489
 20
-111.1844278693393
 10
83.35856388975064
 20
-111.1844278693393
 97
        0
 97
        0
 75
     2
 76
     1
 98
        0
  0
POLYLINE
  5
124
330
11B
100
AcDbEntity
  8
_U+30EC_U+30A4_U+30E4_U+30FC 1
370
     0
100
AcDb2dPolyline
 66
     1
 10
0.0
 20
0.0
 30
0.0
  0
VERTEX
  5
125
330
124
100
AcDbEntity
  8
_U+30EC_U+30A4_U+30E4_U+30FC 1
370
     0
100
AcDbVertex
100
AcDb2dVertex
 10
84.14611271767875
 20
-112.5848591840934
 30
0.0
  0
VERTEX
  5
126
330
124
100
AcDbEntity
  8
_U+30EC_U+30A4_U+30E4_U+30FC 1
370
     0
100
AcDbVertex
100
AcDb2dVertex
 10
84.14611271767875
 20
-112.3331949588959
 30
0.0
  0
VERTEX
  5
127
330
124
100
AcDbEntity
  8
_U+30EC_U+30A4_U+30E4_U+30FC 1
370
     0
100
AcDbVertex
100
AcDb2dVertex
 10
84.41517467507677
 20
-112.3331949588959
 30
0.0
  0
VERTEX
  5
128
330
124
100
AcDbEntity
  8
_U+30EC_U+30A4_U+30E4_U+30FC 1
370
     0
100
AcDbVertex
100
AcDb2dVertex
 10
84.41517467507677
 20
-112.5848591840934
 30
0.0
  0
VERTEX
  5
129
330
124
100
AcDbEntity
  8
_U+30EC_U+30A4_U+30E4_U+30FC 1
370
     0
100
AcDbVertex
100
AcDb2dVertex
 10
84.14611271767875
 20
-112.5848591840934
 30
0.0
  0
SEQEND
  5
12A
330
124
100
AcDbEntity
  8
_U+30EC_U+30A4_U+30E4_U+30FC 1
370
     0
  0
HATCH
  5
12B
330
11B
100
AcDbEntity
  8
_U+30EC_U+30A4_U+30E4_U+30FC 1
 62
     7
420
 16777215
100
AcDbHatch
 10
0.0
 20
0.0
 30
0.0
210
0.0
220
0.0
230
1.0
  2
SOLID
 70
     1
 71
     0
 91
        1
 92
        1
 93
        4
 72
     1
 10
84.14611271767875
 20
-112.5848591840934
 11
84.14611271767875
 21
-112.3331949588959
 72
     1
 10
84.14611271767875
 20
-112.3331949588959
 11
84.41517467507677
 21
-112.3331949588959
 72
     1
 10
84.41517467507677
 20
-112.3331949588959
 11
84.41517467507677
 21
-112.5848591840934
 72
     1
 10
84.41517467507677
 20
-112.5848591840934
 11
84.14611271767875
 21
-112.5848591840934
 97
        0
 75
     2
 76
     1
 98
        0
  0
SPLINE
  5
12C
330
11B
100
AcDbEntity
  8
_U+30EC_U+30A4_U+30E4_U+30FC 1
370
     0
100
AcDbSpline
210
0.0
220
0.0
230
1.0
 70
    11
 71
     3
 72
    53
 73
    49
 74
     0
 42
0.0000000001
 43
0.0000000001
 12
1.0
 22
0.0
 32
0.0
 13
1.0
 23
0.0
 33
0.0
 40
0.0
 40
0.0
 40
0.0
 40
0.0
 40
1.0
 40
1.0
 40
1.0
 40
2.0
 40
2.0
 40
2.0
 40
3.0
 40
3.0
 40
3.0
 40
4.0
 40
4.0
 40
4.0
 40
5.0
 40
5.0
 40
5.0
 40
6.0
 40
6.0
 40
6.0
 40
7.0
 40
7.0
 40
7.0
 40
8.0
 40
8.0
 40
8.0
 40
9.0
 40
9.0
 40
9.0
 40
10.0
 40
10.0
 40
10.0
 40
11.0
 40
11.0
 40
11.0
 40
12.0
 40
12.0
 40
12.0
 40
13.0
 40
13.0
 40
13.0
 40
14.0
 40
14.0
 40
14.0
 40
15.0
 40
15.0
 40
15.0
 40
16.0
 40
16.0
 40
16.0
 40
16.0
 10
85.18188067531912
 20
-112.6356743425008
 30
0.0
 10
85.09816485502755
 20
-112.6356743425008
 30
0.0
 10
84.98964434724218
 20
-112.6187933746231
 30
0.0
 10
84.8811238394568
 20
-112.5552313629202
 30
0.0
 10
84.69577770235037
 20
-112.4451605621665
 30
0.0
 10
84.67321232692198
 20
-112.3140746789527
 30
0.0
 10
84.65271400878474
 20
-112.2062431902644
 30
0.0
 10
84.65271400878474
 20
-112.2062431902644
 30
0.0
 10
84.89025334249271
 20
-112.2062431902644
 30
0.0
 10
84.89025334249271
 20
-112.2062431902644
 30
0.0
 10
84.94899222051623
 20
-112.4050251997633
 30
0.0
 10
85.08455672786081
 20
-112.4346530209365
 30
0.0
 10
85.18411998738453
 20
-112.4346530209365
 30
0.0
 10
85.33329262189585
 20
-112.4346530209365
 30
0.0
 10
85.4960733835739
 20
-112.335262016187
 30
0.0
 10
85.4960733835739
 20
-112.1025458161584
 30
0.0
 10
85.4960733835739
 20
-111.8465752216043
 30
0.0
 10
85.30383705549696
 20
-111.776812038028
 30
0.0
 10
85.17499048434861
 20
-111.776812038028
 30
0.0
 10
85.1410562938189
 20
-111.776812038028
 30
0.0
 10
84.98964434724218
 20
-111.776812038028
 30
0.0
 10
84.89473196662354
 20
-111.9058308639506
 30
0.0
 10
84.89473196662354
 20
-111.9058308639506
 30
0.0
 10
84.70697426267742
 20
-111.8867105840075
 30
0.0
 10
84.70697426267742
 20
-111.8867105840075
 30
0.0
 10
84.70697426267742
 20
-111.8867105840075
 30
0.0
 10
84.83582083382576
 20
-111.0405951328301
 30
0.0
 10
84.83582083382576
 20
-111.0405951328301
 30
0.0
 10
84.83582083382576
 20
-111.0405951328301
 30
0.0
 10
85.6678113935136
 20
-111.0405951328301
 30
0.0
 10
85.6678113935136
 20
-111.0405951328301
 30
0.0
 10
85.6678113935136
 20
-111.0405951328301
 30
0.0
 10
85.6678113935136
 20
-111.2352430277467
 30
0.0
 10
85.6678113935136
 20
-111.2352430277467
 30
0.0
 10
85.6678113935136
 20
-111.2352430277467
 30
0.0
 10
85.00997041060515
 20
-111.2352430277467
 30
0.0
 10
85.00997041060515
 20
-111.2352430277467
 30
0.0
 10
85.00997041060515
 20
-111.2352430277467
 30
0.0
 10
84.93986271748031
 20
-111.6583007533354
 30
0.0
 10
84.93986271748031
 20
-111.6583007533354
 30
0.0
 10
85.00549178647432
 20
-111.6243665628057
 30
0.0
 10
85.09368623089672
 20
-111.5842312004026
 30
0.0
 10
85.22029348997965
 20
-111.5842312004026
 30
0.0
 10
85.49159475944307
 20
-111.5842312004026
 30
0.0
 10
85.74480927760894
 20
-111.7704386113803
 30
0.0
 10
85.74480927760894
 20
-112.0834255362153
 30
0.0
 10
85.74480927760894
 20
-112.400891085181
 30
0.0
 10
85.50520288660981
 20
-112.6356743425008
 30
0.0
 10
85.18188067531912
 20
-112.6356743425008
 30
0.0
  0
HATCH
  5
12D
330
11B
100
AcDbEntity
  8
_U+30EC_U+30A4_U+30E4_U+30FC 1
 62
     7
420
 16777215
100
AcDbHatch
 10
0.0
 20
0.0
 30
0.0
210
0.0
220
0.0
230
1.0
  2
SOLID
 70
     1
 71
     0
 91
        1
 92
        1
 93
        1
 72
     4
 94
        3
 73
     0
 74
     1
 95
       53
 96
       49
 40
0.0
 40
0.0
 40
0.0
 40
0.0
 40
1.0
 40
1.0
 40
1.0
 40
2.0
 40
2.0
 40
2.0
 40
3.0
 40
3.0
 40
3.0
 40
4.0
 40
4.0
 40
4.0
 40
5.0
 40
5.0
 40
5.0
 40
6.0
 40
6.0
 40
6.0
 40
7.0
 40
7.0
 40
7.0
 40
8.0
 40
8.0
 40
8.0
 40
9.0
 40
9.0
 40
9.0
 40
10.0
 40
10.0
 40
10.0
 40
11.0
 40
11.0
 40
11.0
 40
12.0
 40
12.0
 40
12.0
 40
13.0
 40
13.0
 40
13.0
 40
14.0
 40
14.0
 40
14.0
 40
15.0
 40
15.0
 40
15.0
 40
16.0
 40
16.0
 40
16.0
 40
16.0
 10
85.18188067531912
 20
-112.6356743425008
 10
85.09816485502755
 20
-112.6356743425008
 10
84.98964434724218
 20
-112.6187933746231
 10
84.8811238394568
 20
-112.5552313629202
 10
84.69577770235037
 20
-112.4451605621665
 10
84.67321232692198
 20
-112.3140746789527
 10
84.65271400878474
 20
-112.2062431902644
 10
84.65271400878474
 20
-112.2062431902644
 10
84.89025334249271
 20
-112.2062431902644
 10
84.89025334249271
 20
-112.2062431902644
 10
84.94899222051623
 20
-112.4050251997633
 10
85.08455672786081
 20
-112.4346530209365
 10
85.18411998738453
 20
-112.4346530209365
 10
85.33329262189585
 20
-112.4346530209365
 10
85.4960733835739
 20
-112.335262016187
 10
85.4960733835739
 20
-112.1025458161584
 10
85.4960733835739
 20
-111.8465752216043
 10
85.30383705549696
 20
-111.776812038028
 10
85.17499048434861
 20
-111.776812038028
 10
85.1410562938189
 20
-111.776812038028
 10
84.98964434724218
 20
-111.776812038028
 10
84.89473196662354
 20
-111.9058308639506
 10
84.89473196662354
 20
-111.9058308639506
 10
84.70697426267742
 20
-111.8867105840075
 10
84.70697426267742
 20
-111.8867105840075
 10
84.70697426267742
 20
-111.8867105840075
 10
84.83582083382576
 20
-111.0405951328301
 10
84.83582083382576
 20
-111.0405951328301
 10
84.83582083382576
 20
-111.0405951328301
 10
85.6678113935136
 20
-111.0405951328301
 10
85.6678113935136
 20
-111.0405951328301
 10
85.6678113935136
 20
-111.0405951328301
 10
85.6678113935136
 20
-111.2352430277467
 10
85.6678113935136
 20
-111.2352430277467
 10
85.6678113935136
 20
-111.2352430277467
 10
85.00997041060515
 20
-111.2352430277467
 10
85.00997041060515
 20
-111.2352430277467
 10
85.00997041060515
 20
-111.2352430277467
 10
84.93986271748031
 20
-111.6583007533354
 10
84.93986271748031
 20
-111.6583007533354
 10
85.00549178647432
 20
-111.6243665628057
 10
85.09368623089672
 20
-111.5842312004026
 10
85.22029348997965
 20
-111.5842312004026
 10
85.49159475944307
 20
-111.5842312004026
 10
85.74480927760894
 20
-111.7704386113803
 10
85.74480927760894
 20
-112.0834255362153
 10
85.74480927760894
 20
-112.400891085181
 10
85.50520288660981
 20
-112.6356743425008
 10
85.18188067531912
 20
-112.6356743425008
 97
        0
 97
        0
 75
     2
 76
     1
 98
        0
  0
ENDBLK
  5
11E
330
11B
100
AcDbEntity
  8
0
100
AcDbBlockEnd
  0
BLOCK
  5
13C
330
13A
100
AcDbEntity
  8
0
100
AcDbBlockBegin
  2
block 7
 70
     0
 10
0.0
 20
0.0
 30
0.0
  3
block 7
  1

  0
SPLINE
  5
13E
330
13A
100
AcDbEntity
  8
_U+30EC_U+30A4_U+30E4_U+30FC 1
370
     0
100
AcDbSpline
210
0.0
220
0.0
230
1.0
 70
    11
 71
     3
 72
    44
 73
    40
 74
     0
 42
0.0000000001
 43
0.0000000001
 12
1.0
 22
0.0
 32
0.0
 13
1.0
 23
0.0
 33
0.0
 40
0.0
 40
0.0
 40
0.0
 40
0.0
 40
1.0
 40
1.0
 40
1.0
 40
2.0
 40
2.0
 40
2.0
 40
3.0
 40
3.0
 40
3.0
 40
4.0
 40
4.0
 40
4.0
 40
5.0
 40
5.0
 40
5.0
 40
6.0
 40
6.0
 40
6.0
 40
7.0
 40
7.0
 40
7.0
 40
8.0
 40
8.0
 40
8.0
 40
9.0
 40
9.0
 40
9.0
 40
10.0
 40
10.0
 40
10.0
 40
11.0
 40
11.0
 40
11.0
 40
12.0
 40
12.0
 40
12.0
 40
13.0
 40
13.0
 40
13.0
 40
13.0
 10
90.70006236881804
 20
-144.5028075810618
 30
0.0
 10
90.46717391401515
 20
-144.6616264829318
 30
0.0
 10
90.3677829092657
 20
-144.7356960358647
 30
0.0
 10
90.31576196743842
 20
-144.8793565175996
 30
0.0
 10
90.31576196743842
 20
-144.8793565175996
 30
0.0
 10
91.147580272352
 20
-144.8793565175996
 30
0.0
 10
91.147580272352
 20
-144.8793565175996
 30
0.0
 10
91.147580272352
 20
-144.8793565175996
 30
0.0
 10
91.147580272352
 20
-145.0846842085205
 30
0.0
 10
91.147580272352
 20
-145.0846842085205
 30
0.0
 10
91.147580272352
 20
-145.0846842085205
 30
0.0
 10
90.04893932210582
 20
-145.0846842085205
 30
0.0
 10
90.04893932210582
 20
-145.0846842085205
 30
0.0
 10
90.08287351263553
 20
-144.7270832971516
 30
0.0
 10
90.15298120576037
 20
-144.6488796296364
 30
0.0
 10
90.56449786147347
 20
-144.3505343606138
 30
0.0
 10
90.83786618822803
 20
-144.1517523511149
 30
0.0
 10
90.90814613612713
 20
-144.0838839700554
 30
0.0
 10
90.90814613612713
 20
-143.946424660194
 30
0.0
 10
90.90814613612713
 20
-143.8279133755014
 30
0.0
 10
90.83132050680607
 20
-143.6969997470619
 30
0.0
 10
90.62099742743156
 20
-143.6969997470619
 30
0.0
 10
90.34280596699763
 20
-143.6969997470619
 30
0.0
 10
90.333848718736
 20
-143.9274766350251
 30
0.0
 10
90.32937009460517
 20
-144.0439208624265
 30
0.0
 10
90.32937009460517
 20
-144.0439208624265
 30
0.0
 10
90.08959144883177
 20
-144.0439208624265
 30
0.0
 10
90.08959144883177
 20
-144.0439208624265
 30
0.0
 10
90.09872095186769
 20
-143.9167968390208
 30
0.0
 10
90.11008976696901
 20
-143.8048312357502
 30
0.0
 10
90.19587264455173
 20
-143.6863199510576
 30
0.0
 10
90.313522655373
 20
-143.5254339918964
 30
0.0
 10
90.51247691964619
 20
-143.491672056141
 30
0.0
 10
90.63684486666371
 20
-143.491672056141
 30
0.0
 10
90.93295082362093
 20
-143.491672056141
 30
0.0
 10
91.1544704633225
 20
-143.6756401550533
 30
0.0
 10
91.1544704633225
 20
-143.9484917174851
 30
0.0
 10
91.1544704633225
 20
-144.1772460577057
 30
0.0
 10
91.03010251630498
 20
-144.2764648076809
 30
0.0
 10
90.70006236881804
 20
-144.5028075810618
 30
0.0
  0
HATCH
  5
13F
330
13A
100
AcDbEntity
  8
_U+30EC_U+30A4_U+30E4_U+30FC 1
 62
     7
420
 16777215
100
AcDbHatch
 10
0.0
 20
0.0
 30
0.0
210
0.0
220
0.0
230
1.0
  2
SOLID
 70
     1
 71
     0
 91
        1
 92
        1
 93
        1
 72
     4
 94
        3
 73
     0
 74
     1
 95
       44
 96
       40
 40
0.0
 40
0.0
 40
0.0
 40
0.0
 40
1.0
 40
1.0
 40
1.0
 40
2.0
 40
2.0
 40
2.0
 40
3.0
 40
3.0
 40
3.0
 40
4.0
 40
4.0
 40
4.0
 40
5.0
 40
5.0
 40
5.0
 40
6.0
 40
6.0
 40
6.0
 40
7.0
 40
7.0
 40
7.0
 40
8.0
 40
8.0
 40
8.0
 40
9.0
 40
9.0
 40
9.0
 40
10.0
 40
10.0
 40
10.0
 40
11.0
 40
11.0
 40
11.0
 40
12.0
 40
12.0
 40
12.0
 40
13.0
 40
13.0
 40
13.0
 40
13.0
 10
90.70006236881804
 20
-144.5028075810618
 10
90.46717391401515
 20
-144.6616264829318
 10
90.3677829092657
 20
-144.7356960358647
 10
90.31576196743842
 20
-144.8793565175996
 10
90.31576196743842
 20
-144.8793565175996
 10
91.147580272352
 20
-144.8793565175996
 10
91.147580272352
 20
-144.8793565175996
 10
91.147580272352
 20
-144.8793565175996
 10
91.147580272352
 20
-145.0846842085205
 10
91.147580272352
 20
-145.0846842085205
 10
91.147580272352
 20
-145.0846842085205
 10
90.04893932210582
 20
-145.0846842085205
 10
90.04893932210582
 20
-145.0846842085205
 10
90.08287351263553
 20
-144.7270832971516
 10
90.15298120576037
 20
-144.6488796296364
 10
90.56449786147347
 20
-144.3505343606138
 10
90.83786618822803
 20
-144.1517523511149
 10
90.90814613612713
 20
-144.0838839700554
 10
90.90814613612713
 20
-143.946424660194
 10
90.90814613612713
 20
-143.8279133755014
 10
90.83132050680607
 20
-143.6969997470619
 10
90.62099742743156
 20
-143.6969997470619
 10
90.34280596699763
 20
-143.6969997470619
 10
90.333848718736
 20
-143.9274766350251
 10
90.32937009460517
 20
-144.0439208624265
 10
90.32937009460517
 20
-144.0439208624265
 10
90.08959144883177
 20
-144.0439208624265
 10
90.08959144883177
 20
-144.0439208624265
 10
90.09872095186769
 20
-143.9167968390208
 10
90.11008976696901
 20
-143.8048312357502
 10
90.19587264455173
 20
-143.6863199510576
 10
90.313522655373
 20
-143.5254339918964
 10
90.51247691964619
 20
-143.491672056141
 10
90.63684486666371
 20
-143.491672056141
 10
90.93295082362093
 20
-143.491672056141
 10
91.1544704633225
 20
-143.6756401550533
 10
91.1544704633225
 20
-143.9484917174851
 10
91.1544704633225
 20
-144.1772460577057
 10
91.03010251630498
 20
-144.2764648076809
 10
90.70006236881804
 20
-144.5028075810618
 97
        0
 97
        0
 75
     2
 76
     1
 98
        0
  0
SPLINE
  5
140
330
13A
100
AcDbEntity
  8
_U+30EC_U+30A4_U+30E4_U+30FC 1
370
     0
100
AcDbSpline
210
0.0
220
0.0
230
1.0
 70
    11
 71
     3
 72
    32
 73
    28
 74
     0
 42
0.0000000001
 43
0.0000000001
 12
1.0
 22
0.0
 32
0.0
 13
1.0
 23
0.0
 33
0.0
 40
0.0
 40
0.0
 40
0.0
 40
0.0
 40
1.0
 40
1.0
 40
1.0
 40
2.0
 40
2.0
 40
2.0
 40
3.0
 40
3.0
 40
3.0
 40
4.0
 40
4.0
 40
4.0
 40
5.0
 40
5.0
 40
5.0
 40
6.0
 40
6.0
 40
6.0
 40
7.0
 40
7.0
 40
7.0
 40
8.0
 40
8.0
 40
8.0
 40
9.0
 40
9.0
 40
9.0
 40
9.0
 10
91.81317272010227
 20
-145.1353271121537
 30
0.0
 10
91.62782658299582
 20
-145.1353271121537
 30
0.0
 10
91.36565481656831
 20
-145.0657361833516
 30
0.0
 10
91.32500268984236
 20
-144.7336289785735
 30
0.0
 10
91.32500268984236
 20
-144.7336289785735
 30
0.0
 10
91.5530680109659
 20
-144.7336289785735
 30
0.0
 10
91.5530680109659
 20
-144.7336289785735
 30
0.0
 10
91.56443682606722
 20
-144.7928846209198
 30
0.0
 10
91.5985432713712
 20
-144.9406792172371
 30
0.0
 10
91.81558428694194
 20
-144.9406792172371
 30
0.0
 10
92.12736542835705
 20
-144.9406792172371
 30
0.0
 10
92.168017555083
 20
-144.6106390697501
 30
0.0
 10
92.181797937024
 20
-144.4056558883778
 30
0.0
 10
92.08464624433995
 20
-144.4859266131841
 30
0.0
 10
92.01229923914971
 20
-144.5431151982392
 30
0.0
 10
91.81765134423308
 20
-144.5431151982392
 30
0.0
 10
91.62541501615615
 20
-144.5431151982392
 30
0.0
 10
91.30226505963972
 20
-144.4373507668421
 30
0.0
 10
91.30226505963972
 20
-144.0311740091311
 30
0.0
 10
91.30226505963972
 20
-143.7118136576484
 30
0.0
 10
91.51482745107963
 20
-143.491672056141
 30
0.0
 10
91.85382484682822
 20
-143.491672056141
 30
0.0
 10
92.40331757672557
 20
-143.491672056141
 30
0.0
 10
92.41468639182689
 20
-144.0459879197177
 30
0.0
 10
92.41468639182689
 20
-144.2595838398032
 30
0.0
 10
92.41468639182689
 20
-144.4900607277664
 30
0.0
 10
92.39436032846392
 20
-145.1353271121537
 30
0.0
 10
91.81317272010227
 20
-145.1353271121537
 30
0.0
  0
SPLINE
  5
141
330
13A
100
AcDbEntity
  8
_U+30EC_U+30A4_U+30E4_U+30FC 1
370
     0
100
AcDbSpline
210
0.0
220
0.0
230
1.0
 70
    11
 71
     3
 72
    17
 73
    13
 74
     0
 42
0.0000000001
 43
0.0000000001
 12
1.0
 22
0.0
 32
0.0
 13
1.0
 23
0.0
 33
0.0
 40
0.0
 40
0.0
 40
0.0
 40
0.0
 40
1.0
 40
1.0
 40
1.0
 40
2.0
 40
2.0
 40
2.0
 40
3.0
 40
3.0
 40
3.0
 40
4.0
 40
4.0
 40
4.0
 40
4.0
 10
91.85623641366789
 20
-143.6842528937665
 30
0.0
 10
91.7294568998107
 20
-143.6842528937665
 30
0.0
 10
91.5420437054131
 20
-143.7414414788216
 30
0.0
 10
91.5420437054131
 20
-144.0270398945488
 30
0.0
 10
91.5420437054131
 20
-144.2533826679297
 30
0.0
 10
91.69121633992442
 20
-144.3484673033226
 30
0.0
 10
91.83591035030491
 20
-144.3484673033226
 30
0.0
 10
92.11634112280426
 20
-144.3484673033226
 30
0.0
 10
92.1569932495302
 20
-144.1390054978194
 30
0.0
 10
92.1569932495302
 20
-144.022561270418
 30
0.0
 10
92.1569932495302
 20
-143.8472059102187
 30
0.0
 10
92.0550184231668
 20
-143.6842528937665
 30
0.0
 10
91.85623641366789
 20
-143.6842528937665
 30
0.0
  0
HATCH
  5
142
330
13A
100
AcDbEntity
  8
_U+30EC_U+30A4_U+30E4_U+30FC 1
 62
     7
420
 16777215
100
AcDbHatch
 10
0.0
 20
0.0
 30
0.0
210
0.0
220
0.0
230
1.0
  2
SOLID
 70
     1
 71
     0
 91
        2
 92
        1
 93
        1
 72
     4
 94
        3
 73
     0
 74
     1
 95
       32
 96
       28
 40
0.0
 40
0.0
 40
0.0
 40
0.0
 40
1.0
 40
1.0
 40
1.0
 40
2.0
 40
2.0
 40
2.0
 40
3.0
 40
3.0
 40
3.0
 40
4.0
 40
4.0
 40
4.0
 40
5.0
 40
5.0
 40
5.0
 40
6.0
 40
6.0
 40
6.0
 40
7.0
 40
7.0
 40
7.0
 40
8.0
 40
8.0
 40
8.0
 40
9.0
 40
9.0
 40
9.0
 40
9.0
 10
91.81317272010227
 20
-145.1353271121537
 10
91.62782658299582
 20
-145.1353271121537
 10
91.36565481656831
 20
-145.0657361833516
 10
91.32500268984236
 20
-144.7336289785735
 10
91.32500268984236
 20
-144.7336289785735
 10
91.5530680109659
 20
-144.7336289785735
 10
91.5530680109659
 20
-144.7336289785735
 10
91.56443682606722
 20
-144.7928846209198
 10
91.5985432713712
 20
-144.9406792172371
 10
91.81558428694194
 20
-144.9406792172371
 10
92.12736542835705
 20
-144.9406792172371
 10
92.168017555083
 20
-144.6106390697501
 10
92.181797937024
 20
-144.4056558883778
 10
92.08464624433995
 20
-144.4859266131841
 10
92.01229923914971
 20
-144.5431151982392
 10
91.81765134423308
 20
-144.5431151982392
 10
91.62541501615615
 20
-144.5431151982392
 10
91.30226505963972
 20
-144.4373507668421
 10
91.30226505963972
 20
-144.0311740091311
 10
91.30226505963972
 20
-143.7118136576484
 10
91.51482745107963
 20
-143.491672056141
 10
91.85382484682822
 20
-143.491672056141
 10
92.40331757672557
 20
-143.491672056141
 10
92.41468639182689
 20
-144.0459879197177
 10
92.41468639182689
 20
-144.2595838398032
 10
92.41468639182689
 20
-144.4900607277664
 10
92.39436032846392
 20
-145.1353271121537
 10
91.81317272010227
 20
-145.1353271121537
 97
        0
 97
        0
 92
        1
 93
        1
 72
     4
 94
        3
 73
     0
 74
     1
 95
       17
 96
       13
 40
0.0
 40
0.0
 40
0.0
 40
0.0
 40
1.0
 40
1.0
 40
1.0
 40
2.0
 40
2.0
 40
2.0
 40
3.0
 40
3.0
 40
3.0
 40
4.0
 40
4.0
 40
4.0
 40
4.0
 10
91.85623641366789
 20
-143.6842528937665
 10
91.7294568998107
 20
-143.6842528937665
 10
91.5420437054131
 20
-143.7414414788216
 10
91.5420437054131
 20
-144.0270398945488
 10
91.5420437054131
 20
-144.2533826679297
 10
91.69121633992442
 20
-144.3484673033226
 10
91.83591035030491
 20
-144.3484673033226
 10
92.11634112280426
 20
-144.3484673033226
 10
92.1569932495302
 20
-144.1390054978194
 10
92.1569932495302
 20
-144.022561270418
 10
92.1569932495302
 20
-143.8472059102187
 10
92.0550184231668
 20
-143.6842528937665
 10
91.85623641366789
 20
-143.6842528937665
 97
        0
 97
        0
 75
     2
 76
     1
 98
        0
  0
ENDBLK
  5
13D
330
13A
100
AcDbEntity
  8
0
100
AcDbBlockEnd
  0
BLOCK
  5
149
330
147
100
AcDbEntity
  8
0
100
AcDbBlockBegin
  2
block 8
 70
     0
 10
0.0
 20
0.0
 30
0.0
  3
block 8
  1

  0
SPLINE
  5
14B
330
147
100
AcDbEntity
  8
_U+30EC_U+30A4_U+30E4_U+30FC 1
370
     0
100
AcDbSpline
210
0.0
220
0.0
230
1.0
 70
    11
 71
     3
 72
    26
 73
    22
 74
     0
 42
0.0000000001
 43
0.0000000001
 12
1.0
 22
0.0
 32
0.0
 13
1.0
 23
0.0
 33
0.0
 40
0.0
 40
0.0
 40
0.0
 40
0.0
 40
1.0
 40
1.0
 40
1.0
 40
2.0
 40
2.0
 40
2.0
 40
3.0
 40
3.0
 40
3.0
 40
4.0
 40
4.0
 40
4.0
 40
5.0
 40
5.0
 40
5.0
 40
6.0
 40
6.0
 40
6.0
 40
7.0
 40
7.0
 40
7.0
 40
7.0
 10
76.08682859425954
 20
-112.5910603559668
 30
0.0
 10
76.08682859425954
 20
-112.5910603559668
 30
0.0
 10
76.08682859425954
 20
-111.48673499817
 30
0.0
 10
76.08682859425954
 20
-111.48673499817
 30
0.0
 10
76.08682859425954
 20
-111.48673499817
 30
0.0
 10
75.73405081656996
 20
-111.48673499817
 30
0.0
 10
75.73405081656996
 20
-111.48673499817
 30
0.0
 10
75.73405081656996
 20
-111.48673499817
 30
0.0
 10
75.73405081656996
 20
-111.3385958923042
 30
0.0
 10
75.73405081656996
 20
-111.3385958923042
 30
0.0
 10
76.08906790632496
 20
-111.3239542364919
 30
0.0
 10
76.13884953608682
 20
-111.1610012200396
 30
0.0
 10
76.17037215977686
 20
-111.0467963047036
 30
0.0
 10
76.17037215977686
 20
-111.0467963047036
 30
0.0
 10
76.32643498525867
 20
-111.0467963047036
 30
0.0
 10
76.32643498525867
 20
-111.0467963047036
 30
0.0
 10
76.32643498525867
 20
-111.0467963047036
 30
0.0
 10
76.32643498525867
 20
-112.5910603559668
 30
0.0
 10
76.32643498525867
 20
-112.5910603559668
 30
0.0
 10
76.32643498525867
 20
-112.5910603559668
 30
0.0
 10
76.08682859425954
 20
-112.5910603559668
 30
0.0
 10
76.08682859425954
 20
-112.5910603559668
 30
0.0
  0
HATCH
  5
14C
330
147
100
AcDbEntity
  8
_U+30EC_U+30A4_U+30E4_U+30FC 1
 62
     7
420
 16777215
100
AcDbHatch
 10
0.0
 20
0.0
 30
0.0
210
0.0
220
0.0
230
1.0
  2
SOLID
 70
     1
 71
     0
 91
        1
 92
        1
 93
        1
 72
     4
 94
        3
 73
     0
 74
     1
 95
       26
 96
       22
 40
0.0
 40
0.0
 40
0.0
 40
0.0
 40
1.0
 40
1.0
 40
1.0
 40
2.0
 40
2.0
 40
2.0
 40
3.0
 40
3.0
 40
3.0
 40
4.0
 40
4.0
 40
4.0
 40
5.0
 40
5.0
 40
5.0
 40
6.0
 40
6.0
 40
6.0
 40
7.0
 40
7.0
 40
7.0
 40
7.0
 10
76.08682859425954
 20
-112.5910603559668
 10
76.08682859425954
 20
-112.5910603559668
 10
76.08682859425954
 20
-111.48673499817
 10
76.08682859425954
 20
-111.48673499817
 10
76.08682859425954
 20
-111.48673499817
 10
75.73405081656996
 20
-111.48673499817
 10
75.73405081656996
 20
-111.48673499817
 10
75.73405081656996
 20
-111.48673499817
 10
75.73405081656996
 20
-111.3385958923042
 10
75.73405081656996
 20
-111.3385958923042
 10
76.08906790632496
 20
-111.3239542364919
 10
76.13884953608682
 20
-111.1610012200396
 10
76.17037215977686
 20
-111.0467963047036
 10
76.17037215977686
 20
-111.0467963047036
 10
76.32643498525867
 20
-111.0467963047036
 10
76.32643498525867
 20
-111.0467963047036
 10
76.32643498525867
 20
-111.0467963047036
 10
76.32643498525867
 20
-112.5910603559668
 10
76.32643498525867
 20
-112.5910603559668
 10
76.32643498525867
 20
-112.5910603559668
 10
76.08682859425954
 20
-112.5910603559668
 10
76.08682859425954
 20
-112.5910603559668
 97
        0
 97
        0
 75
     2
 76
     1
 98
        0
  0
ENDBLK
  5
14A
330
147
100
AcDbEntity
  8
0
100
AcDbBlockEnd
  0
ENDSEC
  0
SECTION
  2
ENTITIES
  0
SPLINE
  5
41
330
1F
100
AcDbEntity
  8
_U+30EC_U+30A4_U+30E4_U+30FC 1
370
     0
100
AcDbSpline
210
0.0
220
0.0
230
1.0
 70
    11
 71
     3
 72
    74
 73
    70
 74
     0
 42
0.0000000001
 43
0.0000000001
 12
1.0
 22
0.0
 32
0.0
 13
1.0
 23
0.0
 33
0.0
 40
0.0
 40
0.0
 40
0.0
 40
0.0
 40
1.0
 40
1.0
 40
1.0
 40
2.0
 40
2.0
 40
2.0
 40
3.0
 40
3.0
 40
3.0
 40
4.0
 40
4.0
 40
4.0
 40
5.0
 40
5.0
 40
5.0
 40
6.0
 40
6.0
 40
6.0
 40
7.0
 40
7.0
 40
7.0
 40
8.0
 40
8.0
 40
8.0
 40
9.0
 40
9.0
 40
9.0
 40
10.0
 40
10.0
 40
10.0
 40
11.0
 40
11.0
 40
11.0
 40
12.0
 40
12.0
 40
12.0
 40
13.0
 40
13.0
 40
13.0
 40
14.0
 40
14.0
 40
14.0
 40
15.0
 40
15.0
 40
15.0
 40
16.0
 40
16.0
 40
16.0
 40
17.0
 40
17.0
 40
17.0
 40
18.0
 40
18.0
 40
18.0
 40
19.0
 40
19.0
 40
19.0
 40
20.0
 40
20.0
 40
20.0
 40
21.0
 40
21.0
 40
21.0
 40
22.0
 40
22.0
 40
22.0
 40
23.0
 40
23.0
 40
23.0
 40
23.0
 10
106.14303423651
 20
-141.1810316313717
 30
0.0
 10
106.14303423651
 20
-141.1810316313717
 30
0.0
 10
96.64354031219565
 20
-141.1810316313717
 30
0.0
 10
96.64354031219565
 20
-141.1810316313717
 30
0.0
 10
96.64354031219565
 20
-141.1810316313717
 30
0.0
 10
95.26964729169103
 20
-140.6811807981632
 30
0.0
 10
95.26964729169103
 20
-140.6811807981632
 30
0.0
 10
95.26964729169103
 20
-140.6811807981632
 30
0.0
 10
81.55745764151813
 20
-140.6811807981632
 30
0.0
 10
81.55745764151813
 20
-140.6811807981632
 30
0.0
 10
81.55745764151813
 20
-140.6811807981632
 30
0.0
 10
80.27451072980439
 20
-139.3981985762617
 30
0.0
 10
80.27451072980439
 20
-139.3981985762617
 30
0.0
 10
80.27451072980439
 20
-139.3981985762617
 30
0.0
 10
89.49153549465849
 20
-130.1812088563433
 30
0.0
 10
89.49153549465849
 20
-130.1812088563433
 30
0.0
 10
89.49153549465849
 20
-130.1812088563433
 30
0.0
 10
96.64354031219565
 20
-130.1812088563433
 30
0.0
 10
96.64354031219565
 20
-130.1812088563433
 30
0.0
 10
96.64354031219565
 20
-130.1812088563433
 30
0.0
 10
96.64354031219565
 20
-129.6809699675796
 30
0.0
 10
96.64354031219565
 20
-129.6809699675796
 30
0.0
 10
96.64354031219565
 20
-129.6809699675796
 30
0.0
 10
94.64332564100316
 20
-129.1810838565937
 30
0.0
 10
94.64332564100316
 20
-129.1810838565937
 30
0.0
 10
94.64332564100316
 20
-129.1810838565937
 30
0.0
 10
89.64308882412539
 20
-129.1810838565937
 30
0.0
 10
89.64308882412539
 20
-129.1810838565937
 30
0.0
 10
89.64308882412539
 20
-129.1810838565937
 30
0.0
 10
89.64308882412539
 20
-124.1812349689546
 30
0.0
 10
89.64308882412539
 20
-124.1812349689546
 30
0.0
 10
89.64308882412539
 20
-124.1812349689546
 30
0.0
 10
89.1435555035362
 20
-122.1809849694547
 30
0.0
 10
89.1435555035362
 20
-122.1809849694547
 30
0.0
 10
89.1435555035362
 20
-122.1809849694547
 30
0.0
 10
88.64335190518635
 20
-122.1809849694547
 30
0.0
 10
88.64335190518635
 20
-122.1809849694547
 30
0.0
 10
88.64335190518635
 20
-122.1809849694547
 30
0.0
 10
88.64335190518635
 20
-129.3326724676671
 30
0.0
 10
88.64335190518635
 20
-129.3326724676671
 30
0.0
 10
88.64335190518635
 20
-129.3326724676671
 30
0.0
 10
79.42632714033225
 20
-138.5496974653623
 30
0.0
 10
79.42632714033225
 20
-138.5496974653623
 30
0.0
 10
79.42632714033225
 20
-138.5496974653623
 30
0.0
 10
78.1433802286185
 20
-137.2670680212385
 30
0.0
 10
78.1433802286185
 20
-137.2670680212385
 30
0.0
 10
78.1433802286185
 20
-137.2670680212385
 30
0.0
 10
78.1433802286185
 20
-123.5549133024447
 30
0.0
 10
78.1433802286185
 20
-123.5549133024447
 30
0.0
 10
78.1433802286185
 20
-123.5549133024447
 30
0.0
 10
77.64314135249177
 20
-122.1809849694547
 30
0.0
 10
77.64314135249177
 20
-122.1809849694547
 30
0.0
 10
77.64314135249177
 20
-122.1809849694547
 30
0.0
 10
77.64314135249177
 20
-117.6810221928019
 30
0.0
 10
77.64314135249177
 20
-117.6810221928019
 30
0.0
 10
77.64314135249177
 20
-117.4047266373155
 30
0.0
 10
77.41923330264859
 20
-117.181136081816
 30
0.0
 10
77.14293775414191
 20
-117.181136081816
 30
0.0
 10
77.14293775414191
 20
-117.181136081816
 30
0.0
 10
77.14293775414191
 20
-137.6811585766907
 30
0.0
 10
77.14293775414191
 20
-137.6811585766907
 30
0.0
 10
77.14293775414191
 20
-137.6811585766907
 30
0.0
 10
81.1433670965269
 20
-141.6812705201354
 30
0.0
 10
81.1433670965269
 20
-141.6812705201354
 30
0.0
 10
81.1433670965269
 20
-141.6812705201354
 30
0.0
 10
106.6432731126368
 20
-141.6812705201354
 30
0.0
 10
106.6432731126368
 20
-141.6812705201354
 30
0.0
 10
106.6432731126368
 20
-141.4049749646489
 30
0.0
 10
106.4193297850167
 20
-141.1810316313717
 30
0.0
 10
106.14303423651
 20
-141.1810316313717
 30
0.0
  0
HATCH
  5
42
330
1F
100
AcDbEntity
  8
_U+30EC_U+30A4_U+30E4_U+30FC 1
 62
   253
420
 11711154
100
AcDbHatch
 10
0.0
 20
0.0
 30
0.0
210
0.0
220
0.0
230
1.0
  2
SOLID
 70
     1
 71
     0
 91
        1
 92
        1
 93
        1
 72
     4
 94
        3
 73
     0
 74
     1
 95
       74
 96
       70
 40
0.0
 40
0.0
 40
0.0
 40
0.0
 40
1.0
 40
1.0
 40
1.0
 40
2.0
 40
2.0
 40
2.0
 40
3.0
 40
3.0
 40
3.0
 40
4.0
 40
4.0
 40
4.0
 40
5.0
 40
5.0
 40
5.0
 40
6.0
 40
6.0
 40
6.0
 40
7.0
 40
7.0
 40
7.0
 40
8.0
 40
8.0
 40
8.0
 40
9.0
 40
9.0
 40
9.0
 40
10.0
 40
10.0
 40
10.0
 40
11.0
 40
11.0
 40
11.0
 40
12.0
 40
12.0
 40
12.0
 40
13.0
 40
13.0
 40
13.0
 40
14.0
 40
14.0
 40
14.0
 40
15.0
 40
15.0
 40
15.0
 40
16.0
 40
16.0
 40
16.0
 40
17.0
 40
17.0
 40
17.0
 40
18.0
 40
18.0
 40
18.0
 40
19.0
 40
19.0
 40
19.0
 40
20.0
 40
20.0
 40
20.0
 40
21.0
 40
21.0
 40
21.0
 40
22.0
 40
22.0
 40
22.0
 40
23.0
 40
23.0
 40
23.0
 40
23.0
 10
106.14303423651
 20
-141.1810316313717
 10
106.14303423651
 20
-141.1810316313717
 10
96.64354031219565
 20
-141.1810316313717
 10
96.64354031219565
 20
-141.1810316313717
 10
96.64354031219565
 20
-141.1810316313717
 10
95.26964729169103
 20
-140.6811807981632
 10
95.26964729169103
 20
-140.6811807981632
 10
95.26964729169103
 20
-140.6811807981632
 10
81.55745764151813
 20
-140.6811807981632
 10
81.55745764151813
 20
-140.6811807981632
 10
81.55745764151813
 20
-140.6811807981632
 10
80.27451072980439
 20
-139.3981985762617
 10
80.27451072980439
 20
-139.3981985762617
 10
80.27451072980439
 20
-139.3981985762617
 10
89.49153549465849
 20
-130.1812088563433
 10
89.49153549465849
 20
-130.1812088563433
 10
89.49153549465849
 20
-130.1812088563433
 10
96.64354031219565
 20
-130.1812088563433
 10
96.64354031219565
 20
-130.1812088563433
 10
96.64354031219565
 20
-130.1812088563433
 10
96.64354031219565
 20
-129.6809699675796
 10
96.64354031219565
 20
-129.6809699675796
 10
96.64354031219565
 20
-129.6809699675796
 10
94.64332564100316
 20
-129.1810838565937
 10
94.64332564100316
 20
-129.1810838565937
 10
94.64332564100316
 20
-129.1810838565937
 10
89.64308882412539
 20
-129.1810838565937
 10
89.64308882412539
 20
-129.1810838565937
 10
89.64308882412539
 20
-129.1810838565937
 10
89.64308882412539
 20
-124.1812349689546
 10
89.64308882412539
 20
-124.1812349689546
 10
89.64308882412539
 20
-124.1812349689546
 10
89.1435555035362
 20
-122.1809849694547
 10
89.1435555035362
 20
-122.1809849694547
 10
89.1435555035362
 20
-122.1809849694547
 10
88.64335190518635
 20
-122.1809849694547
 10
88.64335190518635
 20
-122.1809849694547
 10
88.64335190518635
 20
-122.1809849694547
 10
88.64335190518635
 20
-129.3326724676671
 10
88.64335190518635
 20
-129.3326724676671
 10
88.64335190518635
 20
-129.3326724676671
 10
79.42632714033225
 20
-138.5496974653623
 10
79.42632714033225
 20
-138.5496974653623
 10
79.42632714033225
 20
-138.5496974653623
 10
78.1433802286185
 20
-137.2670680212385
 10
78.1433802286185
 20
-137.2670680212385
 10
78.1433802286185
 20
-137.2670680212385
 10
78.1433802286185
 20
-123.5549133024447
 10
78.1433802286185
 20
-123.5549133024447
 10
78.1433802286185
 20
-123.5549133024447
 10
77.64314135249177
 20
-122.1809849694547
 10
77.64314135249177
 20
-122.1809849694547
 10
77.64314135249177
 20
-122.1809849694547
 10
77.64314135249177
 20
-117.6810221928019
 10
77.64314135249177
 20
-117.6810221928019
 10
77.64314135249177
 20
-117.4047266373155
 10
77.41923330264859
 20
-117.181136081816
 10
77.14293775414191
 20
-117.181136081816
 10
77.14293775414191
 20
-117.181136081816
 10
77.14293775414191
 20
-137.6811585766907
 10
77.14293775414191
 20
-137.6811585766907
 10
77.14293775414191
 20
-137.6811585766907
 10
81.1433670965269
 20
-141.6812705201354
 10
81.1433670965269
 20
-141.6812705201354
 10
81.1433670965269
 20
-141.6812705201354
 10
106.6432731126368
 20
-141.6812705201354
 10
106.6432731126368
 20
-141.6812705201354
 10
106.6432731126368
 20
-141.4049749646489
 10
106.4193297850167
 20
-141.1810316313717
 10
106.14303423651
 20
-141.1810316313717
 97
        0
 97
        0
 75
     2
 76
     1
 98
        0
  0
POLYLINE
  5
43
330
1F
100
AcDbEntity
  8
_U+30EC_U+30A4_U+30E4_U+30FC 1
 62
     7
420
 16777215
370
    25
100
AcDb2dPolyline
 66
     1
 10
0.0
 20
0.0
 30
0.0
  0
VERTEX
  5
44
330
43
100
AcDbEntity
  8
_U+30EC_U+30A4_U+30E4_U+30FC 1
 62
     7
420
 16777215
370
    25
100
AcDbVertex
100
AcDb2dVertex
 10
77.14293775414191
 20
-117.181136081816
 30
0.0
  0
VERTEX
  5
45
330
43
100
AcDbEntity
  8
_U+30EC_U+30A4_U+30E4_U+30FC 1
 62
     7
420
 16777215
370
    25
100
AcDbVertex
100
AcDb2dVertex
 10
77.14293775414191
 20
-137.6811585766907
 30
0.0
  0
SEQEND
  5
46
330
43
100
AcDbEntity
  8
_U+30EC_U+30A4_U+30E4_U+30FC 1
 62
     7
420
 16777215
370
    25
  0
POLYLINE
  5
47
330
1F
100
AcDbEntity
  8
_U+30EC_U+30A4_U+30E4_U+30FC 1
 62
     7
420
 16777215
370
    25
100
AcDb2dPolyline
 66
     1
 10
0.0
 20
0.0
 30
0.0
  0
VERTEX
  5
48
330
47
100
AcDbEntity
  8
_U+30EC_U+30A4_U+30E4_U+30FC 1
 62
     7
420
 16777215
370
    25
100
AcDbVertex
100
AcDb2dVertex
 10
81.1433670965269
 20
-141.6812705201354
 30
0.0
  0
VERTEX
  5
49
330
47
100
AcDbEntity
  8
_U+30EC_U+30A4_U+30E4_U+30FC 1
 62
     7
420
 16777215
370
    25
100
AcDbVertex
100
AcDb2dVertex
 10
77.14293775414191
 20
-137.6811585766907
 30
0.0
  0
SEQEND
  5
4A
330
47
100
AcDbEntity
  8
_U+30EC_U+30A4_U+30E4_U+30FC 1
 62
     7
420
 16777215
370
    25
  0
POLYLINE
  5
4B
330
1F
100
AcDbEntity
  8
_U+30EC_U+30A4_U+30E4_U+30FC 1
 62
     7
420
 16777215
370
    25
100
AcDb2dPolyline
 66
     1
 10
0.0
 20
0.0
 30
0.0
  0
VERTEX
  5
4C
330
4B
100
AcDbEntity
  8
_U+30EC_U+30A4_U+30E4_U+30FC 1
 62
     7
420
 16777215
370
    25
100
AcDbVertex
100
AcDb2dVertex
 10
78.1433802286185
 20
-123.5549133024447
 30
0.0
  0
VERTEX
  5
4D
330
4B
100
AcDbEntity
  8
_U+30EC_U+30A4_U+30E4_U+30FC 1
 62
     7
420
 16777215
370
    25
100
AcDbVertex
100
AcDb2dVertex
 10
78.1433802286185
 20
-137.2670680212385
 30
0.0
  0
SEQEND
  5
4E
330
4B
100
AcDbEntity
  8
_U+30EC_U+30A4_U+30E4_U+30FC 1
 62
     7
420
 16777215
370
    25
  0
POLYLINE
  5
4F
330
1F
100
AcDbEntity
  8
_U+30EC_U+30A4_U+30E4_U+30FC 1
 62
     7
420
 16777215
370
    25
100
AcDb2dPolyline
 66
     1
 10
0.0
 20
0.0
 30
0.0
  0
VERTEX
  5
50
330
4F
100
AcDbEntity
  8
_U+30EC_U+30A4_U+30E4_U+30FC 1
 62
     7
420
 16777215
370
    25
100
AcDbVertex
100
AcDb2dVertex
 10
81.55745764151813
 20
-140.6811807981632
 30
0.0
  0
VERTEX
  5
51
330
4F
100
AcDbEntity
  8
_U+30EC_U+30A4_U+30E4_U+30FC 1
 62
     7
420
 16777215
370
    25
100
AcDbVertex
100
AcDb2dVertex
 10
95.26964729169103
 20
-140.6811807981632
 30
0.0
  0
SEQEND
  5
52
330
4F
100
AcDbEntity
  8
_U+30EC_U+30A4_U+30E4_U+30FC 1
 62
     7
420
 16777215
370
    25
  0
POLYLINE
  5
53
330
1F
100
AcDbEntity
  8
_U+30EC_U+30A4_U+30E4_U+30FC 1
 62
     7
420
 16777215
370
    25
100
AcDb2dPolyline
 66
     1
 10
0.0
 20
0.0
 30
0.0
  0
VERTEX
  5
54
330
53
100
AcDbEntity
  8
_U+30EC_U+30A4_U+30E4_U+30FC 1
 62
     7
420
 16777215
370
    25
100
AcDbVertex
100
AcDb2dVertex
 10
88.64335190518635
 20
-122.1809849694547
 30
0.0
  0
VERTEX
  5
55
330
53
100
AcDbEntity
  8
_U+30EC_U+30A4_U+30E4_U+30FC 1
 62
     7
420
 16777215
370
    25
100
AcDbVertex
100
AcDb2dVertex
 10
88.64335190518635
 20
-129.3326724676671
 30
0.0
  0
SEQEND
  5
56
330
53
100
AcDbEntity
  8
_U+30EC_U+30A4_U+30E4_U+30FC 1
 62
     7
420
 16777215
370
    25
  0
POLYLINE
  5
57
330
1F
100
AcDbEntity
  8
_U+30EC_U+30A4_U+30E4_U+30FC 1
 62
     7
420
 16777215
370
    25
100
AcDb2dPolyline
 66
     1
 10
0.0
 20
0.0
 30
0.0
  0
VERTEX
  5
58
330
57
100
AcDbEntity
  8
_U+30EC_U+30A4_U+30E4_U+30FC 1
 62
     7
420
 16777215
370
    25
100
AcDbVertex
100
AcDb2dVertex
 10
89.49153549465849
 20
-130.1812088563433
 30
0.0
  0
VERTEX
  5
59
330
57
100
AcDbEntity
  8
_U+30EC_U+30A4_U+30E4_U+30FC 1
 62
     7
420
 16777215
370
    25
100
AcDbVertex
100
AcDb2dVertex
 10
96.64354031219565
 20
-130.1812088563433
 30
0.0
  0
SEQEND
  5
5A
330
57
100
AcDbEntity
  8
_U+30EC_U+30A4_U+30E4_U+30FC 1
 62
     7
420
 16777215
370
    25
  0
POLYLINE
  5
5B
330
1F
100
AcDbEntity
  8
_U+30EC_U+30A4_U+30E4_U+30FC 1
 62
     7
420
 16777215
370
    25
100
AcDb2dPolyline
 66
     1
 10
0.0
 20
0.0
 30
0.0
  0
VERTEX
  5
5C
330
5B
100
AcDbEntity
  8
_U+30EC_U+30A4_U+30E4_U+30FC 1
 62
     7
420
 16777215
370
    25
100
AcDbVertex
100
AcDb2dVertex
 10
77.64314135249177
 20
-117.6810221928019
 30
0.0
  0
VERTEX
  5
5D
330
5B
100
AcDbEntity
  8
_U+30EC_U+30A4_U+30E4_U+30FC 1
 62
     7
420
 16777215
370
    25
100
AcDbVertex
100
AcDb2dVertex
 10
77.64314135249177
 20
-122.1809849694547
 30
0.0
  0
SEQEND
  5
5E
330
5B
100
AcDbEntity
  8
_U+30EC_U+30A4_U+30E4_U+30FC 1
 62
     7
420
 16777215
370
    25
  0
POLYLINE
  5
5F
330
1F
100
AcDbEntity
  8
_U+30EC_U+30A4_U+30E4_U+30FC 1
 62
     7
420
 16777215
370
    25
100
AcDb2dPolyline
 66
     1
 10
0.0
 20
0.0
 30
0.0
  0
VERTEX
  5
60
330
5F
100
AcDbEntity
  8
_U+30EC_U+30A4_U+30E4_U+30FC 1
 62
     7
420
 16777215
370
    25
100
AcDbVertex
100
AcDb2dVertex
 10
78.1433802286185
 20
-123.5549133024447
 30
0.0
  0
VERTEX
  5
61
330
5F
100
AcDbEntity
  8
_U+30EC_U+30A4_U+30E4_U+30FC 1
 62
     7
420
 16777215
370
    25
100
AcDbVertex
100
AcDb2dVertex
 10
77.64314135249177
 20
-122.1809849694547
 30
0.0
  0
SEQEND
  5
62
330
5F
100
AcDbEntity
  8
_U+30EC_U+30A4_U+30E4_U+30FC 1
 62
     7
420
 16777215
370
    25
  0
POLYLINE
  5
63
330
1F
100
AcDbEntity
  8
_U+30EC_U+30A4_U+30E4_U+30FC 1
 62
     7
420
 16777215
370
    25
100
AcDb2dPolyline
 66
     1
 10
0.0
 20
0.0
 30
0.0
  0
VERTEX
  5
64
330
63
100
AcDbEntity
  8
_U+30EC_U+30A4_U+30E4_U+30FC 1
 62
     7
420
 16777215
370
    25
100
AcDbVertex
100
AcDb2dVertex
 10
96.64354031219565
 20
-141.1810316313717
 30
0.0
  0
VERTEX
  5
65
330
63
100
AcDbEntity
  8
_U+30EC_U+30A4_U+30E4_U+30FC 1
 62
     7
420
 16777215
370
    25
100
AcDbVertex
100
AcDb2dVertex
 10
106.14303423651
 20
-141.1810316313717
 30
0.0
  0
SEQEND
  5
66
330
63
100
AcDbEntity
  8
_U+30EC_U+30A4_U+30E4_U+30FC 1
 62
     7
420
 16777215
370
    25
  0
POLYLINE
  5
67
330
1F
100
AcDbEntity
  8
_U+30EC_U+30A4_U+30E4_U+30FC 1
 62
     7
420
 16777215
370
    25
100
AcDb2dPolyline
 66
     1
 10
0.0
 20
0.0
 30
0.0
  0
VERTEX
  5
68
330
67
100
AcDbEntity
  8
_U+30EC_U+30A4_U+30E4_U+30FC 1
 62
     7
420
 16777215
370
    25
100
AcDbVertex
100
AcDb2dVertex
 10
95.26964729169103
 20
-140.6811807981632
 30
0.0
  0
VERTEX
  5
69
330
67
100
AcDbEntity
  8
_U+30EC_U+30A4_U+30E4_U+30FC 1
 62
     7
420
 16777215
370
    25
100
AcDbVertex
100
AcDb2dVertex
 10
96.64354031219565
 20
-141.1810316313717
 30
0.0
  0
SEQEND
  5
6A
330
67
100
AcDbEntity
  8
_U+30EC_U+30A4_U+30E4_U+30FC 1
 62
     7
420
 16777215
370
    25
  0
POLYLINE
  5
6B
330
1F
100
AcDbEntity
  8
_U+30EC_U+30A4_U+30E4_U+30FC 1
 62
     7
420
 16777215
370
    25
100
AcDb2dPolyline
 66
     1
 10
0.0
 20
0.0
 30
0.0
  0
VERTEX
  5
6C
330
6B
100
AcDbEntity
  8
_U+30EC_U+30A4_U+30E4_U+30FC 1
 62
     7
420
 16777215
370
    25
100
AcDbVertex
100
AcDb2dVertex
 10
81.1433670965269
 20
-141.6812705201354
 30
0.0
  0
VERTEX
  5
6D
330
6B
100
AcDbEntity
  8
_U+30EC_U+30A4_U+30E4_U+30FC 1
 62
     7
420
 16777215
370
    25
100
AcDbVertex
100
AcDb2dVertex
 10
106.6432731126368
 20
-141.6812705201354
 30
0.0
  0
SEQEND
  5
6E
330
6B
100
AcDbEntity
  8
_U+30EC_U+30A4_U+30E4_U+30FC 1
 62
     7
420
 16777215
370
    25
  0
POLYLINE
  5
6F
330
1F
100
AcDbEntity
  8
_U+30EC_U+30A4_U+30E4_U+30FC 1
 62
     7
420
 16777215
370
    25
100
AcDb2dPolyline
 66
     1
 10
0.0
 20
0.0
 30
0.0
  0
VERTEX
  5
70
330
6F
100
AcDbEntity
  8
_U+30EC_U+30A4_U+30E4_U+30FC 1
 62
     7
420
 16777215
370
    25
100
AcDbVertex
100
AcDb2dVertex
 10
81.55745764151813
 20
-140.6811807981632
 30
0.0
  0
VERTEX
  5
71
330
6F
100
AcDbEntity
  8
_U+30EC_U+30A4_U+30E4_U+30FC 1
 62
     7
420
 16777215
370
    25
100
AcDbVertex
100
AcDb2dVertex
 10
80.27451072980439
 20
-139.3981985762617
 30
0.0
  0
SEQEND
  5
72
330
6F
100
AcDbEntity
  8
_U+30EC_U+30A4_U+30E4_U+30FC 1
 62
     7
420
 16777215
370
    25
  0
POLYLINE
  5
73
330
1F
100
AcDbEntity
  8
_U+30EC_U+30A4_U+30E4_U+30FC 1
 62
     7
420
 16777215
370
    25
100
AcDb2dPolyline
 66
     1
 10
0.0
 20
0.0
 30
0.0
  0
VERTEX
  5
74
330
73
100
AcDbEntity
  8
_U+30EC_U+30A4_U+30E4_U+30FC 1
 62
     7
420
 16777215
370
    25
100
AcDbVertex
100
AcDb2dVertex
 10
79.42632714033225
 20
-138.5496974653623
 30
0.0
  0
VERTEX
  5
75
330
73
100
AcDbEntity
  8
_U+30EC_U+30A4_U+30E4_U+30FC 1
 62
     7
420
 16777215
370
    25
100
AcDbVertex
100
AcDb2dVertex
 10
78.1433802286185
 20
-137.2670680212385
 30
0.0
  0
SEQEND
  5
76
330
73
100
AcDbEntity
  8
_U+30EC_U+30A4_U+30E4_U+30FC 1
 62
     7
420
 16777215
370
    25
  0
POLYLINE
  5
77
330
1F
100
AcDbEntity
  8
_U+30EC_U+30A4_U+30E4_U+30FC 1
 62
     7
420
 16777215
370
    25
100
AcDb2dPolyline
 66
     1
 10
0.0
 20
0.0
 30
0.0
  0
VERTEX
  5
78
330
77
100
AcDbEntity
  8
_U+30EC_U+30A4_U+30E4_U+30FC 1
 62
     7
420
 16777215
370
    25
100
AcDbVertex
100
AcDb2dVertex
 10
80.27451072980439
 20
-139.3981985762617
 30
0.0
  0
VERTEX
  5
79
330
77
100
AcDbEntity
  8
_U+30EC_U+30A4_U+30E4_U+30FC 1
 62
     7
420
 16777215
370
    25
100
AcDbVertex
100
AcDb2dVertex
 10
89.49153549465849
 20
-130.1812088563433
 30
0.0
  0
SEQEND
  5
7A
330
77
100
AcDbEntity
  8
_U+30EC_U+30A4_U+30E4_U+30FC 1
 62
     7
420
 16777215
370
    25
  0
POLYLINE
  5
7B
330
1F
100
AcDbEntity
  8
_U+30EC_U+30A4_U+30E4_U+30FC 1
 62
     7
420
 16777215
370
    25
100
AcDb2dPolyline
 66
     1
 10
0.0
 20
0.0
 30
0.0
  0
VERTEX
  5
7C
330
7B
100
AcDbEntity
  8
_U+30EC_U+30A4_U+30E4_U+30FC 1
 62
     7
420
 16777215
370
    25
100
AcDbVertex
100
AcDb2dVertex
 10
79.42632714033225
 20
-138.5496974653623
 30
0.0
  0
VERTEX
  5
7D
330
7B
100
AcDbEntity
  8
_U+30EC_U+30A4_U+30E4_U+30FC 1
 62
     7
420
 16777215
370
    25
100
AcDbVertex
100
AcDb2dVertex
 10
88.64335190518635
 20
-129.3326724676671
 30
0.0
  0
SEQEND
  5
7E
330
7B
100
AcDbEntity
  8
_U+30EC_U+30A4_U+30E4_U+30FC 1
 62
     7
420
 16777215
370
    25
  0
POLYLINE
  5
7F
330
1F
100
AcDbEntity
  8
_U+30EC_U+30A4_U+30E4_U+30FC 1
 62
     7
420
 16777215
370
    25
100
AcDb2dPolyline
 66
     1
 10
0.0
 20
0.0
 30
0.0
  0
VERTEX
  5
80
330
7F
100
AcDbEntity
  8
_U+30EC_U+30A4_U+30E4_U+30FC 1
 62
     7
420
 16777215
370
    25
100
AcDbVertex
100
AcDb2dVertex
 10
96.64354031219565
 20
-129.6809699675796
 30
0.0
  0
VERTEX
  5
81
330
7F
100
AcDbEntity
  8
_U+30EC_U+30A4_U+30E4_U+30FC 1
 62
     7
420
 16777215
370
    25
100
AcDbVertex
100
AcDb2dVertex
 10
96.64354031219565
 20
-130.1812088563433
 30
0.0
  0
SEQEND
  5
82
330
7F
100
AcDbEntity
  8
_U+30EC_U+30A4_U+30E4_U+30FC 1
 62
     7
420
 16777215
370
    25
  0
POLYLINE
  5
83
330
1F
100
AcDbEntity
  8
_U+30EC_U+30A4_U+30E4_U+30FC 1
 62
     7
420
 16777215
370
    25
100
AcDb2dPolyline
 66
     1
 10
0.0
 20
0.0
 30
0.0
  0
VERTEX
  5
84
330
83
100
AcDbEntity
  8
_U+30EC_U+30A4_U+30E4_U+30FC 1
 62
     7
420
 16777215
370
    25
100
AcDbVertex
100
AcDb2dVertex
 10
88.64335190518635
 20
-122.1809849694547
 30
0.0
  0
VERTEX
  5
85
330
83
100
AcDbEntity
  8
_U+30EC_U+30A4_U+30E4_U+30FC 1
 62
     7
420
 16777215
370
    25
100
AcDbVertex
100
AcDb2dVertex
 10
89.1435555035362
 20
-122.1809849694547
 30
0.0
  0
SEQEND
  5
86
330
83
100
AcDbEntity
  8
_U+30EC_U+30A4_U+30E4_U+30FC 1
 62
     7
420
 16777215
370
    25
  0
POLYLINE
  5
87
330
1F
100
AcDbEntity
  8
_U+30EC_U+30A4_U+30E4_U+30FC 1
 62
     7
420
 16777215
370
    25
100
AcDb2dPolyline
 66
     1
 10
0.0
 20
0.0
 30
0.0
  0
VERTEX
  5
88
330
87
100
AcDbEntity
  8
_U+30EC_U+30A4_U+30E4_U+30FC 1
 62
     7
420
 16777215
370
    25
100
AcDbVertex
100
AcDb2dVertex
 10
89.64308882412539
 20
-129.1810838565937
 30
0.0
  0
VERTEX
  5
89
330
87
100
AcDbEntity
  8
_U+30EC_U+30A4_U+30E4_U+30FC 1
 62
     7
420
 16777215
370
    25
100
AcDbVertex
100
AcDb2dVertex
 10
94.64332564100316
 20
-129.1810838565937
 30
0.0
  0
SEQEND
  5
8A
330
87
100
AcDbEntity
  8
_U+30EC_U+30A4_U+30E4_U+30FC 1
 62
     7
420
 16777215
370
    25
  0
POLYLINE
  5
8B
330
1F
100
AcDbEntity
  8
_U+30EC_U+30A4_U+30E4_U+30FC 1
 62
     7
420
 16777215
370
    25
100
AcDb2dPolyline
 66
     1
 10
0.0
 20
0.0
 30
0.0
  0
VERTEX
  5
8C
330
8B
100
AcDbEntity
  8
_U+30EC_U+30A4_U+30E4_U+30FC 1
 62
     7
420
 16777215
370
    25
100
AcDbVertex
100
AcDb2dVertex
 10
89.64308882412539
 20
-124.1812349689546
 30
0.0
  0
VERTEX
  5
8D
330
8B
100
AcDbEntity
  8
_U+30EC_U+30A4_U+30E4_U+30FC 1
 62
     7
420
 16777215
370
    25
100
AcDbVertex
100
AcDb2dVertex
 10
89.64308882412539
 20
-129.1810838565937
 30
0.0
  0
SEQEND
  5
8E
330
8B
100
AcDbEntity
  8
_U+30EC_U+30A4_U+30E4_U+30FC 1
 62
     7
420
 16777215
370
    25
  0
POLYLINE
  5
8F
330
1F
100
AcDbEntity
  8
_U+30EC_U+30A4_U+30E4_U+30FC 1
 62
     7
420
 16777215
370
    25
100
AcDb2dPolyline
 66
     1
 10
0.0
 20
0.0
 30
0.0
  0
VERTEX
  5
90
330
8F
100
AcDbEntity
  8
_U+30EC_U+30A4_U+30E4_U+30FC 1
 62
     7
420
 16777215
370
    25
100
AcDbVertex
100
AcDb2dVertex
 10
89.64308882412539
 20
-124.1812349689546
 30
0.0
  0
VERTEX
  5
91
330
8F
100
AcDbEntity
  8
_U+30EC_U+30A4_U+30E4_U+30FC 1
 62
     7
420
 16777215
370
    25
100
AcDbVertex
100
AcDb2dVertex
 10
89.1435555035362
 20
-122.1809849694547
 30
0.0
  0
SEQEND
  5
92
330
8F
100
AcDbEntity
  8
_U+30EC_U+30A4_U+30E4_U+30FC 1
 62
     7
420
 16777215
370
    25
  0
POLYLINE
  5
93
330
1F
100
AcDbEntity
  8
_U+30EC_U+30A4_U+30E4_U+30FC 1
 62
     7
420
 16777215
370
    25
100
AcDb2dPolyline
 66
     1
 10
0.0
 20
0.0
 30
0.0
  0
VERTEX
  5
94
330
93
100
AcDbEntity
  8
_U+30EC_U+30A4_U+30E4_U+30FC 1
 62
     7
420
 16777215
370
    25
100
AcDbVertex
100
AcDb2dVertex
 10
94.64332564100316
 20
-129.1810838565937
 30
0.0
  0
VERTEX
  5
95
330
93
100
AcDbEntity
  8
_U+30EC_U+30A4_U+30E4_U+30FC 1
 62
     7
420
 16777215
370
    25
100
AcDbVertex
100
AcDb2dVertex
 10
96.64354031219565
 20
-129.6809699675796
 30
0.0
  0
SEQEND
  5
96
330
93
100
AcDbEntity
  8
_U+30EC_U+30A4_U+30E4_U+30FC 1
 62
     7
420
 16777215
370
    25
  0
SPLINE
  5
97
330
1F
100
AcDbEntity
  8
_U+30EC_U+30A4_U+30E4_U+30FC 1
 62
     7
420
 16777215
370
    25
100
AcDbSpline
210
0.0
220
0.0
230
1.0
 70
     8
 71
     3
 72
     8
 73
     4
 74
     0
 42
0.0000000001
 43
0.0000000001
 12
1.0
 22
0.0
 32
0.0
 13
1.0
 23
0.0
 33
0.0
 40
0.0
 40
0.0
 40
0.0
 40
0.0
 40
1.0
 40
1.0
 40
1.0
 40
1.0
 10
77.64314135249177
 20
-117.6810221928019
 30
0.0
 10
77.64314135249177
 20
-117.4047266373155
 30
0.0
 10
77.41923330264859
 20
-117.181136081816
 30
0.0
 10
77.14293775414191
 20
-117.181136081816
 30
0.0
  0
SPLINE
  5
98
330
1F
100
AcDbEntity
  8
_U+30EC_U+30A4_U+30E4_U+30FC 1
 62
     7
420
 16777215
370
    25
100
AcDbSpline
210
0.0
220
0.0
230
1.0
 70
     8
 71
     3
 72
     8
 73
     4
 74
     0
 42
0.0000000001
 43
0.0000000001
 12
1.0
 22
0.0
 32
0.0
 13
1.0
 23
0.0
 33
0.0
 40
0.0
 40
0.0
 40
0.0
 40
0.0
 40
1.0
 40
1.0
 40
1.0
 40
1.0
 10
106.6432731126368
 20
-141.6812705201354
 30
0.0
 10
106.6432731126368
 20
-141.4049749646489
 30
0.0
 10
106.4193297850167
 20
-141.1810316313717
 30
0.0
 10
106.14303423651
 20
-141.1810316313717
 30
0.0
  0
SPLINE
  5
99
330
1F
100
AcDbEntity
  8
_U+30EC_U+30A4_U+30E4_U+30FC 1
 62
     7
420
 16777215
370
     9
100
AcDbSpline
210
0.0
220
0.0
230
1.0
 70
    11
 71
     3
 72
    17
 73
    13
 74
     0
 42
0.0000000001
 43
0.0000000001
 12
1.0
 22
0.0
 32
0.0
 13
1.0
 23
0.0
 33
0.0
 40
0.0
 40
0.0
 40
0.0
 40
0.0
 40
1.0
 40
1.0
 40
1.0
 40
2.0
 40
2.0
 40
2.0
 40
3.0
 40
3.0
 40
3.0
 40
4.0
 40
4.0
 40
4.0
 40
4.0
 10
73.24308535363544
 20
-117.181136081816
 30
0.0
 10
73.24308535363544
 20
-117.125679415163
 30
0.0
 10
73.19828257700068
 20
-117.0808766373966
 30
0.0
 10
73.14318053726977
 20
-117.0808766373966
 30
0.0
 10
73.08803952425765
 20
-117.0808766373966
 30
0.0
 10
73.04327202539977
 20
-117.125679415163
 30
0.0
 10
73.04327202539977
 20
-117.181136081816
 30
0.0
 10
73.04327202539977
 20
-117.2362399706909
 30
0.0
 10
73.08803952425765
 20
-117.2810427484576
 30
0.0
 10
73.14318053726977
 20
-117.2810427484576
 30
0.0
 10
73.19828257700068
 20
-117.2810427484576
 30
0.0
 10
73.24308535363544
 20
-117.2362399706909
 30
0.0
 10
73.24308535363544
 20
-117.181136081816
 30
0.0
  0
SPLINE
  5
9A
330
1F
100
AcDbEntity
  8
_U+30EC_U+30A4_U+30E4_U+30FC 1
 62
     7
420
 16777215
370
     9
100
AcDbSpline
210
0.0
220
0.0
230
1.0
 70
    11
 71
     3
 72
    17
 73
    13
 74
     0
 42
0.0000000001
 43
0.0000000001
 12
1.0
 22
0.0
 32
0.0
 13
1.0
 23
0.0
 33
0.0
 40
0.0
 40
0.0
 40
0.0
 40
0.0
 40
1.0
 40
1.0
 40
1.0
 40
2.0
 40
2.0
 40
2.0
 40
3.0
 40
3.0
 40
3.0
 40
4.0
 40
4.0
 40
4.0
 40
4.0
 10
78.2432888693282
 20
-113.1810241383713
 30
0.0
 10
78.2432888693282
 20
-113.1259202494964
 30
0.0
 10
78.19848609156148
 20
-113.0811174717297
 30
0.0
 10
78.1433802286185
 20
-113.0811174717297
 30
0.0
 10
78.08824106335855
 20
-113.0811174717297
 30
0.0
 10
78.04347356450067
 20
-113.1259202494964
 30
0.0
 10
78.04347356450067
 20
-113.1810241383713
 30
0.0
 10
78.04347356450067
 20
-113.2361633050244
 30
0.0
 10
78.08824106335855
 20
-113.2809308050133
 30
0.0
 10
78.1433802286185
 20
-113.2809308050133
 30
0.0
 10
78.19848609156148
 20
-113.2809308050133
 30
0.0
 10
78.2432888693282
 20
-113.2361633050244
 30
0.0
 10
78.2432888693282
 20
-113.1810241383713
 30
0.0
  0
SPLINE
  5
9B
330
1F
100
AcDbEntity
  8
_U+30EC_U+30A4_U+30E4_U+30FC 1
 62
     7
420
 16777215
370
     9
100
AcDbSpline
210
0.0
220
0.0
230
1.0
 70
    11
 71
     3
 72
    17
 73
    13
 74
     0
 42
0.0000000001
 43
0.0000000001
 12
1.0
 22
0.0
 32
0.0
 13
1.0
 23
0.0
 33
0.0
 40
0.0
 40
0.0
 40
0.0
 40
0.0
 40
1.0
 40
1.0
 40
1.0
 40
2.0
 40
2.0
 40
2.0
 40
3.0
 40
3.0
 40
3.0
 40
4.0
 40
4.0
 40
4.0
 40
4.0
 10
88.74325856930419
 20
-113.1810241383713
 30
0.0
 10
88.74325856930419
 20
-113.1259202494964
 30
0.0
 10
88.69845579266942
 20
-113.0811174717297
 30
0.0
 10
88.64335190518635
 20
-113.0811174717297
 30
0.0
 10
88.5882127399264
 20
-113.0811174717297
 30
0.0
 10
88.54344524106853
 20
-113.1259202494964
 30
0.0
 10
88.54344524106853
 20
-113.1810241383713
 30
0.0
 10
88.54344524106853
 20
-113.2361633050244
 30
0.0
 10
88.5882127399264
 20
-113.2809308050133
 30
0.0
 10
88.64335190518635
 20
-113.2809308050133
 30
0.0
 10
88.69845579266942
 20
-113.2809308050133
 30
0.0
 10
88.74325856930419
 20
-113.2361633050244
 30
0.0
 10
88.74325856930419
 20
-113.1810241383713
 30
0.0
  0
SPLINE
  5
9C
330
1F
100
AcDbEntity
  8
_U+30EC_U+30A4_U+30E4_U+30FC 1
 62
     7
420
 16777215
370
     9
100
AcDbSpline
210
0.0
220
0.0
230
1.0
 70
    11
 71
     3
 72
    17
 73
    13
 74
     0
 42
0.0000000001
 43
0.0000000001
 12
1.0
 22
0.0
 32
0.0
 13
1.0
 23
0.0
 33
0.0
 40
0.0
 40
0.0
 40
0.0
 40
0.0
 40
1.0
 40
1.0
 40
1.0
 40
2.0
 40
2.0
 40
2.0
 40
3.0
 40
3.0
 40
3.0
 40
4.0
 40
4.0
 40
4.0
 40
4.0
 10
96.74344697631349
 20
-113.1810241383713
 30
0.0
 10
96.74344697631349
 20
-113.1259202494964
 30
0.0
 10
96.69864419967872
 20
-113.0811174717297
 30
0.0
 10
96.64354031219565
 20
-113.0811174717297
 30
0.0
 10
96.58773330918622
 20
-113.0811174717297
 30
0.0
 10
96.54293053142014
 20
-113.1259202494964
 30
0.0
 10
96.54293053142014
 20
-113.1810241383713
 30
0.0
 10
96.54293053142014
 20
-113.2361633050244
 30
0.0
 10
96.58773330918622
 20
-113.2809308050133
 30
0.0
 10
96.64354031219565
 20
-113.2809308050133
 30
0.0
 10
96.69864419967872
 20
-113.2809308050133
 30
0.0
 10
96.74344697631349
 20
-113.2361633050244
 30
0.0
 10
96.74344697631349
 20
-113.1810241383713
 30
0.0
  0
SPLINE
  5
9D
330
1F
100
AcDbEntity
  8
_U+30EC_U+30A4_U+30E4_U+30FC 1
 62
     7
420
 16777215
370
     9
100
AcDbSpline
210
0.0
220
0.0
230
1.0
 70
    11
 71
     3
 72
    17
 73
    13
 74
     0
 42
0.0000000001
 43
0.0000000001
 12
1.0
 22
0.0
 32
0.0
 13
1.0
 23
0.0
 33
0.0
 40
0.0
 40
0.0
 40
0.0
 40
0.0
 40
1.0
 40
1.0
 40
1.0
 40
2.0
 40
2.0
 40
2.0
 40
3.0
 40
3.0
 40
3.0
 40
4.0
 40
4.0
 40
4.0
 40
4.0
 10
110.7429416389808
 20
-122.1809849694547
 30
0.0
 10
110.7429416389808
 20
-122.1258810805797
 30
0.0
 10
110.6981388612147
 20
-122.081078302813
 30
0.0
 10
110.6430321772611
 20
-122.081078302813
 30
0.0
 10
110.5878930120011
 20
-122.081078302813
 30
0.0
 10
110.5431255131433
 20
-122.1258810805797
 30
0.0
 10
110.5431255131433
 20
-122.1809849694547
 30
0.0
 10
110.5431255131433
 20
-122.2361241361077
 30
0.0
 10
110.5878930120011
 20
-122.2808916360963
 30
0.0
 10
110.6430321772611
 20
-122.2808916360963
 30
0.0
 10
110.6981388612147
 20
-122.2808916360963
 30
0.0
 10
110.7429416389808
 20
-122.2361241361077
 30
0.0
 10
110.7429416389808
 20
-122.1809849694547
 30
0.0
  0
SPLINE
  5
9E
330
1F
100
AcDbEntity
  8
_U+30EC_U+30A4_U+30E4_U+30FC 1
 62
     7
420
 16777215
370
     9
100
AcDbSpline
210
0.0
220
0.0
230
1.0
 70
    11
 71
     3
 72
    17
 73
    13
 74
     0
 42
0.0000000001
 43
0.0000000001
 12
1.0
 22
0.0
 32
0.0
 13
1.0
 23
0.0
 33
0.0
 40
0.0
 40
0.0
 40
0.0
 40
0.0
 40
1.0
 40
1.0
 40
1.0
 40
2.0
 40
2.0
 40
2.0
 40
3.0
 40
3.0
 40
3.0
 40
4.0
 40
4.0
 40
4.0
 40
4.0
 10
110.7429416389808
 20
-130.1812088563433
 30
0.0
 10
110.7429416389808
 20
-130.1260696896909
 30
0.0
 10
110.6981388612147
 20
-130.0813021897017
 30
0.0
 10
110.6430321772611
 20
-130.0813021897017
 30
0.0
 10
110.5878930120011
 20
-130.0813021897017
 30
0.0
 10
110.5431255131433
 20
-130.1260696896909
 30
0.0
 10
110.5431255131433
 20
-130.1812088563433
 30
0.0
 10
110.5431255131433
 20
-130.2363127452189
 30
0.0
 10
110.5878930120011
 20
-130.2811155229856
 30
0.0
 10
110.6430321772611
 20
-130.2811155229856
 30
0.0
 10
110.6981388612147
 20
-130.2811155229856
 30
0.0
 10
110.7429416389808
 20
-130.2363127452189
 30
0.0
 10
110.7429416389808
 20
-130.1812088563433
 30
0.0
  0
SPLINE
  5
9F
330
1F
100
AcDbEntity
  8
_U+30EC_U+30A4_U+30E4_U+30FC 1
 62
     7
420
 16777215
370
     9
100
AcDbSpline
210
0.0
220
0.0
230
1.0
 70
    11
 71
     3
 72
    17
 73
    13
 74
     0
 42
0.0000000001
 43
0.0000000001
 12
1.0
 22
0.0
 32
0.0
 13
1.0
 23
0.0
 33
0.0
 40
0.0
 40
0.0
 40
0.0
 40
0.0
 40
1.0
 40
1.0
 40
1.0
 40
2.0
 40
2.0
 40
2.0
 40
3.0
 40
3.0
 40
3.0
 40
4.0
 40
4.0
 40
4.0
 40
4.0
 10
110.7429416389808
 20
-140.6811807981632
 30
0.0
 10
110.7429416389808
 20
-140.6260416315102
 30
0.0
 10
110.6981388612147
 20
-140.5812388537434
 30
0.0
 10
110.6430321772611
 20
-140.5812388537434
 30
0.0
 10
110.5878930120011
 20
-140.5812388537434
 30
0.0
 10
110.5431255131433
 20
-140.6260416315102
 30
0.0
 10
110.5431255131433
 20
-140.6811807981632
 30
0.0
 10
110.5431255131433
 20
-140.7362846870382
 30
0.0
 10
110.5878930120011
 20
-140.7810874648049
 30
0.0
 10
110.6430321772611
 20
-140.7810874648049
 30
0.0
 10
110.6981388612147
 20
-140.7810874648049
 30
0.0
 10
110.7429416389808
 20
-140.7362846870382
 30
0.0
 10
110.7429416389808
 20
-140.6811807981632
 30
0.0
  0
SPLINE
  5
A0
330
1F
100
AcDbEntity
  8
_U+30EC_U+30A4_U+30E4_U+30FC 1
 62
     7
420
 16777215
370
     9
100
AcDbSpline
210
0.0
220
0.0
230
1.0
 70
    11
 71
     3
 72
    17
 73
    13
 74
     0
 42
0.0000000001
 43
0.0000000001
 12
1.0
 22
0.0
 32
0.0
 13
1.0
 23
0.0
 33
0.0
 40
0.0
 40
0.0
 40
0.0
 40
0.0
 40
1.0
 40
1.0
 40
1.0
 40
2.0
 40
2.0
 40
2.0
 40
3.0
 40
3.0
 40
3.0
 40
4.0
 40
4.0
 40
4.0
 40
4.0
 10
106.7431797767546
 20
-145.6810296858023
 30
0.0
 10
106.7431797767546
 20
-145.6259257969267
 30
0.0
 10
106.6983770001198
 20
-145.58112301916
 30
0.0
 10
106.6432731126368
 20
-145.58112301916
 30
0.0
 10
106.5881339473768
 20
-145.58112301916
 30
0.0
 10
106.5433664485189
 20
-145.6259257969267
 30
0.0
 10
106.5433664485189
 20
-145.6810296858023
 30
0.0
 10
106.5433664485189
 20
-145.7364863524549
 30
0.0
 10
106.5881339473768
 20
-145.7812891302217
 30
0.0
 10
106.6432731126368
 20
-145.7812891302217
 30
0.0
 10
106.6983770001198
 20
-145.7812891302217
 30
0.0
 10
106.7431797767546
 20
-145.7364863524549
 30
0.0
 10
106.7431797767546
 20
-145.6810296858023
 30
0.0
  0
SPLINE
  5
A1
330
1F
100
AcDbEntity
  8
_U+30EC_U+30A4_U+30E4_U+30FC 1
 62
     7
420
 16777215
370
     9
100
AcDbSpline
210
0.0
220
0.0
230
1.0
 70
    11
 71
     3
 72
    17
 73
    13
 74
     0
 42
0.0000000001
 43
0.0000000001
 12
1.0
 22
0.0
 32
0.0
 13
1.0
 23
0.0
 33
0.0
 40
0.0
 40
0.0
 40
0.0
 40
0.0
 40
1.0
 40
1.0
 40
1.0
 40
2.0
 40
2.0
 40
2.0
 40
3.0
 40
3.0
 40
3.0
 40
4.0
 40
4.0
 40
4.0
 40
4.0
 10
73.24308535363544
 20
-141.6812705201354
 30
0.0
 10
73.24308535363544
 20
-141.6258138534827
 30
0.0
 10
73.19828257700068
 20
-141.581011075716
 30
0.0
 10
73.14318053726977
 20
-141.581011075716
 30
0.0
 10
73.08803952425765
 20
-141.581011075716
 30
0.0
 10
73.04327202539977
 20
-141.6258138534827
 30
0.0
 10
73.04327202539977
 20
-141.6812705201354
 30
0.0
 10
73.04327202539977
 20
-141.7364096867878
 30
0.0
 10
73.08803952425765
 20
-141.781177186777
 30
0.0
 10
73.14318053726977
 20
-141.781177186777
 30
0.0
 10
73.19828257700068
 20
-141.781177186777
 30
0.0
 10
73.24308535363544
 20
-141.7364096867878
 30
0.0
 10
73.24308535363544
 20
-141.6812705201354
 30
0.0
  0
SPLINE
  5
A2
330
1F
100
AcDbEntity
  8
_U+30EC_U+30A4_U+30E4_U+30FC 1
 62
     7
420
 16777215
370
     9
100
AcDbSpline
210
0.0
220
0.0
230
1.0
 70
    11
 71
     3
 72
    17
 73
    13
 74
     0
 42
0.0000000001
 43
0.0000000001
 12
1.0
 22
0.0
 32
0.0
 13
1.0
 23
0.0
 33
0.0
 40
0.0
 40
0.0
 40
0.0
 40
0.0
 40
1.0
 40
1.0
 40
1.0
 40
2.0
 40
2.0
 40
2.0
 40
3.0
 40
3.0
 40
3.0
 40
4.0
 40
4.0
 40
4.0
 40
4.0
 10
77.24284441825975
 20
-145.6810296858023
 30
0.0
 10
77.24284441825975
 20
-145.6259257969267
 30
0.0
 10
77.19804164162498
 20
-145.58112301916
 30
0.0
 10
77.14293775414191
 20
-145.58112301916
 30
0.0
 10
77.08779858888197
 20
-145.58112301916
 30
0.0
 10
77.0429958122472
 20
-145.6259257969267
 30
0.0
 10
77.0429958122472
 20
-145.6810296858023
 30
0.0
 10
77.0429958122472
 20
-145.7364863524549
 30
0.0
 10
77.08779858888197
 20
-145.7812891302217
 30
0.0
 10
77.14293775414191
 20
-145.7812891302217
 30
0.0
 10
77.19804164162498
 20
-145.7812891302217
 30
0.0
 10
77.24284441825975
 20
-145.7364863524549
 30
0.0
 10
77.24284441825975
 20
-145.6810296858023
 30
0.0
  0
POLYLINE
  5
A3
330
1F
100
AcDbEntity
  8
_U+30EC_U+30A4_U+30E4_U+30FC 1
 62
     7
420
 16777215
370
     9
100
AcDb2dPolyline
 66
     1
 10
0.0
 20
0.0
 30
0.0
  0
VERTEX
  5
A4
330
A3
100
AcDbEntity
  8
_U+30EC_U+30A4_U+30E4_U+30FC 1
 62
     7
420
 16777215
370
     9
100
AcDbVertex
100
AcDb2dVertex
 10
88.64335190518635
 20
-113.1810241383713
 30
0.0
  0
VERTEX
  5
A5
330
A3
100
AcDbEntity
  8
_U+30EC_U+30A4_U+30E4_U+30FC 1
 62
     7
420
 16777215
370
     9
100
AcDbVertex
100
AcDb2dVertex
 10
96.64354031219565
 20
-113.1810241383713
 30
0.0
  0
SEQEND
  5
A6
330
A3
100
AcDbEntity
  8
_U+30EC_U+30A4_U+30E4_U+30FC 1
 62
     7
420
 16777215
370
     9
  0
POLYLINE
  5
A7
330
1F
100
AcDbEntity
  8
_U+30EC_U+30A4_U+30E4_U+30FC 1
 62
     7
420
 16777215
370
     9
100
AcDb2dPolyline
 66
     1
 10
0.0
 20
0.0
 30
0.0
  0
VERTEX
  5
A8
330
A7
100
AcDbEntity
  8
_U+30EC_U+30A4_U+30E4_U+30FC 1
 62
     7
420
 16777215
370
     9
100
AcDbVertex
100
AcDb2dVertex
 10
96.64354031219565
 20
-127.0964494126704
 30
0.0
  0
VERTEX
  5
A9
330
A7
100
AcDbEntity
  8
_U+30EC_U+30A4_U+30E4_U+30FC 1
 62
     7
420
 16777215
370
     9
100
AcDbVertex
100
AcDb2dVertex
 10
96.64354031219565
 20
-112.1812519163991
 30
0.0
  0
SEQEND
  5
AA
330
A7
100
AcDbEntity
  8
_U+30EC_U+30A4_U+30E4_U+30FC 1
 62
     7
420
 16777215
370
     9
  0
INSERT
  5
AC
330
1F
100
AcDbEntity
  8
_U+30EC_U+30A4_U+30E4_U+30FC 1
100
AcDbBlockReference
  2
block 2
 10
0.0
 20
0.0
 30
0.0
  0
POLYLINE
  5
B1
330
1F
100
AcDbEntity
  8
_U+30EC_U+30A4_U+30E4_U+30FC 1
 62
     7
420
 16777215
370
     9
100
AcDb2dPolyline
 66
     1
 10
0.0
 20
0.0
 30
0.0
  0
VERTEX
  5
B2
330
B1
100
AcDbEntity
  8
_U+30EC_U+30A4_U+30E4_U+30FC 1
 62
     7
420
 16777215
370
     9
100
AcDbVertex
100
AcDb2dVertex
 10
110.6430321772611
 20
-130.1812088563433
 30
0.0
  0
VERTEX
  5
B3
330
B1
100
AcDbEntity
  8
_U+30EC_U+30A4_U+30E4_U+30FC 1
 62
     7
420
 16777215
370
     9
100
AcDbVertex
100
AcDb2dVertex
 10
110.6430321772611
 20
-122.1809849694547
 30
0.0
  0
SEQEND
  5
B4
330
B1
100
AcDbEntity
  8
_U+30EC_U+30A4_U+30E4_U+30FC 1
 62
     7
420
 16777215
370
     9
  0
POLYLINE
  5
B5
330
1F
100
AcDbEntity
  8
_U+30EC_U+30A4_U+30E4_U+30FC 1
 62
     7
420
 16777215
370
     9
100
AcDb2dPolyline
 66
     1
 10
0.0
 20
0.0
 30
0.0
  0
VERTEX
  5
B6
330
B5
100
AcDbEntity
  8
_U+30EC_U+30A4_U+30E4_U+30FC 1
 62
     7
420
 16777215
370
     9
100
AcDbVertex
100
AcDb2dVertex
 10
91.7273704376176
 20
-122.1809849694547
 30
0.0
  0
VERTEX
  5
B7
330
B5
100
AcDbEntity
  8
_U+30EC_U+30A4_U+30E4_U+30FC 1
 62
     7
420
 16777215
370
     9
100
AcDbVertex
100
AcDb2dVertex
 10
111.6434746517377
 20
-122.1809849694547
 30
0.0
  0
SEQEND
  5
B8
330
B5
100
AcDbEntity
  8
_U+30EC_U+30A4_U+30E4_U+30FC 1
 62
     7
420
 16777215
370
     9
  0
INSERT
  5
BA
330
1F
100
AcDbEntity
  8
_U+30EC_U+30A4_U+30E4_U+30FC 1
100
AcDbBlockReference
  2
block 3
 10
0.0
 20
0.0
 30
0.0
  0
POLYLINE
  5
BF
330
1F
100
AcDbEntity
  8
_U+30EC_U+30A4_U+30E4_U+30FC 1
 62
     7
420
 16777215
370
     9
100
AcDb2dPolyline
 66
     1
 10
0.0
 20
0.0
 30
0.0
  0
VERTEX
  5
C0
330
BF
100
AcDbEntity
  8
_U+30EC_U+30A4_U+30E4_U+30FC 1
 62
     7
420
 16777215
370
     9
100
AcDbVertex
100
AcDb2dVertex
 10
110.6430321772611
 20
-130.1812088563433
 30
0.0
  0
VERTEX
  5
C1
330
BF
100
AcDbEntity
  8
_U+30EC_U+30A4_U+30E4_U+30FC 1
 62
     7
420
 16777215
370
     9
100
AcDbVertex
100
AcDb2dVertex
 10
110.6430321772611
 20
-140.6811807981632
 30
0.0
  0
SEQEND
  5
C2
330
BF
100
AcDbEntity
  8
_U+30EC_U+30A4_U+30E4_U+30FC 1
 62
     7
420
 16777215
370
     9
  0
POLYLINE
  5
C3
330
1F
100
AcDbEntity
  8
_U+30EC_U+30A4_U+30E4_U+30FC 1
 62
     7
420
 16777215
370
     9
100
AcDb2dPolyline
 66
     1
 10
0.0
 20
0.0
 30
0.0
  0
VERTEX
  5
C4
330
C3
100
AcDbEntity
  8
_U+30EC_U+30A4_U+30E4_U+30FC 1
 62
     7
420
 16777215
370
     9
100
AcDbVertex
100
AcDb2dVertex
 10
99.18325802517984
 20
-130.1812088563433
 30
0.0
  0
VERTEX
  5
C5
330
C3
100
AcDbEntity
  8
_U+30EC_U+30A4_U+30E4_U+30FC 1
 62
     7
420
 16777215
370
     9
100
AcDbVertex
100
AcDb2dVertex
 10
111.6434746517377
 20
-130.1812088563433
 30
0.0
  0
SEQEND
  5
C6
330
C3
100
AcDbEntity
  8
_U+30EC_U+30A4_U+30E4_U+30FC 1
 62
     7
420
 16777215
370
     9
  0
SPLINE
  5
C7
330
1F
100
AcDbEntity
  8
_U+30EC_U+30A4_U+30E4_U+30FC 1
 62
     7
420
 16777215
370
     9
100
AcDbSpline
210
0.0
220
0.0
230
1.0
 70
    11
 71
     3
 72
    17
 73
    13
 74
     0
 42
0.0000000001
 43
0.0000000001
 12
1.0
 22
0.0
 32
0.0
 13
1.0
 23
0.0
 33
0.0
 40
0.0
 40
0.0
 40
0.0
 40
0.0
 40
1.0
 40
1.0
 40
1.0
 40
2.0
 40
2.0
 40
2.0
 40
3.0
 40
3.0
 40
3.0
 40
4.0
 40
4.0
 40
4.0
 40
4.0
 10
110.7429416389808
 20
-129.1810838565937
 30
0.0
 10
110.7429416389808
 20
-129.1259799677187
 30
0.0
 10
110.6981388612147
 20
-129.081177189952
 30
0.0
 10
110.6430321772611
 20
-129.081177189952
 30
0.0
 10
110.5878930120011
 20
-129.081177189952
 30
0.0
 10
110.5431255131433
 20
-129.1259799677187
 30
0.0
 10
110.5431255131433
 20
-129.1810838565937
 30
0.0
 10
110.5431255131433
 20
-129.2362230232467
 30
0.0
 10
110.5878930120011
 20
-129.2809905232353
 30
0.0
 10
110.6430321772611
 20
-129.2809905232353
 30
0.0
 10
110.6981388612147
 20
-129.2809905232353
 30
0.0
 10
110.7429416389808
 20
-129.2362230232467
 30
0.0
 10
110.7429416389808
 20
-129.1810838565937
 30
0.0
  0
POLYLINE
  5
C8
330
1F
100
AcDbEntity
  8
_U+30EC_U+30A4_U+30E4_U+30FC 1
 62
     7
420
 16777215
370
     9
100
AcDb2dPolyline
 66
     1
 10
0.0
 20
0.0
 30
0.0
  0
VERTEX
  5
C9
330
C8
100
AcDbEntity
  8
_U+30EC_U+30A4_U+30E4_U+30FC 1
 62
     7
420
 16777215
370
     9
100
AcDbVertex
100
AcDb2dVertex
 10
99.18325802517984
 20
-129.1810838565937
 30
0.0
  0
VERTEX
  5
CA
330
C8
100
AcDbEntity
  8
_U+30EC_U+30A4_U+30E4_U+30FC 1
 62
     7
420
 16777215
370
     9
100
AcDbVertex
100
AcDb2dVertex
 10
111.6434746517377
 20
-129.1810838565937
 30
0.0
  0
SEQEND
  5
CB
330
C8
100
AcDbEntity
  8
_U+30EC_U+30A4_U+30E4_U+30FC 1
 62
     7
420
 16777215
370
     9
  0
POLYLINE
  5
CC
330
1F
100
AcDbEntity
  8
_U+30EC_U+30A4_U+30E4_U+30FC 1
 62
     7
420
 16777215
370
     9
100
AcDb2dPolyline
 66
     1
 10
0.0
 20
0.0
 30
0.0
  0
VERTEX
  5
CD
330
CC
100
AcDbEntity
  8
_U+30EC_U+30A4_U+30E4_U+30FC 1
 62
     7
420
 16777215
370
     9
100
AcDbVertex
100
AcDb2dVertex
 10
97.80936500467521
 20
-140.6811807981632
 30
0.0
  0
VERTEX
  5
CE
330
CC
100
AcDbEntity
  8
_U+30EC_U+30A4_U+30E4_U+30FC 1
 62
     7
420
 16777215
370
     9
100
AcDbVertex
100
AcDb2dVertex
 10
111.6434746517377
 20
-140.6811807981632
 30
0.0
  0
SEQEND
  5
CF
330
CC
100
AcDbEntity
  8
_U+30EC_U+30A4_U+30E4_U+30FC 1
 62
     7
420
 16777215
370
     9
  0
INSERT
  5
D1
330
1F
100
AcDbEntity
  8
_U+30EC_U+30A4_U+30E4_U+30FC 1
100
AcDbBlockReference
  2
block 4
 10
0.0
 20
0.0
 30
0.0
  0
POLYLINE
  5
E3
330
1F
100
AcDbEntity
  8
_U+30EC_U+30A4_U+30E4_U+30FC 1
 62
     7
420
 16777215
370
     9
100
AcDb2dPolyline
 66
     1
 10
0.0
 20
0.0
 30
0.0
  0
VERTEX
  5
E4
330
E3
100
AcDbEntity
  8
_U+30EC_U+30A4_U+30E4_U+30FC 1
 62
     7
420
 16777215
370
     9
100
AcDbVertex
100
AcDb2dVertex
 10
73.14318053726977
 20
-141.6812705201354
 30
0.0
  0
VERTEX
  5
E5
330
E3
100
AcDbEntity
  8
_U+30EC_U+30A4_U+30E4_U+30FC 1
 62
     7
420
 16777215
370
     9
100
AcDbVertex
100
AcDb2dVertex
 10
73.14318053726977
 20
-117.181136081816
 30
0.0
  0
SEQEND
  5
E6
330
E3
100
AcDbEntity
  8
_U+30EC_U+30A4_U+30E4_U+30FC 1
 62
     7
420
 16777215
370
     9
  0
POLYLINE
  5
E7
330
1F
100
AcDbEntity
  8
_U+30EC_U+30A4_U+30E4_U+30FC 1
 62
     7
420
 16777215
370
     9
100
AcDb2dPolyline
 66
     1
 10
0.0
 20
0.0
 30
0.0
  0
VERTEX
  5
E8
330
E7
100
AcDbEntity
  8
_U+30EC_U+30A4_U+30E4_U+30FC 1
 62
     7
420
 16777215
370
     9
100
AcDbVertex
100
AcDb2dVertex
 10
78.60294382800517
 20
-141.6812705201354
 30
0.0
  0
VERTEX
  5
E9
330
E7
100
AcDbEntity
  8
_U+30EC_U+30A4_U+30E4_U+30FC 1
 62
     7
420
 16777215
370
     9
100
AcDbVertex
100
AcDb2dVertex
 10
72.14340831529756
 20
-141.6812705201354
 30
0.0
  0
SEQEND
  5
EA
330
E7
100
AcDbEntity
  8
_U+30EC_U+30A4_U+30E4_U+30FC 1
 62
     7
420
 16777215
370
     9
  0
POLYLINE
  5
EB
330
1F
100
AcDbEntity
  8
_U+30EC_U+30A4_U+30E4_U+30FC 1
 62
     7
420
 16777215
370
     9
100
AcDb2dPolyline
 66
     1
 10
0.0
 20
0.0
 30
0.0
  0
VERTEX
  5
EC
330
EB
100
AcDbEntity
  8
_U+30EC_U+30A4_U+30E4_U+30FC 1
 62
     7
420
 16777215
370
     9
100
AcDbVertex
100
AcDb2dVertex
 10
74.60318476338085
 20
-117.181136081816
 30
0.0
  0
VERTEX
  5
ED
330
EB
100
AcDbEntity
  8
_U+30EC_U+30A4_U+30E4_U+30FC 1
 62
     7
420
 16777215
370
     9
100
AcDbVertex
100
AcDb2dVertex
 10
72.14340831529756
 20
-117.181136081816
 30
0.0
  0
SEQEND
  5
EE
330
EB
100
AcDbEntity
  8
_U+30EC_U+30A4_U+30E4_U+30FC 1
 62
     7
420
 16777215
370
     9
  0
INSERT
  5
F0
330
1F
100
AcDbEntity
  8
_U+30EC_U+30A4_U+30E4_U+30FC 1
100
AcDbBlockReference
  2
block 5
 10
0.0
 20
0.0
 30
0.0
  0
POLYLINE
  5
10A
330
1F
100
AcDbEntity
  8
_U+30EC_U+30A4_U+30E4_U+30FC 1
 62
     7
420
 16777215
370
     9
100
AcDb2dPolyline
 66
     1
 10
0.0
 20
0.0
 30
0.0
  0
VERTEX
  5
10B
330
10A
100
AcDbEntity
  8
_U+30EC_U+30A4_U+30E4_U+30FC 1
 62
     7
420
 16777215
370
     9
100
AcDbVertex
100
AcDb2dVertex
 10
75.3087403009362
 20
-113.1810241383713
 30
0.0
  0
VERTEX
  5
10C
330
10A
100
AcDbEntity
  8
_U+30EC_U+30A4_U+30E4_U+30FC 1
 62
     7
420
 16777215
370
     9
100
AcDbVertex
100
AcDb2dVertex
 10
88.64335190518635
 20
-113.1810241383713
 30
0.0
  0
SEQEND
  5
10D
330
10A
100
AcDbEntity
  8
_U+30EC_U+30A4_U+30E4_U+30FC 1
 62
     7
420
 16777215
370
     9
  0
POLYLINE
  5
10E
330
1F
100
AcDbEntity
  8
_U+30EC_U+30A4_U+30E4_U+30FC 1
 62
     7
420
 16777215
370
     9
100
AcDb2dPolyline
 66
     1
 10
0.0
 20
0.0
 30
0.0
  0
VERTEX
  5
10F
330
10E
100
AcDbEntity
  8
_U+30EC_U+30A4_U+30E4_U+30FC 1
 62
     7
420
 16777215
370
     9
100
AcDbVertex
100
AcDb2dVertex
 10
78.1433802286185
 20
-121.0148427475241
 30
0.0
  0
VERTEX
  5
110
330
10E
100
AcDbEntity
  8
_U+30EC_U+30A4_U+30E4_U+30FC 1
 62
     7
420
 16777215
370
     9
100
AcDbVertex
100
AcDb2dVertex
 10
78.1433802286185
 20
-112.1812519163991
 30
0.0
  0
SEQEND
  5
111
330
10E
100
AcDbEntity
  8
_U+30EC_U+30A4_U+30E4_U+30FC 1
 62
     7
420
 16777215
370
     9
  0
POLYLINE
  5
112
330
1F
100
AcDbEntity
  8
_U+30EC_U+30A4_U+30E4_U+30FC 1
 62
     7
420
 16777215
370
     9
100
AcDb2dPolyline
 66
     1
 10
0.0
 20
0.0
 30
0.0
  0
VERTEX
  5
113
330
112
100
AcDbEntity
  8
_U+30EC_U+30A4_U+30E4_U+30FC 1
 62
     7
420
 16777215
370
     9
100
AcDbVertex
100
AcDb2dVertex
 10
88.64335190518635
 20
-119.6412671923118
 30
0.0
  0
VERTEX
  5
114
330
112
100
AcDbEntity
  8
_U+30EC_U+30A4_U+30E4_U+30FC 1
 62
     7
420
 16777215
370
     9
100
AcDbVertex
100
AcDb2dVertex
 10
88.64335190518635
 20
-112.1812519163991
 30
0.0
  0
SEQEND
  5
115
330
112
100
AcDbEntity
  8
_U+30EC_U+30A4_U+30E4_U+30FC 1
 62
     7
420
 16777215
370
     9
  0
SPLINE
  5
116
330
1F
100
AcDbEntity
  8
_U+30EC_U+30A4_U+30E4_U+30FC 1
 62
     7
420
 16777215
370
     9
100
AcDbSpline
210
0.0
220
0.0
230
1.0
 70
    11
 71
     3
 72
    17
 73
    13
 74
     0
 42
0.0000000001
 43
0.0000000001
 12
1.0
 22
0.0
 32
0.0
 13
1.0
 23
0.0
 33
0.0
 40
0.0
 40
0.0
 40
0.0
 40
0.0
 40
1.0
 40
1.0
 40
1.0
 40
2.0
 40
2.0
 40
2.0
 40
3.0
 40
3.0
 40
3.0
 40
4.0
 40
4.0
 40
4.0
 40
4.0
 10
89.74299548824322
 20
-113.1810241383713
 30
0.0
 10
89.74299548824322
 20
-113.1259202494964
 30
0.0
 10
89.698898267146
 20
-113.0811174717297
 30
0.0
 10
89.64308882412539
 20
-113.0811174717297
 30
0.0
 10
89.58798493664231
 20
-113.0811174717297
 30
0.0
 10
89.54318216000755
 20
-113.1259202494964
 30
0.0
 10
89.54318216000755
 20
-113.1810241383713
 30
0.0
 10
89.54318216000755
 20
-113.2361633050244
 30
0.0
 10
89.58798493664231
 20
-113.2809308050133
 30
0.0
 10
89.64308882412539
 20
-113.2809308050133
 30
0.0
 10
89.698898267146
 20
-113.2809308050133
 30
0.0
 10
89.74299548824322
 20
-113.2361633050244
 30
0.0
 10
89.74299548824322
 20
-113.1810241383713
 30
0.0
  0
POLYLINE
  5
117
330
1F
100
AcDbEntity
  8
_U+30EC_U+30A4_U+30E4_U+30FC 1
 62
     7
420
 16777215
370
     9
100
AcDb2dPolyline
 66
     1
 10
0.0
 20
0.0
 30
0.0
  0
VERTEX
  5
118
330
117
100
AcDbEntity
  8
_U+30EC_U+30A4_U+30E4_U+30FC 1
 62
     7
420
 16777215
370
     9
100
AcDbVertex
100
AcDb2dVertex
 10
89.64308882412539
 20
-119.6412671923118
 30
0.0
  0
VERTEX
  5
119
330
117
100
AcDbEntity
  8
_U+30EC_U+30A4_U+30E4_U+30FC 1
 62
     7
420
 16777215
370
     9
100
AcDbVertex
100
AcDb2dVertex
 10
89.64308882412539
 20
-112.1812519163991
 30
0.0
  0
SEQEND
  5
11A
330
117
100
AcDbEntity
  8
_U+30EC_U+30A4_U+30E4_U+30FC 1
 62
     7
420
 16777215
370
     9
  0
INSERT
  5
11C
330
1F
100
AcDbEntity
  8
_U+30EC_U+30A4_U+30E4_U+30FC 1
100
AcDbBlockReference
  2
block 6
 10
0.0
 20
0.0
 30
0.0
  0
POLYLINE
  5
12E
330
1F
100
AcDbEntity
  8
_U+30EC_U+30A4_U+30E4_U+30FC 1
 62
     7
420
 16777215
370
     9
100
AcDb2dPolyline
 66
     1
 10
0.0
 20
0.0
 30
0.0
  0
VERTEX
  5
12F
330
12E
100
AcDbEntity
  8
_U+30EC_U+30A4_U+30E4_U+30FC 1
 62
     7
420
 16777215
370
     9
100
AcDbVertex
100
AcDb2dVertex
 10
77.14293775414191
 20
-145.6810296858023
 30
0.0
  0
VERTEX
  5
130
330
12E
100
AcDbEntity
  8
_U+30EC_U+30A4_U+30E4_U+30FC 1
 62
     7
420
 16777215
370
     9
100
AcDbVertex
100
AcDb2dVertex
 10
106.6432731126368
 20
-145.6810296858023
 30
0.0
  0
SEQEND
  5
131
330
12E
100
AcDbEntity
  8
_U+30EC_U+30A4_U+30E4_U+30FC 1
 62
     7
420
 16777215
370
     9
  0
POLYLINE
  5
132
330
1F
100
AcDbEntity
  8
_U+30EC_U+30A4_U+30E4_U+30FC 1
 62
     7
420
 16777215
370
     9
100
AcDb2dPolyline
 66
     1
 10
0.0
 20
0.0
 30
0.0
  0
VERTEX
  5
133
330
132
100
AcDbEntity
  8
_U+30EC_U+30A4_U+30E4_U+30FC 1
 62
     7
420
 16777215
370
     9
100
AcDbVertex
100
AcDb2dVertex
 10
77.14293775414191
 20
-140.2212291316117
 30
0.0
  0
VERTEX
  5
134
330
132
100
AcDbEntity
  8
_U+30EC_U+30A4_U+30E4_U+30FC 1
 62
     7
420
 16777215
370
     9
100
AcDbVertex
100
AcDb2dVertex
 10
77.14293775414191
 20
-146.6811546855519
 30
0.0
  0
SEQEND
  5
135
330
132
100
AcDbEntity
  8
_U+30EC_U+30A4_U+30E4_U+30FC 1
 62
     7
420
 16777215
370
     9
  0
POLYLINE
  5
136
330
1F
100
AcDbEntity
  8
_U+30EC_U+30A4_U+30E4_U+30FC 1
 62
     7
420
 16777215
370
     9
100
AcDb2dPolyline
 66
     1
 10
0.0
 20
0.0
 30
0.0
  0
VERTEX
  5
137
330
136
100
AcDbEntity
  8
_U+30EC_U+30A4_U+30E4_U+30FC 1
 62
     7
420
 16777215
370
     9
100
AcDbVertex
100
AcDb2dVertex
 10
106.6432731126368
 20
-144.2209882972779
 30
0.0
  0
VERTEX
  5
138
330
136
100
AcDbEntity
  8
_U+30EC_U+30A4_U+30E4_U+30FC 1
 62
     7
420
 16777215
370
     9
100
AcDbVertex
100
AcDb2dVertex
 10
106.6432731126368
 20
-146.6811546855519
 30
0.0
  0
SEQEND
  5
139
330
136
100
AcDbEntity
  8
_U+30EC_U+30A4_U+30E4_U+30FC 1
 62
     7
420
 16777215
370
     9
  0
INSERT
  5
13B
330
1F
100
AcDbEntity
  8
_U+30EC_U+30A4_U+30E4_U+30FC 1
100
AcDbBlockReference
  2
block 7
 10
0.0
 20
0.0
 30
0.0
  0
POLYLINE
  5
143
330
1F
100
AcDbEntity
  8
_U+30EC_U+30A4_U+30E4_U+30FC 1
 62
     7
420
 16777215
370
     9
100
AcDb2dPolyline
 66
     1
 10
0.0
 20
0.0
 30
0.0
  0
VERTEX
  5
144
330
143
100
AcDbEntity
  8
_U+30EC_U+30A4_U+30E4_U+30FC 1
 62
     7
420
 16777215
370
     9
100
AcDbVertex
100
AcDb2dVertex
 10
77.14600692073029
 20
-115.0172677490234
 30
0.0
  0
VERTEX
  5
145
330
143
100
AcDbEntity
  8
_U+30EC_U+30A4_U+30E4_U+30FC 1
 62
     7
420
 16777215
370
     9
100
AcDbVertex
100
AcDb2dVertex
 10
77.14600692073029
 20
-112.2077808052814
 30
0.0
  0
SEQEND
  5
146
330
143
100
AcDbEntity
  8
_U+30EC_U+30A4_U+30E4_U+30FC 1
 62
     7
420
 16777215
370
     9
  0
INSERT
  5
148
330
1F
100
AcDbEntity
  8
_U+30EC_U+30A4_U+30E4_U+30FC 1
100
AcDbBlockReference
  2
block 8
 10
0.0
 20
0.0
 30
0.0
  0
SPLINE
  5
14D
330
1F
100
AcDbEntity
  8
_U+30EC_U+30A4_U+30E4_U+30FC 1
 62
     7
420
 16777215
370
     9
100
AcDbSpline
210
0.0
220
0.0
230
1.0
 70
    11
 71
     3
 72
    17
 73
    13
 74
     0
 42
0.0000000001
 43
0.0000000001
 12
1.0
 22
0.0
 32
0.0
 13
1.0
 23
0.0
 33
0.0
 40
0.0
 40
0.0
 40
0.0
 40
0.0
 40
1.0
 40
1.0
 40
1.0
 40
2.0
 40
2.0
 40
2.0
 40
3.0
 40
3.0
 40
3.0
 40
4.0
 40
4.0
 40
4.0
 40
4.0
 10
77.24591358484813
 20
-113.1872330272587
 30
0.0
 10
77.24591358484813
 20
-113.1321291383838
 30
0.0
 10
77.20114608599023
 20
-113.0873263606171
 30
0.0
 10
77.14600692073029
 20
-113.0873263606171
 30
0.0
 10
77.09019747770965
 20
-113.0873263606171
 30
0.0
 10
77.04542997885177
 20
-113.1321291383838
 30
0.0
 10
77.04542997885177
 20
-113.1872330272587
 30
0.0
 10
77.04542997885177
 20
-113.2426896939117
 30
0.0
 10
77.09019747770965
 20
-113.2874924716781
 30
0.0
 10
77.14600692073029
 20
-113.2874924716781
 30
0.0
 10
77.20114608599023
 20
-113.2874924716781
 30
0.0
 10
77.24591358484813
 20
-113.2426896939117
 30
0.0
 10
77.24591358484813
 20
-113.1872330272587
 30
0.0
  0
ENDSEC
  0
SECTION
  2
OBJECTS
  0
DICTIONARY
  5
C
330
0
100
AcDbDictionary
281
     1
  3
ACAD_GROUP
350
D
  3
ACAD_LAYOUT
350
1A
  3
ACAD_MATERIAL
350
3B
  3
ACAD_MLEADERSTYLE
350
14F
  3
ACAD_MLINESTYLE
350
17
  3
ACAD_PLOTSETTINGS
350
19
  3
ACAD_PLOTSTYLENAME
350
E
  3
ACAD_TABLESTYLE
350
14E
  3
ACAD_VISUALSTYLE
350
2A
  0
SUN
  5
3F
330
29
100
AcDbSun
 90
        1
290
     0
 63
     7
421
 16777215
 40
1.0
291
     1
 91
  2455826
 92
 54000000
292
     0
 70
     2
 71
   256
280
     1
  0
DICTIONARY
  5
D
102
{ACAD_REACTORS
330
C
102
}
330
C
100
AcDbDictionary
281
     1
  0
DICTIONARY
  5
1A
102
{ACAD_REACTORS
330
C
102
}
330
C
100
AcDbDictionary
281
     1
  3
Layout1
350
1E
  3
Layout2
350
26
  3
Model
350
22
  0
DICTIONARY
  5
3B
102
{ACAD_REACTORS
330
C
102
}
330
C
100
AcDbDictionary
281
     1
  3
ByBlock
350
3D
  3
ByLayer
350
3C
  3
Global
350
3E
  0
DICTIONARY
  5
14F
102
{ACAD_REACTORS
330
C
102
}
330
C
100
AcDbDictionary
281
     1
  0
DICTIONARY
  5
17
102
{ACAD_REACTORS
330
C
102
}
330
C
100
AcDbDictionary
281
     1
  3
Standard
350
18
  0
DICTIONARY
  5
19
102
{ACAD_REACTORS
330
C
102
}
330
C
100
AcDbDictionary
281
     1
  0
ACDBDICTIONARYWDFLT
  5
E
102
{ACAD_REACTORS
330
C
102
}
330
C
100
AcDbDictionary
281
     1
  3
Normal
350
F
100
AcDbDictionaryWithDefault
340
F
  0
DICTIONARY
  5
14E
102
{ACAD_REACTORS
330
C
102
}
330
C
100
AcDbDictionary
281
     1
  0
DICTIONARY
  5
2A
102
{ACAD_REACTORS
330
C
102
}
330
C
100
AcDbDictionary
281
     1
  3
2dWireframe
350
2F
  3
3D Hidden
350
31
  3
3dWireframe
350
30
  3
Basic
350
32
  3
Brighten
350
36
  3
ColorChange
350
3A
  3
Conceptual
350
34
  3
Dim
350
35
  3
Facepattern
350
39
  3
Flat
350
2B
  3
FlatWithEdges
350
2C
  3
Gouraud
350
2D
  3
GouraudWithEdges
350
2E
  3
Linepattern
350
38
  3
Realistic
350
33
  3
Thicken
350
37
  0
LAYOUT
  5
1E
102
{ACAD_REACTORS
330
1A
102
}
330
1A
100
AcDbPlotSettings
  1

  2
none_device
  4

  6

 40
0.0
 41
0.0
 42
0.0
 43
0.0
 44
0.0
 45
0.0
 46
0.0
 47
0.0
 48
0.0
 49
0.0
140
0.0
141
0.0
142
1.0
143
1.0
 70
   688
 72
     0
 73
     0
 74
     5
  7

 75
    16
 76
     0
 77
     2
 78
   300
147
1.0
148
0.0
149
0.0
100
AcDbLayout
  1
Layout1
 70
     1
 71
     1
 10
0.0
 20
0.0
 11
12.0
 21
9.0
 12
0.0
 22
0.0
 32
0.0
 14
1.000000000000000E+20
 24
1.000000000000000E+20
 34
1.000000000000000E+20
 15
-1.000000000000000E+20
 25
-1.000000000000000E+20
 35
-1.000000000000000E+20
146
0.0
 13
0.0
 23
0.0
 33
0.0
 16
1.0
 26
0.0
 36
0.0
 17
0.0
 27
1.0
 37
0.0
 76
     0
330
1B
  0
LAYOUT
  5
26
102
{ACAD_REACTORS
330
1A
102
}
330
1A
100
AcDbPlotSettings
  1

  2
none_device
  4

  6

 40
0.0
 41
0.0
 42
0.0
 43
0.0
 44
0.0
 45
0.0
 46
0.0
 47
0.0
 48
0.0
 49
0.0
140
0.0
141
0.0
142
1.0
143
1.0
 70
   688
 72
     0
 73
     0
 74
     5
  7

 75
    16
 76
     0
 77
     2
 78
   300
147
1.0
148
0.0
149
0.0
100
AcDbLayout
  1
Layout2
 70
     1
 71
     2
 10
0.0
 20
0.0
 11
0.0
 21
0.0
 12
0.0
 22
0.0
 32
0.0
 14
0.0
 24
0.0
 34
0.0
 15
0.0
 25
0.0
 35
0.0
146
0.0
 13
0.0
 23
0.0
 33
0.0
 16
1.0
 26
0.0
 36
0.0
 17
0.0
 27
1.0
 37
0.0
 76
     0
330
23
  0
LAYOUT
  5
22
102
{ACAD_REACTORS
330
1A
102
}
330
1A
100
AcDbPlotSettings
  1

  2
none_device
  4

  6

 40
0.0
 41
0.0
 42
0.0
 43
0.0
 44
0.0
 45
0.0
 46
0.0
 47
0.0
 48
0.0
 49
0.0
140
0.0
141
0.0
142
1.0
143
1.0
 70
  1712
 72
     0
 73
     0
 74
     0
  7

 75
     0
 76
     0
 77
     2
 78
   300
147
1.0
148
0.0
149
0.0
100
AcDbLayout
  1
Model
 70
     1
 71
     0
 10
0.0
 20
0.0
 11
12.0
 21
9.0
 12
0.0
 22
0.0
 32
0.0
 14
1.000000000000000E+20
 24
1.000000000000000E+20
 34
1.000000000000000E+20
 15
-1.000000000000000E+20
 25
-1.000000000000000E+20
 35
-1.000000000000000E+20
146
0.0
 13
0.0
 23
0.0
 33
0.0
 16
1.0
 26
0.0
 36
0.0
 17
0.0
 27
1.0
 37
0.0
 76
     0
330
1F
331
29
  0
MATERIAL
  5
3D
102
{ACAD_REACTORS
330
3B
102
}
330
3B
100
AcDbMaterial
  1
ByBlock
 72
     1
 94
      127
  0
MATERIAL
  5
3C
102
{ACAD_REACTORS
330
3B
102
}
330
3B
100
AcDbMaterial
  1
ByLayer
 72
     1
 94
      127
  0
MATERIAL
  5
3E
102
{ACAD_REACTORS
330
3B
102
}
330
3B
100
AcDbMaterial
  1
Global
 72
     1
 94
      127
  0
MLINESTYLE
  5
18
102
{ACAD_REACTORS
330
17
102
}
330
17
100
AcDbMlineStyle
  2
Standard
 70
     0
  3

 62
   256
 51
90.0
 52
90.0
 71
     2
 49
0.5
 62
   256
  6
BYLAYER
 49
-0.5
 62
   256
  6
BYLAYER
  0
ACDBPLACEHOLDER
  5
F
102
{ACAD_REACTORS
330
E
102
}
330
E
  0
VISUALSTYLE
  5
2F
102
{ACAD_REACTORS
330
2A
102
}
330
2A
100
AcDbVisualStyle
  2
2dWireframe
 70
     4
177
     2
291
     0
 71
     0
176
     1
 72
     2
176
     1
 73
     0
176
     1
 90
        0
176
     1
 40
-0.6
176
     1
 41
-30.0
176
     1
 62
     5
 63
     7
421
 16777215
176
     1
 74
     1
176
     1
 91
        4
176
     1
 64
     7
176
     1
 65
   257
176
     1
 75
     1
176
     1
175
     1
176
     1
 42
1.0
176
     1
 92
        0
176
     1
 66
   257
176
     1
 43
1.0
176
     1
 76
     1
176
     1
 77
     6
176
     1
 78
     2
176
     1
 67
     7
176
     1
 79
     5
176
     1
170
     0
176
     1
171
     0
176
     1
290
     0
176
     1
 93
        1
176
     1
 44
0.0
176
     1
173
     0
176
     1
  0
VISUALSTYLE
  5
31
102
{ACAD_REACTORS
330
2A
102
}
330
2A
100
AcDbVisualStyle
  2
3D Hidden
 70
     6
177
     2
291
     0
 71
     1
176
     1
 72
     2
176
     1
 73
     2
176
     1
 90
        0
176
     1
 40
-0.6
176
     1
 41
-30.0
176
     1
 62
     5
 63
     7
421
 16777215
176
     1
 74
     2
176
     1
 91
        2
176
     1
 64
     7
176
     1
 65
   257
176
     1
 75
     2
176
     1
175
     1
176
     1
 42
40.0
176
     1
 92
        0
176
     1
 66
   257
176
     1
 43
1.0
176
     1
 76
     1
176
     1
 77
     6
176
     1
 78
     2
176
     1
 67
     7
176
     1
 79
     3
176
     1
170
     0
176
     1
171
     0
176
     1
290
     0
176
     1
 93
        1
176
     1
 44
0.0
176
     1
173
     0
176
     1
  0
VISUALSTYLE
  5
30
102
{ACAD_REACTORS
330
2A
102
}
330
2A
100
AcDbVisualStyle
  2
3dWireframe
 70
     5
177
     2
291
     0
 71
     0
176
     1
 72
     2
176
     1
 73
     0
176
     1
 90
        0
176
     1
 40
-0.6
176
     1
 41
-30.0
176
     1
 62
     5
 63
     7
421
 16777215
176
     1
 74
     1
176
     1
 91
        4
176
     1
 64
     7
176
     1
 65
   257
176
     1
 75
     1
176
     1
175
     1
176
     1
 42
1.0
176
     1
 92
        0
176
     1
 66
   257
176
     1
 43
1.0
176
     1
 76
     1
176
     1
 77
     6
176
     1
 78
     2
176
     1
 67
     7
176
     1
 79
     5
176
     1
170
     0
176
     1
171
     0
176
     1
290
     0
176
     1
 93
        1
176
     1
 44
0.0
176
     1
173
     0
176
     1
  0
VISUALSTYLE
  5
32
102
{ACAD_REACTORS
330
2A
102
}
330
2A
100
AcDbVisualStyle
  2
Basic
 70
     7
177
     2
291
     1
 71
     1
176
     1
 72
     0
176
     1
 73
     1
176
     1
 90
        0
176
     1
 40
-0.6
176
     1
 41
-30.0
176
     1
 62
     5
 63
     7
421
 16777215
176
     1
 74
     0
176
     1
 91
        4
176
     1
 64
     7
176
     1
 65
   257
176
     1
 75
     1
176
     1
175
     1
176
     1
 42
1.0
176
     1
 92
        8
176
     1
 66
     7
176
     1
 43
1.0
176
     1
 76
     1
176
     1
 77
     6
176
     1
 78
     2
176
     1
 67
     7
176
     1
 79
     5
176
     1
170
     0
176
     1
171
     0
176
     1
290
     0
176
     1
 93
        1
176
     1
 44
0.0
176
     1
173
     0
176
     1
  0
VISUALSTYLE
  5
36
102
{ACAD_REACTORS
330
2A
102
}
330
2A
100
AcDbVisualStyle
  2
Brighten
 70
    12
177
     2
291
     1
 71
     2
176
     1
 72
     2
176
     1
 73
     0
176
     1
 90
        0
176
     1
 40
-0.6
176
     1
 41
-30.0
176
     1
 62
     5
 63
     7
421
 16777215
176
     1
 74
     1
176
     1
 91
        4
176
     1
 64
     7
176
     1
 65
   257
176
     1
 75
     1
176
     1
175
     1
176
     1
 42
1.0
176
     1
 92
        8
176
     1
 66
     7
176
     1
 43
1.0
176
     1
 76
     1
176
     1
 77
     6
176
     1
 78
     2
176
     1
 67
     7
176
     1
 79
     5
176
     1
170
     0
176
     1
171
     0
176
     1
290
     0
176
     1
 93
        1
176
     1
 44
50.0
176
     1
173
     0
176
     1
  0
VISUALSTYLE
  5
3A
102
{ACAD_REACTORS
330
2A
102
}
330
2A
100
AcDbVisualStyle
  2
ColorChange
 70
    16
177
     2
291
     1
 71
     2
176
     1
 72
     2
176
     1
 73
     3
176
     1
 90
        0
176
     1
 40
-0.6
176
     1
 41
-30.0
176
     1
 62
     5
 63
     8
421
  8421504
176
     1
 74
     1
176
     1
 91
        4
176
     1
 64
     7
176
     1
 65
   257
176
     1
 75
     1
176
     1
175
     1
176
     1
 42
1.0
176
     1
 92
        8
176
     1
 66
     8
424
  8421504
176
     1
 43
1.0
176
     1
 76
     1
176
     1
 77
     6
176
     1
 78
     2
176
     1
 67
     7
176
     1
 79
     5
176
     1
170
     0
176
     1
171
     0
176
     1
290
     0
176
     1
 93
        1
176
     1
 44
0.0
176
     1
173
     0
176
     1
  0
VISUALSTYLE
  5
34
102
{ACAD_REACTORS
330
2A
102
}
330
2A
100
AcDbVisualStyle
  2
Conceptual
 70
     9
177
     2
291
     0
 71
     3
176
     1
 72
     2
176
     1
 73
     0
176
     1
 90
        0
176
     1
 40
-0.6
176
     1
 41
-30.0
176
     1
 62
     5
 63
     7
421
 16777215
176
     1
 74
     2
176
     1
 91
        2
176
     1
 64
     7
176
     1
 65
   257
176
     1
 75
     1
176
     1
175
     1
176
     1
 42
40.0
176
     1
 92
        8
176
     1
 66
     7
176
     1
 43
1.0
176
     1
 76
     1
176
     1
 77
     6
176
     1
 78
     2
176
     1
 67
     7
176
     1
 79
     3
176
     1
170
     0
176
     1
171
     0
176
     1
290
     0
176
     1
 93
        1
176
     1
 44
0.0
176
     1
173
     0
176
     1
  0
VISUALSTYLE
  5
35
102
{ACAD_REACTORS
330
2A
102
}
330
2A
100
AcDbVisualStyle
  2
Dim
 70
    11
177
     2
291
     1
 71
     2
176
     1
 72
     2
176
     1
 73
     0
176
     1
 90
        0
176
     1
 40
-0.6
176
     1
 41
-30.0
176
     1
 62
     5
 63
     7
421
 16777215
176
     1
 74
     1
176
     1
 91
        4
176
     1
 64
     7
176
     1
 65
   257
176
     1
 75
     1
176
     1
175
     1
176
     1
 42
1.0
176
     1
 92
        8
176
     1
 66
     7
176
     1
 43
1.0
176
     1
 76
     1
176
     1
 77
     6
176
     1
 78
     2
176
     1
 67
     7
176
     1
 79
     5
176
     1
170
     0
176
     1
171
     0
176
     1
290
     0
176
     1
 93
        1
176
     1
 44
-50.0
176
     1
173
     0
176
     1
  0
VISUALSTYLE
  5
39
102
{ACAD_REACTORS
330
2A
102
}
330
2A
100
AcDbVisualStyle
  2
Facepattern
 70
    15
177
     2
291
     1
 71
     2
176
     1
 72
     2
176
     1
 73
     0
176
     1
 90
        0
176
     1
 40
-0.6
176
     1
 41
-30.0
176
     1
 62
     5
 63
     7
421
 16777215
176
     1
 74
     1
176
     1
 91
        4
176
     1
 64
     7
176
     1
 65
   257
176
     1
 75
     1
176
     1
175
     1
176
     1
 42
1.0
176
     1
 92
        8
176
     1
 66
     7
176
     1
 43
1.0
176
     1
 76
     1
176
     1
 77
     6
176
     1
 78
     2
176
     1
 67
     7
176
     1
 79
     5
176
     1
170
     0
176
     1
171
     0
176
     1
290
     0
176
     1
 93
        1
176
     1
 44
0.0
176
     1
173
     0
176
     1
  0
VISUALSTYLE
  5
2B
102
{ACAD_REACTORS
330
2A
102
}
330
2A
100
AcDbVisualStyle
  2
Flat
 70
     0
177
     2
291
     1
 71
     2
176
     1
 72
     1
176
     1
 73
     1
176
     1
 90
        2
176
     1
 40
-0.6
176
     1
 41
30.0
176
     1
 62
     5
 63
     7
421
 16777215
176
     1
 74
     0
176
     1
 91
        4
176
     1
 64
     7
176
     1
 65
   257
176
     1
 75
     1
176
     1
175
     1
176
     1
 42
1.0
176
     1
 92
        8
176
     1
 66
     7
176
     1
 43
1.0
176
     1
 76
     1
176
     1
 77
     6
176
     1
 78
     2
176
     1
 67
     7
176
     1
 79
     5
176
     1
170
     0
176
     1
171
     0
176
     1
290
     0
176
     1
 93
       13
176
     1
 44
0.0
176
     1
173
     0
176
     1
  0
VISUALSTYLE
  5
2C
102
{ACAD_REACTORS
330
2A
102
}
330
2A
100
AcDbVisualStyle
  2
FlatWithEdges
 70
     1
177
     2
291
     1
 71
     2
176
     1
 72
     1
176
     1
 73
     1
176
     1
 90
        2
176
     1
 40
-0.6
176
     1
 41
30.0
176
     1
 62
     5
 63
     7
421
 16777215
176
     1
 74
     1
176
     1
 91
        4
176
     1
 64
     7
176
     1
 65
   257
176
     1
 75
     1
176
     1
175
     1
176
     1
 42
1.0
176
     1
 92
        0
176
     1
 66
   257
176
     1
 43
1.0
176
     1
 76
     1
176
     1
 77
     6
176
     1
 78
     2
176
     1
 67
     7
176
     1
 79
     5
176
     1
170
     0
176
     1
171
     0
176
     1
290
     0
176
     1
 93
       13
176
     1
 44
0.0
176
     1
173
     0
176
     1
  0
VISUALSTYLE
  5
2D
102
{ACAD_REACTORS
330
2A
102
}
330
2A
100
AcDbVisualStyle
  2
Gouraud
 70
     2
177
     2
291
     1
 71
     2
176
     1
 72
     2
176
     1
 73
     1
176
     1
 90
        2
176
     1
 40
-0.6
176
     1
 41
30.0
176
     1
 62
     5
 63
     7
421
 16777215
176
     1
 74
     0
176
     1
 91
        4
176
     1
 64
     7
176
     1
 65
   257
176
     1
 75
     1
176
     1
175
     1
176
     1
 42
1.0
176
     1
 92
        0
176
     1
 66
     7
176
     1
 43
1.0
176
     1
 76
     1
176
     1
 77
     6
176
     1
 78
     2
176
     1
 67
     7
176
     1
 79
     5
176
     1
170
     0
176
     1
171
     0
176
     1
290
     0
176
     1
 93
       13
176
     1
 44
0.0
176
     1
173
     0
176
     1
  0
VISUALSTYLE
  5
2E
102
{ACAD_REACTORS
330
2A
102
}
330
2A
100
AcDbVisualStyle
  2
GouraudWithEdges
 70
     3
177
     2
291
     1
 71
     2
176
     1
 72
     2
176
     1
 73
     1
176
     1
 90
        2
176
     1
 40
-0.6
176
     1
 41
30.0
176
     1
 62
     5
 63
     7
421
 16777215
176
     1
 74
     1
176
     1
 91
        4
176
     1
 64
     7
176
     1
 65
   257
176
     1
 75
     1
176
     1
175
     1
176
     1
 42
1.0
176
     1
 92
        0
176
     1
 66
   257
176
     1
 43
1.0
176
     1
 76
     1
176
     1
 77
     6
176
     1
 78
     2
176
     1
 67
     7
176
     1
 79
     5
176
     1
170
     0
176
     1
171
     0
176
     1
290
     0
176
     1
 93
       13
176
     1
 44
0.0
176
     1
173
     0
176
     1
  0
VISUALSTYLE
  5
38
102
{ACAD_REACTORS
330
2A
102
}
330
2A
100
AcDbVisualStyle
  2
Linepattern
 70
    14
177
     2
291
     1
 71
     2
176
     1
 72
     2
176
     1
 73
     0
176
     1
 90
        0
176
     1
 40
-0.6
176
     1
 41
-30.0
176
     1
 62
     5
 63
     7
421
 16777215
176
     1
 74
     1
176
     1
 91
        4
176
     1
 64
     7
176
     1
 65
   257
176
     1
 75
     7
176
     1
175
     7
176
     1
 42
1.0
176
     1
 92
        8
176
     1
 66
     7
176
     1
 43
1.0
176
     1
 76
     1
176
     1
 77
     6
176
     1
 78
     2
176
     1
 67
     7
176
     1
 79
     5
176
     1
170
     0
176
     1
171
     0
176
     1
290
     0
176
     1
 93
        1
176
     1
 44
0.0
176
     1
173
     0
176
     1
  0
VISUALSTYLE
  5
33
102
{ACAD_REACTORS
330
2A
102
}
330
2A
100
AcDbVisualStyle
  2
Realistic
 70
     8
177
     2
291
     0
 71
     2
176
     1
 72
     2
176
     1
 73
     0
176
     1
 90
        0
176
     1
 40
-0.6
176
     1
 41
-30.0
176
     1
 62
     5
 63
     7
421
 16777215
176
     1
 74
     1
176
     1
 91
        0
176
     1
 64
     7
176
     1
 65
   257
176
     1
 75
     1
176
     1
175
     1
176
     1
 42
1.0
176
     1
 92
        8
176
     1
 66
     8
424
  7895160
176
     1
 43
1.0
176
     1
 76
     1
176
     1
 77
     6
176
     1
 78
     2
176
     1
 67
     7
176
     1
 79
     5
176
     1
170
     0
176
     1
171
     0
176
     1
290
     0
176
     1
 93
       13
176
     1
 44
0.0
176
     1
173
     0
176
     1
  0
VISUALSTYLE
  5
37
102
{ACAD_REACTORS
330
2A
102
}
330
2A
100
AcDbVisualStyle
  2
Thicken
 70
    13
177
     2
291
     1
 71
     2
176
     1
 72
     2
176
     1
 73
     0
176
     1
 90
        0
176
     1
 40
-0.6
176
     1
 41
-30.0
176
     1
 62
     5
 63
     7
421
 16777215
176
     1
 74
     1
176
     1
 91
        4
176
     1
 64
     7
176
     1
 65
   257
176
     1
 75
     1
176
     1
175
     1
176
     1
 42
1.0
176
     1
 92
       12
176
     1
 66
     7
176
     1
 43
1.0
176
     1
 76
     1
176
     1
 77
     6
176
     1
 78
     2
176
     1
 67
     7
176
     1
 79
     5
176
     1
170
     0
176
     1
171
     0
176
     1
290
     0
176
     1
 93
        1
176
     1
 44
0.0
176
     1
173
     0
176
     1
  0
ENDSEC
  0
EOF
