  0
SECTION
  2
HEADER
  9
$ACADVER
  1
AC1024
  9
$ACADMAINTVER
 70
     6
  9
$DWGCODEPAGE
  3
UNDEFINED
  9
$INSBASE
 10
0.0
 20
0.0
 30
0.0
  9
$EXTMIN
 10
1.000000000000000E+20
 20
1.000000000000000E+20
 30
1.000000000000000E+20
  9
$EXTMAX
 10
-1.000000000000000E+20
 20
-1.000000000000000E+20
 30
-1.000000000000000E+20
  9
$LIMMIN
 10
0.0
 20
0.0
  9
$LIMMAX
 10
12.0
 20
9.0
  9
$ORTHOMODE
 70
     0
  9
$REGENMODE
 70
     1
  9
$FILLMODE
 70
     1
  9
$QTEXTMODE
 70
     0
  9
$MIRRTEXT
 70
     1
  9
$LTSCALE
 40
1.0
  9
$ATTMODE
 70
     1
  9
$TEXTSIZE
 40
0.2
  9
$TRACEWID
 40
0.05
  9
$TEXTSTYLE
  7
Standard
  9
$CLAYER
  8
0
  9
$CELTYPE
  6
ByLayer
  9
$CECOLOR
 62
   256
  9
$CELTSCALE
 40
1.0
  9
$DISPSILH
 70
     0
  9
$DIMSCALE
 40
1.0
  9
$DIMASZ
 40
0.18
  9
$DIMEXO
 40
0.0625
  9
$DIMDLI
 40
0.38
  9
$DIMRND
 40
0.0
  9
$DIMDLE
 40
0.0
  9
$DIMEXE
 40
0.18
  9
$DIMTP
 40
0.0
  9
$DIMTM
 40
0.0
  9
$DIMTXT
 40
0.18
  9
$DIMCEN
 40
0.09
  9
$DIMTSZ
 40
0.0
  9
$DIMTOL
 70
     0
  9
$DIMLIM
 70
     0
  9
$DIMTIH
 70
     1
  9
$DIMTOH
 70
     1
  9
$DIMSE1
 70
     0
  9
$DIMSE2
 70
     0
  9
$DIMTAD
 70
     0
  9
$DIMZIN
 70
     0
  9
$DIMBLK
  1

  9
$DIMASO
 70
     1
  9
$DIMSHO
 70
     1
  9
$DIMPOST
  1

  9
$DIMAPOST
  1

  9
$DIMALT
 70
     0
  9
$DIMALTD
 70
     2
  9
$DIMALTF
 40
25.4
  9
$DIMLFAC
 40
1.0
  9
$DIMTOFL
 70
     0
  9
$DIMTVP
 40
0.0
  9
$DIMTIX
 70
     0
  9
$DIMSOXD
 70
     0
  9
$DIMSAH
 70
     0
  9
$DIMBLK1
  1

  9
$DIMBLK2
  1

  9
$DIMSTYLE
  2
Standard
  9
$DIMCLRD
 70
     0
  9
$DIMCLRE
 70
     0
  9
$DIMCLRT
 70
     0
  9
$DIMTFAC
 40
1.0
  9
$DIMGAP
 40
0.09
  9
$DIMJUST
 70
     0
  9
$DIMSD1
 70
     0
  9
$DIMSD2
 70
     0
  9
$DIMTOLJ
 70
     1
  9
$DIMTZIN
 70
     0
  9
$DIMALTZ
 70
     0
  9
$DIMALTTZ
 70
     0
  9
$DIMUPT
 70
     0
  9
$DIMDEC
 70
     4
  9
$DIMTDEC
 70
     4
  9
$DIMALTU
 70
     2
  9
$DIMALTTD
 70
     2
  9
$DIMTXSTY
  7
Standard
  9
$DIMAUNIT
 70
     0
  9
$DIMADEC
 70
     0
  9
$DIMALTRND
 40
0.0
  9
$DIMAZIN
 70
     0
  9
$DIMDSEP
 70
    46
  9
$DIMATFIT
 70
     3
  9
$DIMFRAC
 70
     0
  9
$DIMLDRBLK
  1

  9
$DIMLUNIT
 70
     2
  9
$DIMLWD
 70
    -2
  9
$DIMLWE
 70
    -2
  9
$DIMTMOVE
 70
     0
  9
$DIMFXL
 40
1.0
  9
$DIMFXLON
 70
     0
  9
$DIMJOGANG
 40
0.7853981633974483
  9
$DIMTFILL
 70
     0
  9
$DIMTFILLCLR
 70
     0
  9
$DIMARCSYM
 70
     0
  9
$DIMLTYPE
  6

  9
$DIMLTEX1
  6

  9
$DIMLTEX2
  6

  9
$DIMTXTDIRECTION
 70
     0
  9
$LUNITS
 70
     2
  9
$LUPREC
 70
     4
  9
$SKETCHINC
 40
0.1
  9
$FILLETRAD
 40
0.5
  9
$AUNITS
 70
     0
  9
$AUPREC
 70
     0
  9
$MENU
  1
.
  9
$ELEVATION
 40
0.0
  9
$PELEVATION
 40
0.0
  9
$THICKNESS
 40
0.0
  9
$LIMCHECK
 70
     0
  9
$CHAMFERA
 40
0.5
  9
$CHAMFERB
 40
0.5
  9
$CHAMFERC
 40
1.0
  9
$CHAMFERD
 40
0.0
  9
$SKPOLY
 70
     0
  9
$TDCREATE
 40
2457917.619826389
  9
$TDUCREATE
 40
2457917.244826389
  9
$TDUPDATE
 40
2457917.619826389
  9
$TDUUPDATE
 40
2457917.244826389
  9
$TDINDWG
 40
0.0000000116
  9
$TDUSRTIMER
 40
0.0000000116
  9
$USRTIMER
 70
     1
  9
$ANGBASE
 50
0.0
  9
$ANGDIR
 70
     0
  9
$PDMODE
 70
     0
  9
$PDSIZE
 40
0.0
  9
$PLINEWID
 40
0.0
  9
$SPLFRAME
 70
     0
  9
$SPLINETYPE
 70
     6
  9
$SPLINESEGS
 70
     8
  9
$HANDSEED
  5
B2
  9
$SURFTAB1
 70
     6
  9
$SURFTAB2
 70
     6
  9
$SURFTYPE
 70
     6
  9
$SURFU
 70
     6
  9
$SURFV
 70
     6
  9
$UCSBASE
  2

  9
$UCSNAME
  2

  9
$UCSORG
 10
0.0
 20
0.0
 30
0.0
  9
$UCSXDIR
 10
1.0
 20
0.0
 30
0.0
  9
$UCSYDIR
 10
0.0
 20
1.0
 30
0.0
  9
$UCSORTHOREF
  2

  9
$UCSORTHOVIEW
 70
     0
  9
$UCSORGTOP
 10
0.0
 20
0.0
 30
0.0
  9
$UCSORGBOTTOM
 10
0.0
 20
0.0
 30
0.0
  9
$UCSORGLEFT
 10
0.0
 20
0.0
 30
0.0
  9
$UCSORGRIGHT
 10
0.0
 20
0.0
 30
0.0
  9
$UCSORGFRONT
 10
0.0
 20
0.0
 30
0.0
  9
$UCSORGBACK
 10
0.0
 20
0.0
 30
0.0
  9
$PUCSBASE
  2

  9
$PUCSNAME
  2

  9
$PUCSORG
 10
0.0
 20
0.0
 30
0.0
  9
$PUCSXDIR
 10
1.0
 20
0.0
 30
0.0
  9
$PUCSYDIR
 10
0.0
 20
1.0
 30
0.0
  9
$PUCSORTHOREF
  2

  9
$PUCSORTHOVIEW
 70
     0
  9
$PUCSORGTOP
 10
0.0
 20
0.0
 30
0.0
  9
$PUCSORGBOTTOM
 10
0.0
 20
0.0
 30
0.0
  9
$PUCSORGLEFT
 10
0.0
 20
0.0
 30
0.0
  9
$PUCSORGRIGHT
 10
0.0
 20
0.0
 30
0.0
  9
$PUCSORGFRONT
 10
0.0
 20
0.0
 30
0.0
  9
$PUCSORGBACK
 10
0.0
 20
0.0
 30
0.0
  9
$USERI1
 70
     0
  9
$USERI2
 70
     0
  9
$USERI3
 70
     0
  9
$USERI4
 70
     0
  9
$USERI5
 70
     0
  9
$USERR1
 40
0.0
  9
$USERR2
 40
0.0
  9
$USERR3
 40
0.0
  9
$USERR4
 40
0.0
  9
$USERR5
 40
0.0
  9
$WORLDVIEW
 70
     1
  9
$SHADEDGE
 70
     3
  9
$SHADEDIF
 70
    70
  9
$TILEMODE
 70
     1
  9
$MAXACTVP
 70
    64
  9
$PINSBASE
 10
0.0
 20
0.0
 30
0.0
  9
$PLIMCHECK
 70
     0
  9
$PEXTMIN
 10
1.000000000000000E+20
 20
1.000000000000000E+20
 30
1.000000000000000E+20
  9
$PEXTMAX
 10
-1.000000000000000E+20
 20
-1.000000000000000E+20
 30
-1.000000000000000E+20
  9
$PLIMMIN
 10
0.0
 20
0.0
  9
$PLIMMAX
 10
12.0
 20
9.0
  9
$UNITMODE
 70
     0
  9
$VISRETAIN
 70
     1
  9
$PLINEGEN
 70
     0
  9
$PSLTSCALE
 70
     1
  9
$TREEDEPTH
 70
  3020
  9
$CMLSTYLE
  2
Standard
  9
$CMLJUST
 70
     0
  9
$CMLSCALE
 40
1.0
  9
$PROXYGRAPHICS
 70
     1
  9
$MEASUREMENT
 70
     0
  9
$CELWEIGHT
370
    -1
  9
$ENDCAPS
280
     0
  9
$JOINSTYLE
280
     0
  9
$LWDISPLAY
290
     1
  9
$INSUNITS
 70
     1
  9
$HYPERLINKBASE
  1

  9
$STYLESHEET
  1

  9
$XEDIT
290
     1
  9
$CEPSNTYPE
380
     0
  9
$PSTYLEMODE
290
     1
  9
$FINGERPRINTGUID
  2
{BEE083A4-7D87-85F4-FC07-DE42FA402578}
  9
$VERSIONGUID
  2
{FAEB1C32-E019-11D5-929B-00C0DF256EC4}
  9
$EXTNAMES
290
     1
  9
$PSVPSCALE
 40
0.0
  9
$OLESTARTUP
290
     0
  9
$SORTENTS
280
   127
  9
$INDEXCTL
280
     0
  9
$HIDETEXT
280
     1
  9
$XCLIPFRAME
280
     2
  9
$HALOGAP
280
     0
  9
$OBSCOLOR
 70
   257
  9
$OBSLTYPE
280
     0
  9
$INTERSECTIONDISPLAY
280
     0
  9
$INTERSECTIONCOLOR
 70
   257
  9
$DIMASSOC
280
     2
  9
$PROJECTNAME
  1

  9
$CAMERADISPLAY
290
     0
  9
$LENSLENGTH
 40
50.0
  9
$CAMERAHEIGHT
 40
0.0
  9
$STEPSPERSEC
 40
2.0
  9
$STEPSIZE
 40
6.0
  9
$3DDWFPREC
 40
2.0
  9
$PSOLWIDTH
 40
0.25
  9
$PSOLHEIGHT
 40
4.0
  9
$LOFTANG1
 40
1.570796326794897
  9
$LOFTANG2
 40
1.570796326794897
  9
$LOFTMAG1
 40
0.0
  9
$LOFTMAG2
 40
0.0
  9
$LOFTPARAM
 70
     7
  9
$LOFTNORMALS
280
     1
  9
$LATITUDE
 40
37.795
  9
$LONGITUDE
 40
-122.394
  9
$NORTHDIRECTION
 40
0.0
  9
$TIMEZONE
 70
 -8000
  9
$LIGHTGLYPHDISPLAY
280
     1
  9
$TILEMODELIGHTSYNCH
280
     1
  9
$CMATERIAL
347
3C
  9
$SOLIDHIST
280
     1
  9
$SHOWHIST
280
     1
  9
$DWFFRAME
280
     2
  9
$DGNFRAME
280
     2
  9
$REALWORLDSCALE
290
     1
  9
$INTERFERECOLOR
 62
   256
  9
$CSHADOW
280
     0
  9
$SHADOWPLANELOCATION
 40
0.0
  0
ENDSEC
  0
SECTION
  2
CLASSES
  0
CLASS
  1
ACDBDICTIONARYWDFLT
  2
AcDbDictionaryWithDefault
  3
ObjectDBX Classes
 90
        0
 91
        4
280
     0
281
     0
  0
CLASS
  1
VISUALSTYLE
  2
AcDbVisualStyle
  3
ObjectDBX Classes
 90
     4095
 91
        4
280
     0
281
     0
  0
CLASS
  1
MATERIAL
  2
AcDbMaterial
  3
ObjectDBX Classes
 90
     1153
 91
        4
280
     0
281
     0
  0
CLASS
  1
SUN
  2
AcDbSun
  3
SCENEOE
 90
     1024
 91
        4
280
     0
281
     0
  0
ENDSEC
  0
SECTION
  2
TABLES
  0
TABLE
  2
VPORT
  5
8
330
0
100
AcDbSymbolTable
 70
     1
  0
VPORT
  5
29
330
8
100
AcDbSymbolTableRecord
100
AcDbViewportTableRecord
  2
*Active
 70
     0
 10
0.0
 20
0.0
 11
1.0
 21
1.0
 12
0.0
 22
0.0
 13
0.0
 23
0.0
 14
0.5
 24
0.5
 15
0.5
 25
0.5
 16
0.0
 26
0.0
 36
1.0
 17
91.00082462281999
 27
-128.4993055234307
 37
0.0
 40
256.9986110468615
 41
0.7081814508812795
 42
50.0
 43
0.0
 44
0.0
 50
0.0
 51
0.0
 71
     0
 72
   100
 73
     1
 74
     3
 75
     0
 76
     0
 77
     0
 78
     0
281
     0
 65
     1
110
0.0
120
0.0
130
0.0
111
1.0
121
0.0
131
0.0
112
0.0
122
1.0
132
0.0
 79
     0
146
0.0
 60
     3
 61
     5
292
     1
282
     1
141
0.0
142
0.0
 63
   250
361
3F
  0
ENDTAB
  0
TABLE
  2
LTYPE
  5
5
330
0
100
AcDbSymbolTable
 70
     1
  0
LTYPE
  5
14
330
5
100
AcDbSymbolTableRecord
100
AcDbLinetypeTableRecord
  2
ByBlock
 70
     0
  3

 72
    65
 73
     0
 40
0.0
  0
LTYPE
  5
15
330
5
100
AcDbSymbolTableRecord
100
AcDbLinetypeTableRecord
  2
ByLayer
 70
     0
  3

 72
    65
 73
     0
 40
0.0
  0
LTYPE
  5
16
330
5
100
AcDbSymbolTableRecord
100
AcDbLinetypeTableRecord
  2
Continuous
 70
     0
  3
Solid line
 72
    65
 73
     0
 40
0.0
  0
ENDTAB
  0
TABLE
  2
LAYER
  5
2
330
0
100
AcDbSymbolTable
 70
     2
  0
LAYER
  5
10
330
2
100
AcDbSymbolTableRecord
100
AcDbLayerTableRecord
  2
0
 70
     0
 62
     7
  6
Continuous
370
    -3
390
F
347
3E
  0
LAYER
  5
40
330
2
100
AcDbSymbolTableRecord
100
AcDbLayerTableRecord
  2
_U+30EC_U+30A4_U+30E4_U+30FC 1
 70
     0
 62
     7
  6
Continuous
370
    -3
390
F
347
3E
  0
ENDTAB
  0
TABLE
  2
STYLE
  5
3
330
0
100
AcDbSymbolTable
 70
     1
  0
STYLE
  5
11
330
3
100
AcDbSymbolTableRecord
100
AcDbTextStyleTableRecord
  2
Standard
 70
     0
 40
0.0
 41
1.0
 50
0.0
 71
     0
 42
0.2
  3
txt
  4

  0
ENDTAB
  0
TABLE
  2
VIEW
  5
6
330
0
100
AcDbSymbolTable
 70
     0
  0
ENDTAB
  0
TABLE
  2
UCS
  5
7
330
0
100
AcDbSymbolTable
 70
     0
  0
ENDTAB
  0
TABLE
  2
APPID
  5
9
330
0
100
AcDbSymbolTable
 70
     1
  0
APPID
  5
12
330
9
100
AcDbSymbolTableRecord
100
AcDbRegAppTableRecord
  2
ACAD
 70
     0
  0
ENDTAB
  0
TABLE
  2
DIMSTYLE
  5
A
330
0
100
AcDbSymbolTable
 70
     1
100
AcDbDimStyleTable
  0
DIMSTYLE
105
27
330
A
100
AcDbSymbolTableRecord
100
AcDbDimStyleTableRecord
  2
Standard
 70
     0
178
     0
340
11
  0
ENDTAB
  0
TABLE
  2
BLOCK_RECORD
  5
1
330
0
100
AcDbSymbolTable
 70
     6
  0
BLOCK_RECORD
  5
1F
330
1
100
AcDbSymbolTableRecord
100
AcDbBlockTableRecord
  2
*Model_Space
340
22
 70
     0
280
     1
281
     0
  0
BLOCK_RECORD
  5
1B
330
1
100
AcDbSymbolTableRecord
100
AcDbBlockTableRecord
  2
*Paper_Space
340
1E
 70
     0
280
     1
281
     0
  0
BLOCK_RECORD
  5
23
330
1
100
AcDbSymbolTableRecord
100
AcDbBlockTableRecord
  2
*Paper_Space0
340
26
 70
     0
280
     1
281
     0
  0
BLOCK_RECORD
  5
4F
330
1
100
AcDbSymbolTableRecord
100
AcDbBlockTableRecord
  2
block 2
340
0
102
{BLKREFS
331
50
102
}
 70
     0
280
     1
281
     0
  0
BLOCK_RECORD
  5
80
330
1
100
AcDbSymbolTableRecord
100
AcDbBlockTableRecord
  2
block 3
340
0
102
{BLKREFS
331
81
102
}
 70
     0
280
     1
281
     0
  0
BLOCK_RECORD
  5
87
330
1
100
AcDbSymbolTableRecord
100
AcDbBlockTableRecord
  2
block 4
340
0
102
{BLKREFS
331
88
102
}
 70
     0
280
     1
281
     0
  0
BLOCK_RECORD
  5
9B
330
1
100
AcDbSymbolTableRecord
100
AcDbBlockTableRecord
  2
block 5
340
0
102
{BLKREFS
331
9C
102
}
 70
     0
280
     1
281
     0
  0
BLOCK_RECORD
  5
A3
330
1
100
AcDbSymbolTableRecord
100
AcDbBlockTableRecord
  2
block 6
340
0
102
{BLKREFS
331
A4
102
}
 70
     0
280
     1
281
     0
  0
ENDTAB
  0
ENDSEC
  0
SECTION
  2
BLOCKS
  0
BLOCK
  5
20
330
1F
100
AcDbEntity
  8
0
100
AcDbBlockBegin
  2
*Model_Space
 70
     0
 10
0.0
 20
0.0
 30
0.0
  3
*Model_Space
  1

  0
ENDBLK
  5
21
330
1F
100
AcDbEntity
  8
0
100
AcDbBlockEnd
  0
BLOCK
  5
1C
330
1B
100
AcDbEntity
 67
     1
  8
0
100
AcDbBlockBegin
  2
*Paper_Space
 70
     0
 10
0.0
 20
0.0
 30
0.0
  3
*Paper_Space
  1

  0
ENDBLK
  5
1D
330
1B
100
AcDbEntity
 67
     1
  8
0
100
AcDbBlockEnd
  0
BLOCK
  5
24
330
23
100
AcDbEntity
  8
0
100
AcDbBlockBegin
  2
*Paper_Space0
 70
     0
 10
0.0
 20
0.0
 30
0.0
  3
*Paper_Space0
  1

  0
ENDBLK
  5
25
330
23
100
AcDbEntity
  8
0
100
AcDbBlockEnd
  0
BLOCK
  5
51
330
4F
100
AcDbEntity
  8
0
100
AcDbBlockBegin
  2
block 2
 70
     0
 10
0.0
 20
0.0
 30
0.0
  3
block 2
  1

  0
SPLINE
  5
53
330
4F
100
AcDbEntity
  8
_U+30EC_U+30A4_U+30E4_U+30FC 1
370
     0
100
AcDbSpline
210
0.0
220
0.0
230
1.0
 70
    11
 71
     3
 72
    26
 73
    22
 74
     0
 42
0.0000000001
 43
0.0000000001
 12
1.0
 22
0.0
 32
0.0
 13
1.0
 23
0.0
 33
0.0
 40
0.0
 40
0.0
 40
0.0
 40
0.0
 40
1.0
 40
1.0
 40
1.0
 40
2.0
 40
2.0
 40
2.0
 40
3.0
 40
3.0
 40
3.0
 40
4.0
 40
4.0
 40
4.0
 40
5.0
 40
5.0
 40
5.0
 40
6.0
 40
6.0
 40
6.0
 40
7.0
 40
7.0
 40
7.0
 40
7.0
 10
95.37436792320503
 20
-116.7684108866065
 30
0.0
 10
95.37436792320503
 20
-116.7684108866065
 30
0.0
 10
95.37436792320503
 20
-115.6642577835839
 30
0.0
 10
95.37436792320503
 20
-115.6642577835839
 30
0.0
 10
95.37436792320503
 20
-115.6642577835839
 30
0.0
 10
95.04432777571809
 20
-115.6642577835839
 30
0.0
 10
95.04432777571809
 20
-115.6642577835839
 30
0.0
 10
95.04432777571809
 20
-115.6642577835839
 30
0.0
 10
95.04432777571809
 20
-115.5161186777182
 30
0.0
 10
95.04432777571809
 20
-115.5161186777182
 30
0.0
 10
95.37643498049617
 20
-115.5013047671316
 30
0.0
 10
95.42294376954705
 20
-115.3383517506793
 30
0.0
 10
95.4525715907202
 20
-115.223974580569
 30
0.0
 10
95.4525715907202
 20
-115.223974580569
 30
0.0
 10
95.59864363929479
 20
-115.223974580569
 30
0.0
 10
95.59864363929479
 20
-115.223974580569
 30
0.0
 10
95.59864363929479
 20
-115.223974580569
 30
0.0
 10
95.59864363929479
 20
-116.7684108866065
 30
0.0
 10
95.59864363929479
 20
-116.7684108866065
 30
0.0
 10
95.59864363929479
 20
-116.7684108866065
 30
0.0
 10
95.37436792320503
 20
-116.7684108866065
 30
0.0
 10
95.37436792320503
 20
-116.7684108866065
 30
0.0
  0
HATCH
  5
54
330
4F
100
AcDbEntity
  8
_U+30EC_U+30A4_U+30E4_U+30FC 1
 62
     7
420
 16777215
100
AcDbHatch
 10
0.0
 20
0.0
 30
0.0
210
0.0
220
0.0
230
1.0
  2
SOLID
 70
     1
 71
     0
 91
        1
 92
        1
 93
        1
 72
     4
 94
        3
 73
     0
 74
     1
 95
       26
 96
       22
 40
0.0
 40
0.0
 40
0.0
 40
0.0
 40
1.0
 40
1.0
 40
1.0
 40
2.0
 40
2.0
 40
2.0
 40
3.0
 40
3.0
 40
3.0
 40
4.0
 40
4.0
 40
4.0
 40
5.0
 40
5.0
 40
5.0
 40
6.0
 40
6.0
 40
6.0
 40
7.0
 40
7.0
 40
7.0
 40
7.0
 10
95.37436792320503
 20
-116.7684108866065
 10
95.37436792320503
 20
-116.7684108866065
 10
95.37436792320503
 20
-115.6642577835839
 10
95.37436792320503
 20
-115.6642577835839
 10
95.37436792320503
 20
-115.6642577835839
 10
95.04432777571809
 20
-115.6642577835839
 10
95.04432777571809
 20
-115.6642577835839
 10
95.04432777571809
 20
-115.6642577835839
 10
95.04432777571809
 20
-115.5161186777182
 10
95.04432777571809
 20
-115.5161186777182
 10
95.37643498049617
 20
-115.5013047671316
 10
95.42294376954705
 20
-115.3383517506793
 10
95.4525715907202
 20
-115.223974580569
 10
95.4525715907202
 20
-115.223974580569
 10
95.59864363929479
 20
-115.223974580569
 10
95.59864363929479
 20
-115.223974580569
 10
95.59864363929479
 20
-115.223974580569
 10
95.59864363929479
 20
-116.7684108866065
 10
95.59864363929479
 20
-116.7684108866065
 10
95.59864363929479
 20
-116.7684108866065
 10
95.37436792320503
 20
-116.7684108866065
 10
95.37436792320503
 20
-116.7684108866065
 97
        0
 97
        0
 75
     2
 76
     1
 98
        0
  0
POLYLINE
  5
55
330
4F
100
AcDbEntity
  8
_U+30EC_U+30A4_U+30E4_U+30FC 1
370
     0
100
AcDb2dPolyline
 66
     1
 10
0.0
 20
0.0
 30
0.0
  0
VERTEX
  5
56
330
55
100
AcDbEntity
  8
_U+30EC_U+30A4_U+30E4_U+30FC 1
370
     0
100
AcDbVertex
100
AcDb2dVertex
 10
96.93189559208648
 20
-116.4214897712419
 30
0.0
  0
VERTEX
  5
57
330
55
100
AcDbEntity
  8
_U+30EC_U+30A4_U+30E4_U+30FC 1
370
     0
100
AcDbVertex
100
AcDb2dVertex
 10
96.93189559208648
 20
-116.7684108866065
 30
0.0
  0
VERTEX
  5
58
330
55
100
AcDbEntity
  8
_U+30EC_U+30A4_U+30E4_U+30FC 1
370
     0
100
AcDbVertex
100
AcDb2dVertex
 10
96.71416555741868
 20
-116.7684108866065
 30
0.0
  0
VERTEX
  5
59
330
55
100
AcDbEntity
  8
_U+30EC_U+30A4_U+30E4_U+30FC 1
370
     0
100
AcDbVertex
100
AcDb2dVertex
 10
96.71416555741868
 20
-116.4214897712419
 30
0.0
  0
VERTEX
  5
5A
330
55
100
AcDbEntity
  8
_U+30EC_U+30A4_U+30E4_U+30FC 1
370
     0
100
AcDbVertex
100
AcDb2dVertex
 10
96.05821937702711
 20
-116.4214897712419
 30
0.0
  0
VERTEX
  5
5B
330
55
100
AcDbEntity
  8
_U+30EC_U+30A4_U+30E4_U+30FC 1
370
     0
100
AcDbVertex
100
AcDb2dVertex
 10
96.05821937702711
 20
-116.1972140551521
 30
0.0
  0
VERTEX
  5
5C
330
55
100
AcDbEntity
  8
_U+30EC_U+30A4_U+30E4_U+30FC 1
370
     0
100
AcDbVertex
100
AcDb2dVertex
 10
96.73724769716986
 20
-115.223974580569
 30
0.0
  0
VERTEX
  5
5D
330
55
100
AcDbEntity
  8
_U+30EC_U+30A4_U+30E4_U+30FC 1
370
     0
100
AcDbVertex
100
AcDb2dVertex
 10
96.93189559208648
 20
-115.223974580569
 30
0.0
  0
VERTEX
  5
5E
330
55
100
AcDbEntity
  8
_U+30EC_U+30A4_U+30E4_U+30FC 1
370
     0
100
AcDbVertex
100
AcDb2dVertex
 10
96.93189559208648
 20
-116.2227077617429
 30
0.0
  0
VERTEX
  5
5F
330
55
100
AcDbEntity
  8
_U+30EC_U+30A4_U+30E4_U+30FC 1
370
     0
100
AcDbVertex
100
AcDb2dVertex
 10
97.13929034029852
 20
-116.2227077617429
 30
0.0
  0
VERTEX
  5
60
330
55
100
AcDbEntity
  8
_U+30EC_U+30A4_U+30E4_U+30FC 1
370
     0
100
AcDbVertex
100
AcDb2dVertex
 10
97.13929034029852
 20
-116.4214897712419
 30
0.0
  0
VERTEX
  5
61
330
55
100
AcDbEntity
  8
_U+30EC_U+30A4_U+30E4_U+30FC 1
370
     0
100
AcDbVertex
100
AcDb2dVertex
 10
96.93189559208648
 20
-116.4214897712419
 30
0.0
  0
SEQEND
  5
62
330
55
100
AcDbEntity
  8
_U+30EC_U+30A4_U+30E4_U+30FC 1
370
     0
  0
POLYLINE
  5
63
330
4F
100
AcDbEntity
  8
_U+30EC_U+30A4_U+30E4_U+30FC 1
370
     0
100
AcDb2dPolyline
 66
     1
 10
0.0
 20
0.0
 30
0.0
  0
VERTEX
  5
64
330
63
100
AcDbEntity
  8
_U+30EC_U+30A4_U+30E4_U+30FC 1
370
     0
100
AcDbVertex
100
AcDb2dVertex
 10
96.71416555741868
 20
-115.5667615813514
 30
0.0
  0
VERTEX
  5
65
330
63
100
AcDbEntity
  8
_U+30EC_U+30A4_U+30E4_U+30FC 1
370
     0
100
AcDbVertex
100
AcDb2dVertex
 10
96.25700138652603
 20
-116.2227077617429
 30
0.0
  0
VERTEX
  5
66
330
63
100
AcDbEntity
  8
_U+30EC_U+30A4_U+30E4_U+30FC 1
370
     0
100
AcDbVertex
100
AcDb2dVertex
 10
96.71416555741868
 20
-116.2227077617429
 30
0.0
  0
VERTEX
  5
67
330
63
100
AcDbEntity
  8
_U+30EC_U+30A4_U+30E4_U+30FC 1
370
     0
100
AcDbVertex
100
AcDb2dVertex
 10
96.71416555741868
 20
-115.5667615813514
 30
0.0
  0
SEQEND
  5
68
330
63
100
AcDbEntity
  8
_U+30EC_U+30A4_U+30E4_U+30FC 1
370
     0
  0
HATCH
  5
69
330
4F
100
AcDbEntity
  8
_U+30EC_U+30A4_U+30E4_U+30FC 1
 62
     7
420
 16777215
100
AcDbHatch
 10
0.0
 20
0.0
 30
0.0
210
0.0
220
0.0
230
1.0
  2
SOLID
 70
     1
 71
     0
 91
        2
 92
        1
 93
       11
 72
     1
 10
96.93189559208648
 20
-116.4214897712419
 11
96.93189559208648
 21
-116.7684108866065
 72
     1
 10
96.93189559208648
 20
-116.7684108866065
 11
96.71416555741868
 21
-116.7684108866065
 72
     1
 10
96.71416555741868
 20
-116.7684108866065
 11
96.71416555741868
 21
-116.4214897712419
 72
     1
 10
96.71416555741868
 20
-116.4214897712419
 11
96.05821937702711
 21
-116.4214897712419
 72
     1
 10
96.05821937702711
 20
-116.4214897712419
 11
96.05821937702711
 21
-116.1972140551521
 72
     1
 10
96.05821937702711
 20
-116.1972140551521
 11
96.73724769716986
 21
-115.223974580569
 72
     1
 10
96.73724769716986
 20
-115.223974580569
 11
96.93189559208648
 21
-115.223974580569
 72
     1
 10
96.93189559208648
 20
-115.223974580569
 11
96.93189559208648
 21
-116.2227077617429
 72
     1
 10
96.93189559208648
 20
-116.2227077617429
 11
97.13929034029852
 21
-116.2227077617429
 72
     1
 10
97.13929034029852
 20
-116.2227077617429
 11
97.13929034029852
 21
-116.4214897712419
 72
     1
 10
97.13929034029852
 20
-116.4214897712419
 11
96.93189559208648
 21
-116.4214897712419
 97
        0
 92
        1
 93
        3
 72
     1
 10
96.71416555741868
 20
-115.5667615813514
 11
96.25700138652603
 21
-116.2227077617429
 72
     1
 10
96.25700138652603
 20
-116.2227077617429
 11
96.71416555741868
 21
-116.2227077617429
 72
     1
 10
96.71416555741868
 20
-116.2227077617429
 11
96.71416555741868
 21
-115.5667615813514
 97
        0
 75
     2
 76
     1
 98
        0
  0
ENDBLK
  5
52
330
4F
100
AcDbEntity
  8
0
100
AcDbBlockEnd
  0
BLOCK
  5
82
330
80
100
AcDbEntity
  8
0
100
AcDbBlockBegin
  2
block 3
 70
     0
 10
0.0
 20
0.0
 30
0.0
  3
block 3
  1

  0
SPLINE
  5
84
330
80
100
AcDbEntity
  8
_U+30EC_U+30A4_U+30E4_U+30FC 1
370
     0
100
AcDbSpline
210
0.0
220
0.0
230
1.0
 70
    11
 71
     3
 72
    32
 73
    28
 74
     0
 42
0.0000000001
 43
0.0000000001
 12
1.0
 22
0.0
 32
0.0
 13
1.0
 23
0.0
 33
0.0
 40
0.0
 40
0.0
 40
0.0
 40
0.0
 40
1.0
 40
1.0
 40
1.0
 40
2.0
 40
2.0
 40
2.0
 40
3.0
 40
3.0
 40
3.0
 40
4.0
 40
4.0
 40
4.0
 40
5.0
 40
5.0
 40
5.0
 40
6.0
 40
6.0
 40
6.0
 40
7.0
 40
7.0
 40
7.0
 40
8.0
 40
8.0
 40
8.0
 40
9.0
 40
9.0
 40
9.0
 40
9.0
 10
104.2344644921706
 20
-131.9106390729251
 30
0.0
 10
104.2344644921706
 20
-132.0839273758332
 30
0.0
 10
104.1648735633685
 20
-132.3295626839315
 30
0.0
 10
103.8327663585904
 20
-132.3674587342693
 30
0.0
 10
103.8327663585904
 20
-132.3674587342693
 30
0.0
 10
103.8327663585904
 20
-132.1538628141838
 30
0.0
 10
103.8327663585904
 20
-132.1538628141838
 30
0.0
 10
103.8920220009367
 20
-132.1431830181795
 30
0.0
 10
104.0398165972539
 20
-132.1114881397152
 30
0.0
 10
104.0398165972539
 20
-131.908572015634
 30
0.0
 10
104.0398165972539
 20
-131.6164279184848
 30
0.0
 10
103.709776449767
 20
-131.5785318681471
 30
0.0
 10
103.5047932683946
 20
-131.5657850148516
 30
0.0
 10
103.585063993201
 20
-131.6567355356622
 30
0.0
 10
103.6422525782561
 20
-131.7242594071731
 30
0.0
 10
103.6422525782561
 20
-131.9061604487943
 30
0.0
 10
103.6422525782561
 20
-132.0859944331243
 30
0.0
 10
103.5364881468589
 20
-132.3888183262778
 30
0.0
 10
103.130311389148
 20
-132.3888183262778
 30
0.0
 10
102.8109510376653
 20
-132.3888183262778
 30
0.0
 10
102.5908094361579
 20
-132.1896918072304
 30
0.0
 10
102.5908094361579
 20
-131.8723985130389
 30
0.0
 10
102.5908094361579
 20
-131.3583902666396
 30
0.0
 10
103.1451252997346
 20
-131.3477104706353
 30
0.0
 10
103.35872121982
 20
-131.3477104706353
 30
0.0
 10
103.5891981077833
 20
-131.3477104706353
 30
0.0
 10
104.2344644921706
 20
-131.3670030053527
 30
0.0
 10
104.2344644921706
 20
-131.9106390729251
 30
0.0
  0
SPLINE
  5
85
330
80
100
AcDbEntity
  8
_U+30EC_U+30A4_U+30E4_U+30FC 1
370
     0
100
AcDbSpline
210
0.0
220
0.0
230
1.0
 70
    11
 71
     3
 72
    17
 73
    13
 74
     0
 42
0.0000000001
 43
0.0000000001
 12
1.0
 22
0.0
 32
0.0
 13
1.0
 23
0.0
 33
0.0
 40
0.0
 40
0.0
 40
0.0
 40
0.0
 40
1.0
 40
1.0
 40
1.0
 40
2.0
 40
2.0
 40
2.0
 40
3.0
 40
3.0
 40
3.0
 40
4.0
 40
4.0
 40
4.0
 40
4.0
 10
102.7833902737833
 20
-131.8703314557477
 30
0.0
 10
102.7833902737833
 20
-131.9888427404403
 30
0.0
 10
102.8405788588385
 20
-132.1645426101881
 30
0.0
 10
103.1261772745657
 20
-132.1645426101881
 30
0.0
 10
103.3525200479466
 20
-132.1645426101881
 30
0.0
 10
103.4476046833395
 20
-132.0246717334869
 30
0.0
 10
103.4476046833395
 20
-131.8892794809166
 30
0.0
 10
103.4476046833395
 20
-131.6271077144891
 30
0.0
 10
103.2381428778363
 20
-131.5888671546028
 30
0.0
 10
103.1216986504349
 20
-131.5888671546028
 30
0.0
 10
102.9463432902356
 20
-131.5888671546028
 30
0.0
 10
102.7833902737833
 20
-131.6842962995442
 30
0.0
 10
102.7833902737833
 20
-131.8703314557477
 30
0.0
  0
HATCH
  5
86
330
80
100
AcDbEntity
  8
_U+30EC_U+30A4_U+30E4_U+30FC 1
 62
   179
420
  2234388
100
AcDbHatch
 10
0.0
 20
0.0
 30
0.0
210
0.0
220
0.0
230
1.0
  2
SOLID
 70
     1
 71
     0
 91
        2
 92
        1
 93
        1
 72
     4
 94
        3
 73
     0
 74
     1
 95
       32
 96
       28
 40
0.0
 40
0.0
 40
0.0
 40
0.0
 40
1.0
 40
1.0
 40
1.0
 40
2.0
 40
2.0
 40
2.0
 40
3.0
 40
3.0
 40
3.0
 40
4.0
 40
4.0
 40
4.0
 40
5.0
 40
5.0
 40
5.0
 40
6.0
 40
6.0
 40
6.0
 40
7.0
 40
7.0
 40
7.0
 40
8.0
 40
8.0
 40
8.0
 40
9.0
 40
9.0
 40
9.0
 40
9.0
 10
104.2344644921706
 20
-131.9106390729251
 10
104.2344644921706
 20
-132.0839273758332
 10
104.1648735633685
 20
-132.3295626839315
 10
103.8327663585904
 20
-132.3674587342693
 10
103.8327663585904
 20
-132.3674587342693
 10
103.8327663585904
 20
-132.1538628141838
 10
103.8327663585904
 20
-132.1538628141838
 10
103.8920220009367
 20
-132.1431830181795
 10
104.0398165972539
 20
-132.1114881397152
 10
104.0398165972539
 20
-131.908572015634
 10
104.0398165972539
 20
-131.6164279184848
 10
103.709776449767
 20
-131.5785318681471
 10
103.5047932683946
 20
-131.5657850148516
 10
103.585063993201
 20
-131.6567355356622
 10
103.6422525782561
 20
-131.7242594071731
 10
103.6422525782561
 20
-131.9061604487943
 10
103.6422525782561
 20
-132.0859944331243
 10
103.5364881468589
 20
-132.3888183262778
 10
103.130311389148
 20
-132.3888183262778
 10
102.8109510376653
 20
-132.3888183262778
 10
102.5908094361579
 20
-132.1896918072304
 10
102.5908094361579
 20
-131.8723985130389
 10
102.5908094361579
 20
-131.3583902666396
 10
103.1451252997346
 20
-131.3477104706353
 10
103.35872121982
 20
-131.3477104706353
 10
103.5891981077833
 20
-131.3477104706353
 10
104.2344644921706
 20
-131.3670030053527
 10
104.2344644921706
 20
-131.9106390729251
 97
        0
 97
        0
 92
        1
 93
        1
 72
     4
 94
        3
 73
     0
 74
     1
 95
       17
 96
       13
 40
0.0
 40
0.0
 40
0.0
 40
0.0
 40
1.0
 40
1.0
 40
1.0
 40
2.0
 40
2.0
 40
2.0
 40
3.0
 40
3.0
 40
3.0
 40
4.0
 40
4.0
 40
4.0
 40
4.0
 10
102.7833902737833
 20
-131.8703314557477
 10
102.7833902737833
 20
-131.9888427404403
 10
102.8405788588385
 20
-132.1645426101881
 10
103.1261772745657
 20
-132.1645426101881
 10
103.3525200479466
 20
-132.1645426101881
 10
103.4476046833395
 20
-132.0246717334869
 10
103.4476046833395
 20
-131.8892794809166
 10
103.4476046833395
 20
-131.6271077144891
 10
103.2381428778363
 20
-131.5888671546028
 10
103.1216986504349
 20
-131.5888671546028
 10
102.9463432902356
 20
-131.5888671546028
 10
102.7833902737833
 20
-131.6842962995442
 10
102.7833902737833
 20
-131.8703314557477
 97
        0
 97
        0
 75
     2
 76
     1
 98
        0
  0
ENDBLK
  5
83
330
80
100
AcDbEntity
  8
0
100
AcDbBlockEnd
  0
BLOCK
  5
89
330
87
100
AcDbEntity
  8
0
100
AcDbBlockBegin
  2
block 4
 70
     0
 10
0.0
 20
0.0
 30
0.0
  3
block 4
  1

  0
SPLINE
  5
8B
330
87
100
AcDbEntity
  8
_U+30EC_U+30A4_U+30E4_U+30FC 1
370
     0
100
AcDbSpline
210
0.0
220
0.0
230
1.0
 70
    11
 71
     3
 72
    26
 73
    22
 74
     0
 42
0.0000000001
 43
0.0000000001
 12
1.0
 22
0.0
 32
0.0
 13
1.0
 23
0.0
 33
0.0
 40
0.0
 40
0.0
 40
0.0
 40
0.0
 40
1.0
 40
1.0
 40
1.0
 40
2.0
 40
2.0
 40
2.0
 40
3.0
 40
3.0
 40
3.0
 40
4.0
 40
4.0
 40
4.0
 40
5.0
 40
5.0
 40
5.0
 40
6.0
 40
6.0
 40
6.0
 40
7.0
 40
7.0
 40
7.0
 40
7.0
 10
104.1838215885374
 20
-139.0812608159241
 30
0.0
 10
104.1838215885374
 20
-139.0812608159241
 30
0.0
 10
103.0796684855148
 20
-139.0812608159241
 30
0.0
 10
103.0796684855148
 20
-139.0812608159241
 30
0.0
 10
103.0796684855148
 20
-139.0812608159241
 30
0.0
 10
103.0796684855148
 20
-139.4113009634111
 30
0.0
 10
103.0796684855148
 20
-139.4113009634111
 30
0.0
 10
103.0796684855148
 20
-139.4113009634111
 30
0.0
 10
102.9315293796491
 20
-139.4113009634111
 30
0.0
 10
102.9315293796491
 20
-139.4113009634111
 30
0.0
 10
102.9167154690625
 20
-139.079193758633
 30
0.0
 10
102.7537624526102
 20
-139.0326849695821
 30
0.0
 10
102.6393852824999
 20
-139.003057148409
 30
0.0
 10
102.6393852824999
 20
-139.003057148409
 30
0.0
 10
102.6393852824999
 20
-138.8569850998344
 30
0.0
 10
102.6393852824999
 20
-138.8569850998344
 30
0.0
 10
102.6393852824999
 20
-138.8569850998344
 30
0.0
 10
104.1838215885374
 20
-138.8569850998344
 30
0.0
 10
104.1838215885374
 20
-138.8569850998344
 30
0.0
 10
104.1838215885374
 20
-138.8569850998344
 30
0.0
 10
104.1838215885374
 20
-139.0812608159241
 30
0.0
 10
104.1838215885374
 20
-139.0812608159241
 30
0.0
  0
HATCH
  5
8C
330
87
100
AcDbEntity
  8
_U+30EC_U+30A4_U+30E4_U+30FC 1
 62
   179
420
  2234388
100
AcDbHatch
 10
0.0
 20
0.0
 30
0.0
210
0.0
220
0.0
230
1.0
  2
SOLID
 70
     1
 71
     0
 91
        1
 92
        1
 93
        1
 72
     4
 94
        3
 73
     0
 74
     1
 95
       26
 96
       22
 40
0.0
 40
0.0
 40
0.0
 40
0.0
 40
1.0
 40
1.0
 40
1.0
 40
2.0
 40
2.0
 40
2.0
 40
3.0
 40
3.0
 40
3.0
 40
4.0
 40
4.0
 40
4.0
 40
5.0
 40
5.0
 40
5.0
 40
6.0
 40
6.0
 40
6.0
 40
7.0
 40
7.0
 40
7.0
 40
7.0
 10
104.1838215885374
 20
-139.0812608159241
 10
104.1838215885374
 20
-139.0812608159241
 10
103.0796684855148
 20
-139.0812608159241
 10
103.0796684855148
 20
-139.0812608159241
 10
103.0796684855148
 20
-139.0812608159241
 10
103.0796684855148
 20
-139.4113009634111
 10
103.0796684855148
 20
-139.4113009634111
 10
103.0796684855148
 20
-139.4113009634111
 10
102.9315293796491
 20
-139.4113009634111
 10
102.9315293796491
 20
-139.4113009634111
 10
102.9167154690625
 20
-139.079193758633
 10
102.7537624526102
 20
-139.0326849695821
 10
102.6393852824999
 20
-139.003057148409
 10
102.6393852824999
 20
-139.003057148409
 10
102.6393852824999
 20
-138.8569850998344
 10
102.6393852824999
 20
-138.8569850998344
 10
102.6393852824999
 20
-138.8569850998344
 10
104.1838215885374
 20
-138.8569850998344
 10
104.1838215885374
 20
-138.8569850998344
 10
104.1838215885374
 20
-138.8569850998344
 10
104.1838215885374
 20
-139.0812608159241
 10
104.1838215885374
 20
-139.0812608159241
 97
        0
 97
        0
 75
     2
 76
     1
 98
        0
  0
ENDBLK
  5
8A
330
87
100
AcDbEntity
  8
0
100
AcDbBlockEnd
  0
BLOCK
  5
9D
330
9B
100
AcDbEntity
  8
0
100
AcDbBlockBegin
  2
block 5
 70
     0
 10
0.0
 20
0.0
 30
0.0
  3
block 5
  1

  0
SPLINE
  5
9F
330
9B
100
AcDbEntity
  8
_U+30EC_U+30A4_U+30E4_U+30FC 1
370
     0
100
AcDbSpline
210
0.0
220
0.0
230
1.0
 70
    11
 71
     3
 72
    26
 73
    22
 74
     0
 42
0.0000000001
 43
0.0000000001
 12
1.0
 22
0.0
 32
0.0
 13
1.0
 23
0.0
 33
0.0
 40
0.0
 40
0.0
 40
0.0
 40
0.0
 40
1.0
 40
1.0
 40
1.0
 40
2.0
 40
2.0
 40
2.0
 40
3.0
 40
3.0
 40
3.0
 40
4.0
 40
4.0
 40
4.0
 40
5.0
 40
5.0
 40
5.0
 40
6.0
 40
6.0
 40
6.0
 40
7.0
 40
7.0
 40
7.0
 40
7.0
 10
89.67066783782539
 20
-140.8599636149586
 30
0.0
 10
89.67066783782539
 20
-140.8599636149586
 30
0.0
 10
89.67066783782539
 20
-139.7558105119361
 30
0.0
 10
89.67066783782539
 20
-139.7558105119361
 30
0.0
 10
89.67066783782539
 20
-139.7558105119361
 30
0.0
 10
89.34062769033847
 20
-139.7558105119361
 30
0.0
 10
89.34062769033847
 20
-139.7558105119361
 30
0.0
 10
89.34062769033847
 20
-139.7558105119361
 30
0.0
 10
89.34062769033847
 20
-139.6076714060703
 30
0.0
 10
89.34062769033847
 20
-139.6076714060703
 30
0.0
 10
89.67273489511655
 20
-139.5928574954837
 30
0.0
 10
89.71924368416741
 20
-139.4299044790314
 30
0.0
 10
89.74887150534056
 20
-139.3155273089211
 30
0.0
 10
89.74887150534056
 20
-139.3155273089211
 30
0.0
 10
89.89494355391516
 20
-139.3155273089211
 30
0.0
 10
89.89494355391516
 20
-139.3155273089211
 30
0.0
 10
89.89494355391516
 20
-139.3155273089211
 30
0.0
 10
89.89494355391516
 20
-140.8599636149586
 30
0.0
 10
89.89494355391516
 20
-140.8599636149586
 30
0.0
 10
89.89494355391516
 20
-140.8599636149586
 30
0.0
 10
89.67066783782539
 20
-140.8599636149586
 30
0.0
 10
89.67066783782539
 20
-140.8599636149586
 30
0.0
  0
HATCH
  5
A0
330
9B
100
AcDbEntity
  8
_U+30EC_U+30A4_U+30E4_U+30FC 1
 62
   179
420
  2234388
100
AcDbHatch
 10
0.0
 20
0.0
 30
0.0
210
0.0
220
0.0
230
1.0
  2
SOLID
 70
     1
 71
     0
 91
        1
 92
        1
 93
        1
 72
     4
 94
        3
 73
     0
 74
     1
 95
       26
 96
       22
 40
0.0
 40
0.0
 40
0.0
 40
0.0
 40
1.0
 40
1.0
 40
1.0
 40
2.0
 40
2.0
 40
2.0
 40
3.0
 40
3.0
 40
3.0
 40
4.0
 40
4.0
 40
4.0
 40
5.0
 40
5.0
 40
5.0
 40
6.0
 40
6.0
 40
6.0
 40
7.0
 40
7.0
 40
7.0
 40
7.0
 10
89.67066783782539
 20
-140.8599636149586
 10
89.67066783782539
 20
-140.8599636149586
 10
89.67066783782539
 20
-139.7558105119361
 10
89.67066783782539
 20
-139.7558105119361
 10
89.67066783782539
 20
-139.7558105119361
 10
89.34062769033847
 20
-139.7558105119361
 10
89.34062769033847
 20
-139.7558105119361
 10
89.34062769033847
 20
-139.7558105119361
 10
89.34062769033847
 20
-139.6076714060703
 10
89.34062769033847
 20
-139.6076714060703
 10
89.67273489511655
 20
-139.5928574954837
 10
89.71924368416741
 20
-139.4299044790314
 10
89.74887150534056
 20
-139.3155273089211
 10
89.74887150534056
 20
-139.3155273089211
 10
89.89494355391516
 20
-139.3155273089211
 10
89.89494355391516
 20
-139.3155273089211
 10
89.89494355391516
 20
-139.3155273089211
 10
89.89494355391516
 20
-140.8599636149586
 10
89.89494355391516
 20
-140.8599636149586
 10
89.89494355391516
 20
-140.8599636149586
 10
89.67066783782539
 20
-140.8599636149586
 10
89.67066783782539
 20
-140.8599636149586
 97
        0
 97
        0
 75
     2
 76
     1
 98
        0
  0
SPLINE
  5
A1
330
9B
100
AcDbEntity
  8
_U+30EC_U+30A4_U+30E4_U+30FC 1
370
     0
100
AcDbSpline
210
0.0
220
0.0
230
1.0
 70
    11
 71
     3
 72
    44
 73
    40
 74
     0
 42
0.0000000001
 43
0.0000000001
 12
1.0
 22
0.0
 32
0.0
 13
1.0
 23
0.0
 33
0.0
 40
0.0
 40
0.0
 40
0.0
 40
0.0
 40
1.0
 40
1.0
 40
1.0
 40
2.0
 40
2.0
 40
2.0
 40
3.0
 40
3.0
 40
3.0
 40
4.0
 40
4.0
 40
4.0
 40
5.0
 40
5.0
 40
5.0
 40
6.0
 40
6.0
 40
6.0
 40
7.0
 40
7.0
 40
7.0
 40
8.0
 40
8.0
 40
8.0
 40
9.0
 40
9.0
 40
9.0
 40
10.0
 40
10.0
 40
10.0
 40
11.0
 40
11.0
 40
11.0
 40
12.0
 40
12.0
 40
12.0
 40
13.0
 40
13.0
 40
13.0
 40
13.0
 10
90.98910588003051
 20
-140.2780869874999
 30
0.0
 10
90.77137584536271
 20
-140.4369058893699
 30
0.0
 10
90.67835826726098
 20
-140.5109754423028
 30
0.0
 10
90.62943791137042
 20
-140.6546359240377
 30
0.0
 10
90.62943791137042
 20
-140.6546359240377
 30
0.0
 10
91.40802949103688
 20
-140.6546359240377
 30
0.0
 10
91.40802949103688
 20
-140.6546359240377
 30
0.0
 10
91.40802949103688
 20
-140.6546359240377
 30
0.0
 10
91.40802949103688
 20
-140.8599636149586
 30
0.0
 10
91.40802949103688
 20
-140.8599636149586
 30
0.0
 10
91.40802949103688
 20
-140.8599636149586
 30
0.0
 10
90.38001299823833
 20
-140.8599636149586
 30
0.0
 10
90.38001299823833
 20
-140.8599636149586
 30
0.0
 10
90.41170787670264
 20
-140.5023627035897
 30
0.0
 10
90.47716469092238
 20
-140.4241590360745
 30
0.0
 10
90.8623263661733
 20
-140.1258137670519
 30
0.0
 10
91.11829696072738
 20
-139.927031757553
 30
0.0
 10
91.18375377494712
 20
-139.8591633764935
 30
0.0
 10
91.18375377494712
 20
-139.7217040666321
 30
0.0
 10
91.18375377494712
 20
-139.6031927819395
 30
0.0
 10
91.1117512793054
 20
-139.4722791535
 30
0.0
 10
90.91503632709764
 20
-139.4722791535
 30
0.0
 10
90.65493161796127
 20
-139.4722791535
 30
0.0
 10
90.64666338879667
 20
-139.7027560414632
 30
0.0
 10
90.64218476466584
 20
-139.8192002688646
 30
0.0
 10
90.64218476466584
 20
-139.8192002688646
 30
0.0
 10
90.41790904857608
 20
-139.8192002688646
 30
0.0
 10
90.41790904857608
 20
-139.8192002688646
 30
0.0
 10
90.4265217872892
 20
-139.6920762454589
 30
0.0
 10
90.43720158329349
 20
-139.5801106421883
 30
0.0
 10
90.5174723080998
 20
-139.4615993574957
 30
0.0
 10
90.62737085407927
 20
-139.3007133983346
 30
0.0
 10
90.81375051983129
 20
-139.2669514625791
 30
0.0
 10
90.9298502376842
 20
-139.2669514625791
 30
0.0
 10
91.20718042424681
 20
-139.2669514625791
 30
0.0
 10
91.41457517245885
 20
-139.4509195614914
 30
0.0
 10
91.41457517245885
 20
-139.7237711239232
 30
0.0
 10
91.41457517245885
 20
-139.9525254641438
 30
0.0
 10
91.29813094505741
 20
-140.051744214119
 30
0.0
 10
90.98910588003051
 20
-140.2780869874999
 30
0.0
  0
HATCH
  5
A2
330
9B
100
AcDbEntity
  8
_U+30EC_U+30A4_U+30E4_U+30FC 1
 62
   179
420
  2234388
100
AcDbHatch
 10
0.0
 20
0.0
 30
0.0
210
0.0
220
0.0
230
1.0
  2
SOLID
 70
     1
 71
     0
 91
        1
 92
        1
 93
        1
 72
     4
 94
        3
 73
     0
 74
     1
 95
       44
 96
       40
 40
0.0
 40
0.0
 40
0.0
 40
0.0
 40
1.0
 40
1.0
 40
1.0
 40
2.0
 40
2.0
 40
2.0
 40
3.0
 40
3.0
 40
3.0
 40
4.0
 40
4.0
 40
4.0
 40
5.0
 40
5.0
 40
5.0
 40
6.0
 40
6.0
 40
6.0
 40
7.0
 40
7.0
 40
7.0
 40
8.0
 40
8.0
 40
8.0
 40
9.0
 40
9.0
 40
9.0
 40
10.0
 40
10.0
 40
10.0
 40
11.0
 40
11.0
 40
11.0
 40
12.0
 40
12.0
 40
12.0
 40
13.0
 40
13.0
 40
13.0
 40
13.0
 10
90.98910588003051
 20
-140.2780869874999
 10
90.77137584536271
 20
-140.4369058893699
 10
90.67835826726098
 20
-140.5109754423028
 10
90.62943791137042
 20
-140.6546359240377
 10
90.62943791137042
 20
-140.6546359240377
 10
91.40802949103688
 20
-140.6546359240377
 10
91.40802949103688
 20
-140.6546359240377
 10
91.40802949103688
 20
-140.6546359240377
 10
91.40802949103688
 20
-140.8599636149586
 10
91.40802949103688
 20
-140.8599636149586
 10
91.40802949103688
 20
-140.8599636149586
 10
90.38001299823833
 20
-140.8599636149586
 10
90.38001299823833
 20
-140.8599636149586
 10
90.41170787670264
 20
-140.5023627035897
 10
90.47716469092238
 20
-140.4241590360745
 10
90.8623263661733
 20
-140.1258137670519
 10
91.11829696072738
 20
-139.927031757553
 10
91.18375377494712
 20
-139.8591633764935
 10
91.18375377494712
 20
-139.7217040666321
 10
91.18375377494712
 20
-139.6031927819395
 10
91.1117512793054
 20
-139.4722791535
 10
90.91503632709764
 20
-139.4722791535
 10
90.65493161796127
 20
-139.4722791535
 10
90.64666338879667
 20
-139.7027560414632
 10
90.64218476466584
 20
-139.8192002688646
 10
90.64218476466584
 20
-139.8192002688646
 10
90.41790904857608
 20
-139.8192002688646
 10
90.41790904857608
 20
-139.8192002688646
 10
90.4265217872892
 20
-139.6920762454589
 10
90.43720158329349
 20
-139.5801106421883
 10
90.5174723080998
 20
-139.4615993574957
 10
90.62737085407927
 20
-139.3007133983346
 10
90.81375051983129
 20
-139.2669514625791
 10
90.9298502376842
 20
-139.2669514625791
 10
91.20718042424681
 20
-139.2669514625791
 10
91.41457517245885
 20
-139.4509195614914
 10
91.41457517245885
 20
-139.7237711239232
 10
91.41457517245885
 20
-139.9525254641438
 10
91.29813094505741
 20
-140.051744214119
 10
90.98910588003051
 20
-140.2780869874999
 97
        0
 97
        0
 75
     2
 76
     1
 98
        0
  0
ENDBLK
  5
9E
330
9B
100
AcDbEntity
  8
0
100
AcDbBlockEnd
  0
BLOCK
  5
A5
330
A3
100
AcDbEntity
  8
0
100
AcDbBlockBegin
  2
block 6
 70
     0
 10
0.0
 20
0.0
 30
0.0
  3
block 6
  1

  0
SPLINE
  5
A7
330
A3
100
AcDbEntity
  8
_U+30EC_U+30A4_U+30E4_U+30FC 1
370
     0
100
AcDbSpline
210
0.0
220
0.0
230
1.0
 70
    11
 71
     3
 72
    26
 73
    22
 74
     0
 42
0.0000000001
 43
0.0000000001
 12
1.0
 22
0.0
 32
0.0
 13
1.0
 23
0.0
 33
0.0
 40
0.0
 40
0.0
 40
0.0
 40
0.0
 40
1.0
 40
1.0
 40
1.0
 40
2.0
 40
2.0
 40
2.0
 40
3.0
 40
3.0
 40
3.0
 40
4.0
 40
4.0
 40
4.0
 40
5.0
 40
5.0
 40
5.0
 40
6.0
 40
6.0
 40
6.0
 40
7.0
 40
7.0
 40
7.0
 40
7.0
 10
90.53004690662097
 20
-120.6372531165421
 30
0.0
 10
90.53004690662097
 20
-120.6372531165421
 30
0.0
 10
90.95258786788686
 20
-119.6171603433596
 30
0.0
 10
90.95258786788686
 20
-119.6171603433596
 30
0.0
 10
90.95258786788686
 20
-119.6171603433596
 30
0.0
 10
90.64769691744225
 20
-119.4907253390509
 30
0.0
 10
90.64769691744225
 20
-119.4907253390509
 30
0.0
 10
90.64769691744225
 20
-119.4907253390509
 30
0.0
 10
90.70436873817461
 20
-119.3539550482865
 30
0.0
 10
90.70436873817461
 20
-119.3539550482865
 30
0.0
 10
91.01683889868677
 20
-119.4672986897512
 30
0.0
 10
91.12208656576115
 20
-119.3346625135691
 30
0.0
 10
91.19322778753155
 20
-119.2402668972733
 30
0.0
 10
91.19322778753155
 20
-119.2402668972733
 30
0.0
 10
91.32827553055336
 20
-119.2960774441343
 30
0.0
 10
91.32827553055336
 20
-119.2960774441343
 30
0.0
 10
91.32827553055336
 20
-119.2960774441343
 30
0.0
 10
90.73726940005874
 20
-120.7230359941248
 30
0.0
 10
90.73726940005874
 20
-120.7230359941248
 30
0.0
 10
90.73726940005874
 20
-120.7230359941248
 30
0.0
 10
90.53004690662097
 20
-120.6372531165421
 30
0.0
 10
90.53004690662097
 20
-120.6372531165421
 30
0.0
  0
HATCH
  5
A8
330
A3
100
AcDbEntity
  8
_U+30EC_U+30A4_U+30E4_U+30FC 1
 62
   179
420
  2234388
100
AcDbHatch
 10
0.0
 20
0.0
 30
0.0
210
0.0
220
0.0
230
1.0
  2
SOLID
 70
     1
 71
     0
 91
        1
 92
        1
 93
        1
 72
     4
 94
        3
 73
     0
 74
     1
 95
       26
 96
       22
 40
0.0
 40
0.0
 40
0.0
 40
0.0
 40
1.0
 40
1.0
 40
1.0
 40
2.0
 40
2.0
 40
2.0
 40
3.0
 40
3.0
 40
3.0
 40
4.0
 40
4.0
 40
4.0
 40
5.0
 40
5.0
 40
5.0
 40
6.0
 40
6.0
 40
6.0
 40
7.0
 40
7.0
 40
7.0
 40
7.0
 10
90.53004690662097
 20
-120.6372531165421
 10
90.53004690662097
 20
-120.6372531165421
 10
90.95258786788686
 20
-119.6171603433596
 10
90.95258786788686
 20
-119.6171603433596
 10
90.95258786788686
 20
-119.6171603433596
 10
90.64769691744225
 20
-119.4907253390509
 10
90.64769691744225
 20
-119.4907253390509
 10
90.64769691744225
 20
-119.4907253390509
 10
90.70436873817461
 20
-119.3539550482865
 10
90.70436873817461
 20
-119.3539550482865
 10
91.01683889868677
 20
-119.4672986897512
 10
91.12208656576115
 20
-119.3346625135691
 10
91.19322778753155
 20
-119.2402668972733
 10
91.19322778753155
 20
-119.2402668972733
 10
91.32827553055336
 20
-119.2960774441343
 10
91.32827553055336
 20
-119.2960774441343
 10
91.32827553055336
 20
-119.2960774441343
 10
90.73726940005874
 20
-120.7230359941248
 10
90.73726940005874
 20
-120.7230359941248
 10
90.73726940005874
 20
-120.7230359941248
 10
90.53004690662097
 20
-120.6372531165421
 10
90.53004690662097
 20
-120.6372531165421
 97
        0
 97
        0
 75
     2
 76
     1
 98
        0
  0
SPLINE
  5
A9
330
A3
100
AcDbEntity
  8
_U+30EC_U+30A4_U+30E4_U+30FC 1
370
     0
100
AcDbSpline
210
0.0
220
0.0
230
1.0
 70
    11
 71
     3
 72
    62
 73
    58
 74
     0
 42
0.0000000001
 43
0.0000000001
 12
1.0
 22
0.0
 32
0.0
 13
1.0
 23
0.0
 33
0.0
 40
0.0
 40
0.0
 40
0.0
 40
0.0
 40
1.0
 40
1.0
 40
1.0
 40
2.0
 40
2.0
 40
2.0
 40
3.0
 40
3.0
 40
3.0
 40
4.0
 40
4.0
 40
4.0
 40
5.0
 40
5.0
 40
5.0
 40
6.0
 40
6.0
 40
6.0
 40
7.0
 40
7.0
 40
7.0
 40
8.0
 40
8.0
 40
8.0
 40
9.0
 40
9.0
 40
9.0
 40
10.0
 40
10.0
 40
10.0
 40
11.0
 40
11.0
 40
11.0
 40
12.0
 40
12.0
 40
12.0
 40
13.0
 40
13.0
 40
13.0
 40
14.0
 40
14.0
 40
14.0
 40
15.0
 40
15.0
 40
15.0
 40
16.0
 40
16.0
 40
16.0
 40
17.0
 40
17.0
 40
17.0
 40
18.0
 40
18.0
 40
18.0
 40
19.0
 40
19.0
 40
19.0
 40
19.0
 10
91.63540579306337
 20
-121.1498833247473
 30
0.0
 10
91.54721134864099
 20
-121.1133653126036
 30
0.0
 10
91.3537692371442
 20
-121.0107014671432
 30
0.0
 10
91.309672014933
 20
-120.7909043751842
 30
0.0
 10
91.28435056311642
 20
-120.6586127085506
 30
0.0
 10
91.31828475364613
 20
-120.5652506209004
 30
0.0
 10
91.3468790461737
 20
-120.4856689151911
 30
0.0
 10
91.3468790461737
 20
-120.4856689151911
 30
0.0
 10
91.5503119345777
 20
-120.5697292450312
 30
0.0
 10
91.5503119345777
 20
-120.5697292450312
 30
0.0
 10
91.52378469934128
 20
-120.6389756642847
 30
0.0
 10
91.44351397453497
 20
-120.8598062848892
 30
0.0
 10
91.70568574096247
 20
-120.9679822831261
 30
0.0
 10
91.83246525481967
 20
-121.0206922440504
 30
0.0
 10
92.00024140495134
 20
-121.0148355817255
 30
0.0
 10
92.08740232072816
 20
-120.8039957380282
 30
0.0
 10
92.1321885620364
 20
-120.6961642493399
 30
0.0
 10
92.1156521037072
 20
-120.6369086069936
 30
0.0
 10
92.09842662628095
 20
-120.595222951622
 30
0.0
 10
92.05846351865206
 20
-120.498760278035
 30
0.0
 10
91.95545516364308
 20
-120.4422607120769
 30
0.0
 10
91.90481226000992
 20
-120.4212456296169
 30
0.0
 10
91.88689776348662
 20
-120.4140109290979
 30
0.0
 10
91.85313582773117
 20
-120.4019530948995
 30
0.0
 10
91.82626408294621
 20
-120.3954074134775
 30
0.0
 10
91.82626408294621
 20
-120.3954074134775
 30
0.0
 10
91.90067814542762
 20
-120.2155734291475
 30
0.0
 10
91.90067814542762
 20
-120.2155734291475
 30
0.0
 10
91.93340655253749
 20
-120.236244002059
 30
0.0
 10
91.97164711242375
 20
-120.2541584985823
 30
0.0
 10
91.97715926520016
 20
-120.2569145749705
 30
0.0
 10
92.03779294574056
 20
-120.2817192624643
 30
0.0
 10
92.2300292738175
 20
-120.3382188284224
 30
0.0
 10
92.32029077553105
 20
-120.119455265109
 30
0.0
 10
92.38850366613899
 20
-119.9551242104626
 30
0.0
 10
92.28859589706674
 20
-119.8541829127448
 30
0.0
 10
92.18662107070335
 20
-119.8121527478247
 30
0.0
 10
91.94270831034765
 20
-119.7108669405584
 30
0.0
 10
91.84555661766362
 20
-119.9227403129013
 30
0.0
 10
91.81455075829636
 20
-119.987508108024
 30
0.0
 10
91.81455075829636
 20
-119.987508108024
 30
0.0
 10
91.62644854480172
 20
-119.9096489500573
 30
0.0
 10
91.62644854480172
 20
-119.9096489500573
 30
0.0
 10
91.68225909166277
 20
-119.7976833467867
 30
0.0
 10
91.85175778953706
 20
-119.4604084987807
 30
0.0
 10
92.2741264960287
 20
-119.6354193494314
 30
0.0
 10
92.48083222514369
 20
-119.7208577174656
 30
0.0
 10
92.65515405669733
 20
-119.9306640325173
 30
0.0
 10
92.54215492478113
 20
-120.2042046140462
 30
0.0
 10
92.47049693868793
 20
-120.3761148787601
 30
0.0
 10
92.35129663489829
 20
-120.416077986389
 30
0.0
 10
92.2355414265939
 20
-120.4346815020094
 30
0.0
 10
92.28170570609625
 20
-120.4836018578999
 30
0.0
 10
92.41882050640919
 20
-120.6272623396349
 30
0.0
 10
92.31271156546349
 20
-120.8835774437375
 30
0.0
 10
92.18352048476662
 20
-121.1960476042496
 30
0.0
 10
91.89103187806892
 20
-121.2556477561444
 30
0.0
 10
91.63540579306337
 20
-121.1498833247473
 30
0.0
  0
HATCH
  5
AA
330
A3
100
AcDbEntity
  8
_U+30EC_U+30A4_U+30E4_U+30FC 1
 62
   179
420
  2234388
100
AcDbHatch
 10
0.0
 20
0.0
 30
0.0
210
0.0
220
0.0
230
1.0
  2
SOLID
 70
     1
 71
     0
 91
        1
 92
        1
 93
        1
 72
     4
 94
        3
 73
     0
 74
     1
 95
       62
 96
       58
 40
0.0
 40
0.0
 40
0.0
 40
0.0
 40
1.0
 40
1.0
 40
1.0
 40
2.0
 40
2.0
 40
2.0
 40
3.0
 40
3.0
 40
3.0
 40
4.0
 40
4.0
 40
4.0
 40
5.0
 40
5.0
 40
5.0
 40
6.0
 40
6.0
 40
6.0
 40
7.0
 40
7.0
 40
7.0
 40
8.0
 40
8.0
 40
8.0
 40
9.0
 40
9.0
 40
9.0
 40
10.0
 40
10.0
 40
10.0
 40
11.0
 40
11.0
 40
11.0
 40
12.0
 40
12.0
 40
12.0
 40
13.0
 40
13.0
 40
13.0
 40
14.0
 40
14.0
 40
14.0
 40
15.0
 40
15.0
 40
15.0
 40
16.0
 40
16.0
 40
16.0
 40
17.0
 40
17.0
 40
17.0
 40
18.0
 40
18.0
 40
18.0
 40
19.0
 40
19.0
 40
19.0
 40
19.0
 10
91.63540579306337
 20
-121.1498833247473
 10
91.54721134864099
 20
-121.1133653126036
 10
91.3537692371442
 20
-121.0107014671432
 10
91.309672014933
 20
-120.7909043751842
 10
91.28435056311642
 20
-120.6586127085506
 10
91.31828475364613
 20
-120.5652506209004
 10
91.3468790461737
 20
-120.4856689151911
 10
91.3468790461737
 20
-120.4856689151911
 10
91.5503119345777
 20
-120.5697292450312
 10
91.5503119345777
 20
-120.5697292450312
 10
91.52378469934128
 20
-120.6389756642847
 10
91.44351397453497
 20
-120.8598062848892
 10
91.70568574096247
 20
-120.9679822831261
 10
91.83246525481967
 20
-121.0206922440504
 10
92.00024140495134
 20
-121.0148355817255
 10
92.08740232072816
 20
-120.8039957380282
 10
92.1321885620364
 20
-120.6961642493399
 10
92.1156521037072
 20
-120.6369086069936
 10
92.09842662628095
 20
-120.595222951622
 10
92.05846351865206
 20
-120.498760278035
 10
91.95545516364308
 20
-120.4422607120769
 10
91.90481226000992
 20
-120.4212456296169
 10
91.88689776348662
 20
-120.4140109290979
 10
91.85313582773117
 20
-120.4019530948995
 10
91.82626408294621
 20
-120.3954074134775
 10
91.82626408294621
 20
-120.3954074134775
 10
91.90067814542762
 20
-120.2155734291475
 10
91.90067814542762
 20
-120.2155734291475
 10
91.93340655253749
 20
-120.236244002059
 10
91.97164711242375
 20
-120.2541584985823
 10
91.97715926520016
 20
-120.2569145749705
 10
92.03779294574056
 20
-120.2817192624643
 10
92.2300292738175
 20
-120.3382188284224
 10
92.32029077553105
 20
-120.119455265109
 10
92.38850366613899
 20
-119.9551242104626
 10
92.28859589706674
 20
-119.8541829127448
 10
92.18662107070335
 20
-119.8121527478247
 10
91.94270831034765
 20
-119.7108669405584
 10
91.84555661766362
 20
-119.9227403129013
 10
91.81455075829636
 20
-119.987508108024
 10
91.81455075829636
 20
-119.987508108024
 10
91.62644854480172
 20
-119.9096489500573
 10
91.62644854480172
 20
-119.9096489500573
 10
91.68225909166277
 20
-119.7976833467867
 10
91.85175778953706
 20
-119.4604084987807
 10
92.2741264960287
 20
-119.6354193494314
 10
92.48083222514369
 20
-119.7208577174656
 10
92.65515405669733
 20
-119.9306640325173
 10
92.54215492478113
 20
-120.2042046140462
 10
92.47049693868793
 20
-120.3761148787601
 10
92.35129663489829
 20
-120.416077986389
 10
92.2355414265939
 20
-120.4346815020094
 10
92.28170570609625
 20
-120.4836018578999
 10
92.41882050640919
 20
-120.6272623396349
 10
92.31271156546349
 20
-120.8835774437375
 10
92.18352048476662
 20
-121.1960476042496
 10
91.89103187806892
 20
-121.2556477561444
 10
91.63540579306337
 20
-121.1498833247473
 97
        0
 97
        0
 75
     2
 76
     1
 98
        0
  0
SPLINE
  5
AB
330
A3
100
AcDbEntity
  8
_U+30EC_U+30A4_U+30E4_U+30FC 1
370
     0
100
AcDbSpline
210
0.0
220
0.0
230
1.0
 70
    11
 71
     3
 72
    53
 73
    49
 74
     0
 42
0.0000000001
 43
0.0000000001
 12
1.0
 22
0.0
 32
0.0
 13
1.0
 23
0.0
 33
0.0
 40
0.0
 40
0.0
 40
0.0
 40
0.0
 40
1.0
 40
1.0
 40
1.0
 40
2.0
 40
2.0
 40
2.0
 40
3.0
 40
3.0
 40
3.0
 40
4.0
 40
4.0
 40
4.0
 40
5.0
 40
5.0
 40
5.0
 40
6.0
 40
6.0
 40
6.0
 40
7.0
 40
7.0
 40
7.0
 40
8.0
 40
8.0
 40
8.0
 40
9.0
 40
9.0
 40
9.0
 40
10.0
 40
10.0
 40
10.0
 40
11.0
 40
11.0
 40
11.0
 40
12.0
 40
12.0
 40
12.0
 40
13.0
 40
13.0
 40
13.0
 40
14.0
 40
14.0
 40
14.0
 40
15.0
 40
15.0
 40
15.0
 40
16.0
 40
16.0
 40
16.0
 40
16.0
 10
92.71234264175247
 20
-121.5960231900871
 30
0.0
 10
92.63999563656223
 20
-121.5660508593654
 30
0.0
 10
92.55283472078541
 20
-121.5116183506985
 30
0.0
 10
92.48324379198336
 20
-121.4141221484659
 30
0.0
 10
92.3650770168393
 20
-121.2463459983342
 30
0.0
 10
92.39573836665801
 20
-121.1168104080889
 30
0.0
 10
92.41950952550624
 20
-121.0100124480461
 30
0.0
 10
92.41950952550624
 20
-121.0100124480461
 30
0.0
 10
92.62483721642712
 20
-121.0951063065318
 30
0.0
 10
92.62483721642712
 20
-121.0951063065318
 30
0.0
 10
92.59934350983627
 20
-121.2994004688071
 30
0.0
 10
92.70545245078198
 20
-121.3755370790311
 30
0.0
 10
92.79157983791322
 20
-121.4113660720777
 30
0.0
 10
92.92042640906156
 20
-121.4647650520991
 30
0.0
 10
93.0988823551975
 20
-121.4310031163436
 30
0.0
 10
93.18776581871695
 20
-121.2160291580641
 30
0.0
 10
93.2862955495951
 20
-120.9796956077759
 30
0.0
 10
93.14642467289396
 20
-120.8460259029482
 30
0.0
 10
93.0354925982689
 20
-120.7998616234459
 30
0.0
 10
93.00586477709577
 20
-120.788148298796
 30
0.0
 10
92.87495114865627
 20
-120.7337157901291
 30
0.0
 10
92.74369301066825
 20
-120.8191541581633
 30
0.0
 10
92.74369301066825
 20
-120.8191541581633
 30
0.0
 10
92.58831920428348
 20
-120.7344048092261
 30
0.0
 10
92.58831920428348
 20
-120.7344048092261
 30
0.0
 10
92.58831920428348
 20
-120.7344048092261
 30
0.0
 10
93.02377927361906
 20
-119.9985324135768
 30
0.0
 10
93.02377927361906
 20
-119.9985324135768
 30
0.0
 10
93.02377927361906
 20
-119.9985324135768
 30
0.0
 10
93.74311521093922
 20
-120.2961886635023
 30
0.0
 10
93.74311521093922
 20
-120.2961886635023
 30
0.0
 10
93.74311521093922
 20
-120.2961886635023
 30
0.0
 10
93.66870114845783
 20
-120.4760226478324
 30
0.0
 10
93.66870114845783
 20
-120.4760226478324
 30
0.0
 10
93.66870114845783
 20
-120.4760226478324
 30
0.0
 10
93.09991588384308
 20
-120.2407226261898
 30
0.0
 10
93.09991588384308
 20
-120.2407226261898
 30
0.0
 10
93.09991588384308
 20
-120.2407226261898
 30
0.0
 10
92.87770722504446
 20
-120.6062472571748
 30
0.0
 10
92.87770722504446
 20
-120.6062472571748
 30
0.0
 10
92.94729815384652
 20
-120.5986680471073
 30
0.0
 10
93.03824867465711
 20
-120.5931558943309
 30
0.0
 10
93.14780271108805
 20
-120.6382866451877
 30
0.0
 10
93.3827582231821
 20
-120.7354383378717
 30
0.0
 10
93.53020830995078
 20
-120.9982991233963
 30
0.0
 10
93.41031898706409
 20
-121.2876871441572
 30
0.0
 10
93.28905162598329
 20
-121.580864769952
 30
0.0
 10
92.99208439515476
 20
-121.7117783983915
 30
0.0
 10
92.71234264175247
 20
-121.5960231900871
 30
0.0
  0
HATCH
  5
AC
330
A3
100
AcDbEntity
  8
_U+30EC_U+30A4_U+30E4_U+30FC 1
 62
   179
420
  2234388
100
AcDbHatch
 10
0.0
 20
0.0
 30
0.0
210
0.0
220
0.0
230
1.0
  2
SOLID
 70
     1
 71
     0
 91
        1
 92
        1
 93
        1
 72
     4
 94
        3
 73
     0
 74
     1
 95
       53
 96
       49
 40
0.0
 40
0.0
 40
0.0
 40
0.0
 40
1.0
 40
1.0
 40
1.0
 40
2.0
 40
2.0
 40
2.0
 40
3.0
 40
3.0
 40
3.0
 40
4.0
 40
4.0
 40
4.0
 40
5.0
 40
5.0
 40
5.0
 40
6.0
 40
6.0
 40
6.0
 40
7.0
 40
7.0
 40
7.0
 40
8.0
 40
8.0
 40
8.0
 40
9.0
 40
9.0
 40
9.0
 40
10.0
 40
10.0
 40
10.0
 40
11.0
 40
11.0
 40
11.0
 40
12.0
 40
12.0
 40
12.0
 40
13.0
 40
13.0
 40
13.0
 40
14.0
 40
14.0
 40
14.0
 40
15.0
 40
15.0
 40
15.0
 40
16.0
 40
16.0
 40
16.0
 40
16.0
 10
92.71234264175247
 20
-121.5960231900871
 10
92.63999563656223
 20
-121.5660508593654
 10
92.55283472078541
 20
-121.5116183506985
 10
92.48324379198336
 20
-121.4141221484659
 10
92.3650770168393
 20
-121.2463459983342
 10
92.39573836665801
 20
-121.1168104080889
 10
92.41950952550624
 20
-121.0100124480461
 10
92.41950952550624
 20
-121.0100124480461
 10
92.62483721642712
 20
-121.0951063065318
 10
92.62483721642712
 20
-121.0951063065318
 10
92.59934350983627
 20
-121.2994004688071
 10
92.70545245078198
 20
-121.3755370790311
 10
92.79157983791322
 20
-121.4113660720777
 10
92.92042640906156
 20
-121.4647650520991
 10
93.0988823551975
 20
-121.4310031163436
 10
93.18776581871695
 20
-121.2160291580641
 10
93.2862955495951
 20
-120.9796956077759
 10
93.14642467289396
 20
-120.8460259029482
 10
93.0354925982689
 20
-120.7998616234459
 10
93.00586477709577
 20
-120.788148298796
 10
92.87495114865627
 20
-120.7337157901291
 10
92.74369301066825
 20
-120.8191541581633
 10
92.74369301066825
 20
-120.8191541581633
 10
92.58831920428348
 20
-120.7344048092261
 10
92.58831920428348
 20
-120.7344048092261
 10
92.58831920428348
 20
-120.7344048092261
 10
93.02377927361906
 20
-119.9985324135768
 10
93.02377927361906
 20
-119.9985324135768
 10
93.02377927361906
 20
-119.9985324135768
 10
93.74311521093922
 20
-120.2961886635023
 10
93.74311521093922
 20
-120.2961886635023
 10
93.74311521093922
 20
-120.2961886635023
 10
93.66870114845783
 20
-120.4760226478324
 10
93.66870114845783
 20
-120.4760226478324
 10
93.66870114845783
 20
-120.4760226478324
 10
93.09991588384308
 20
-120.2407226261898
 10
93.09991588384308
 20
-120.2407226261898
 10
93.09991588384308
 20
-120.2407226261898
 10
92.87770722504446
 20
-120.6062472571748
 10
92.87770722504446
 20
-120.6062472571748
 10
92.94729815384652
 20
-120.5986680471073
 10
93.03824867465711
 20
-120.5931558943309
 10
93.14780271108805
 20
-120.6382866451877
 10
93.3827582231821
 20
-120.7354383378717
 10
93.53020830995078
 20
-120.9982991233963
 10
93.41031898706409
 20
-121.2876871441572
 10
93.28905162598329
 20
-121.580864769952
 10
92.99208439515476
 20
-121.7117783983915
 10
92.71234264175247
 20
-121.5960231900871
 97
        0
 97
        0
 75
     2
 76
     1
 98
        0
  0
SPLINE
  5
AD
330
A3
100
AcDbEntity
  8
_U+30EC_U+30A4_U+30E4_U+30FC 1
370
     0
100
AcDbSpline
210
0.0
220
0.0
230
1.0
 70
    11
 71
     3
 72
    17
 73
    13
 74
     0
 42
0.0000000001
 43
0.0000000001
 12
1.0
 22
0.0
 32
0.0
 13
1.0
 23
0.0
 33
0.0
 40
0.0
 40
0.0
 40
0.0
 40
0.0
 40
1.0
 40
1.0
 40
1.0
 40
2.0
 40
2.0
 40
2.0
 40
3.0
 40
3.0
 40
3.0
 40
4.0
 40
4.0
 40
4.0
 40
4.0
 10
94.42937823160099
 20
-120.8577392275981
 30
0.0
 10
94.36633298422092
 20
-121.0100124480461
 30
0.0
 10
94.18959958582761
 20
-121.0882161155613
 30
0.0
 10
94.03112519350611
 20
-121.0227593013415
 30
0.0
 10
93.87540687757281
 20
-120.9579915062188
 30
0.0
 10
93.80305987238258
 20
-120.7788465409859
 30
0.0
 10
93.86644962931118
 20
-120.6245062632467
 30
0.0
 10
93.93052840533682
 20
-120.4701659855075
 30
0.0
 10
94.1082953323757
 20
-120.395062903929
 30
0.0
 10
94.26470266740606
 20
-120.4598306990517
 30
0.0
 10
94.42317705972755
 20
-120.5252875132715
 30
0.0
 10
94.4927679885296
 20
-120.70546600715
 30
0.0
 10
94.42937823160099
 20
-120.8577392275981
 30
0.0
  0
SPLINE
  5
AE
330
A3
100
AcDbEntity
  8
_U+30EC_U+30A4_U+30E4_U+30FC 1
370
     0
100
AcDbSpline
210
0.0
220
0.0
230
1.0
 70
    11
 71
     3
 72
    17
 73
    13
 74
     0
 42
0.0000000001
 43
0.0000000001
 12
1.0
 22
0.0
 32
0.0
 13
1.0
 23
0.0
 33
0.0
 40
0.0
 40
0.0
 40
0.0
 40
0.0
 40
1.0
 40
1.0
 40
1.0
 40
2.0
 40
2.0
 40
2.0
 40
3.0
 40
3.0
 40
3.0
 40
4.0
 40
4.0
 40
4.0
 40
4.0
 10
93.98220483761557
 20
-120.6723930904916
 30
0.0
 10
93.94361976818077
 20
-120.7643771399478
 30
0.0
 10
93.9870279712949
 20
-120.8694525522479
 30
0.0
 10
94.0793565302996
 20
-120.9073486025857
 30
0.0
 10
94.17099607020725
 20
-120.9455891624719
 30
0.0
 10
94.2764159920559
 20
-120.9018364498093
 30
0.0
 10
94.31431204239365
 20
-120.8101969099016
 30
0.0
 10
94.3522080927314
 20
-120.718557369994
 30
0.0
 10
94.3108669469084
 20
-120.6138264672424
 30
0.0
 10
94.21681584016108
 20
-120.5752413978076
 30
0.0
 10
94.12276473341376
 20
-120.5363118188243
 30
0.0
 10
94.02010088795332
 20
-120.580753550584
 30
0.0
 10
93.98220483761557
 20
-120.6723930904916
 30
0.0
  0
HATCH
  5
AF
330
A3
100
AcDbEntity
  8
_U+30EC_U+30A4_U+30E4_U+30FC 1
 62
   179
420
  2234388
100
AcDbHatch
 10
0.0
 20
0.0
 30
0.0
210
0.0
220
0.0
230
1.0
  2
SOLID
 70
     1
 71
     0
 91
        2
 92
        1
 93
        1
 72
     4
 94
        3
 73
     0
 74
     1
 95
       17
 96
       13
 40
0.0
 40
0.0
 40
0.0
 40
0.0
 40
1.0
 40
1.0
 40
1.0
 40
2.0
 40
2.0
 40
2.0
 40
3.0
 40
3.0
 40
3.0
 40
4.0
 40
4.0
 40
4.0
 40
4.0
 10
94.42937823160099
 20
-120.8577392275981
 10
94.36633298422092
 20
-121.0100124480461
 10
94.18959958582761
 20
-121.0882161155613
 10
94.03112519350611
 20
-121.0227593013415
 10
93.87540687757281
 20
-120.9579915062188
 10
93.80305987238258
 20
-120.7788465409859
 10
93.86644962931118
 20
-120.6245062632467
 10
93.93052840533682
 20
-120.4701659855075
 10
94.1082953323757
 20
-120.395062903929
 10
94.26470266740606
 20
-120.4598306990517
 10
94.42317705972755
 20
-120.5252875132715
 10
94.4927679885296
 20
-120.70546600715
 10
94.42937823160099
 20
-120.8577392275981
 97
        0
 97
        0
 92
        1
 93
        1
 72
     4
 94
        3
 73
     0
 74
     1
 95
       17
 96
       13
 40
0.0
 40
0.0
 40
0.0
 40
0.0
 40
1.0
 40
1.0
 40
1.0
 40
2.0
 40
2.0
 40
2.0
 40
3.0
 40
3.0
 40
3.0
 40
4.0
 40
4.0
 40
4.0
 40
4.0
 10
93.98220483761557
 20
-120.6723930904916
 10
93.94361976818077
 20
-120.7643771399478
 10
93.9870279712949
 20
-120.8694525522479
 10
94.0793565302996
 20
-120.9073486025857
 10
94.17099607020725
 20
-120.9455891624719
 10
94.2764159920559
 20
-120.9018364498093
 10
94.31431204239365
 20
-120.8101969099016
 10
94.3522080927314
 20
-120.718557369994
 10
94.3108669469084
 20
-120.6138264672424
 10
94.21681584016108
 20
-120.5752413978076
 10
94.12276473341376
 20
-120.5363118188243
 10
94.02010088795332
 20
-120.580753550584
 10
93.98220483761557
 20
-120.6723930904916
 97
        0
 97
        0
 75
     2
 76
     1
 98
        0
  0
ENDBLK
  5
A6
330
A3
100
AcDbEntity
  8
0
100
AcDbBlockEnd
  0
ENDSEC
  0
SECTION
  2
ENTITIES
  0
SPLINE
  5
41
330
1F
100
AcDbEntity
  8
_U+30EC_U+30A4_U+30E4_U+30FC 1
 62
     7
420
 16777215
370
     9
100
AcDbSpline
210
0.0
220
0.0
230
1.0
 70
     8
 71
     3
 72
    17
 73
    13
 74
     0
 42
0.0000000001
 43
0.0000000001
 12
1.0
 22
0.0
 32
0.0
 13
1.0
 23
0.0
 33
0.0
 40
0.0
 40
0.0
 40
0.0
 40
0.0
 40
1.0
 40
1.0
 40
1.0
 40
2.0
 40
2.0
 40
2.0
 40
3.0
 40
3.0
 40
3.0
 40
4.0
 40
4.0
 40
4.0
 40
4.0
 10
103.1041359807055
 20
-117.2960358040093
 30
0.0
 10
103.0648365372636
 20
-117.2567363595747
 30
0.0
 10
103.0021479277518
 20
-117.2567363595747
 30
0.0
 10
102.9628837620869
 20
-117.2960358040093
 30
0.0
 10
102.9236221964915
 20
-117.3352999706663
 30
0.0
 10
102.9236221964915
 20
-117.3979885817615
 30
0.0
 10
102.9628837620869
 20
-117.4372880261963
 30
0.0
 10
103.0021479277518
 20
-117.476552192853
 30
0.0
 10
103.0648365372636
 20
-117.476552192853
 30
0.0
 10
103.1041359807055
 20
-117.4372880261963
 30
0.0
 10
103.12272736912
 20
-117.4186613595342
 30
0.0
 10
103.1337693132828
 20
-117.3931908039851
 30
0.0
 10
103.1337693132828
 20
-117.366309137325
 30
0.0
  0
SPLINE
  5
42
330
1F
100
AcDbEntity
  8
_U+30EC_U+30A4_U+30E4_U+30FC 1
 62
     7
420
 16777215
370
     9
100
AcDbSpline
210
0.0
220
0.0
230
1.0
 70
    11
 71
     3
 72
    17
 73
    13
 74
     0
 42
0.0000000001
 43
0.0000000001
 12
1.0
 22
0.0
 32
0.0
 13
1.0
 23
0.0
 33
0.0
 40
0.0
 40
0.0
 40
0.0
 40
0.0
 40
1.0
 40
1.0
 40
1.0
 40
2.0
 40
2.0
 40
2.0
 40
3.0
 40
3.0
 40
3.0
 40
4.0
 40
4.0
 40
4.0
 40
4.0
 10
89.19230939118128
 20
-117.366309137325
 30
0.0
 10
89.19230939118128
 20
-117.3111699706723
 30
0.0
 10
89.14754189232339
 20
-117.2664024706834
 30
0.0
 10
89.09240272706344
 20
-117.2664024706834
 30
0.0
 10
89.03729883958037
 20
-117.2664024706834
 30
0.0
 10
88.9924960629456
 20
-117.3111699706723
 30
0.0
 10
88.9924960629456
 20
-117.366309137325
 30
0.0
 10
88.9924960629456
 20
-117.4221185817555
 30
0.0
 10
89.03729883958037
 20
-117.4669213595222
 30
0.0
 10
89.09240272706344
 20
-117.4669213595222
 30
0.0
 10
89.14754189232339
 20
-117.4669213595222
 30
0.0
 10
89.19230939118128
 20
-117.4221185817555
 30
0.0
 10
89.19230939118128
 20
-117.366309137325
 30
0.0
  0
POLYLINE
  5
43
330
1F
100
AcDbEntity
  8
_U+30EC_U+30A4_U+30E4_U+30FC 1
 62
     7
420
 16777215
370
     9
100
AcDb2dPolyline
 66
     1
 10
0.0
 20
0.0
 30
0.0
  0
VERTEX
  5
44
330
43
100
AcDbEntity
  8
_U+30EC_U+30A4_U+30E4_U+30FC 1
 62
     7
420
 16777215
370
     9
100
AcDbVertex
100
AcDb2dVertex
 10
89.09240272706344
 20
-117.366309137325
 30
0.0
  0
VERTEX
  5
45
330
43
100
AcDbEntity
  8
_U+30EC_U+30A4_U+30E4_U+30FC 1
 62
     7
420
 16777215
370
     9
100
AcDbVertex
100
AcDb2dVertex
 10
103.092423758782
 20
-117.366309137325
 30
0.0
  0
SEQEND
  5
46
330
43
100
AcDbEntity
  8
_U+30EC_U+30A4_U+30E4_U+30FC 1
 62
     7
420
 16777215
370
     9
  0
POLYLINE
  5
47
330
1F
100
AcDbEntity
  8
_U+30EC_U+30A4_U+30E4_U+30FC 1
 62
     7
420
 16777215
370
     9
100
AcDb2dPolyline
 66
     1
 10
0.0
 20
0.0
 30
0.0
  0
VERTEX
  5
48
330
47
100
AcDbEntity
  8
_U+30EC_U+30A4_U+30E4_U+30FC 1
 62
     7
420
 16777215
370
     9
100
AcDbVertex
100
AcDb2dVertex
 10
89.09240272706344
 20
-115.9062677488013
 30
0.0
  0
VERTEX
  5
49
330
47
100
AcDbEntity
  8
_U+30EC_U+30A4_U+30E4_U+30FC 1
 62
     7
420
 16777215
370
     9
100
AcDbVertex
100
AcDb2dVertex
 10
89.09240272706344
 20
-118.3667516370749
 30
0.0
  0
SEQEND
  5
4A
330
47
100
AcDbEntity
  8
_U+30EC_U+30A4_U+30E4_U+30FC 1
 62
     7
420
 16777215
370
     9
  0
POLYLINE
  5
4B
330
1F
100
AcDbEntity
  8
_U+30EC_U+30A4_U+30E4_U+30FC 1
 62
     7
420
 16777215
370
     9
100
AcDb2dPolyline
 66
     1
 10
0.0
 20
0.0
 30
0.0
  0
VERTEX
  5
4C
330
4B
100
AcDbEntity
  8
_U+30EC_U+30A4_U+30E4_U+30FC 1
 62
     7
420
 16777215
370
     9
100
AcDbVertex
100
AcDb2dVertex
 10
103.0338626491649
 20
-116.2301177487202
 30
0.0
  0
VERTEX
  5
4D
330
4B
100
AcDbEntity
  8
_U+30EC_U+30A4_U+30E4_U+30FC 1
 62
     7
420
 16777215
370
     9
100
AcDbVertex
100
AcDb2dVertex
 10
103.0338626491649
 20
-118.6906016369942
 30
0.0
  0
SEQEND
  5
4E
330
4B
100
AcDbEntity
  8
_U+30EC_U+30A4_U+30E4_U+30FC 1
 62
     7
420
 16777215
370
     9
  0
INSERT
  5
50
330
1F
100
AcDbEntity
  8
_U+30EC_U+30A4_U+30E4_U+30FC 1
100
AcDbBlockReference
  2
block 2
 10
0.0
 20
0.0
 30
0.0
  0
SPLINE
  5
6A
330
1F
100
AcDbEntity
  8
_U+30EC_U+30A4_U+30E4_U+30FC 1
 62
     7
420
 16777215
370
     9
100
AcDbSpline
210
0.0
220
0.0
230
1.0
 70
     8
 71
     3
 72
    11
 73
     7
 74
     0
 42
0.0000000001
 43
0.0000000001
 12
1.0
 22
0.0
 32
0.0
 13
1.0
 23
0.0
 33
0.0
 40
0.0
 40
0.0
 40
0.0
 40
0.0
 40
1.0
 40
1.0
 40
1.0
 40
2.0
 40
2.0
 40
2.0
 40
2.0
 10
85.85058886742617
 20
-123.8947794134707
 30
0.0
 10
86.69598334375675
 20
-121.8538894139809
 30
0.0
 10
89.03592300628215
 20
-120.88445608089
 30
0.0
 10
91.07677767643783
 20
-121.7298527473452
 30
0.0
 10
93.11816386560947
 20
-122.5759902471338
 30
0.0
 10
94.08692454408703
 20
-124.9158946909933
 30
0.0
 10
93.24149262121135
 20
-126.9567494127054
 30
0.0
  0
SPLINE
  5
6B
330
1F
100
AcDbEntity
  8
_U+30EC_U+30A4_U+30E4_U+30FC 1
 62
     7
420
 16777215
370
    25
100
AcDbSpline
210
0.0
220
0.0
230
1.0
 70
    11
 71
     3
 72
    47
 73
    43
 74
     0
 42
0.0000000001
 43
0.0000000001
 12
1.0
 22
0.0
 32
0.0
 13
1.0
 23
0.0
 33
0.0
 40
0.0
 40
0.0
 40
0.0
 40
0.0
 40
1.0
 40
1.0
 40
1.0
 40
2.0
 40
2.0
 40
2.0
 40
3.0
 40
3.0
 40
3.0
 40
4.0
 40
4.0
 40
4.0
 40
5.0
 40
5.0
 40
5.0
 40
6.0
 40
6.0
 40
6.0
 40
7.0
 40
7.0
 40
7.0
 40
8.0
 40
8.0
 40
8.0
 40
9.0
 40
9.0
 40
9.0
 40
10.0
 40
10.0
 40
10.0
 40
11.0
 40
11.0
 40
11.0
 40
12.0
 40
12.0
 40
12.0
 40
13.0
 40
13.0
 40
13.0
 40
14.0
 40
14.0
 40
14.0
 40
14.0
 10
89.07656300524533
 20
-126.4565458017192
 30
0.0
 10
89.07656300524533
 20
-126.4565458017192
 30
0.0
 10
79.26217964452
 20
-116.4726524708818
 30
0.0
 10
79.26217964452
 20
-116.4726524708818
 30
0.0
 10
78.86805831361636
 20
-116.8605669152295
 30
0.0
 10
78.86255298804866
 20
-117.4937677484044
 30
0.0
 10
79.25011664685405
 20
-117.8872208038615
 30
0.0
 10
79.25011664685405
 20
-117.8872208038615
 30
0.0
 10
88.26901941473638
 20
-127.0621946904567
 30
0.0
 10
88.26901941473638
 20
-127.0621946904567
 30
0.0
 10
88.26901941473638
 20
-127.0621946904567
 30
0.0
 10
84.44564923450089
 20
-136.0110027437749
 30
0.0
 10
84.44564923450089
 20
-136.0110027437749
 30
0.0
 10
84.44564923450089
 20
-136.0110027437749
 30
0.0
 10
76.41515721715359
 20
-127.8421510791506
 30
0.0
 10
76.41515721715359
 20
-127.8421510791506
 30
0.0
 10
76.41515721715359
 20
-127.8421510791506
 30
0.0
 10
76.05271333751142
 20
-128.8989321899973
 30
0.0
 10
76.05271333751142
 20
-128.8989321899973
 30
0.0
 10
76.05271333751142
 20
-128.8989321899973
 30
0.0
 10
84.46494617845303
 20
-137.457250521191
 30
0.0
 10
84.46494617845303
 20
-137.457250521191
 30
0.0
 10
84.46494617845303
 20
-137.457250521191
 30
0.0
 10
96.46475253897913
 20
-137.457250521191
 30
0.0
 10
96.46475253897913
 20
-137.457250521191
 30
0.0
 10
96.46475253897913
 20
-137.457250521191
 30
0.0
 10
96.96495613732898
 20
-136.4574782992191
 30
0.0
 10
96.96495613732898
 20
-136.4574782992191
 30
0.0
 10
96.96495613732898
 20
-136.4574782992191
 30
0.0
 10
85.51019142956439
 20
-136.4574782992191
 30
0.0
 10
85.51019142956439
 20
-136.4574782992191
 30
0.0
 10
85.51019142956439
 20
-136.4574782992191
 30
0.0
 10
89.21090077959586
 20
-127.4569883014691
 30
0.0
 10
89.21090077959586
 20
-127.4569883014691
 30
0.0
 10
89.21090077959586
 20
-127.4569883014691
 30
0.0
 10
102.0761062847105
 20
-127.4569883014691
 30
0.0
 10
102.0761062847105
 20
-127.4569883014691
 30
0.0
 10
102.6286999743426
 20
-127.4569883014691
 30
0.0
 10
103.076548759187
 20
-127.009136912692
 30
0.0
 10
103.076548759187
 20
-126.4565458017192
 30
0.0
 10
103.076548759187
 20
-126.4565458017192
 30
0.0
 10
89.07656300524533
 20
-126.4565458017192
 30
0.0
 10
89.07656300524533
 20
-126.4565458017192
 30
0.0
  0
HATCH
  5
6C
330
1F
100
AcDbEntity
  8
_U+30EC_U+30A4_U+30E4_U+30FC 1
 62
   253
420
 11711154
100
AcDbHatch
 10
0.0
 20
0.0
 30
0.0
210
0.0
220
0.0
230
1.0
  2
SOLID
 70
     1
 71
     0
 91
        1
 92
        1
 93
        1
 72
     4
 94
        3
 73
     0
 74
     1
 95
       47
 96
       43
 40
0.0
 40
0.0
 40
0.0
 40
0.0
 40
1.0
 40
1.0
 40
1.0
 40
2.0
 40
2.0
 40
2.0
 40
3.0
 40
3.0
 40
3.0
 40
4.0
 40
4.0
 40
4.0
 40
5.0
 40
5.0
 40
5.0
 40
6.0
 40
6.0
 40
6.0
 40
7.0
 40
7.0
 40
7.0
 40
8.0
 40
8.0
 40
8.0
 40
9.0
 40
9.0
 40
9.0
 40
10.0
 40
10.0
 40
10.0
 40
11.0
 40
11.0
 40
11.0
 40
12.0
 40
12.0
 40
12.0
 40
13.0
 40
13.0
 40
13.0
 40
14.0
 40
14.0
 40
14.0
 40
14.0
 10
89.07656300524533
 20
-126.4565458017192
 10
89.07656300524533
 20
-126.4565458017192
 10
79.26217964452
 20
-116.4726524708818
 10
79.26217964452
 20
-116.4726524708818
 10
78.86805831361636
 20
-116.8605669152295
 10
78.86255298804866
 20
-117.4937677484044
 10
79.25011664685405
 20
-117.8872208038615
 10
79.25011664685405
 20
-117.8872208038615
 10
88.26901941473638
 20
-127.0621946904567
 10
88.26901941473638
 20
-127.0621946904567
 10
88.26901941473638
 20
-127.0621946904567
 10
84.44564923450089
 20
-136.0110027437749
 10
84.44564923450089
 20
-136.0110027437749
 10
84.44564923450089
 20
-136.0110027437749
 10
76.41515721715359
 20
-127.8421510791506
 10
76.41515721715359
 20
-127.8421510791506
 10
76.41515721715359
 20
-127.8421510791506
 10
76.05271333751142
 20
-128.8989321899973
 10
76.05271333751142
 20
-128.8989321899973
 10
76.05271333751142
 20
-128.8989321899973
 10
84.46494617845303
 20
-137.457250521191
 10
84.46494617845303
 20
-137.457250521191
 10
84.46494617845303
 20
-137.457250521191
 10
96.46475253897913
 20
-137.457250521191
 10
96.46475253897913
 20
-137.457250521191
 10
96.46475253897913
 20
-137.457250521191
 10
96.96495613732898
 20
-136.4574782992191
 10
96.96495613732898
 20
-136.4574782992191
 10
96.96495613732898
 20
-136.4574782992191
 10
85.51019142956439
 20
-136.4574782992191
 10
85.51019142956439
 20
-136.4574782992191
 10
85.51019142956439
 20
-136.4574782992191
 10
89.21090077959586
 20
-127.4569883014691
 10
89.21090077959586
 20
-127.4569883014691
 10
89.21090077959586
 20
-127.4569883014691
 10
102.0761062847105
 20
-127.4569883014691
 10
102.0761062847105
 20
-127.4569883014691
 10
102.6286999743426
 20
-127.4569883014691
 10
103.076548759187
 20
-127.009136912692
 10
103.076548759187
 20
-126.4565458017192
 10
103.076548759187
 20
-126.4565458017192
 10
89.07656300524533
 20
-126.4565458017192
 10
89.07656300524533
 20
-126.4565458017192
 97
        0
 97
        0
 75
     2
 76
     1
 98
        0
  0
POLYLINE
  5
6D
330
1F
100
AcDbEntity
  8
_U+30EC_U+30A4_U+30E4_U+30FC 1
 62
   179
420
  2234388
370
     9
100
AcDb2dPolyline
 66
     1
 10
0.0
 20
0.0
 30
0.0
  0
VERTEX
  5
6E
330
6D
100
AcDbEntity
  8
_U+30EC_U+30A4_U+30E4_U+30FC 1
 62
   179
420
  2234388
370
     9
100
AcDbVertex
100
AcDb2dVertex
 10
104.8507739917006
 20
-127.458364134802
 30
0.0
  0
VERTEX
  5
6F
330
6D
100
AcDbEntity
  8
_U+30EC_U+30A4_U+30E4_U+30FC 1
 62
   179
420
  2234388
370
     9
100
AcDbVertex
100
AcDb2dVertex
 10
104.8507739917006
 20
-140.5378471870878
 30
0.0
  0
SEQEND
  5
70
330
6D
100
AcDbEntity
  8
_U+30EC_U+30A4_U+30E4_U+30FC 1
 62
   179
420
  2234388
370
     9
  0
SPLINE
  5
71
330
1F
100
AcDbEntity
  8
_U+30EC_U+30A4_U+30E4_U+30FC 1
 62
   179
420
  2234388
370
     9
100
AcDbSpline
210
0.0
220
0.0
230
1.0
 70
    11
 71
     3
 72
    17
 73
    13
 74
     0
 42
0.0000000001
 43
0.0000000001
 12
1.0
 22
0.0
 32
0.0
 13
1.0
 23
0.0
 33
0.0
 40
0.0
 40
0.0
 40
0.0
 40
0.0
 40
1.0
 40
1.0
 40
1.0
 40
2.0
 40
2.0
 40
2.0
 40
3.0
 40
3.0
 40
3.0
 40
4.0
 40
4.0
 40
4.0
 40
4.0
 10
104.7508673275827
 20
-127.4563180236914
 30
0.0
 10
104.7508673275827
 20
-127.5114219125666
 30
0.0
 10
104.7956701042175
 20
-127.556224690333
 30
0.0
 10
104.8507739917006
 20
-127.556224690333
 30
0.0
 10
104.9059131569605
 20
-127.556224690333
 30
0.0
 10
104.9506833070955
 20
-127.5114219125666
 30
0.0
 10
104.9506833070955
 20
-127.4563180236914
 30
0.0
 10
104.9506833070955
 20
-127.400508579261
 30
0.0
 10
104.9059131569605
 20
-127.3557058014946
 30
0.0
 10
104.8507739917006
 20
-127.3557058014946
 30
0.0
 10
104.7956701042175
 20
-127.3557058014946
 30
0.0
 10
104.7508673275827
 20
-127.400508579261
 30
0.0
 10
104.7508673275827
 20
-127.4563180236914
 30
0.0
  0
POLYLINE
  5
72
330
1F
100
AcDbEntity
  8
_U+30EC_U+30A4_U+30E4_U+30FC 1
 62
   179
420
  2234388
370
     9
100
AcDb2dPolyline
 66
     1
 10
0.0
 20
0.0
 30
0.0
  0
VERTEX
  5
73
330
72
100
AcDbEntity
  8
_U+30EC_U+30A4_U+30E4_U+30FC 1
 62
   179
420
  2234388
370
     9
100
AcDbVertex
100
AcDb2dVertex
 10
103.3900623622998
 20
-127.4563180236914
 30
0.0
  0
VERTEX
  5
74
330
72
100
AcDbEntity
  8
_U+30EC_U+30A4_U+30E4_U+30FC 1
 62
   179
420
  2234388
370
     9
100
AcDbVertex
100
AcDb2dVertex
 10
105.8505461884165
 20
-127.4563180236914
 30
0.0
  0
SEQEND
  5
75
330
72
100
AcDbEntity
  8
_U+30EC_U+30A4_U+30E4_U+30FC 1
 62
   179
420
  2234388
370
     9
  0
SPLINE
  5
76
330
1F
100
AcDbEntity
  8
_U+30EC_U+30A4_U+30E4_U+30FC 1
 62
   179
420
  2234388
370
     9
100
AcDbSpline
210
0.0
220
0.0
230
1.0
 70
    11
 71
     3
 72
    17
 73
    13
 74
     0
 42
0.0000000001
 43
0.0000000001
 12
1.0
 22
0.0
 32
0.0
 13
1.0
 23
0.0
 33
0.0
 40
0.0
 40
0.0
 40
0.0
 40
0.0
 40
1.0
 40
1.0
 40
1.0
 40
2.0
 40
2.0
 40
2.0
 40
3.0
 40
3.0
 40
3.0
 40
4.0
 40
4.0
 40
4.0
 40
4.0
 10
104.7508673275827
 20
-136.4567727436635
 30
0.0
 10
104.7508673275827
 20
-136.5119119103166
 30
0.0
 10
104.7956701042175
 20
-136.5566794103052
 30
0.0
 10
104.8507739917006
 20
-136.5566794103052
 30
0.0
 10
104.9059131569605
 20
-136.5566794103052
 30
0.0
 10
104.9506833070955
 20
-136.5119119103166
 30
0.0
 10
104.9506833070955
 20
-136.4567727436635
 30
0.0
 10
104.9506833070955
 20
-136.4009632992331
 30
0.0
 10
104.9059131569605
 20
-136.3561957992445
 30
0.0
 10
104.8507739917006
 20
-136.3561957992445
 30
0.0
 10
104.7956701042175
 20
-136.3561957992445
 30
0.0
 10
104.7508673275827
 20
-136.4009632992331
 30
0.0
 10
104.7508673275827
 20
-136.4567727436635
 30
0.0
  0
POLYLINE
  5
77
330
1F
100
AcDbEntity
  8
_U+30EC_U+30A4_U+30E4_U+30FC 1
 62
   179
420
  2234388
370
     9
100
AcDb2dPolyline
 66
     1
 10
0.0
 20
0.0
 30
0.0
  0
VERTEX
  5
78
330
77
100
AcDbEntity
  8
_U+30EC_U+30A4_U+30E4_U+30FC 1
 62
   179
420
  2234388
370
     9
100
AcDbVertex
100
AcDb2dVertex
 10
103.3900623622998
 20
-136.4567727436635
 30
0.0
  0
VERTEX
  5
79
330
77
100
AcDbEntity
  8
_U+30EC_U+30A4_U+30E4_U+30FC 1
 62
   179
420
  2234388
370
     9
100
AcDbVertex
100
AcDb2dVertex
 10
105.8505461884165
 20
-136.4567727436635
 30
0.0
  0
SEQEND
  5
7A
330
77
100
AcDbEntity
  8
_U+30EC_U+30A4_U+30E4_U+30FC 1
 62
   179
420
  2234388
370
     9
  0
SPLINE
  5
7B
330
1F
100
AcDbEntity
  8
_U+30EC_U+30A4_U+30E4_U+30FC 1
 62
   179
420
  2234388
370
     9
100
AcDbSpline
210
0.0
220
0.0
230
1.0
 70
    11
 71
     3
 72
    17
 73
    13
 74
     0
 42
0.0000000001
 43
0.0000000001
 12
1.0
 22
0.0
 32
0.0
 13
1.0
 23
0.0
 33
0.0
 40
0.0
 40
0.0
 40
0.0
 40
0.0
 40
1.0
 40
1.0
 40
1.0
 40
2.0
 40
2.0
 40
2.0
 40
3.0
 40
3.0
 40
3.0
 40
4.0
 40
4.0
 40
4.0
 40
4.0
 10
104.7508673275827
 20
-137.4565449656361
 30
0.0
 10
104.7508673275827
 20
-137.5116841322885
 30
0.0
 10
104.7956701042175
 20
-137.5564516322777
 30
0.0
 10
104.8507739917006
 20
-137.5564516322777
 30
0.0
 10
104.9059131569605
 20
-137.5564516322777
 30
0.0
 10
104.9506833070955
 20
-137.5116841322885
 30
0.0
 10
104.9506833070955
 20
-137.4565449656361
 30
0.0
 10
104.9506833070955
 20
-137.4007355212057
 30
0.0
 10
104.9059131569605
 20
-137.3559680212165
 30
0.0
 10
104.8507739917006
 20
-137.3559680212165
 30
0.0
 10
104.7956701042175
 20
-137.3559680212165
 30
0.0
 10
104.7508673275827
 20
-137.4007355212057
 30
0.0
 10
104.7508673275827
 20
-137.4565449656361
 30
0.0
  0
POLYLINE
  5
7C
330
1F
100
AcDbEntity
  8
_U+30EC_U+30A4_U+30E4_U+30FC 1
 62
   179
420
  2234388
370
     9
100
AcDb2dPolyline
 66
     1
 10
0.0
 20
0.0
 30
0.0
  0
VERTEX
  5
7D
330
7C
100
AcDbEntity
  8
_U+30EC_U+30A4_U+30E4_U+30FC 1
 62
   179
420
  2234388
370
     9
100
AcDbVertex
100
AcDb2dVertex
 10
103.3900623622998
 20
-137.4565449656361
 30
0.0
  0
VERTEX
  5
7E
330
7C
100
AcDbEntity
  8
_U+30EC_U+30A4_U+30E4_U+30FC 1
 62
   179
420
  2234388
370
     9
100
AcDbVertex
100
AcDb2dVertex
 10
105.8505461884165
 20
-137.4565449656361
 30
0.0
  0
SEQEND
  5
7F
330
7C
100
AcDbEntity
  8
_U+30EC_U+30A4_U+30E4_U+30FC 1
 62
   179
420
  2234388
370
     9
  0
INSERT
  5
81
330
1F
100
AcDbEntity
  8
_U+30EC_U+30A4_U+30E4_U+30FC 1
100
AcDbBlockReference
  2
block 3
 10
0.0
 20
0.0
 30
0.0
  0
INSERT
  5
88
330
1F
100
AcDbEntity
  8
_U+30EC_U+30A4_U+30E4_U+30FC 1
100
AcDbBlockReference
  2
block 4
 10
0.0
 20
0.0
 30
0.0
  0
SPLINE
  5
8D
330
1F
100
AcDbEntity
  8
_U+30EC_U+30A4_U+30E4_U+30FC 1
 62
   179
420
  2234388
370
     9
100
AcDbSpline
210
0.0
220
0.0
230
1.0
 70
    11
 71
     3
 72
    17
 73
    13
 74
     0
 42
0.0000000001
 43
0.0000000001
 12
1.0
 22
0.0
 32
0.0
 13
1.0
 23
0.0
 33
0.0
 40
0.0
 40
0.0
 40
0.0
 40
0.0
 40
1.0
 40
1.0
 40
1.0
 40
2.0
 40
2.0
 40
2.0
 40
3.0
 40
3.0
 40
3.0
 40
4.0
 40
4.0
 40
4.0
 40
4.0
 10
84.56555839810842
 20
-141.4583855201907
 30
0.0
 10
84.56555839810842
 20
-141.4032463535383
 30
0.0
 10
84.52075562147365
 20
-141.3584788535491
 30
0.0
 10
84.46494617845303
 20
-141.3584788535491
 30
0.0
 10
84.40984442334197
 20
-141.3584788535491
 30
0.0
 10
84.36504164557556
 20
-141.4032463535383
 30
0.0
 10
84.36504164557556
 20
-141.4583855201907
 30
0.0
 10
84.36504164557556
 20
-141.5134894090663
 30
0.0
 10
84.40984442334197
 20
-141.5582921868324
 30
0.0
 10
84.46494617845303
 20
-141.5582921868324
 30
0.0
 10
84.52075562147365
 20
-141.5582921868324
 30
0.0
 10
84.56555839810842
 20
-141.5134894090663
 30
0.0
 10
84.56555839810842
 20
-141.4583855201907
 30
0.0
  0
POLYLINE
  5
8E
330
1F
100
AcDbEntity
  8
_U+30EC_U+30A4_U+30E4_U+30FC 1
 62
   179
420
  2234388
370
     9
100
AcDb2dPolyline
 66
     1
 10
0.0
 20
0.0
 30
0.0
  0
VERTEX
  5
8F
330
8E
100
AcDbEntity
  8
_U+30EC_U+30A4_U+30E4_U+30FC 1
 62
   179
420
  2234388
370
     9
100
AcDbVertex
100
AcDb2dVertex
 10
84.46494617845303
 20
-141.4583855201907
 30
0.0
  0
VERTEX
  5
90
330
8E
100
AcDbEntity
  8
_U+30EC_U+30A4_U+30E4_U+30FC 1
 62
   179
420
  2234388
370
     9
100
AcDbVertex
100
AcDb2dVertex
 10
96.3648458748613
 20
-141.4583855201907
 30
0.0
  0
SEQEND
  5
91
330
8E
100
AcDbEntity
  8
_U+30EC_U+30A4_U+30E4_U+30FC 1
 62
   179
420
  2234388
370
     9
  0
POLYLINE
  5
92
330
1F
100
AcDbEntity
  8
_U+30EC_U+30A4_U+30E4_U+30FC 1
 62
   179
420
  2234388
370
     9
100
AcDb2dPolyline
 66
     1
 10
0.0
 20
0.0
 30
0.0
  0
VERTEX
  5
93
330
92
100
AcDbEntity
  8
_U+30EC_U+30A4_U+30E4_U+30FC 1
 62
   179
420
  2234388
370
     9
100
AcDbVertex
100
AcDb2dVertex
 10
84.46494617845303
 20
-138.9971960763616
 30
0.0
  0
VERTEX
  5
94
330
92
100
AcDbEntity
  8
_U+30EC_U+30A4_U+30E4_U+30FC 1
 62
   179
420
  2234388
370
     9
100
AcDbVertex
100
AcDb2dVertex
 10
84.46494617845303
 20
-142.4581577421633
 30
0.0
  0
SEQEND
  5
95
330
92
100
AcDbEntity
  8
_U+30EC_U+30A4_U+30E4_U+30FC 1
 62
   179
420
  2234388
370
     9
  0
SPLINE
  5
96
330
1F
100
AcDbEntity
  8
_U+30EC_U+30A4_U+30E4_U+30FC 1
 62
   179
420
  2234388
370
     9
100
AcDbSpline
210
0.0
220
0.0
230
1.0
 70
    11
 71
     3
 72
    17
 73
    13
 74
     0
 42
0.0000000001
 43
0.0000000001
 12
1.0
 22
0.0
 32
0.0
 13
1.0
 23
0.0
 33
0.0
 40
0.0
 40
0.0
 40
0.0
 40
0.0
 40
1.0
 40
1.0
 40
1.0
 40
2.0
 40
2.0
 40
2.0
 40
3.0
 40
3.0
 40
3.0
 40
4.0
 40
4.0
 40
4.0
 40
4.0
 10
96.56532948085764
 20
-141.4583855201907
 30
0.0
 10
96.56532948085764
 20
-141.4032463535383
 30
0.0
 10
96.52056198199976
 20
-141.3584788535491
 30
0.0
 10
96.46475253897913
 20
-141.3584788535491
 30
0.0
 10
96.40961337371918
 20
-141.3584788535491
 30
0.0
 10
96.3648458748613
 20
-141.4032463535383
 30
0.0
 10
96.3648458748613
 20
-141.4583855201907
 30
0.0
 10
96.3648458748613
 20
-141.5134894090663
 30
0.0
 10
96.40961337371918
 20
-141.5582921868324
 30
0.0
 10
96.46475253897913
 20
-141.5582921868324
 30
0.0
 10
96.52056198199976
 20
-141.5582921868324
 30
0.0
 10
96.56532948085764
 20
-141.5134894090663
 30
0.0
 10
96.56532948085764
 20
-141.4583855201907
 30
0.0
  0
POLYLINE
  5
97
330
1F
100
AcDbEntity
  8
_U+30EC_U+30A4_U+30E4_U+30FC 1
 62
   179
420
  2234388
370
     9
100
AcDb2dPolyline
 66
     1
 10
0.0
 20
0.0
 30
0.0
  0
VERTEX
  5
98
330
97
100
AcDbEntity
  8
_U+30EC_U+30A4_U+30E4_U+30FC 1
 62
   179
420
  2234388
370
     9
100
AcDbVertex
100
AcDb2dVertex
 10
96.46475253897913
 20
-138.9971960763616
 30
0.0
  0
VERTEX
  5
99
330
97
100
AcDbEntity
  8
_U+30EC_U+30A4_U+30E4_U+30FC 1
 62
   179
420
  2234388
370
     9
100
AcDbVertex
100
AcDb2dVertex
 10
96.46475253897913
 20
-142.4581577421633
 30
0.0
  0
SEQEND
  5
9A
330
97
100
AcDbEntity
  8
_U+30EC_U+30A4_U+30E4_U+30FC 1
 62
   179
420
  2234388
370
     9
  0
INSERT
  5
9C
330
1F
100
AcDbEntity
  8
_U+30EC_U+30A4_U+30E4_U+30FC 1
100
AcDbBlockReference
  2
block 5
 10
0.0
 20
0.0
 30
0.0
  0
INSERT
  5
A4
330
1F
100
AcDbEntity
  8
_U+30EC_U+30A4_U+30E4_U+30FC 1
100
AcDbBlockReference
  2
block 6
 10
0.0
 20
0.0
 30
0.0
  0
ENDSEC
  0
SECTION
  2
OBJECTS
  0
DICTIONARY
  5
C
330
0
100
AcDbDictionary
281
     1
  3
ACAD_GROUP
350
D
  3
ACAD_LAYOUT
350
1A
  3
ACAD_MATERIAL
350
3B
  3
ACAD_MLEADERSTYLE
350
B1
  3
ACAD_MLINESTYLE
350
17
  3
ACAD_PLOTSETTINGS
350
19
  3
ACAD_PLOTSTYLENAME
350
E
  3
ACAD_TABLESTYLE
350
B0
  3
ACAD_VISUALSTYLE
350
2A
  0
SUN
  5
3F
330
29
100
AcDbSun
 90
        1
290
     0
 63
     7
421
 16777215
 40
1.0
291
     1
 91
  2455826
 92
 54000000
292
     0
 70
     2
 71
   256
280
     1
  0
DICTIONARY
  5
D
102
{ACAD_REACTORS
330
C
102
}
330
C
100
AcDbDictionary
281
     1
  0
DICTIONARY
  5
1A
102
{ACAD_REACTORS
330
C
102
}
330
C
100
AcDbDictionary
281
     1
  3
Layout1
350
1E
  3
Layout2
350
26
  3
Model
350
22
  0
DICTIONARY
  5
3B
102
{ACAD_REACTORS
330
C
102
}
330
C
100
AcDbDictionary
281
     1
  3
ByBlock
350
3D
  3
ByLayer
350
3C
  3
Global
350
3E
  0
DICTIONARY
  5
B1
102
{ACAD_REACTORS
330
C
102
}
330
C
100
AcDbDictionary
281
     1
  0
DICTIONARY
  5
17
102
{ACAD_REACTORS
330
C
102
}
330
C
100
AcDbDictionary
281
     1
  3
Standard
350
18
  0
DICTIONARY
  5
19
102
{ACAD_REACTORS
330
C
102
}
330
C
100
AcDbDictionary
281
     1
  0
ACDBDICTIONARYWDFLT
  5
E
102
{ACAD_REACTORS
330
C
102
}
330
C
100
AcDbDictionary
281
     1
  3
Normal
350
F
100
AcDbDictionaryWithDefault
340
F
  0
DICTIONARY
  5
B0
102
{ACAD_REACTORS
330
C
102
}
330
C
100
AcDbDictionary
281
     1
  0
DICTIONARY
  5
2A
102
{ACAD_REACTORS
330
C
102
}
330
C
100
AcDbDictionary
281
     1
  3
2dWireframe
350
2F
  3
3D Hidden
350
31
  3
3dWireframe
350
30
  3
Basic
350
32
  3
Brighten
350
36
  3
ColorChange
350
3A
  3
Conceptual
350
34
  3
Dim
350
35
  3
Facepattern
350
39
  3
Flat
350
2B
  3
FlatWithEdges
350
2C
  3
Gouraud
350
2D
  3
GouraudWithEdges
350
2E
  3
Linepattern
350
38
  3
Realistic
350
33
  3
Thicken
350
37
  0
LAYOUT
  5
1E
102
{ACAD_REACTORS
330
1A
102
}
330
1A
100
AcDbPlotSettings
  1

  2
none_device
  4

  6

 40
0.0
 41
0.0
 42
0.0
 43
0.0
 44
0.0
 45
0.0
 46
0.0
 47
0.0
 48
0.0
 49
0.0
140
0.0
141
0.0
142
1.0
143
1.0
 70
   688
 72
     0
 73
     0
 74
     5
  7

 75
    16
 76
     0
 77
     2
 78
   300
147
1.0
148
0.0
149
0.0
100
AcDbLayout
  1
Layout1
 70
     1
 71
     1
 10
0.0
 20
0.0
 11
12.0
 21
9.0
 12
0.0
 22
0.0
 32
0.0
 14
1.000000000000000E+20
 24
1.000000000000000E+20
 34
1.000000000000000E+20
 15
-1.000000000000000E+20
 25
-1.000000000000000E+20
 35
-1.000000000000000E+20
146
0.0
 13
0.0
 23
0.0
 33
0.0
 16
1.0
 26
0.0
 36
0.0
 17
0.0
 27
1.0
 37
0.0
 76
     0
330
1B
  0
LAYOUT
  5
26
102
{ACAD_REACTORS
330
1A
102
}
330
1A
100
AcDbPlotSettings
  1

  2
none_device
  4

  6

 40
0.0
 41
0.0
 42
0.0
 43
0.0
 44
0.0
 45
0.0
 46
0.0
 47
0.0
 48
0.0
 49
0.0
140
0.0
141
0.0
142
1.0
143
1.0
 70
   688
 72
     0
 73
     0
 74
     5
  7

 75
    16
 76
     0
 77
     2
 78
   300
147
1.0
148
0.0
149
0.0
100
AcDbLayout
  1
Layout2
 70
     1
 71
     2
 10
0.0
 20
0.0
 11
0.0
 21
0.0
 12
0.0
 22
0.0
 32
0.0
 14
0.0
 24
0.0
 34
0.0
 15
0.0
 25
0.0
 35
0.0
146
0.0
 13
0.0
 23
0.0
 33
0.0
 16
1.0
 26
0.0
 36
0.0
 17
0.0
 27
1.0
 37
0.0
 76
     0
330
23
  0
LAYOUT
  5
22
102
{ACAD_REACTORS
330
1A
102
}
330
1A
100
AcDbPlotSettings
  1

  2
none_device
  4

  6

 40
0.0
 41
0.0
 42
0.0
 43
0.0
 44
0.0
 45
0.0
 46
0.0
 47
0.0
 48
0.0
 49
0.0
140
0.0
141
0.0
142
1.0
143
1.0
 70
  1712
 72
     0
 73
     0
 74
     0
  7

 75
     0
 76
     0
 77
     2
 78
   300
147
1.0
148
0.0
149
0.0
100
AcDbLayout
  1
Model
 70
     1
 71
     0
 10
0.0
 20
0.0
 11
12.0
 21
9.0
 12
0.0
 22
0.0
 32
0.0
 14
1.000000000000000E+20
 24
1.000000000000000E+20
 34
1.000000000000000E+20
 15
-1.000000000000000E+20
 25
-1.000000000000000E+20
 35
-1.000000000000000E+20
146
0.0
 13
0.0
 23
0.0
 33
0.0
 16
1.0
 26
0.0
 36
0.0
 17
0.0
 27
1.0
 37
0.0
 76
     0
330
1F
331
29
  0
MATERIAL
  5
3D
102
{ACAD_REACTORS
330
3B
102
}
330
3B
100
AcDbMaterial
  1
ByBlock
 72
     1
 94
      127
  0
MATERIAL
  5
3C
102
{ACAD_REACTORS
330
3B
102
}
330
3B
100
AcDbMaterial
  1
ByLayer
 72
     1
 94
      127
  0
MATERIAL
  5
3E
102
{ACAD_REACTORS
330
3B
102
}
330
3B
100
AcDbMaterial
  1
Global
 72
     1
 94
      127
  0
MLINESTYLE
  5
18
102
{ACAD_REACTORS
330
17
102
}
330
17
100
AcDbMlineStyle
  2
Standard
 70
     0
  3

 62
   256
 51
90.0
 52
90.0
 71
     2
 49
0.5
 62
   256
  6
BYLAYER
 49
-0.5
 62
   256
  6
BYLAYER
  0
ACDBPLACEHOLDER
  5
F
102
{ACAD_REACTORS
330
E
102
}
330
E
  0
VISUALSTYLE
  5
2F
102
{ACAD_REACTORS
330
2A
102
}
330
2A
100
AcDbVisualStyle
  2
2dWireframe
 70
     4
177
     2
291
     0
 71
     0
176
     1
 72
     2
176
     1
 73
     0
176
     1
 90
        0
176
     1
 40
-0.6
176
     1
 41
-30.0
176
     1
 62
     5
 63
     7
421
 16777215
176
     1
 74
     1
176
     1
 91
        4
176
     1
 64
     7
176
     1
 65
   257
176
     1
 75
     1
176
     1
175
     1
176
     1
 42
1.0
176
     1
 92
        0
176
     1
 66
   257
176
     1
 43
1.0
176
     1
 76
     1
176
     1
 77
     6
176
     1
 78
     2
176
     1
 67
     7
176
     1
 79
     5
176
     1
170
     0
176
     1
171
     0
176
     1
290
     0
176
     1
 93
        1
176
     1
 44
0.0
176
     1
173
     0
176
     1
  0
VISUALSTYLE
  5
31
102
{ACAD_REACTORS
330
2A
102
}
330
2A
100
AcDbVisualStyle
  2
3D Hidden
 70
     6
177
     2
291
     0
 71
     1
176
     1
 72
     2
176
     1
 73
     2
176
     1
 90
        0
176
     1
 40
-0.6
176
     1
 41
-30.0
176
     1
 62
     5
 63
     7
421
 16777215
176
     1
 74
     2
176
     1
 91
        2
176
     1
 64
     7
176
     1
 65
   257
176
     1
 75
     2
176
     1
175
     1
176
     1
 42
40.0
176
     1
 92
        0
176
     1
 66
   257
176
     1
 43
1.0
176
     1
 76
     1
176
     1
 77
     6
176
     1
 78
     2
176
     1
 67
     7
176
     1
 79
     3
176
     1
170
     0
176
     1
171
     0
176
     1
290
     0
176
     1
 93
        1
176
     1
 44
0.0
176
     1
173
     0
176
     1
  0
VISUALSTYLE
  5
30
102
{ACAD_REACTORS
330
2A
102
}
330
2A
100
AcDbVisualStyle
  2
3dWireframe
 70
     5
177
     2
291
     0
 71
     0
176
     1
 72
     2
176
     1
 73
     0
176
     1
 90
        0
176
     1
 40
-0.6
176
     1
 41
-30.0
176
     1
 62
     5
 63
     7
421
 16777215
176
     1
 74
     1
176
     1
 91
        4
176
     1
 64
     7
176
     1
 65
   257
176
     1
 75
     1
176
     1
175
     1
176
     1
 42
1.0
176
     1
 92
        0
176
     1
 66
   257
176
     1
 43
1.0
176
     1
 76
     1
176
     1
 77
     6
176
     1
 78
     2
176
     1
 67
     7
176
     1
 79
     5
176
     1
170
     0
176
     1
171
     0
176
     1
290
     0
176
     1
 93
        1
176
     1
 44
0.0
176
     1
173
     0
176
     1
  0
VISUALSTYLE
  5
32
102
{ACAD_REACTORS
330
2A
102
}
330
2A
100
AcDbVisualStyle
  2
Basic
 70
     7
177
     2
291
     1
 71
     1
176
     1
 72
     0
176
     1
 73
     1
176
     1
 90
        0
176
     1
 40
-0.6
176
     1
 41
-30.0
176
     1
 62
     5
 63
     7
421
 16777215
176
     1
 74
     0
176
     1
 91
        4
176
     1
 64
     7
176
     1
 65
   257
176
     1
 75
     1
176
     1
175
     1
176
     1
 42
1.0
176
     1
 92
        8
176
     1
 66
     7
176
     1
 43
1.0
176
     1
 76
     1
176
     1
 77
     6
176
     1
 78
     2
176
     1
 67
     7
176
     1
 79
     5
176
     1
170
     0
176
     1
171
     0
176
     1
290
     0
176
     1
 93
        1
176
     1
 44
0.0
176
     1
173
     0
176
     1
  0
VISUALSTYLE
  5
36
102
{ACAD_REACTORS
330
2A
102
}
330
2A
100
AcDbVisualStyle
  2
Brighten
 70
    12
177
     2
291
     1
 71
     2
176
     1
 72
     2
176
     1
 73
     0
176
     1
 90
        0
176
     1
 40
-0.6
176
     1
 41
-30.0
176
     1
 62
     5
 63
     7
421
 16777215
176
     1
 74
     1
176
     1
 91
        4
176
     1
 64
     7
176
     1
 65
   257
176
     1
 75
     1
176
     1
175
     1
176
     1
 42
1.0
176
     1
 92
        8
176
     1
 66
     7
176
     1
 43
1.0
176
     1
 76
     1
176
     1
 77
     6
176
     1
 78
     2
176
     1
 67
     7
176
     1
 79
     5
176
     1
170
     0
176
     1
171
     0
176
     1
290
     0
176
     1
 93
        1
176
     1
 44
50.0
176
     1
173
     0
176
     1
  0
VISUALSTYLE
  5
3A
102
{ACAD_REACTORS
330
2A
102
}
330
2A
100
AcDbVisualStyle
  2
ColorChange
 70
    16
177
     2
291
     1
 71
     2
176
     1
 72
     2
176
     1
 73
     3
176
     1
 90
        0
176
     1
 40
-0.6
176
     1
 41
-30.0
176
     1
 62
     5
 63
     8
421
  8421504
176
     1
 74
     1
176
     1
 91
        4
176
     1
 64
     7
176
     1
 65
   257
176
     1
 75
     1
176
     1
175
     1
176
     1
 42
1.0
176
     1
 92
        8
176
     1
 66
     8
424
  8421504
176
     1
 43
1.0
176
     1
 76
     1
176
     1
 77
     6
176
     1
 78
     2
176
     1
 67
     7
176
     1
 79
     5
176
     1
170
     0
176
     1
171
     0
176
     1
290
     0
176
     1
 93
        1
176
     1
 44
0.0
176
     1
173
     0
176
     1
  0
VISUALSTYLE
  5
34
102
{ACAD_REACTORS
330
2A
102
}
330
2A
100
AcDbVisualStyle
  2
Conceptual
 70
     9
177
     2
291
     0
 71
     3
176
     1
 72
     2
176
     1
 73
     0
176
     1
 90
        0
176
     1
 40
-0.6
176
     1
 41
-30.0
176
     1
 62
     5
 63
     7
421
 16777215
176
     1
 74
     2
176
     1
 91
        2
176
     1
 64
     7
176
     1
 65
   257
176
     1
 75
     1
176
     1
175
     1
176
     1
 42
40.0
176
     1
 92
        8
176
     1
 66
     7
176
     1
 43
1.0
176
     1
 76
     1
176
     1
 77
     6
176
     1
 78
     2
176
     1
 67
     7
176
     1
 79
     3
176
     1
170
     0
176
     1
171
     0
176
     1
290
     0
176
     1
 93
        1
176
     1
 44
0.0
176
     1
173
     0
176
     1
  0
VISUALSTYLE
  5
35
102
{ACAD_REACTORS
330
2A
102
}
330
2A
100
AcDbVisualStyle
  2
Dim
 70
    11
177
     2
291
     1
 71
     2
176
     1
 72
     2
176
     1
 73
     0
176
     1
 90
        0
176
     1
 40
-0.6
176
     1
 41
-30.0
176
     1
 62
     5
 63
     7
421
 16777215
176
     1
 74
     1
176
     1
 91
        4
176
     1
 64
     7
176
     1
 65
   257
176
     1
 75
     1
176
     1
175
     1
176
     1
 42
1.0
176
     1
 92
        8
176
     1
 66
     7
176
     1
 43
1.0
176
     1
 76
     1
176
     1
 77
     6
176
     1
 78
     2
176
     1
 67
     7
176
     1
 79
     5
176
     1
170
     0
176
     1
171
     0
176
     1
290
     0
176
     1
 93
        1
176
     1
 44
-50.0
176
     1
173
     0
176
     1
  0
VISUALSTYLE
  5
39
102
{ACAD_REACTORS
330
2A
102
}
330
2A
100
AcDbVisualStyle
  2
Facepattern
 70
    15
177
     2
291
     1
 71
     2
176
     1
 72
     2
176
     1
 73
     0
176
     1
 90
        0
176
     1
 40
-0.6
176
     1
 41
-30.0
176
     1
 62
     5
 63
     7
421
 16777215
176
     1
 74
     1
176
     1
 91
        4
176
     1
 64
     7
176
     1
 65
   257
176
     1
 75
     1
176
     1
175
     1
176
     1
 42
1.0
176
     1
 92
        8
176
     1
 66
     7
176
     1
 43
1.0
176
     1
 76
     1
176
     1
 77
     6
176
     1
 78
     2
176
     1
 67
     7
176
     1
 79
     5
176
     1
170
     0
176
     1
171
     0
176
     1
290
     0
176
     1
 93
        1
176
     1
 44
0.0
176
     1
173
     0
176
     1
  0
VISUALSTYLE
  5
2B
102
{ACAD_REACTORS
330
2A
102
}
330
2A
100
AcDbVisualStyle
  2
Flat
 70
     0
177
     2
291
     1
 71
     2
176
     1
 72
     1
176
     1
 73
     1
176
     1
 90
        2
176
     1
 40
-0.6
176
     1
 41
30.0
176
     1
 62
     5
 63
     7
421
 16777215
176
     1
 74
     0
176
     1
 91
        4
176
     1
 64
     7
176
     1
 65
   257
176
     1
 75
     1
176
     1
175
     1
176
     1
 42
1.0
176
     1
 92
        8
176
     1
 66
     7
176
     1
 43
1.0
176
     1
 76
     1
176
     1
 77
     6
176
     1
 78
     2
176
     1
 67
     7
176
     1
 79
     5
176
     1
170
     0
176
     1
171
     0
176
     1
290
     0
176
     1
 93
       13
176
     1
 44
0.0
176
     1
173
     0
176
     1
  0
VISUALSTYLE
  5
2C
102
{ACAD_REACTORS
330
2A
102
}
330
2A
100
AcDbVisualStyle
  2
FlatWithEdges
 70
     1
177
     2
291
     1
 71
     2
176
     1
 72
     1
176
     1
 73
     1
176
     1
 90
        2
176
     1
 40
-0.6
176
     1
 41
30.0
176
     1
 62
     5
 63
     7
421
 16777215
176
     1
 74
     1
176
     1
 91
        4
176
     1
 64
     7
176
     1
 65
   257
176
     1
 75
     1
176
     1
175
     1
176
     1
 42
1.0
176
     1
 92
        0
176
     1
 66
   257
176
     1
 43
1.0
176
     1
 76
     1
176
     1
 77
     6
176
     1
 78
     2
176
     1
 67
     7
176
     1
 79
     5
176
     1
170
     0
176
     1
171
     0
176
     1
290
     0
176
     1
 93
       13
176
     1
 44
0.0
176
     1
173
     0
176
     1
  0
VISUALSTYLE
  5
2D
102
{ACAD_REACTORS
330
2A
102
}
330
2A
100
AcDbVisualStyle
  2
Gouraud
 70
     2
177
     2
291
     1
 71
     2
176
     1
 72
     2
176
     1
 73
     1
176
     1
 90
        2
176
     1
 40
-0.6
176
     1
 41
30.0
176
     1
 62
     5
 63
     7
421
 16777215
176
     1
 74
     0
176
     1
 91
        4
176
     1
 64
     7
176
     1
 65
   257
176
     1
 75
     1
176
     1
175
     1
176
     1
 42
1.0
176
     1
 92
        0
176
     1
 66
     7
176
     1
 43
1.0
176
     1
 76
     1
176
     1
 77
     6
176
     1
 78
     2
176
     1
 67
     7
176
     1
 79
     5
176
     1
170
     0
176
     1
171
     0
176
     1
290
     0
176
     1
 93
       13
176
     1
 44
0.0
176
     1
173
     0
176
     1
  0
VISUALSTYLE
  5
2E
102
{ACAD_REACTORS
330
2A
102
}
330
2A
100
AcDbVisualStyle
  2
GouraudWithEdges
 70
     3
177
     2
291
     1
 71
     2
176
     1
 72
     2
176
     1
 73
     1
176
     1
 90
        2
176
     1
 40
-0.6
176
     1
 41
30.0
176
     1
 62
     5
 63
     7
421
 16777215
176
     1
 74
     1
176
     1
 91
        4
176
     1
 64
     7
176
     1
 65
   257
176
     1
 75
     1
176
     1
175
     1
176
     1
 42
1.0
176
     1
 92
        0
176
     1
 66
   257
176
     1
 43
1.0
176
     1
 76
     1
176
     1
 77
     6
176
     1
 78
     2
176
     1
 67
     7
176
     1
 79
     5
176
     1
170
     0
176
     1
171
     0
176
     1
290
     0
176
     1
 93
       13
176
     1
 44
0.0
176
     1
173
     0
176
     1
  0
VISUALSTYLE
  5
38
102
{ACAD_REACTORS
330
2A
102
}
330
2A
100
AcDbVisualStyle
  2
Linepattern
 70
    14
177
     2
291
     1
 71
     2
176
     1
 72
     2
176
     1
 73
     0
176
     1
 90
        0
176
     1
 40
-0.6
176
     1
 41
-30.0
176
     1
 62
     5
 63
     7
421
 16777215
176
     1
 74
     1
176
     1
 91
        4
176
     1
 64
     7
176
     1
 65
   257
176
     1
 75
     7
176
     1
175
     7
176
     1
 42
1.0
176
     1
 92
        8
176
     1
 66
     7
176
     1
 43
1.0
176
     1
 76
     1
176
     1
 77
     6
176
     1
 78
     2
176
     1
 67
     7
176
     1
 79
     5
176
     1
170
     0
176
     1
171
     0
176
     1
290
     0
176
     1
 93
        1
176
     1
 44
0.0
176
     1
173
     0
176
     1
  0
VISUALSTYLE
  5
33
102
{ACAD_REACTORS
330
2A
102
}
330
2A
100
AcDbVisualStyle
  2
Realistic
 70
     8
177
     2
291
     0
 71
     2
176
     1
 72
     2
176
     1
 73
     0
176
     1
 90
        0
176
     1
 40
-0.6
176
     1
 41
-30.0
176
     1
 62
     5
 63
     7
421
 16777215
176
     1
 74
     1
176
     1
 91
        0
176
     1
 64
     7
176
     1
 65
   257
176
     1
 75
     1
176
     1
175
     1
176
     1
 42
1.0
176
     1
 92
        8
176
     1
 66
     8
424
  7895160
176
     1
 43
1.0
176
     1
 76
     1
176
     1
 77
     6
176
     1
 78
     2
176
     1
 67
     7
176
     1
 79
     5
176
     1
170
     0
176
     1
171
     0
176
     1
290
     0
176
     1
 93
       13
176
     1
 44
0.0
176
     1
173
     0
176
     1
  0
VISUALSTYLE
  5
37
102
{ACAD_REACTORS
330
2A
102
}
330
2A
100
AcDbVisualStyle
  2
Thicken
 70
    13
177
     2
291
     1
 71
     2
176
     1
 72
     2
176
     1
 73
     0
176
     1
 90
        0
176
     1
 40
-0.6
176
     1
 41
-30.0
176
     1
 62
     5
 63
     7
421
 16777215
176
     1
 74
     1
176
     1
 91
        4
176
     1
 64
     7
176
     1
 65
   257
176
     1
 75
     1
176
     1
175
     1
176
     1
 42
1.0
176
     1
 92
       12
176
     1
 66
     7
176
     1
 43
1.0
176
     1
 76
     1
176
     1
 77
     6
176
     1
 78
     2
176
     1
 67
     7
176
     1
 79
     5
176
     1
170
     0
176
     1
171
     0
176
     1
290
     0
176
     1
 93
        1
176
     1
 44
0.0
176
     1
173
     0
176
     1
  0
ENDSEC
  0
EOF
