  0
SECTION
  2
HEADER
  9
$ACADVER
  1
AC1024
  9
$ACADMAINTVER
 70
     6
  9
$DWGCODEPAGE
  3
UNDEFINED
  9
$INSBASE
 10
0.0
 20
0.0
 30
0.0
  9
$EXTMIN
 10
1.000000000000000E+20
 20
1.000000000000000E+20
 30
1.000000000000000E+20
  9
$EXTMAX
 10
-1.000000000000000E+20
 20
-1.000000000000000E+20
 30
-1.000000000000000E+20
  9
$LIMMIN
 10
0.0
 20
0.0
  9
$LIMMAX
 10
12.0
 20
9.0
  9
$ORTHOMODE
 70
     0
  9
$REGENMODE
 70
     1
  9
$FILLMODE
 70
     1
  9
$QTEXTMODE
 70
     0
  9
$MIRRTEXT
 70
     1
  9
$LTSCALE
 40
1.0
  9
$ATTMODE
 70
     1
  9
$TEXTSIZE
 40
0.2
  9
$TRACEWID
 40
0.05
  9
$TEXTSTYLE
  7
Standard
  9
$CLAYER
  8
0
  9
$CELTYPE
  6
ByLayer
  9
$CECOLOR
 62
   256
  9
$CELTSCALE
 40
1.0
  9
$DISPSILH
 70
     0
  9
$DIMSCALE
 40
1.0
  9
$DIMASZ
 40
0.18
  9
$DIMEXO
 40
0.0625
  9
$DIMDLI
 40
0.38
  9
$DIMRND
 40
0.0
  9
$DIMDLE
 40
0.0
  9
$DIMEXE
 40
0.18
  9
$DIMTP
 40
0.0
  9
$DIMTM
 40
0.0
  9
$DIMTXT
 40
0.18
  9
$DIMCEN
 40
0.09
  9
$DIMTSZ
 40
0.0
  9
$DIMTOL
 70
     0
  9
$DIMLIM
 70
     0
  9
$DIMTIH
 70
     1
  9
$DIMTOH
 70
     1
  9
$DIMSE1
 70
     0
  9
$DIMSE2
 70
     0
  9
$DIMTAD
 70
     0
  9
$DIMZIN
 70
     0
  9
$DIMBLK
  1

  9
$DIMASO
 70
     1
  9
$DIMSHO
 70
     1
  9
$DIMPOST
  1

  9
$DIMAPOST
  1

  9
$DIMALT
 70
     0
  9
$DIMALTD
 70
     2
  9
$DIMALTF
 40
25.4
  9
$DIMLFAC
 40
1.0
  9
$DIMTOFL
 70
     0
  9
$DIMTVP
 40
0.0
  9
$DIMTIX
 70
     0
  9
$DIMSOXD
 70
     0
  9
$DIMSAH
 70
     0
  9
$DIMBLK1
  1

  9
$DIMBLK2
  1

  9
$DIMSTYLE
  2
Standard
  9
$DIMCLRD
 70
     0
  9
$DIMCLRE
 70
     0
  9
$DIMCLRT
 70
     0
  9
$DIMTFAC
 40
1.0
  9
$DIMGAP
 40
0.09
  9
$DIMJUST
 70
     0
  9
$DIMSD1
 70
     0
  9
$DIMSD2
 70
     0
  9
$DIMTOLJ
 70
     1
  9
$DIMTZIN
 70
     0
  9
$DIMALTZ
 70
     0
  9
$DIMALTTZ
 70
     0
  9
$DIMUPT
 70
     0
  9
$DIMDEC
 70
     4
  9
$DIMTDEC
 70
     4
  9
$DIMALTU
 70
     2
  9
$DIMALTTD
 70
     2
  9
$DIMTXSTY
  7
Standard
  9
$DIMAUNIT
 70
     0
  9
$DIMADEC
 70
     0
  9
$DIMALTRND
 40
0.0
  9
$DIMAZIN
 70
     0
  9
$DIMDSEP
 70
    46
  9
$DIMATFIT
 70
     3
  9
$DIMFRAC
 70
     0
  9
$DIMLDRBLK
  1

  9
$DIMLUNIT
 70
     2
  9
$DIMLWD
 70
    -2
  9
$DIMLWE
 70
    -2
  9
$DIMTMOVE
 70
     0
  9
$DIMFXL
 40
1.0
  9
$DIMFXLON
 70
     0
  9
$DIMJOGANG
 40
0.7853981633974483
  9
$DIMTFILL
 70
     0
  9
$DIMTFILLCLR
 70
     0
  9
$DIMARCSYM
 70
     0
  9
$DIMLTYPE
  6

  9
$DIMLTEX1
  6

  9
$DIMLTEX2
  6

  9
$DIMTXTDIRECTION
 70
     0
  9
$LUNITS
 70
     2
  9
$LUPREC
 70
     4
  9
$SKETCHINC
 40
0.1
  9
$FILLETRAD
 40
0.5
  9
$AUNITS
 70
     0
  9
$AUPREC
 70
     0
  9
$MENU
  1
.
  9
$ELEVATION
 40
0.0
  9
$PELEVATION
 40
0.0
  9
$THICKNESS
 40
0.0
  9
$LIMCHECK
 70
     0
  9
$CHAMFERA
 40
0.5
  9
$CHAMFERB
 40
0.5
  9
$CHAMFERC
 40
1.0
  9
$CHAMFERD
 40
0.0
  9
$SKPOLY
 70
     0
  9
$TDCREATE
 40
2457917.619710637
  9
$TDUCREATE
 40
2457917.244710648
  9
$TDUPDATE
 40
2457917.619710637
  9
$TDUUPDATE
 40
2457917.244710648
  9
$TDINDWG
 40
0.0000000116
  9
$TDUSRTIMER
 40
0.0000000116
  9
$USRTIMER
 70
     1
  9
$ANGBASE
 50
0.0
  9
$ANGDIR
 70
     0
  9
$PDMODE
 70
     0
  9
$PDSIZE
 40
0.0
  9
$PLINEWID
 40
0.0
  9
$SPLFRAME
 70
     0
  9
$SPLINETYPE
 70
     6
  9
$SPLINESEGS
 70
     8
  9
$HANDSEED
  5
DE
  9
$SURFTAB1
 70
     6
  9
$SURFTAB2
 70
     6
  9
$SURFTYPE
 70
     6
  9
$SURFU
 70
     6
  9
$SURFV
 70
     6
  9
$UCSBASE
  2

  9
$UCSNAME
  2

  9
$UCSORG
 10
0.0
 20
0.0
 30
0.0
  9
$UCSXDIR
 10
1.0
 20
0.0
 30
0.0
  9
$UCSYDIR
 10
0.0
 20
1.0
 30
0.0
  9
$UCSORTHOREF
  2

  9
$UCSORTHOVIEW
 70
     0
  9
$UCSORGTOP
 10
0.0
 20
0.0
 30
0.0
  9
$UCSORGBOTTOM
 10
0.0
 20
0.0
 30
0.0
  9
$UCSORGLEFT
 10
0.0
 20
0.0
 30
0.0
  9
$UCSORGRIGHT
 10
0.0
 20
0.0
 30
0.0
  9
$UCSORGFRONT
 10
0.0
 20
0.0
 30
0.0
  9
$UCSORGBACK
 10
0.0
 20
0.0
 30
0.0
  9
$PUCSBASE
  2

  9
$PUCSNAME
  2

  9
$PUCSORG
 10
0.0
 20
0.0
 30
0.0
  9
$PUCSXDIR
 10
1.0
 20
0.0
 30
0.0
  9
$PUCSYDIR
 10
0.0
 20
1.0
 30
0.0
  9
$PUCSORTHOREF
  2

  9
$PUCSORTHOVIEW
 70
     0
  9
$PUCSORGTOP
 10
0.0
 20
0.0
 30
0.0
  9
$PUCSORGBOTTOM
 10
0.0
 20
0.0
 30
0.0
  9
$PUCSORGLEFT
 10
0.0
 20
0.0
 30
0.0
  9
$PUCSORGRIGHT
 10
0.0
 20
0.0
 30
0.0
  9
$PUCSORGFRONT
 10
0.0
 20
0.0
 30
0.0
  9
$PUCSORGBACK
 10
0.0
 20
0.0
 30
0.0
  9
$USERI1
 70
     0
  9
$USERI2
 70
     0
  9
$USERI3
 70
     0
  9
$USERI4
 70
     0
  9
$USERI5
 70
     0
  9
$USERR1
 40
0.0
  9
$USERR2
 40
0.0
  9
$USERR3
 40
0.0
  9
$USERR4
 40
0.0
  9
$USERR5
 40
0.0
  9
$WORLDVIEW
 70
     1
  9
$SHADEDGE
 70
     3
  9
$SHADEDIF
 70
    70
  9
$TILEMODE
 70
     1
  9
$MAXACTVP
 70
    64
  9
$PINSBASE
 10
0.0
 20
0.0
 30
0.0
  9
$PLIMCHECK
 70
     0
  9
$PEXTMIN
 10
1.000000000000000E+20
 20
1.000000000000000E+20
 30
1.000000000000000E+20
  9
$PEXTMAX
 10
-1.000000000000000E+20
 20
-1.000000000000000E+20
 30
-1.000000000000000E+20
  9
$PLIMMIN
 10
0.0
 20
0.0
  9
$PLIMMAX
 10
12.0
 20
9.0
  9
$UNITMODE
 70
     0
  9
$VISRETAIN
 70
     1
  9
$PLINEGEN
 70
     0
  9
$PSLTSCALE
 70
     1
  9
$TREEDEPTH
 70
  3020
  9
$CMLSTYLE
  2
Standard
  9
$CMLJUST
 70
     0
  9
$CMLSCALE
 40
1.0
  9
$PROXYGRAPHICS
 70
     1
  9
$MEASUREMENT
 70
     0
  9
$CELWEIGHT
370
    -1
  9
$ENDCAPS
280
     0
  9
$JOINSTYLE
280
     0
  9
$LWDISPLAY
290
     1
  9
$INSUNITS
 70
     1
  9
$HYPERLINKBASE
  1

  9
$STYLESHEET
  1

  9
$XEDIT
290
     1
  9
$CEPSNTYPE
380
     0
  9
$PSTYLEMODE
290
     1
  9
$FINGERPRINTGUID
  2
{8898B919-8BBA-711A-8E48-4354C104286B}
  9
$VERSIONGUID
  2
{FAEB1C32-E019-11D5-929B-00C0DF256EC4}
  9
$EXTNAMES
290
     1
  9
$PSVPSCALE
 40
0.0
  9
$OLESTARTUP
290
     0
  9
$SORTENTS
280
   127
  9
$INDEXCTL
280
     0
  9
$HIDETEXT
280
     1
  9
$XCLIPFRAME
280
     2
  9
$HALOGAP
280
     0
  9
$OBSCOLOR
 70
   257
  9
$OBSLTYPE
280
     0
  9
$INTERSECTIONDISPLAY
280
     0
  9
$INTERSECTIONCOLOR
 70
   257
  9
$DIMASSOC
280
     2
  9
$PROJECTNAME
  1

  9
$CAMERADISPLAY
290
     0
  9
$LENSLENGTH
 40
50.0
  9
$CAMERAHEIGHT
 40
0.0
  9
$STEPSPERSEC
 40
2.0
  9
$STEPSIZE
 40
6.0
  9
$3DDWFPREC
 40
2.0
  9
$PSOLWIDTH
 40
0.25
  9
$PSOLHEIGHT
 40
4.0
  9
$LOFTANG1
 40
1.570796326794897
  9
$LOFTANG2
 40
1.570796326794897
  9
$LOFTMAG1
 40
0.0
  9
$LOFTMAG2
 40
0.0
  9
$LOFTPARAM
 70
     7
  9
$LOFTNORMALS
280
     1
  9
$LATITUDE
 40
37.795
  9
$LONGITUDE
 40
-122.394
  9
$NORTHDIRECTION
 40
0.0
  9
$TIMEZONE
 70
 -8000
  9
$LIGHTGLYPHDISPLAY
280
     1
  9
$TILEMODELIGHTSYNCH
280
     1
  9
$CMATERIAL
347
3C
  9
$SOLIDHIST
280
     1
  9
$SHOWHIST
280
     1
  9
$DWFFRAME
280
     2
  9
$DGNFRAME
280
     2
  9
$REALWORLDSCALE
290
     1
  9
$INTERFERECOLOR
 62
   256
  9
$CSHADOW
280
     0
  9
$SHADOWPLANELOCATION
 40
0.0
  0
ENDSEC
  0
SECTION
  2
CLASSES
  0
CLASS
  1
ACDBDICTIONARYWDFLT
  2
AcDbDictionaryWithDefault
  3
ObjectDBX Classes
 90
        0
 91
        4
280
     0
281
     0
  0
CLASS
  1
VISUALSTYLE
  2
AcDbVisualStyle
  3
ObjectDBX Classes
 90
     4095
 91
        4
280
     0
281
     0
  0
CLASS
  1
MATERIAL
  2
AcDbMaterial
  3
ObjectDBX Classes
 90
     1153
 91
        4
280
     0
281
     0
  0
CLASS
  1
SUN
  2
AcDbSun
  3
SCENEOE
 90
     1024
 91
        4
280
     0
281
     0
  0
ENDSEC
  0
SECTION
  2
TABLES
  0
TABLE
  2
VPORT
  5
8
330
0
100
AcDbSymbolTable
 70
     1
  0
VPORT
  5
29
330
8
100
AcDbSymbolTableRecord
100
AcDbViewportTableRecord
  2
*Active
 70
     0
 10
0.0
 20
0.0
 11
1.0
 21
1.0
 12
0.0
 22
0.0
 13
0.0
 23
0.0
 14
0.5
 24
0.5
 15
0.5
 25
0.5
 16
0.0
 26
0.0
 36
1.0
 17
91.00082462281999
 27
-128.4993055234307
 37
0.0
 40
256.9986110468615
 41
0.7081814508812795
 42
50.0
 43
0.0
 44
0.0
 50
0.0
 51
0.0
 71
     0
 72
   100
 73
     1
 74
     3
 75
     0
 76
     0
 77
     0
 78
     0
281
     0
 65
     1
110
0.0
120
0.0
130
0.0
111
1.0
121
0.0
131
0.0
112
0.0
122
1.0
132
0.0
 79
     0
146
0.0
 60
     3
 61
     5
292
     1
282
     1
141
0.0
142
0.0
 63
   250
361
3F
  0
ENDTAB
  0
TABLE
  2
LTYPE
  5
5
330
0
100
AcDbSymbolTable
 70
     1
  0
LTYPE
  5
14
330
5
100
AcDbSymbolTableRecord
100
AcDbLinetypeTableRecord
  2
ByBlock
 70
     0
  3

 72
    65
 73
     0
 40
0.0
  0
LTYPE
  5
15
330
5
100
AcDbSymbolTableRecord
100
AcDbLinetypeTableRecord
  2
ByLayer
 70
     0
  3

 72
    65
 73
     0
 40
0.0
  0
LTYPE
  5
16
330
5
100
AcDbSymbolTableRecord
100
AcDbLinetypeTableRecord
  2
Continuous
 70
     0
  3
Solid line
 72
    65
 73
     0
 40
0.0
  0
ENDTAB
  0
TABLE
  2
LAYER
  5
2
330
0
100
AcDbSymbolTable
 70
     2
  0
LAYER
  5
10
330
2
100
AcDbSymbolTableRecord
100
AcDbLayerTableRecord
  2
0
 70
     0
 62
     7
  6
Continuous
370
    -3
390
F
347
3E
  0
LAYER
  5
40
330
2
100
AcDbSymbolTableRecord
100
AcDbLayerTableRecord
  2
_U+30EC_U+30A4_U+30E4_U+30FC 1
 70
     0
 62
     7
  6
Continuous
370
    -3
390
F
347
3E
  0
ENDTAB
  0
TABLE
  2
STYLE
  5
3
330
0
100
AcDbSymbolTable
 70
     1
  0
STYLE
  5
11
330
3
100
AcDbSymbolTableRecord
100
AcDbTextStyleTableRecord
  2
Standard
 70
     0
 40
0.0
 41
1.0
 50
0.0
 71
     0
 42
0.2
  3
txt
  4

  0
ENDTAB
  0
TABLE
  2
VIEW
  5
6
330
0
100
AcDbSymbolTable
 70
     0
  0
ENDTAB
  0
TABLE
  2
UCS
  5
7
330
0
100
AcDbSymbolTable
 70
     0
  0
ENDTAB
  0
TABLE
  2
APPID
  5
9
330
0
100
AcDbSymbolTable
 70
     1
  0
APPID
  5
12
330
9
100
AcDbSymbolTableRecord
100
AcDbRegAppTableRecord
  2
ACAD
 70
     0
  0
ENDTAB
  0
TABLE
  2
DIMSTYLE
  5
A
330
0
100
AcDbSymbolTable
 70
     1
100
AcDbDimStyleTable
  0
DIMSTYLE
105
27
330
A
100
AcDbSymbolTableRecord
100
AcDbDimStyleTableRecord
  2
Standard
 70
     0
178
     0
340
11
  0
ENDTAB
  0
TABLE
  2
BLOCK_RECORD
  5
1
330
0
100
AcDbSymbolTable
 70
     6
  0
BLOCK_RECORD
  5
1F
330
1
100
AcDbSymbolTableRecord
100
AcDbBlockTableRecord
  2
*Model_Space
340
22
 70
     0
280
     1
281
     0
  0
BLOCK_RECORD
  5
1B
330
1
100
AcDbSymbolTableRecord
100
AcDbBlockTableRecord
  2
*Paper_Space
340
1E
 70
     0
280
     1
281
     0
  0
BLOCK_RECORD
  5
23
330
1
100
AcDbSymbolTableRecord
100
AcDbBlockTableRecord
  2
*Paper_Space0
340
26
 70
     0
280
     1
281
     0
  0
BLOCK_RECORD
  5
76
330
1
100
AcDbSymbolTableRecord
100
AcDbBlockTableRecord
  2
block 2
340
0
102
{BLKREFS
331
77
102
}
 70
     0
280
     1
281
     0
  0
BLOCK_RECORD
  5
95
330
1
100
AcDbSymbolTableRecord
100
AcDbBlockTableRecord
  2
block 3
340
0
102
{BLKREFS
331
96
102
}
 70
     0
280
     1
281
     0
  0
BLOCK_RECORD
  5
AC
330
1
100
AcDbSymbolTableRecord
100
AcDbBlockTableRecord
  2
block 4
340
0
102
{BLKREFS
331
AD
102
}
 70
     0
280
     1
281
     0
  0
BLOCK_RECORD
  5
C3
330
1
100
AcDbSymbolTableRecord
100
AcDbBlockTableRecord
  2
block 5
340
0
102
{BLKREFS
331
C4
102
}
 70
     0
280
     1
281
     0
  0
BLOCK_RECORD
  5
D6
330
1
100
AcDbSymbolTableRecord
100
AcDbBlockTableRecord
  2
block 6
340
0
102
{BLKREFS
331
D7
102
}
 70
     0
280
     1
281
     0
  0
ENDTAB
  0
ENDSEC
  0
SECTION
  2
BLOCKS
  0
BLOCK
  5
20
330
1F
100
AcDbEntity
  8
0
100
AcDbBlockBegin
  2
*Model_Space
 70
     0
 10
0.0
 20
0.0
 30
0.0
  3
*Model_Space
  1

  0
ENDBLK
  5
21
330
1F
100
AcDbEntity
  8
0
100
AcDbBlockEnd
  0
BLOCK
  5
1C
330
1B
100
AcDbEntity
 67
     1
  8
0
100
AcDbBlockBegin
  2
*Paper_Space
 70
     0
 10
0.0
 20
0.0
 30
0.0
  3
*Paper_Space
  1

  0
ENDBLK
  5
1D
330
1B
100
AcDbEntity
 67
     1
  8
0
100
AcDbBlockEnd
  0
BLOCK
  5
24
330
23
100
AcDbEntity
  8
0
100
AcDbBlockBegin
  2
*Paper_Space0
 70
     0
 10
0.0
 20
0.0
 30
0.0
  3
*Paper_Space0
  1

  0
ENDBLK
  5
25
330
23
100
AcDbEntity
  8
0
100
AcDbBlockEnd
  0
BLOCK
  5
78
330
76
100
AcDbEntity
  8
0
100
AcDbBlockBegin
  2
block 2
 70
     0
 10
0.0
 20
0.0
 30
0.0
  3
block 2
  1

  0
SPLINE
  5
7A
330
76
100
AcDbEntity
  8
_U+30EC_U+30A4_U+30E4_U+30FC 1
370
     0
100
AcDbSpline
210
0.0
220
0.0
230
1.0
 70
    11
 71
     3
 72
    53
 73
    49
 74
     0
 42
0.0000000001
 43
0.0000000001
 12
1.0
 22
0.0
 32
0.0
 13
1.0
 23
0.0
 33
0.0
 40
0.0
 40
0.0
 40
0.0
 40
0.0
 40
1.0
 40
1.0
 40
1.0
 40
2.0
 40
2.0
 40
2.0
 40
3.0
 40
3.0
 40
3.0
 40
4.0
 40
4.0
 40
4.0
 40
5.0
 40
5.0
 40
5.0
 40
6.0
 40
6.0
 40
6.0
 40
7.0
 40
7.0
 40
7.0
 40
8.0
 40
8.0
 40
8.0
 40
9.0
 40
9.0
 40
9.0
 40
10.0
 40
10.0
 40
10.0
 40
11.0
 40
11.0
 40
11.0
 40
12.0
 40
12.0
 40
12.0
 40
13.0
 40
13.0
 40
13.0
 40
14.0
 40
14.0
 40
14.0
 40
15.0
 40
15.0
 40
15.0
 40
16.0
 40
16.0
 40
16.0
 40
16.0
 10
103.1465033379286
 20
-130.8774549368987
 30
0.0
 10
103.1465033379286
 20
-130.9611707571903
 30
0.0
 10
103.1296223700509
 20
-131.0696912649756
 30
0.0
 10
103.0662326131223
 20
-131.178211772761
 30
0.0
 10
102.9559895575943
 20
-131.3635579098674
 30
0.0
 10
102.8250759291548
 20
-131.3859510305216
 30
0.0
 10
102.716899930918
 20
-131.4066216034331
 30
0.0
 10
102.716899930918
 20
-131.4066216034331
 30
0.0
 10
102.716899930918
 20
-131.1689100149508
 30
0.0
 10
102.716899930918
 20
-131.1689100149508
 30
0.0
 10
102.9160264499654
 20
-131.1103433917016
 30
0.0
 10
102.9456542711386
 20
-130.9746066295828
 30
0.0
 10
102.9456542711386
 20
-130.875043370059
 30
0.0
 10
102.9456542711386
 20
-130.7258707355477
 30
0.0
 10
102.8460910116149
 20
-130.5632622286439
 30
0.0
 10
102.6135470663605
 20
-130.5632622286439
 30
0.0
 10
102.3575764718064
 20
-130.5632622286439
 30
0.0
 10
102.2876410334559
 20
-130.7554985567209
 30
0.0
 10
102.2876410334559
 20
-130.8843451278692
 30
0.0
 10
102.2876410334559
 20
-130.9181070636246
 30
0.0
 10
102.2876410334559
 20
-131.0696912649756
 30
0.0
 10
102.4164876046042
 20
-131.16443139082
 30
0.0
 10
102.4164876046042
 20
-131.16443139082
 30
0.0
 10
102.3975395794353
 20
-131.3521890947661
 30
0.0
 10
102.3975395794353
 20
-131.3521890947661
 30
0.0
 10
102.3975395794353
 20
-131.3521890947661
 30
0.0
 10
101.551424128258
 20
-131.2233425236178
 30
0.0
 10
101.551424128258
 20
-131.2233425236178
 30
0.0
 10
101.551424128258
 20
-131.2233425236178
 30
0.0
 10
101.551424128258
 20
-130.3913519639299
 30
0.0
 10
101.551424128258
 20
-130.3913519639299
 30
0.0
 10
101.551424128258
 20
-130.3913519639299
 30
0.0
 10
101.7460720231746
 20
-130.3913519639299
 30
0.0
 10
101.7460720231746
 20
-130.3913519639299
 30
0.0
 10
101.7460720231746
 20
-130.3913519639299
 30
0.0
 10
101.7460720231746
 20
-131.0493652016127
 30
0.0
 10
101.7460720231746
 20
-131.0493652016127
 30
0.0
 10
101.7460720231746
 20
-131.0493652016127
 30
0.0
 10
102.1691297487633
 20
-131.1193006399632
 30
0.0
 10
102.1691297487633
 20
-131.1193006399632
 30
0.0
 10
102.1353678130078
 20
-131.0538438257435
 30
0.0
 10
102.0950601958304
 20
-130.9656493813211
 30
0.0
 10
102.0950601958304
 20
-130.8388698674639
 30
0.0
 10
102.0950601958304
 20
-130.5677408527747
 30
0.0
 10
102.2810953520339
 20
-130.3145263346089
 30
0.0
 10
102.5942545316431
 20
-130.3145263346089
 30
0.0
 10
102.9115478258346
 20
-130.3145263346089
 30
0.0
 10
103.1465033379286
 20
-130.5539604708337
 30
0.0
 10
103.1465033379286
 20
-130.8774549368987
 30
0.0
  0
HATCH
  5
7B
330
76
100
AcDbEntity
  8
_U+30EC_U+30A4_U+30E4_U+30FC 1
 62
   179
420
  2234388
100
AcDbHatch
 10
0.0
 20
0.0
 30
0.0
210
0.0
220
0.0
230
1.0
  2
SOLID
 70
     1
 71
     0
 91
        1
 92
        1
 93
        1
 72
     4
 94
        3
 73
     0
 74
     1
 95
       53
 96
       49
 40
0.0
 40
0.0
 40
0.0
 40
0.0
 40
1.0
 40
1.0
 40
1.0
 40
2.0
 40
2.0
 40
2.0
 40
3.0
 40
3.0
 40
3.0
 40
4.0
 40
4.0
 40
4.0
 40
5.0
 40
5.0
 40
5.0
 40
6.0
 40
6.0
 40
6.0
 40
7.0
 40
7.0
 40
7.0
 40
8.0
 40
8.0
 40
8.0
 40
9.0
 40
9.0
 40
9.0
 40
10.0
 40
10.0
 40
10.0
 40
11.0
 40
11.0
 40
11.0
 40
12.0
 40
12.0
 40
12.0
 40
13.0
 40
13.0
 40
13.0
 40
14.0
 40
14.0
 40
14.0
 40
15.0
 40
15.0
 40
15.0
 40
16.0
 40
16.0
 40
16.0
 40
16.0
 10
103.1465033379286
 20
-130.8774549368987
 10
103.1465033379286
 20
-130.9611707571903
 10
103.1296223700509
 20
-131.0696912649756
 10
103.0662326131223
 20
-131.178211772761
 10
102.9559895575943
 20
-131.3635579098674
 10
102.8250759291548
 20
-131.3859510305216
 10
102.716899930918
 20
-131.4066216034331
 10
102.716899930918
 20
-131.4066216034331
 10
102.716899930918
 20
-131.1689100149508
 10
102.716899930918
 20
-131.1689100149508
 10
102.9160264499654
 20
-131.1103433917016
 10
102.9456542711386
 20
-130.9746066295828
 10
102.9456542711386
 20
-130.875043370059
 10
102.9456542711386
 20
-130.7258707355477
 10
102.8460910116149
 20
-130.5632622286439
 10
102.6135470663605
 20
-130.5632622286439
 10
102.3575764718064
 20
-130.5632622286439
 10
102.2876410334559
 20
-130.7554985567209
 10
102.2876410334559
 20
-130.8843451278692
 10
102.2876410334559
 20
-130.9181070636246
 10
102.2876410334559
 20
-131.0696912649756
 10
102.4164876046042
 20
-131.16443139082
 10
102.4164876046042
 20
-131.16443139082
 10
102.3975395794353
 20
-131.3521890947661
 10
102.3975395794353
 20
-131.3521890947661
 10
102.3975395794353
 20
-131.3521890947661
 10
101.551424128258
 20
-131.2233425236178
 10
101.551424128258
 20
-131.2233425236178
 10
101.551424128258
 20
-131.2233425236178
 10
101.551424128258
 20
-130.3913519639299
 10
101.551424128258
 20
-130.3913519639299
 10
101.551424128258
 20
-130.3913519639299
 10
101.7460720231746
 20
-130.3913519639299
 10
101.7460720231746
 20
-130.3913519639299
 10
101.7460720231746
 20
-130.3913519639299
 10
101.7460720231746
 20
-131.0493652016127
 10
101.7460720231746
 20
-131.0493652016127
 10
101.7460720231746
 20
-131.0493652016127
 10
102.1691297487633
 20
-131.1193006399632
 10
102.1691297487633
 20
-131.1193006399632
 10
102.1353678130078
 20
-131.0538438257435
 10
102.0950601958304
 20
-130.9656493813211
 10
102.0950601958304
 20
-130.8388698674639
 10
102.0950601958304
 20
-130.5677408527747
 10
102.2810953520339
 20
-130.3145263346089
 10
102.5942545316431
 20
-130.3145263346089
 10
102.9115478258346
 20
-130.3145263346089
 10
103.1465033379286
 20
-130.5539604708337
 10
103.1465033379286
 20
-130.8774549368987
 97
        0
 97
        0
 75
     2
 76
     1
 98
        0
  0
POLYLINE
  5
7C
330
76
100
AcDbEntity
  8
_U+30EC_U+30A4_U+30E4_U+30FC 1
370
     0
100
AcDb2dPolyline
 66
     1
 10
0.0
 20
0.0
 30
0.0
  0
VERTEX
  5
7D
330
7C
100
AcDbEntity
  8
_U+30EC_U+30A4_U+30E4_U+30FC 1
370
     0
100
AcDbVertex
100
AcDb2dVertex
 10
103.0958604342955
 20
-130.0695800456076
 30
0.0
  0
VERTEX
  5
7E
330
7C
100
AcDbEntity
  8
_U+30EC_U+30A4_U+30E4_U+30FC 1
370
     0
100
AcDbVertex
100
AcDb2dVertex
 10
102.8440239543237
 20
-130.0695800456076
 30
0.0
  0
VERTEX
  5
7F
330
7C
100
AcDbEntity
  8
_U+30EC_U+30A4_U+30E4_U+30FC 1
370
     0
100
AcDbVertex
100
AcDb2dVertex
 10
102.8440239543237
 20
-129.8005180882096
 30
0.0
  0
VERTEX
  5
80
330
7C
100
AcDbEntity
  8
_U+30EC_U+30A4_U+30E4_U+30FC 1
370
     0
100
AcDbVertex
100
AcDb2dVertex
 10
103.0958604342955
 20
-129.8005180882096
 30
0.0
  0
VERTEX
  5
81
330
7C
100
AcDbEntity
  8
_U+30EC_U+30A4_U+30E4_U+30FC 1
370
     0
100
AcDbVertex
100
AcDb2dVertex
 10
103.0958604342955
 20
-130.0695800456076
 30
0.0
  0
SEQEND
  5
82
330
7C
100
AcDbEntity
  8
_U+30EC_U+30A4_U+30E4_U+30FC 1
370
     0
  0
HATCH
  5
83
330
76
100
AcDbEntity
  8
_U+30EC_U+30A4_U+30E4_U+30FC 1
 62
   179
420
  2234388
100
AcDbHatch
 10
0.0
 20
0.0
 30
0.0
210
0.0
220
0.0
230
1.0
  2
SOLID
 70
     1
 71
     0
 91
        1
 92
        1
 93
        4
 72
     1
 10
103.0958604342955
 20
-130.0695800456076
 11
102.8440239543237
 21
-130.0695800456076
 72
     1
 10
102.8440239543237
 20
-130.0695800456076
 11
102.8440239543237
 21
-129.8005180882096
 72
     1
 10
102.8440239543237
 20
-129.8005180882096
 11
103.0958604342955
 21
-129.8005180882096
 72
     1
 10
103.0958604342955
 20
-129.8005180882096
 11
103.0958604342955
 21
-130.0695800456076
 97
        0
 75
     2
 76
     1
 98
        0
  0
SPLINE
  5
84
330
76
100
AcDbEntity
  8
_U+30EC_U+30A4_U+30E4_U+30FC 1
370
     0
100
AcDbSpline
210
0.0
220
0.0
230
1.0
 70
    11
 71
     3
 72
    53
 73
    49
 74
     0
 42
0.0000000001
 43
0.0000000001
 12
1.0
 22
0.0
 32
0.0
 13
1.0
 23
0.0
 33
0.0
 40
0.0
 40
0.0
 40
0.0
 40
0.0
 40
1.0
 40
1.0
 40
1.0
 40
2.0
 40
2.0
 40
2.0
 40
3.0
 40
3.0
 40
3.0
 40
4.0
 40
4.0
 40
4.0
 40
5.0
 40
5.0
 40
5.0
 40
6.0
 40
6.0
 40
6.0
 40
7.0
 40
7.0
 40
7.0
 40
8.0
 40
8.0
 40
8.0
 40
9.0
 40
9.0
 40
9.0
 40
10.0
 40
10.0
 40
10.0
 40
11.0
 40
11.0
 40
11.0
 40
12.0
 40
12.0
 40
12.0
 40
13.0
 40
13.0
 40
13.0
 40
14.0
 40
14.0
 40
14.0
 40
15.0
 40
15.0
 40
15.0
 40
16.0
 40
16.0
 40
16.0
 40
16.0
 10
103.1465033379286
 20
-129.033639833193
 30
0.0
 10
103.1465033379286
 20
-129.1173556534846
 30
0.0
 10
103.1296223700509
 20
-129.2258761612699
 30
0.0
 10
103.0662326131223
 20
-129.3343966690553
 30
0.0
 10
102.9559895575943
 20
-129.5197428061617
 30
0.0
 10
102.8250759291548
 20
-129.5424804363644
 30
0.0
 10
102.716899930918
 20
-129.5628064997274
 30
0.0
 10
102.716899930918
 20
-129.5628064997274
 30
0.0
 10
102.716899930918
 20
-129.3254394207937
 30
0.0
 10
102.716899930918
 20
-129.3254394207937
 30
0.0
 10
102.9160264499654
 20
-129.2665282879959
 30
0.0
 10
102.9456542711386
 20
-129.1311360354256
 30
0.0
 10
102.9456542711386
 20
-129.0315727759018
 30
0.0
 10
102.9456542711386
 20
-128.8824001413905
 30
0.0
 10
102.8460910116149
 20
-128.7194471249382
 30
0.0
 10
102.6135470663605
 20
-128.7194471249382
 30
0.0
 10
102.3575764718064
 20
-128.7194471249382
 30
0.0
 10
102.2876410334559
 20
-128.9116834530151
 30
0.0
 10
102.2876410334559
 20
-129.0405300241635
 30
0.0
 10
102.2876410334559
 20
-129.0746364694675
 30
0.0
 10
102.2876410334559
 20
-129.2258761612699
 30
0.0
 10
102.4164876046042
 20
-129.3209607966628
 30
0.0
 10
102.4164876046042
 20
-129.3209607966628
 30
0.0
 10
102.3975395794353
 20
-129.5087185006089
 30
0.0
 10
102.3975395794353
 20
-129.5087185006089
 30
0.0
 10
102.3975395794353
 20
-129.5087185006089
 30
0.0
 10
101.551424128258
 20
-129.3795274199121
 30
0.0
 10
101.551424128258
 20
-129.3795274199121
 30
0.0
 10
101.551424128258
 20
-129.3795274199121
 30
0.0
 10
101.551424128258
 20
-128.5477091149985
 30
0.0
 10
101.551424128258
 20
-128.5477091149985
 30
0.0
 10
101.551424128258
 20
-128.5477091149985
 30
0.0
 10
101.7460720231746
 20
-128.5477091149985
 30
0.0
 10
101.7460720231746
 20
-128.5477091149985
 30
0.0
 10
101.7460720231746
 20
-128.5477091149985
 30
0.0
 10
101.7460720231746
 20
-129.205550097907
 30
0.0
 10
101.7460720231746
 20
-129.205550097907
 30
0.0
 10
101.7460720231746
 20
-129.205550097907
 30
0.0
 10
102.1691297487633
 20
-129.2758300458061
 30
0.0
 10
102.1691297487633
 20
-129.2758300458061
 30
0.0
 10
102.1353678130078
 20
-129.2100287220378
 30
0.0
 10
102.0950601958304
 20
-129.1218342776154
 30
0.0
 10
102.0950601958304
 20
-128.9953992733067
 30
0.0
 10
102.0950601958304
 20
-128.7240980038433
 30
0.0
 10
102.2810953520339
 20
-128.4708834856774
 30
0.0
 10
102.5942545316431
 20
-128.4708834856774
 30
0.0
 10
102.9115478258346
 20
-128.4708834856774
 30
0.0
 10
103.1465033379286
 20
-128.7104898766765
 30
0.0
 10
103.1465033379286
 20
-129.033639833193
 30
0.0
  0
HATCH
  5
85
330
76
100
AcDbEntity
  8
_U+30EC_U+30A4_U+30E4_U+30FC 1
 62
   179
420
  2234388
100
AcDbHatch
 10
0.0
 20
0.0
 30
0.0
210
0.0
220
0.0
230
1.0
  2
SOLID
 70
     1
 71
     0
 91
        1
 92
        1
 93
        1
 72
     4
 94
        3
 73
     0
 74
     1
 95
       53
 96
       49
 40
0.0
 40
0.0
 40
0.0
 40
0.0
 40
1.0
 40
1.0
 40
1.0
 40
2.0
 40
2.0
 40
2.0
 40
3.0
 40
3.0
 40
3.0
 40
4.0
 40
4.0
 40
4.0
 40
5.0
 40
5.0
 40
5.0
 40
6.0
 40
6.0
 40
6.0
 40
7.0
 40
7.0
 40
7.0
 40
8.0
 40
8.0
 40
8.0
 40
9.0
 40
9.0
 40
9.0
 40
10.0
 40
10.0
 40
10.0
 40
11.0
 40
11.0
 40
11.0
 40
12.0
 40
12.0
 40
12.0
 40
13.0
 40
13.0
 40
13.0
 40
14.0
 40
14.0
 40
14.0
 40
15.0
 40
15.0
 40
15.0
 40
16.0
 40
16.0
 40
16.0
 40
16.0
 10
103.1465033379286
 20
-129.033639833193
 10
103.1465033379286
 20
-129.1173556534846
 10
103.1296223700509
 20
-129.2258761612699
 10
103.0662326131223
 20
-129.3343966690553
 10
102.9559895575943
 20
-129.5197428061617
 10
102.8250759291548
 20
-129.5424804363644
 10
102.716899930918
 20
-129.5628064997274
 10
102.716899930918
 20
-129.5628064997274
 10
102.716899930918
 20
-129.3254394207937
 10
102.716899930918
 20
-129.3254394207937
 10
102.9160264499654
 20
-129.2665282879959
 10
102.9456542711386
 20
-129.1311360354256
 10
102.9456542711386
 20
-129.0315727759018
 10
102.9456542711386
 20
-128.8824001413905
 10
102.8460910116149
 20
-128.7194471249382
 10
102.6135470663605
 20
-128.7194471249382
 10
102.3575764718064
 20
-128.7194471249382
 10
102.2876410334559
 20
-128.9116834530151
 10
102.2876410334559
 20
-129.0405300241635
 10
102.2876410334559
 20
-129.0746364694675
 10
102.2876410334559
 20
-129.2258761612699
 10
102.4164876046042
 20
-129.3209607966628
 10
102.4164876046042
 20
-129.3209607966628
 10
102.3975395794353
 20
-129.5087185006089
 10
102.3975395794353
 20
-129.5087185006089
 10
102.3975395794353
 20
-129.5087185006089
 10
101.551424128258
 20
-129.3795274199121
 10
101.551424128258
 20
-129.3795274199121
 10
101.551424128258
 20
-129.3795274199121
 10
101.551424128258
 20
-128.5477091149985
 10
101.551424128258
 20
-128.5477091149985
 10
101.551424128258
 20
-128.5477091149985
 10
101.7460720231746
 20
-128.5477091149985
 10
101.7460720231746
 20
-128.5477091149985
 10
101.7460720231746
 20
-128.5477091149985
 10
101.7460720231746
 20
-129.205550097907
 10
101.7460720231746
 20
-129.205550097907
 10
101.7460720231746
 20
-129.205550097907
 10
102.1691297487633
 20
-129.2758300458061
 10
102.1691297487633
 20
-129.2758300458061
 10
102.1353678130078
 20
-129.2100287220378
 10
102.0950601958304
 20
-129.1218342776154
 10
102.0950601958304
 20
-128.9953992733067
 10
102.0950601958304
 20
-128.7240980038433
 10
102.2810953520339
 20
-128.4708834856774
 10
102.5942545316431
 20
-128.4708834856774
 10
102.9115478258346
 20
-128.4708834856774
 10
103.1465033379286
 20
-128.7104898766765
 10
103.1465033379286
 20
-129.033639833193
 97
        0
 97
        0
 75
     2
 76
     1
 98
        0
  0
ENDBLK
  5
79
330
76
100
AcDbEntity
  8
0
100
AcDbBlockEnd
  0
BLOCK
  5
97
330
95
100
AcDbEntity
  8
0
100
AcDbBlockBegin
  2
block 3
 70
     0
 10
0.0
 20
0.0
 30
0.0
  3
block 3
  1

  0
SPLINE
  5
99
330
95
100
AcDbEntity
  8
_U+30EC_U+30A4_U+30E4_U+30FC 1
370
     0
100
AcDbSpline
210
0.0
220
0.0
230
1.0
 70
    11
 71
     3
 72
    26
 73
    22
 74
     0
 42
0.0000000001
 43
0.0000000001
 12
1.0
 22
0.0
 32
0.0
 13
1.0
 23
0.0
 33
0.0
 40
0.0
 40
0.0
 40
0.0
 40
0.0
 40
1.0
 40
1.0
 40
1.0
 40
2.0
 40
2.0
 40
2.0
 40
3.0
 40
3.0
 40
3.0
 40
4.0
 40
4.0
 40
4.0
 40
5.0
 40
5.0
 40
5.0
 40
6.0
 40
6.0
 40
6.0
 40
7.0
 40
7.0
 40
7.0
 40
7.0
 10
79.80684269923232
 20
-128.6159220056064
 30
0.0
 10
79.80684269923232
 20
-128.6159220056064
 30
0.0
 10
78.70251734143548
 20
-128.6159220056064
 30
0.0
 10
78.70251734143548
 20
-128.6159220056064
 30
0.0
 10
78.70251734143548
 20
-128.6159220056064
 30
0.0
 10
78.70251734143548
 20
-128.9685275285218
 30
0.0
 10
78.70251734143548
 20
-128.9685275285218
 30
0.0
 10
78.70251734143548
 20
-128.9685275285218
 30
0.0
 10
78.554550490344
 20
-128.9685275285218
 30
0.0
 10
78.554550490344
 20
-128.9685275285218
 30
0.0
 10
78.53973657975743
 20
-128.613682693541
 30
0.0
 10
78.37678356330511
 20
-128.5639010637792
 30
0.0
 10
78.26257864796908
 20
-128.5322061853149
 30
0.0
 10
78.26257864796908
 20
-128.5322061853149
 30
0.0
 10
78.26257864796908
 20
-128.3763156146073
 30
0.0
 10
78.26257864796908
 20
-128.3763156146073
 30
0.0
 10
78.26257864796908
 20
-128.3763156146073
 30
0.0
 10
79.80684269923232
 20
-128.3763156146073
 30
0.0
 10
79.80684269923232
 20
-128.3763156146073
 30
0.0
 10
79.80684269923232
 20
-128.3763156146073
 30
0.0
 10
79.80684269923232
 20
-128.6159220056064
 30
0.0
 10
79.80684269923232
 20
-128.6159220056064
 30
0.0
  0
HATCH
  5
9A
330
95
100
AcDbEntity
  8
_U+30EC_U+30A4_U+30E4_U+30FC 1
 62
   179
420
  2234388
100
AcDbHatch
 10
0.0
 20
0.0
 30
0.0
210
0.0
220
0.0
230
1.0
  2
SOLID
 70
     1
 71
     0
 91
        1
 92
        1
 93
        1
 72
     4
 94
        3
 73
     0
 74
     1
 95
       26
 96
       22
 40
0.0
 40
0.0
 40
0.0
 40
0.0
 40
1.0
 40
1.0
 40
1.0
 40
2.0
 40
2.0
 40
2.0
 40
3.0
 40
3.0
 40
3.0
 40
4.0
 40
4.0
 40
4.0
 40
5.0
 40
5.0
 40
5.0
 40
6.0
 40
6.0
 40
6.0
 40
7.0
 40
7.0
 40
7.0
 40
7.0
 10
79.80684269923232
 20
-128.6159220056064
 10
79.80684269923232
 20
-128.6159220056064
 10
78.70251734143548
 20
-128.6159220056064
 10
78.70251734143548
 20
-128.6159220056064
 10
78.70251734143548
 20
-128.6159220056064
 10
78.70251734143548
 20
-128.9685275285218
 10
78.70251734143548
 20
-128.9685275285218
 10
78.70251734143548
 20
-128.9685275285218
 10
78.554550490344
 20
-128.9685275285218
 10
78.554550490344
 20
-128.9685275285218
 10
78.53973657975743
 20
-128.613682693541
 10
78.37678356330511
 20
-128.5639010637792
 10
78.26257864796908
 20
-128.5322061853149
 10
78.26257864796908
 20
-128.5322061853149
 10
78.26257864796908
 20
-128.3763156146073
 10
78.26257864796908
 20
-128.3763156146073
 10
78.26257864796908
 20
-128.3763156146073
 10
79.80684269923232
 20
-128.3763156146073
 10
79.80684269923232
 20
-128.3763156146073
 10
79.80684269923232
 20
-128.3763156146073
 10
79.80684269923232
 20
-128.6159220056064
 10
79.80684269923232
 20
-128.6159220056064
 97
        0
 97
        0
 75
     2
 76
     1
 98
        0
  0
SPLINE
  5
9B
330
95
100
AcDbEntity
  8
_U+30EC_U+30A4_U+30E4_U+30FC 1
370
     0
100
AcDbSpline
210
0.0
220
0.0
230
1.0
 70
    11
 71
     3
 72
    44
 73
    40
 74
     0
 42
0.0000000001
 43
0.0000000001
 12
1.0
 22
0.0
 32
0.0
 13
1.0
 23
0.0
 33
0.0
 40
0.0
 40
0.0
 40
0.0
 40
0.0
 40
1.0
 40
1.0
 40
1.0
 40
2.0
 40
2.0
 40
2.0
 40
3.0
 40
3.0
 40
3.0
 40
4.0
 40
4.0
 40
4.0
 40
5.0
 40
5.0
 40
5.0
 40
6.0
 40
6.0
 40
6.0
 40
7.0
 40
7.0
 40
7.0
 40
8.0
 40
8.0
 40
8.0
 40
9.0
 40
9.0
 40
9.0
 40
10.0
 40
10.0
 40
10.0
 40
11.0
 40
11.0
 40
11.0
 40
12.0
 40
12.0
 40
12.0
 40
13.0
 40
13.0
 40
13.0
 40
13.0
 10
79.22513832654789
 20
-127.206705697365
 30
0.0
 10
79.38378497364364
 20
-127.4395941521679
 30
0.0
 10
79.45785452657651
 20
-127.5389851569173
 30
0.0
 10
79.6016872630857
 20
-127.5910060987446
 30
0.0
 10
79.6016872630857
 20
-127.5910060987446
 30
0.0
 10
79.6016872630857
 20
-126.7590155390568
 30
0.0
 10
79.6016872630857
 20
-126.7590155390568
 30
0.0
 10
79.6016872630857
 20
-126.7590155390568
 30
0.0
 10
79.80684269923232
 20
-126.7590155390568
 30
0.0
 10
79.80684269923232
 20
-126.7590155390568
 30
0.0
 10
79.80684269923232
 20
-126.7590155390568
 30
0.0
 10
79.80684269923232
 20
-127.8578287440772
 30
0.0
 10
79.80684269923232
 20
-127.8578287440772
 30
0.0
 10
79.44941404263766
 20
-127.8238945535475
 30
0.0
 10
79.37103812034822
 20
-127.7537868604227
 30
0.0
 10
79.07286510609984
 20
-127.3422702047096
 30
0.0
 10
78.87391084182667
 20
-127.0687296231807
 30
0.0
 10
78.8062147155415
 20
-126.9986219300559
 30
0.0
 10
78.66875540568003
 20
-126.9986219300559
 30
0.0
 10
78.55024412098744
 20
-126.9986219300559
 30
0.0
 10
78.41915823777369
 20
-127.0756198141512
 30
0.0
 10
78.41915823777369
 20
-127.2857706387515
 30
0.0
 10
78.41915823777369
 20
-127.5639620991854
 30
0.0
 10
78.6496351257369
 20
-127.5729193474471
 30
0.0
 10
78.76607935313835
 20
-127.5773979715779
 30
0.0
 10
78.76607935313835
 20
-127.5773979715779
 30
0.0
 10
78.76607935313835
 20
-127.8171766173513
 30
0.0
 10
78.76607935313835
 20
-127.8171766173513
 30
0.0
 10
78.6391275845069
 20
-127.8080471143154
 30
0.0
 10
78.526989726462
 20
-127.796678299214
 30
0.0
 10
78.40847844176942
 20
-127.7108954216313
 30
0.0
 10
78.24776473738251
 20
-127.59324541081
 30
0.0
 10
78.21383054685279
 20
-127.3942911465368
 30
0.0
 10
78.21383054685279
 20
-127.2699231995193
 30
0.0
 10
78.21383054685279
 20
-126.9738172425621
 30
0.0
 10
78.3979709005394
 20
-126.7522976028605
 30
0.0
 10
78.67082246297119
 20
-126.7522976028605
 30
0.0
 10
78.89940454841751
 20
-126.7522976028605
 30
0.0
 10
78.99879555316697
 20
-126.8766655498781
 30
0.0
 10
79.22513832654789
 20
-127.206705697365
 30
0.0
  0
HATCH
  5
9C
330
95
100
AcDbEntity
  8
_U+30EC_U+30A4_U+30E4_U+30FC 1
 62
   179
420
  2234388
100
AcDbHatch
 10
0.0
 20
0.0
 30
0.0
210
0.0
220
0.0
230
1.0
  2
SOLID
 70
     1
 71
     0
 91
        1
 92
        1
 93
        1
 72
     4
 94
        3
 73
     0
 74
     1
 95
       44
 96
       40
 40
0.0
 40
0.0
 40
0.0
 40
0.0
 40
1.0
 40
1.0
 40
1.0
 40
2.0
 40
2.0
 40
2.0
 40
3.0
 40
3.0
 40
3.0
 40
4.0
 40
4.0
 40
4.0
 40
5.0
 40
5.0
 40
5.0
 40
6.0
 40
6.0
 40
6.0
 40
7.0
 40
7.0
 40
7.0
 40
8.0
 40
8.0
 40
8.0
 40
9.0
 40
9.0
 40
9.0
 40
10.0
 40
10.0
 40
10.0
 40
11.0
 40
11.0
 40
11.0
 40
12.0
 40
12.0
 40
12.0
 40
13.0
 40
13.0
 40
13.0
 40
13.0
 10
79.22513832654789
 20
-127.206705697365
 10
79.38378497364364
 20
-127.4395941521679
 10
79.45785452657651
 20
-127.5389851569173
 10
79.6016872630857
 20
-127.5910060987446
 10
79.6016872630857
 20
-127.5910060987446
 10
79.6016872630857
 20
-126.7590155390568
 10
79.6016872630857
 20
-126.7590155390568
 10
79.6016872630857
 20
-126.7590155390568
 10
79.80684269923232
 20
-126.7590155390568
 10
79.80684269923232
 20
-126.7590155390568
 10
79.80684269923232
 20
-126.7590155390568
 10
79.80684269923232
 20
-127.8578287440772
 10
79.80684269923232
 20
-127.8578287440772
 10
79.44941404263766
 20
-127.8238945535475
 10
79.37103812034822
 20
-127.7537868604227
 10
79.07286510609984
 20
-127.3422702047096
 10
78.87391084182667
 20
-127.0687296231807
 10
78.8062147155415
 20
-126.9986219300559
 10
78.66875540568003
 20
-126.9986219300559
 10
78.55024412098744
 20
-126.9986219300559
 10
78.41915823777369
 20
-127.0756198141512
 10
78.41915823777369
 20
-127.2857706387515
 10
78.41915823777369
 20
-127.5639620991854
 10
78.6496351257369
 20
-127.5729193474471
 10
78.76607935313835
 20
-127.5773979715779
 10
78.76607935313835
 20
-127.5773979715779
 10
78.76607935313835
 20
-127.8171766173513
 10
78.76607935313835
 20
-127.8171766173513
 10
78.6391275845069
 20
-127.8080471143154
 10
78.526989726462
 20
-127.796678299214
 10
78.40847844176942
 20
-127.7108954216313
 10
78.24776473738251
 20
-127.59324541081
 10
78.21383054685279
 20
-127.3942911465368
 10
78.21383054685279
 20
-127.2699231995193
 10
78.21383054685279
 20
-126.9738172425621
 10
78.3979709005394
 20
-126.7522976028605
 10
78.67082246297119
 20
-126.7522976028605
 10
78.89940454841751
 20
-126.7522976028605
 10
78.99879555316697
 20
-126.8766655498781
 10
79.22513832654789
 20
-127.206705697365
 97
        0
 97
        0
 75
     2
 76
     1
 98
        0
  0
ENDBLK
  5
98
330
95
100
AcDbEntity
  8
0
100
AcDbBlockEnd
  0
BLOCK
  5
AE
330
AC
100
AcDbEntity
  8
0
100
AcDbBlockBegin
  2
block 4
 70
     0
 10
0.0
 20
0.0
 30
0.0
  3
block 4
  1

  0
SPLINE
  5
B0
330
AC
100
AcDbEntity
  8
_U+30EC_U+30A4_U+30E4_U+30FC 1
370
     0
100
AcDbSpline
210
0.0
220
0.0
230
1.0
 70
    11
 71
     3
 72
    26
 73
    22
 74
     0
 42
0.0000000001
 43
0.0000000001
 12
1.0
 22
0.0
 32
0.0
 13
1.0
 23
0.0
 33
0.0
 40
0.0
 40
0.0
 40
0.0
 40
0.0
 40
1.0
 40
1.0
 40
1.0
 40
2.0
 40
2.0
 40
2.0
 40
3.0
 40
3.0
 40
3.0
 40
4.0
 40
4.0
 40
4.0
 40
5.0
 40
5.0
 40
5.0
 40
6.0
 40
6.0
 40
6.0
 40
7.0
 40
7.0
 40
7.0
 40
7.0
 10
89.49858531833716
 20
-137.3122042842483
 30
0.0
 10
89.49858531833716
 20
-137.3122042842483
 30
0.0
 10
89.49858531833716
 20
-136.2077066716772
 30
0.0
 10
89.49858531833716
 20
-136.2077066716772
 30
0.0
 10
89.49858531833716
 20
-136.2077066716772
 30
0.0
 10
89.14597979542184
 20
-136.2077066716772
 30
0.0
 10
89.14597979542184
 20
-136.2077066716772
 30
0.0
 10
89.14597979542184
 20
-136.2077066716772
 30
0.0
 10
89.14597979542184
 20
-136.0595675658115
 30
0.0
 10
89.14597979542184
 20
-136.0595675658115
 30
0.0
 10
89.50082463040258
 20
-136.0447536552249
 30
0.0
 10
89.55060626016443
 20
-135.8821451483211
 30
0.0
 10
89.58230113862874
 20
-135.7677679782109
 30
0.0
 10
89.58230113862874
 20
-135.7677679782109
 30
0.0
 10
89.73819170933629
 20
-135.7677679782109
 30
0.0
 10
89.73819170933629
 20
-135.7677679782109
 30
0.0
 10
89.73819170933629
 20
-135.7677679782109
 30
0.0
 10
89.73819170933629
 20
-137.3122042842483
 30
0.0
 10
89.73819170933629
 20
-137.3122042842483
 30
0.0
 10
89.73819170933629
 20
-137.3122042842483
 30
0.0
 10
89.49858531833716
 20
-137.3122042842483
 30
0.0
 10
89.49858531833716
 20
-137.3122042842483
 30
0.0
  0
HATCH
  5
B1
330
AC
100
AcDbEntity
  8
_U+30EC_U+30A4_U+30E4_U+30FC 1
 62
   179
420
  2234388
100
AcDbHatch
 10
0.0
 20
0.0
 30
0.0
210
0.0
220
0.0
230
1.0
  2
SOLID
 70
     1
 71
     0
 91
        1
 92
        1
 93
        1
 72
     4
 94
        3
 73
     0
 74
     1
 95
       26
 96
       22
 40
0.0
 40
0.0
 40
0.0
 40
0.0
 40
1.0
 40
1.0
 40
1.0
 40
2.0
 40
2.0
 40
2.0
 40
3.0
 40
3.0
 40
3.0
 40
4.0
 40
4.0
 40
4.0
 40
5.0
 40
5.0
 40
5.0
 40
6.0
 40
6.0
 40
6.0
 40
7.0
 40
7.0
 40
7.0
 40
7.0
 10
89.49858531833716
 20
-137.3122042842483
 10
89.49858531833716
 20
-137.3122042842483
 10
89.49858531833716
 20
-136.2077066716772
 10
89.49858531833716
 20
-136.2077066716772
 10
89.49858531833716
 20
-136.2077066716772
 10
89.14597979542184
 20
-136.2077066716772
 10
89.14597979542184
 20
-136.2077066716772
 10
89.14597979542184
 20
-136.2077066716772
 10
89.14597979542184
 20
-136.0595675658115
 10
89.14597979542184
 20
-136.0595675658115
 10
89.50082463040258
 20
-136.0447536552249
 10
89.55060626016443
 20
-135.8821451483211
 10
89.58230113862874
 20
-135.7677679782109
 10
89.58230113862874
 20
-135.7677679782109
 10
89.73819170933629
 20
-135.7677679782109
 10
89.73819170933629
 20
-135.7677679782109
 10
89.73819170933629
 20
-135.7677679782109
 10
89.73819170933629
 20
-137.3122042842483
 10
89.73819170933629
 20
-137.3122042842483
 10
89.73819170933629
 20
-137.3122042842483
 10
89.49858531833716
 20
-137.3122042842483
 10
89.49858531833716
 20
-137.3122042842483
 97
        0
 97
        0
 75
     2
 76
     1
 98
        0
  0
SPLINE
  5
B2
330
AC
100
AcDbEntity
  8
_U+30EC_U+30A4_U+30E4_U+30FC 1
370
     0
100
AcDbSpline
210
0.0
220
0.0
230
1.0
 70
    11
 71
     3
 72
    44
 73
    40
 74
     0
 42
0.0000000001
 43
0.0000000001
 12
1.0
 22
0.0
 32
0.0
 13
1.0
 23
0.0
 33
0.0
 40
0.0
 40
0.0
 40
0.0
 40
0.0
 40
1.0
 40
1.0
 40
1.0
 40
2.0
 40
2.0
 40
2.0
 40
3.0
 40
3.0
 40
3.0
 40
4.0
 40
4.0
 40
4.0
 40
5.0
 40
5.0
 40
5.0
 40
6.0
 40
6.0
 40
6.0
 40
7.0
 40
7.0
 40
7.0
 40
8.0
 40
8.0
 40
8.0
 40
9.0
 40
9.0
 40
9.0
 40
10.0
 40
10.0
 40
10.0
 40
11.0
 40
11.0
 40
11.0
 40
12.0
 40
12.0
 40
12.0
 40
13.0
 40
13.0
 40
13.0
 40
13.0
 10
90.9078016265786
 20
-136.7303276567897
 30
0.0
 10
90.67491317177571
 20
-136.8888020491111
 30
0.0
 10
90.57552216702626
 20
-136.962871602044
 30
0.0
 10
90.52350122519898
 20
-137.1068765933275
 30
0.0
 10
90.52350122519898
 20
-137.1068765933275
 30
0.0
 10
91.35549178488682
 20
-137.1068765933275
 30
0.0
 10
91.35549178488682
 20
-137.1068765933275
 30
0.0
 10
91.35549178488682
 20
-137.1068765933275
 30
0.0
 10
91.35549178488682
 20
-137.3122042842483
 30
0.0
 10
91.35549178488682
 20
-137.3122042842483
 30
0.0
 10
91.35549178488682
 20
-137.3122042842483
 30
0.0
 10
90.25667857986639
 20
-137.3122042842483
 30
0.0
 10
90.25667857986639
 20
-137.3122042842483
 30
0.0
 10
90.2906127703961
 20
-136.9546033728794
 30
0.0
 10
90.36072046352093
 20
-136.8763997053642
 30
0.0
 10
90.77223711923403
 20
-136.5780544363416
 30
0.0
 10
91.04577770076287
 20
-136.3792724268427
 30
0.0
 10
91.1158853938877
 20
-136.3114040457833
 30
0.0
 10
91.1158853938877
 20
-136.1739447359218
 30
0.0
 10
91.1158853938877
 20
-136.0554334512292
 30
0.0
 10
91.03905976456663
 20
-135.9241753132412
 30
0.0
 10
90.82873668519213
 20
-135.9241753132412
 30
0.0
 10
90.5505452247582
 20
-135.9241753132412
 30
0.0
 10
90.54158797649656
 20
-136.1549967107529
 30
0.0
 10
90.53710935236573
 20
-136.2710964286058
 30
0.0
 10
90.53710935236573
 20
-136.2710964286058
 30
0.0
 10
90.29733070659233
 20
-136.2710964286058
 30
0.0
 10
90.29733070659233
 20
-136.2710964286058
 30
0.0
 10
90.30646020962826
 20
-136.1443169147487
 30
0.0
 10
90.31782902472958
 20
-136.032351311478
 30
0.0
 10
90.40361190231229
 20
-135.9138400267854
 30
0.0
 10
90.52126191313357
 20
-135.7529540676243
 30
0.0
 10
90.72021617740675
 20
-135.7191921318688
 30
0.0
 10
90.84458412442427
 20
-135.7191921318688
 30
0.0
 10
91.14069008138149
 20
-135.7191921318688
 30
0.0
 10
91.36220972108306
 20
-135.9031602307812
 30
0.0
 10
91.36220972108306
 20
-136.176011793213
 30
0.0
 10
91.36220972108306
 20
-136.404421623885
 30
0.0
 10
91.23784177406554
 20
-136.5039848834087
 30
0.0
 10
90.9078016265786
 20
-136.7303276567897
 30
0.0
  0
HATCH
  5
B3
330
AC
100
AcDbEntity
  8
_U+30EC_U+30A4_U+30E4_U+30FC 1
 62
   179
420
  2234388
100
AcDbHatch
 10
0.0
 20
0.0
 30
0.0
210
0.0
220
0.0
230
1.0
  2
SOLID
 70
     1
 71
     0
 91
        1
 92
        1
 93
        1
 72
     4
 94
        3
 73
     0
 74
     1
 95
       44
 96
       40
 40
0.0
 40
0.0
 40
0.0
 40
0.0
 40
1.0
 40
1.0
 40
1.0
 40
2.0
 40
2.0
 40
2.0
 40
3.0
 40
3.0
 40
3.0
 40
4.0
 40
4.0
 40
4.0
 40
5.0
 40
5.0
 40
5.0
 40
6.0
 40
6.0
 40
6.0
 40
7.0
 40
7.0
 40
7.0
 40
8.0
 40
8.0
 40
8.0
 40
9.0
 40
9.0
 40
9.0
 40
10.0
 40
10.0
 40
10.0
 40
11.0
 40
11.0
 40
11.0
 40
12.0
 40
12.0
 40
12.0
 40
13.0
 40
13.0
 40
13.0
 40
13.0
 10
90.9078016265786
 20
-136.7303276567897
 10
90.67491317177571
 20
-136.8888020491111
 10
90.57552216702626
 20
-136.962871602044
 10
90.52350122519898
 20
-137.1068765933275
 10
90.52350122519898
 20
-137.1068765933275
 10
91.35549178488682
 20
-137.1068765933275
 10
91.35549178488682
 20
-137.1068765933275
 10
91.35549178488682
 20
-137.1068765933275
 10
91.35549178488682
 20
-137.3122042842483
 10
91.35549178488682
 20
-137.3122042842483
 10
91.35549178488682
 20
-137.3122042842483
 10
90.25667857986639
 20
-137.3122042842483
 10
90.25667857986639
 20
-137.3122042842483
 10
90.2906127703961
 20
-136.9546033728794
 10
90.36072046352093
 20
-136.8763997053642
 10
90.77223711923403
 20
-136.5780544363416
 10
91.04577770076287
 20
-136.3792724268427
 10
91.1158853938877
 20
-136.3114040457833
 10
91.1158853938877
 20
-136.1739447359218
 10
91.1158853938877
 20
-136.0554334512292
 10
91.03905976456663
 20
-135.9241753132412
 10
90.82873668519213
 20
-135.9241753132412
 10
90.5505452247582
 20
-135.9241753132412
 10
90.54158797649656
 20
-136.1549967107529
 10
90.53710935236573
 20
-136.2710964286058
 10
90.53710935236573
 20
-136.2710964286058
 10
90.29733070659233
 20
-136.2710964286058
 10
90.29733070659233
 20
-136.2710964286058
 10
90.30646020962826
 20
-136.1443169147487
 10
90.31782902472958
 20
-136.032351311478
 10
90.40361190231229
 20
-135.9138400267854
 10
90.52126191313357
 20
-135.7529540676243
 10
90.72021617740675
 20
-135.7191921318688
 10
90.84458412442427
 20
-135.7191921318688
 10
91.14069008138149
 20
-135.7191921318688
 10
91.36220972108306
 20
-135.9031602307812
 10
91.36220972108306
 20
-136.176011793213
 10
91.36220972108306
 20
-136.404421623885
 10
91.23784177406554
 20
-136.5039848834087
 10
90.9078016265786
 20
-136.7303276567897
 97
        0
 97
        0
 75
     2
 76
     1
 98
        0
  0
ENDBLK
  5
AF
330
AC
100
AcDbEntity
  8
0
100
AcDbBlockEnd
  0
BLOCK
  5
C5
330
C3
100
AcDbEntity
  8
0
100
AcDbBlockBegin
  2
block 5
 70
     0
 10
0.0
 20
0.0
 30
0.0
  3
block 5
  1

  0
SPLINE
  5
C7
330
C3
100
AcDbEntity
  8
_U+30EC_U+30A4_U+30E4_U+30FC 1
370
     0
100
AcDbSpline
210
0.0
220
0.0
230
1.0
 70
    11
 71
     3
 72
    29
 73
    25
 74
     0
 42
0.0000000001
 43
0.0000000001
 12
1.0
 22
0.0
 32
0.0
 13
1.0
 23
0.0
 33
0.0
 40
0.0
 40
0.0
 40
0.0
 40
0.0
 40
1.0
 40
1.0
 40
1.0
 40
2.0
 40
2.0
 40
2.0
 40
3.0
 40
3.0
 40
3.0
 40
4.0
 40
4.0
 40
4.0
 40
5.0
 40
5.0
 40
5.0
 40
6.0
 40
6.0
 40
6.0
 40
7.0
 40
7.0
 40
7.0
 40
8.0
 40
8.0
 40
8.0
 40
8.0
 10
90.00604788331447
 20
-121.3043958572607
 30
0.0
 10
89.78383922451584
 20
-121.1262844206733
 30
0.0
 10
89.65843774885276
 20
-120.8494709984335
 30
0.0
 10
89.87651229306907
 20
-120.5769639455502
 30
0.0
 10
90.0367092331332
 20
-120.37732066218
 30
0.0
 10
90.21447616017208
 20
-120.397646725543
 30
0.0
 10
90.34091116448074
 20
-120.4205566105199
 30
0.0
 10
90.27373180251837
 20
-120.2908487655002
 30
0.0
 10
90.28165552213446
 20
-120.1508056340248
 30
0.0
 10
90.38190780075522
 20
-120.0252319035875
 30
0.0
 10
90.55416257501771
 20
-119.8106024548564
 30
0.0
 10
90.80462101679538
 20
-119.8378187091899
 30
0.0
 10
91.0337198665645
 20
-120.0216145533279
 30
0.0
 10
91.27039792640116
 20
-120.2110948050167
 30
0.0
 10
91.33929983610615
 20
-120.4503566864673
 30
0.0
 10
91.17290172416858
 20
-120.6584404537764
 30
0.0
 10
91.07230493599928
 20
-120.7840141842137
 30
0.0
 10
90.93553464523487
 20
-120.8208767059059
 30
0.0
 10
90.79428573033962
 20
-120.7836696746652
 30
0.0
 10
90.8366604048082
 20
-120.8827161698661
 30
0.0
 10
90.90935191954698
 20
-121.063066918519
 30
0.0
 10
90.74536537444908
 20
-121.2677055903428
 30
0.0
 10
90.51109888145209
 20
-121.5600219422662
 30
0.0
 10
90.20551891191043
 20
-121.4642482877763
 30
0.0
 10
90.00604788331447
 20
-121.3043958572607
 30
0.0
  0
SPLINE
  5
C8
330
C3
100
AcDbEntity
  8
_U+30EC_U+30A4_U+30E4_U+30FC 1
370
     0
100
AcDbSpline
210
0.0
220
0.0
230
1.0
 70
    11
 71
     3
 72
    17
 73
    13
 74
     0
 42
0.0000000001
 43
0.0000000001
 12
1.0
 22
0.0
 32
0.0
 13
1.0
 23
0.0
 33
0.0
 40
0.0
 40
0.0
 40
0.0
 40
0.0
 40
1.0
 40
1.0
 40
1.0
 40
2.0
 40
2.0
 40
2.0
 40
3.0
 40
3.0
 40
3.0
 40
4.0
 40
4.0
 40
4.0
 40
4.0
 10
90.50076359499634
 20
-120.6868624915297
 30
0.0
 10
90.38087427210965
 20
-120.5907443274912
 30
0.0
 10
90.20000675913403
 20
-120.5568101369615
 30
0.0
 10
90.07288273572831
 20
-120.715284529283
 30
0.0
 10
89.94472518367702
 20
-120.8754814693471
 30
0.0
 10
89.98675534859707
 20
-121.0392957596707
 30
0.0
 10
90.12765975394379
 20
-121.1524671463612
 30
0.0
 10
90.28337806987707
 20
-121.277007348153
 30
0.0
 10
90.4518432391058
 20
-121.2546142274988
 30
0.0
 10
90.56311982327937
 20
-121.1159491342175
 30
0.0
 10
90.70195717133493
 20
-120.9426608313095
 30
0.0
 10
90.61238468871844
 20
-120.7759182098234
 30
0.0
 10
90.50076359499634
 20
-120.6868624915297
 30
0.0
  0
SPLINE
  5
C9
330
C3
100
AcDbEntity
  8
_U+30EC_U+30A4_U+30E4_U+30FC 1
370
     0
100
AcDbSpline
210
0.0
220
0.0
230
1.0
 70
    11
 71
     3
 72
    17
 73
    13
 74
     0
 42
0.0000000001
 43
0.0000000001
 12
1.0
 22
0.0
 32
0.0
 13
1.0
 23
0.0
 33
0.0
 40
0.0
 40
0.0
 40
0.0
 40
0.0
 40
1.0
 40
1.0
 40
1.0
 40
2.0
 40
2.0
 40
2.0
 40
3.0
 40
3.0
 40
3.0
 40
4.0
 40
4.0
 40
4.0
 40
4.0
 10
90.91348603412928
 20
-120.1718207164848
 30
0.0
 10
90.77637123381633
 20
-120.0617499157311
 30
0.0
 10
90.64580211492536
 20
-120.0793199027059
 30
0.0
 10
90.56105276598821
 20
-120.185084334103
 30
0.0
 10
90.48457164621567
 20
-120.2806857338187
 30
0.0
 10
90.47044675472614
 20
-120.4212456296169
 30
0.0
 10
90.61858586059189
 20
-120.5399291690838
 30
0.0
 10
90.76706947600616
 20
-120.6587849633249
 30
0.0
 10
90.90108369038238
 20
-120.6145154863394
 30
0.0
 10
90.97756481015492
 20
-120.5187418318495
 30
0.0
 10
91.06231415909207
 20
-120.4129774004523
 30
0.0
 10
91.04956730579664
 20
-120.2806857338187
 30
0.0
 10
90.91348603412928
 20
-120.1718207164848
 30
0.0
  0
HATCH
  5
CA
330
C3
100
AcDbEntity
  8
_U+30EC_U+30A4_U+30E4_U+30FC 1
 62
   179
420
  2234388
100
AcDbHatch
 10
0.0
 20
0.0
 30
0.0
210
0.0
220
0.0
230
1.0
  2
SOLID
 70
     1
 71
     0
 91
        3
 92
        1
 93
        1
 72
     4
 94
        3
 73
     0
 74
     1
 95
       29
 96
       25
 40
0.0
 40
0.0
 40
0.0
 40
0.0
 40
1.0
 40
1.0
 40
1.0
 40
2.0
 40
2.0
 40
2.0
 40
3.0
 40
3.0
 40
3.0
 40
4.0
 40
4.0
 40
4.0
 40
5.0
 40
5.0
 40
5.0
 40
6.0
 40
6.0
 40
6.0
 40
7.0
 40
7.0
 40
7.0
 40
8.0
 40
8.0
 40
8.0
 40
8.0
 10
90.00604788331447
 20
-121.3043958572607
 10
89.78383922451584
 20
-121.1262844206733
 10
89.65843774885276
 20
-120.8494709984335
 10
89.87651229306907
 20
-120.5769639455502
 10
90.0367092331332
 20
-120.37732066218
 10
90.21447616017208
 20
-120.397646725543
 10
90.34091116448074
 20
-120.4205566105199
 10
90.27373180251837
 20
-120.2908487655002
 10
90.28165552213446
 20
-120.1508056340248
 10
90.38190780075522
 20
-120.0252319035875
 10
90.55416257501771
 20
-119.8106024548564
 10
90.80462101679538
 20
-119.8378187091899
 10
91.0337198665645
 20
-120.0216145533279
 10
91.27039792640116
 20
-120.2110948050167
 10
91.33929983610615
 20
-120.4503566864673
 10
91.17290172416858
 20
-120.6584404537764
 10
91.07230493599928
 20
-120.7840141842137
 10
90.93553464523487
 20
-120.8208767059059
 10
90.79428573033962
 20
-120.7836696746652
 10
90.8366604048082
 20
-120.8827161698661
 10
90.90935191954698
 20
-121.063066918519
 10
90.74536537444908
 20
-121.2677055903428
 10
90.51109888145209
 20
-121.5600219422662
 10
90.20551891191043
 20
-121.4642482877763
 10
90.00604788331447
 20
-121.3043958572607
 97
        0
 97
        0
 92
        1
 93
        1
 72
     4
 94
        3
 73
     0
 74
     1
 95
       17
 96
       13
 40
0.0
 40
0.0
 40
0.0
 40
0.0
 40
1.0
 40
1.0
 40
1.0
 40
2.0
 40
2.0
 40
2.0
 40
3.0
 40
3.0
 40
3.0
 40
4.0
 40
4.0
 40
4.0
 40
4.0
 10
90.50076359499634
 20
-120.6868624915297
 10
90.38087427210965
 20
-120.5907443274912
 10
90.20000675913403
 20
-120.5568101369615
 10
90.07288273572831
 20
-120.715284529283
 10
89.94472518367702
 20
-120.8754814693471
 10
89.98675534859707
 20
-121.0392957596707
 10
90.12765975394379
 20
-121.1524671463612
 10
90.28337806987707
 20
-121.277007348153
 10
90.4518432391058
 20
-121.2546142274988
 10
90.56311982327937
 20
-121.1159491342175
 10
90.70195717133493
 20
-120.9426608313095
 10
90.61238468871844
 20
-120.7759182098234
 10
90.50076359499634
 20
-120.6868624915297
 97
        0
 97
        0
 92
        1
 93
        1
 72
     4
 94
        3
 73
     0
 74
     1
 95
       17
 96
       13
 40
0.0
 40
0.0
 40
0.0
 40
0.0
 40
1.0
 40
1.0
 40
1.0
 40
2.0
 40
2.0
 40
2.0
 40
3.0
 40
3.0
 40
3.0
 40
4.0
 40
4.0
 40
4.0
 40
4.0
 10
90.91348603412928
 20
-120.1718207164848
 10
90.77637123381633
 20
-120.0617499157311
 10
90.64580211492536
 20
-120.0793199027059
 10
90.56105276598821
 20
-120.185084334103
 10
90.48457164621567
 20
-120.2806857338187
 10
90.47044675472614
 20
-120.4212456296169
 10
90.61858586059189
 20
-120.5399291690838
 10
90.76706947600616
 20
-120.6587849633249
 10
90.90108369038238
 20
-120.6145154863394
 10
90.97756481015492
 20
-120.5187418318495
 10
91.06231415909207
 20
-120.4129774004523
 10
91.04956730579664
 20
-120.2806857338187
 10
90.91348603412928
 20
-120.1718207164848
 97
        0
 97
        0
 75
     2
 76
     1
 98
        0
  0
ENDBLK
  5
C6
330
C3
100
AcDbEntity
  8
0
100
AcDbBlockEnd
  0
BLOCK
  5
D8
330
D6
100
AcDbEntity
  8
0
100
AcDbBlockBegin
  2
block 6
 70
     0
 10
0.0
 20
0.0
 30
0.0
  3
block 6
  1

  0
SPLINE
  5
DA
330
D6
100
AcDbEntity
  8
_U+30EC_U+30A4_U+30E4_U+30FC 1
370
     0
100
AcDbSpline
210
0.0
220
0.0
230
1.0
 70
    11
 71
     3
 72
    26
 73
    22
 74
     0
 42
0.0000000001
 43
0.0000000001
 12
1.0
 22
0.0
 32
0.0
 13
1.0
 23
0.0
 33
0.0
 40
0.0
 40
0.0
 40
0.0
 40
0.0
 40
1.0
 40
1.0
 40
1.0
 40
2.0
 40
2.0
 40
2.0
 40
3.0
 40
3.0
 40
3.0
 40
4.0
 40
4.0
 40
4.0
 40
5.0
 40
5.0
 40
5.0
 40
6.0
 40
6.0
 40
6.0
 40
7.0
 40
7.0
 40
7.0
 40
7.0
 10
103.0958604342955
 20
-134.6884195626821
 30
0.0
 10
103.0958604342955
 20
-134.6884195626821
 30
0.0
 10
101.9913628217244
 20
-134.6884195626821
 30
0.0
 10
101.9913628217244
 20
-134.6884195626821
 30
0.0
 10
101.9913628217244
 20
-134.6884195626821
 30
0.0
 10
101.9913628217244
 20
-135.0411973403716
 30
0.0
 10
101.9913628217244
 20
-135.0411973403716
 30
0.0
 10
101.9913628217244
 20
-135.0411973403716
 30
0.0
 10
101.8432237158586
 20
-135.0411973403716
 30
0.0
 10
101.8432237158586
 20
-135.0411973403716
 30
0.0
 10
101.8284098052721
 20
-134.6860079958424
 30
0.0
 10
101.6658012983683
 20
-134.6363986208548
 30
0.0
 10
101.551424128258
 20
-134.6047037423905
 30
0.0
 10
101.551424128258
 20
-134.6047037423905
 30
0.0
 10
101.551424128258
 20
-134.4486409169087
 30
0.0
 10
101.551424128258
 20
-134.4486409169087
 30
0.0
 10
101.551424128258
 20
-134.4486409169087
 30
0.0
 10
103.0958604342955
 20
-134.4486409169087
 30
0.0
 10
103.0958604342955
 20
-134.4486409169087
 30
0.0
 10
103.0958604342955
 20
-134.4486409169087
 30
0.0
 10
103.0958604342955
 20
-134.6884195626821
 30
0.0
 10
103.0958604342955
 20
-134.6884195626821
 30
0.0
  0
HATCH
  5
DB
330
D6
100
AcDbEntity
  8
_U+30EC_U+30A4_U+30E4_U+30FC 1
 62
   179
420
  2234388
100
AcDbHatch
 10
0.0
 20
0.0
 30
0.0
210
0.0
220
0.0
230
1.0
  2
SOLID
 70
     1
 71
     0
 91
        1
 92
        1
 93
        1
 72
     4
 94
        3
 73
     0
 74
     1
 95
       26
 96
       22
 40
0.0
 40
0.0
 40
0.0
 40
0.0
 40
1.0
 40
1.0
 40
1.0
 40
2.0
 40
2.0
 40
2.0
 40
3.0
 40
3.0
 40
3.0
 40
4.0
 40
4.0
 40
4.0
 40
5.0
 40
5.0
 40
5.0
 40
6.0
 40
6.0
 40
6.0
 40
7.0
 40
7.0
 40
7.0
 40
7.0
 10
103.0958604342955
 20
-134.6884195626821
 10
103.0958604342955
 20
-134.6884195626821
 10
101.9913628217244
 20
-134.6884195626821
 10
101.9913628217244
 20
-134.6884195626821
 10
101.9913628217244
 20
-134.6884195626821
 10
101.9913628217244
 20
-135.0411973403716
 10
101.9913628217244
 20
-135.0411973403716
 10
101.9913628217244
 20
-135.0411973403716
 10
101.8432237158586
 20
-135.0411973403716
 10
101.8432237158586
 20
-135.0411973403716
 10
101.8284098052721
 20
-134.6860079958424
 10
101.6658012983683
 20
-134.6363986208548
 10
101.551424128258
 20
-134.6047037423905
 10
101.551424128258
 20
-134.6047037423905
 10
101.551424128258
 20
-134.4486409169087
 10
101.551424128258
 20
-134.4486409169087
 10
101.551424128258
 20
-134.4486409169087
 10
103.0958604342955
 20
-134.4486409169087
 10
103.0958604342955
 20
-134.4486409169087
 10
103.0958604342955
 20
-134.4486409169087
 10
103.0958604342955
 20
-134.6884195626821
 10
103.0958604342955
 20
-134.6884195626821
 97
        0
 97
        0
 75
     2
 76
     1
 98
        0
  0
ENDBLK
  5
D9
330
D6
100
AcDbEntity
  8
0
100
AcDbBlockEnd
  0
ENDSEC
  0
SECTION
  2
ENTITIES
  0
SPLINE
  5
41
330
1F
100
AcDbEntity
  8
_U+30EC_U+30A4_U+30E4_U+30FC 1
370
     0
100
AcDbSpline
210
0.0
220
0.0
230
1.0
 70
    11
 71
     3
 72
    47
 73
    43
 74
     0
 42
0.0000000001
 43
0.0000000001
 12
1.0
 22
0.0
 32
0.0
 13
1.0
 23
0.0
 33
0.0
 40
0.0
 40
0.0
 40
0.0
 40
0.0
 40
1.0
 40
1.0
 40
1.0
 40
2.0
 40
2.0
 40
2.0
 40
3.0
 40
3.0
 40
3.0
 40
4.0
 40
4.0
 40
4.0
 40
5.0
 40
5.0
 40
5.0
 40
6.0
 40
6.0
 40
6.0
 40
7.0
 40
7.0
 40
7.0
 40
8.0
 40
8.0
 40
8.0
 40
9.0
 40
9.0
 40
9.0
 40
10.0
 40
10.0
 40
10.0
 40
11.0
 40
11.0
 40
11.0
 40
12.0
 40
12.0
 40
12.0
 40
13.0
 40
13.0
 40
13.0
 40
14.0
 40
14.0
 40
14.0
 40
14.0
 10
96.15469615800045
 20
-133.659703577696
 30
0.0
 10
96.15469615800045
 20
-133.659703577696
 30
0.0
 10
95.20452451557468
 20
-132.709567189045
 30
0.0
 10
95.20452451557468
 20
-132.709567189045
 30
0.0
 10
95.19831562684419
 20
-132.7157408001545
 30
0.0
 10
95.18935507151723
 20
-132.7199035779314
 30
0.0
 10
95.1797242384296
 20
-132.7199035779314
 30
0.0
 10
95.16042729447746
 20
-132.7199035779314
 30
0.0
 10
95.14458757265935
 20
-132.7040285779353
 30
0.0
 10
95.14458757265935
 20
-132.684766911273
 30
0.0
 10
95.14458757265935
 20
-132.684766911273
 30
0.0
 10
85.17928588245093
 20
-132.684766911273
 30
0.0
 10
85.17928588245093
 20
-132.684766911273
 30
0.0
 10
85.17928588245093
 20
-132.684766911273
 30
0.0
 10
85.17928588245093
 20
-124.2659721911557
 30
0.0
 10
85.17928588245093
 20
-124.2659721911557
 30
0.0
 10
85.17928588245093
 20
-124.2659721911557
 30
0.0
 10
88.82489134499934
 20
-127.1846438570928
 30
0.0
 10
88.82489134499934
 20
-127.1846438570928
 30
0.0
 10
88.82489134499934
 20
-127.1846438570928
 30
0.0
 10
90.388966860652
 20
-127.1846438570928
 30
0.0
 10
90.388966860652
 20
-127.1846438570928
 30
0.0
 10
90.388966860652
 20
-127.1763888570948
 30
0.0
 10
90.3930943605467
 20
-127.1695096904297
 30
0.0
 10
90.39792741597896
 20
-127.1633008015427
 30
0.0
 10
90.39792741597896
 20
-127.1633008015427
 30
0.0
 10
84.20572507395521
 20
-122.2054677472264
 30
0.0
 10
84.20572507395521
 20
-122.2054677472264
 30
0.0
 10
84.19951618522471
 20
-122.2137227472244
 30
0.0
 10
84.19055562989776
 20
-122.219578858334
 30
0.0
 10
84.17951368573502
 20
-122.219578858334
 30
0.0
 10
84.17951368573502
 20
-122.219578858334
 30
0.0
 10
84.17951368573502
 20
-133.6493671888097
 30
0.0
 10
84.17951368573502
 20
-133.6493671888097
 30
0.0
 10
84.19881062968716
 20
-133.6493671888097
 30
0.0
 10
84.21468562928216
 20
-133.6652421888057
 30
0.0
 10
84.21468562928216
 20
-133.684503855468
 30
0.0
 10
84.21468562928216
 20
-133.684503855468
 30
0.0
 10
96.14435976937526
 20
-133.684503855468
 30
0.0
 10
96.14435976937526
 20
-133.684503855468
 30
0.0
 10
96.14435976937526
 20
-133.6748730221366
 30
0.0
 10
96.14848726926995
 20
-133.6659124665837
 30
0.0
 10
96.15469615800045
 20
-133.659703577696
 30
0.0
  0
HATCH
  5
42
330
1F
100
AcDbEntity
  8
_U+30EC_U+30A4_U+30E4_U+30FC 1
 62
   253
420
 11711154
100
AcDbHatch
 10
0.0
 20
0.0
 30
0.0
210
0.0
220
0.0
230
1.0
  2
SOLID
 70
     1
 71
     0
 91
        1
 92
        1
 93
        1
 72
     4
 94
        3
 73
     0
 74
     1
 95
       47
 96
       43
 40
0.0
 40
0.0
 40
0.0
 40
0.0
 40
1.0
 40
1.0
 40
1.0
 40
2.0
 40
2.0
 40
2.0
 40
3.0
 40
3.0
 40
3.0
 40
4.0
 40
4.0
 40
4.0
 40
5.0
 40
5.0
 40
5.0
 40
6.0
 40
6.0
 40
6.0
 40
7.0
 40
7.0
 40
7.0
 40
8.0
 40
8.0
 40
8.0
 40
9.0
 40
9.0
 40
9.0
 40
10.0
 40
10.0
 40
10.0
 40
11.0
 40
11.0
 40
11.0
 40
12.0
 40
12.0
 40
12.0
 40
13.0
 40
13.0
 40
13.0
 40
14.0
 40
14.0
 40
14.0
 40
14.0
 10
96.15469615800045
 20
-133.659703577696
 10
96.15469615800045
 20
-133.659703577696
 10
95.20452451557468
 20
-132.709567189045
 10
95.20452451557468
 20
-132.709567189045
 10
95.19831562684419
 20
-132.7157408001545
 10
95.18935507151723
 20
-132.7199035779314
 10
95.1797242384296
 20
-132.7199035779314
 10
95.16042729447746
 20
-132.7199035779314
 10
95.14458757265935
 20
-132.7040285779353
 10
95.14458757265935
 20
-132.684766911273
 10
95.14458757265935
 20
-132.684766911273
 10
85.17928588245093
 20
-132.684766911273
 10
85.17928588245093
 20
-132.684766911273
 10
85.17928588245093
 20
-132.684766911273
 10
85.17928588245093
 20
-124.2659721911557
 10
85.17928588245093
 20
-124.2659721911557
 10
85.17928588245093
 20
-124.2659721911557
 10
88.82489134499934
 20
-127.1846438570928
 10
88.82489134499934
 20
-127.1846438570928
 10
88.82489134499934
 20
-127.1846438570928
 10
90.388966860652
 20
-127.1846438570928
 10
90.388966860652
 20
-127.1846438570928
 10
90.388966860652
 20
-127.1763888570948
 10
90.3930943605467
 20
-127.1695096904297
 10
90.39792741597896
 20
-127.1633008015427
 10
90.39792741597896
 20
-127.1633008015427
 10
84.20572507395521
 20
-122.2054677472264
 10
84.20572507395521
 20
-122.2054677472264
 10
84.19951618522471
 20
-122.2137227472244
 10
84.19055562989776
 20
-122.219578858334
 10
84.17951368573502
 20
-122.219578858334
 10
84.17951368573502
 20
-122.219578858334
 10
84.17951368573502
 20
-133.6493671888097
 10
84.17951368573502
 20
-133.6493671888097
 10
84.19881062968716
 20
-133.6493671888097
 10
84.21468562928216
 20
-133.6652421888057
 10
84.21468562928216
 20
-133.684503855468
 10
84.21468562928216
 20
-133.684503855468
 10
96.14435976937526
 20
-133.684503855468
 10
96.14435976937526
 20
-133.684503855468
 10
96.14435976937526
 20
-133.6748730221366
 10
96.14848726926995
 20
-133.6659124665837
 10
96.15469615800045
 20
-133.659703577696
 97
        0
 97
        0
 75
     2
 76
     1
 98
        0
  0
POLYLINE
  5
43
330
1F
100
AcDbEntity
  8
_U+30EC_U+30A4_U+30E4_U+30FC 1
 62
   179
420
  2234388
370
    25
100
AcDb2dPolyline
 66
     1
 10
0.0
 20
0.0
 30
0.0
  0
VERTEX
  5
44
330
43
100
AcDbEntity
  8
_U+30EC_U+30A4_U+30E4_U+30FC 1
 62
   179
420
  2234388
370
    25
100
AcDbVertex
100
AcDb2dVertex
 10
85.17928588245093
 20
-132.684766911273
 30
0.0
  0
VERTEX
  5
45
330
43
100
AcDbEntity
  8
_U+30EC_U+30A4_U+30E4_U+30FC 1
 62
   179
420
  2234388
370
    25
100
AcDbVertex
100
AcDb2dVertex
 10
95.1797242384296
 20
-132.684766911273
 30
0.0
  0
SEQEND
  5
46
330
43
100
AcDbEntity
  8
_U+30EC_U+30A4_U+30E4_U+30FC 1
 62
   179
420
  2234388
370
    25
  0
POLYLINE
  5
47
330
1F
100
AcDbEntity
  8
_U+30EC_U+30A4_U+30E4_U+30FC 1
 62
   179
420
  2234388
370
    25
100
AcDb2dPolyline
 66
     1
 10
0.0
 20
0.0
 30
0.0
  0
VERTEX
  5
48
330
47
100
AcDbEntity
  8
_U+30EC_U+30A4_U+30E4_U+30FC 1
 62
   179
420
  2234388
370
    25
100
AcDbVertex
100
AcDb2dVertex
 10
84.17951368573502
 20
-122.184442191676
 30
0.0
  0
VERTEX
  5
49
330
47
100
AcDbEntity
  8
_U+30EC_U+30A4_U+30E4_U+30FC 1
 62
   179
420
  2234388
370
    25
100
AcDbVertex
100
AcDb2dVertex
 10
84.17951368573502
 20
-133.684503855468
 30
0.0
  0
SEQEND
  5
4A
330
47
100
AcDbEntity
  8
_U+30EC_U+30A4_U+30E4_U+30FC 1
 62
   179
420
  2234388
370
    25
  0
POLYLINE
  5
4B
330
1F
100
AcDbEntity
  8
_U+30EC_U+30A4_U+30E4_U+30FC 1
 62
   179
420
  2234388
370
    25
100
AcDb2dPolyline
 66
     1
 10
0.0
 20
0.0
 30
0.0
  0
VERTEX
  5
4C
330
4B
100
AcDbEntity
  8
_U+30EC_U+30A4_U+30E4_U+30FC 1
 62
   179
420
  2234388
370
    25
100
AcDbVertex
100
AcDb2dVertex
 10
84.17951368573502
 20
-133.684503855468
 30
0.0
  0
VERTEX
  5
4D
330
4B
100
AcDbEntity
  8
_U+30EC_U+30A4_U+30E4_U+30FC 1
 62
   179
420
  2234388
370
    25
100
AcDbVertex
100
AcDb2dVertex
 10
96.17949643514551
 20
-133.684503855468
 30
0.0
  0
SEQEND
  5
4E
330
4B
100
AcDbEntity
  8
_U+30EC_U+30A4_U+30E4_U+30FC 1
 62
   179
420
  2234388
370
    25
  0
POLYLINE
  5
4F
330
1F
100
AcDbEntity
  8
_U+30EC_U+30A4_U+30E4_U+30FC 1
 62
   179
420
  2234388
370
    25
100
AcDb2dPolyline
 66
     1
 10
0.0
 20
0.0
 30
0.0
  0
VERTEX
  5
50
330
4F
100
AcDbEntity
  8
_U+30EC_U+30A4_U+30E4_U+30FC 1
 62
   179
420
  2234388
370
    25
100
AcDbVertex
100
AcDb2dVertex
 10
85.17928588245093
 20
-124.2659721911557
 30
0.0
  0
VERTEX
  5
51
330
4F
100
AcDbEntity
  8
_U+30EC_U+30A4_U+30E4_U+30FC 1
 62
   179
420
  2234388
370
    25
100
AcDbVertex
100
AcDb2dVertex
 10
85.17928588245093
 20
-132.684766911273
 30
0.0
  0
SEQEND
  5
52
330
4F
100
AcDbEntity
  8
_U+30EC_U+30A4_U+30E4_U+30FC 1
 62
   179
420
  2234388
370
    25
  0
POLYLINE
  5
53
330
1F
100
AcDbEntity
  8
_U+30EC_U+30A4_U+30E4_U+30FC 1
 62
   179
420
  2234388
370
    25
100
AcDb2dPolyline
 66
     1
 10
0.0
 20
0.0
 30
0.0
  0
VERTEX
  5
54
330
53
100
AcDbEntity
  8
_U+30EC_U+30A4_U+30E4_U+30FC 1
 62
   179
420
  2234388
370
    25
100
AcDbVertex
100
AcDb2dVertex
 10
95.1797242384296
 20
-132.684766911273
 30
0.0
  0
VERTEX
  5
55
330
53
100
AcDbEntity
  8
_U+30EC_U+30A4_U+30E4_U+30FC 1
 62
   179
420
  2234388
370
    25
100
AcDbVertex
100
AcDb2dVertex
 10
96.17949643514551
 20
-133.684503855468
 30
0.0
  0
SEQEND
  5
56
330
53
100
AcDbEntity
  8
_U+30EC_U+30A4_U+30E4_U+30FC 1
 62
   179
420
  2234388
370
    25
  0
POLYLINE
  5
57
330
1F
100
AcDbEntity
  8
_U+30EC_U+30A4_U+30E4_U+30FC 1
 62
   179
420
  2234388
370
    25
100
AcDb2dPolyline
 66
     1
 10
0.0
 20
0.0
 30
0.0
  0
VERTEX
  5
58
330
57
100
AcDbEntity
  8
_U+30EC_U+30A4_U+30E4_U+30FC 1
 62
   179
420
  2234388
370
    25
100
AcDbVertex
100
AcDb2dVertex
 10
88.82489134499934
 20
-127.1846438570928
 30
0.0
  0
VERTEX
  5
59
330
57
100
AcDbEntity
  8
_U+30EC_U+30A4_U+30E4_U+30FC 1
 62
   179
420
  2234388
370
    25
100
AcDbVertex
100
AcDb2dVertex
 10
90.42480908195982
 20
-127.1846438570928
 30
0.0
  0
SEQEND
  5
5A
330
57
100
AcDbEntity
  8
_U+30EC_U+30A4_U+30E4_U+30FC 1
 62
   179
420
  2234388
370
    25
  0
POLYLINE
  5
5B
330
1F
100
AcDbEntity
  8
_U+30EC_U+30A4_U+30E4_U+30FC 1
 62
   179
420
  2234388
370
    25
100
AcDb2dPolyline
 66
     1
 10
0.0
 20
0.0
 30
0.0
  0
VERTEX
  5
5C
330
5B
100
AcDbEntity
  8
_U+30EC_U+30A4_U+30E4_U+30FC 1
 62
   179
420
  2234388
370
    25
100
AcDbVertex
100
AcDb2dVertex
 10
84.17951368573502
 20
-122.184442191676
 30
0.0
  0
VERTEX
  5
5D
330
5B
100
AcDbEntity
  8
_U+30EC_U+30A4_U+30E4_U+30FC 1
 62
   179
420
  2234388
370
    25
100
AcDbVertex
100
AcDb2dVertex
 10
90.42480908195982
 20
-127.1846438570928
 30
0.0
  0
SEQEND
  5
5E
330
5B
100
AcDbEntity
  8
_U+30EC_U+30A4_U+30E4_U+30FC 1
 62
   179
420
  2234388
370
    25
  0
POLYLINE
  5
5F
330
1F
100
AcDbEntity
  8
_U+30EC_U+30A4_U+30E4_U+30FC 1
 62
   179
420
  2234388
370
    25
100
AcDb2dPolyline
 66
     1
 10
0.0
 20
0.0
 30
0.0
  0
VERTEX
  5
60
330
5F
100
AcDbEntity
  8
_U+30EC_U+30A4_U+30E4_U+30FC 1
 62
   179
420
  2234388
370
    25
100
AcDbVertex
100
AcDb2dVertex
 10
85.17928588245093
 20
-124.2659721911557
 30
0.0
  0
VERTEX
  5
61
330
5F
100
AcDbEntity
  8
_U+30EC_U+30A4_U+30E4_U+30FC 1
 62
   179
420
  2234388
370
    25
100
AcDbVertex
100
AcDb2dVertex
 10
88.82489134499934
 20
-127.1846438570928
 30
0.0
  0
SEQEND
  5
62
330
5F
100
AcDbEntity
  8
_U+30EC_U+30A4_U+30E4_U+30FC 1
 62
   179
420
  2234388
370
    25
  0
SPLINE
  5
63
330
1F
100
AcDbEntity
  8
_U+30EC_U+30A4_U+30E4_U+30FC 1
 62
   179
420
  2234388
370
     9
100
AcDbSpline
210
0.0
220
0.0
230
1.0
 70
    11
 71
     3
 72
    17
 73
    13
 74
     0
 42
0.0000000001
 43
0.0000000001
 12
1.0
 22
0.0
 32
0.0
 13
1.0
 23
0.0
 33
0.0
 40
0.0
 40
0.0
 40
0.0
 40
0.0
 40
1.0
 40
1.0
 40
1.0
 40
2.0
 40
2.0
 40
2.0
 40
3.0
 40
3.0
 40
3.0
 40
4.0
 40
4.0
 40
4.0
 40
4.0
 10
80.27969656300542
 20
-133.684503855468
 30
0.0
 10
80.27969656300542
 20
-133.6293999665925
 30
0.0
 10
80.23489378637066
 20
-133.5845971888264
 30
0.0
 10
80.17978989888759
 20
-133.5845971888264
 30
0.0
 10
80.12465275774662
 20
-133.5845971888264
 30
0.0
 10
80.0798499799799
 20
-133.6293999665925
 30
0.0
 10
80.0798499799799
 20
-133.684503855468
 30
0.0
 10
80.0798499799799
 20
-133.7396430221204
 30
0.0
 10
80.12465275774662
 20
-133.7844105221097
 30
0.0
 10
80.17978989888759
 20
-133.7844105221097
 30
0.0
 10
80.23489378637066
 20
-133.7844105221097
 30
0.0
 10
80.27969656300542
 20
-133.7396430221204
 30
0.0
 10
80.27969656300542
 20
-133.684503855468
 30
0.0
  0
SPLINE
  5
64
330
1F
100
AcDbEntity
  8
_U+30EC_U+30A4_U+30E4_U+30FC 1
 62
   179
420
  2234388
370
     9
100
AcDbSpline
210
0.0
220
0.0
230
1.0
 70
    11
 71
     3
 72
    17
 73
    13
 74
     0
 42
0.0000000001
 43
0.0000000001
 12
1.0
 22
0.0
 32
0.0
 13
1.0
 23
0.0
 33
0.0
 40
0.0
 40
0.0
 40
0.0
 40
0.0
 40
1.0
 40
1.0
 40
1.0
 40
2.0
 40
2.0
 40
2.0
 40
3.0
 40
3.0
 40
3.0
 40
4.0
 40
4.0
 40
4.0
 40
4.0
 10
84.27942034985286
 20
-137.6842630211343
 30
0.0
 10
84.27942034985286
 20
-137.6291591322594
 30
0.0
 10
84.23465285099498
 20
-137.5843563544926
 30
0.0
 10
84.17951368573502
 20
-137.5843563544926
 30
0.0
 10
84.12440979825195
 20
-137.5843563544926
 30
0.0
 10
84.07960702161719
 20
-137.6291591322594
 30
0.0
 10
84.07960702161719
 20
-137.6842630211343
 30
0.0
 10
84.07960702161719
 20
-137.7400724655647
 30
0.0
 10
84.12440979825195
 20
-137.7848752433314
 30
0.0
 10
84.17951368573502
 20
-137.7848752433314
 30
0.0
 10
84.23465285099498
 20
-137.7848752433314
 30
0.0
 10
84.27942034985286
 20
-137.7400724655647
 30
0.0
 10
84.27942034985286
 20
-137.6842630211343
 30
0.0
  0
SPLINE
  5
65
330
1F
100
AcDbEntity
  8
_U+30EC_U+30A4_U+30E4_U+30FC 1
 62
   179
420
  2234388
370
     9
100
AcDbSpline
210
0.0
220
0.0
230
1.0
 70
    11
 71
     3
 72
    17
 73
    13
 74
     0
 42
0.0000000001
 43
0.0000000001
 12
1.0
 22
0.0
 32
0.0
 13
1.0
 23
0.0
 33
0.0
 40
0.0
 40
0.0
 40
0.0
 40
0.0
 40
1.0
 40
1.0
 40
1.0
 40
2.0
 40
2.0
 40
2.0
 40
3.0
 40
3.0
 40
3.0
 40
4.0
 40
4.0
 40
4.0
 40
4.0
 10
80.27969656300542
 20
-122.184442191676
 30
0.0
 10
80.27969656300542
 20
-122.129338302801
 30
0.0
 10
80.23489378637066
 20
-122.0845355250343
 30
0.0
 10
80.17978989888759
 20
-122.0845355250343
 30
0.0
 10
80.12465275774662
 20
-122.0845355250343
 30
0.0
 10
80.0798499799799
 20
-122.129338302801
 30
0.0
 10
80.0798499799799
 20
-122.184442191676
 30
0.0
 10
80.0798499799799
 20
-122.239581358329
 30
0.0
 10
80.12465275774662
 20
-122.2843488583179
 30
0.0
 10
80.17978989888759
 20
-122.2843488583179
 30
0.0
 10
80.23489378637066
 20
-122.2843488583179
 30
0.0
 10
80.27969656300542
 20
-122.239581358329
 30
0.0
 10
80.27969656300542
 20
-122.184442191676
 30
0.0
  0
SPLINE
  5
66
330
1F
100
AcDbEntity
  8
_U+30EC_U+30A4_U+30E4_U+30FC 1
 62
   179
420
  2234388
370
     9
100
AcDbSpline
210
0.0
220
0.0
230
1.0
 70
    11
 71
     3
 72
    17
 73
    13
 74
     0
 42
0.0000000001
 43
0.0000000001
 12
1.0
 22
0.0
 32
0.0
 13
1.0
 23
0.0
 33
0.0
 40
0.0
 40
0.0
 40
0.0
 40
0.0
 40
1.0
 40
1.0
 40
1.0
 40
2.0
 40
2.0
 40
2.0
 40
3.0
 40
3.0
 40
3.0
 40
4.0
 40
4.0
 40
4.0
 40
4.0
 10
93.02446373785932
 20
-124.0620313578735
 30
0.0
 10
93.02446373785932
 20
-124.0068921912204
 30
0.0
 10
92.97969623900144
 20
-123.9621246912318
 30
0.0
 10
92.92455707374148
 20
-123.9621246912318
 30
0.0
 10
92.86945553233834
 20
-123.9621246912318
 30
0.0
 10
92.82465275457162
 20
-124.0068921912204
 30
0.0
 10
92.82465275457162
 20
-124.0620313578735
 30
0.0
 10
92.82465275457162
 20
-124.1171352467484
 30
0.0
 10
92.86945553233834
 20
-124.1619380245151
 30
0.0
 10
92.92455707374148
 20
-124.1619380245151
 30
0.0
 10
92.97969623900144
 20
-124.1619380245151
 30
0.0
 10
93.02446373785932
 20
-124.1171352467484
 30
0.0
 10
93.02446373785932
 20
-124.0620313578735
 30
0.0
  0
SPLINE
  5
67
330
1F
100
AcDbEntity
  8
_U+30EC_U+30A4_U+30E4_U+30FC 1
 62
   179
420
  2234388
370
     9
100
AcDbSpline
210
0.0
220
0.0
230
1.0
 70
    11
 71
     3
 72
    17
 73
    13
 74
     0
 42
0.0000000001
 43
0.0000000001
 12
1.0
 22
0.0
 32
0.0
 13
1.0
 23
0.0
 33
0.0
 40
0.0
 40
0.0
 40
0.0
 40
0.0
 40
1.0
 40
1.0
 40
1.0
 40
2.0
 40
2.0
 40
2.0
 40
3.0
 40
3.0
 40
3.0
 40
4.0
 40
4.0
 40
4.0
 40
4.0
 10
100.2798324416483
 20
-127.1846438570928
 30
0.0
 10
100.2798324416483
 20
-127.1295399682175
 30
0.0
 10
100.2350649427904
 20
-127.0847371904511
 30
0.0
 10
100.1792554997698
 20
-127.0847371904511
 30
0.0
 10
100.1241163345099
 20
-127.0847371904511
 30
0.0
 10
100.079348835652
 20
-127.1295399682175
 30
0.0
 10
100.079348835652
 20
-127.1846438570928
 30
0.0
 10
100.079348835652
 20
-127.2397830237455
 30
0.0
 10
100.1241163345099
 20
-127.2845505237344
 30
0.0
 10
100.1792554997698
 20
-127.2845505237344
 30
0.0
 10
100.2350649427904
 20
-127.2845505237344
 30
0.0
 10
100.2798324416483
 20
-127.2397830237455
 30
0.0
 10
100.2798324416483
 20
-127.1846438570928
 30
0.0
  0
SPLINE
  5
68
330
1F
100
AcDbEntity
  8
_U+30EC_U+30A4_U+30E4_U+30FC 1
 62
   179
420
  2234388
370
     9
100
AcDbSpline
210
0.0
220
0.0
230
1.0
 70
    11
 71
     3
 72
    17
 73
    13
 74
     0
 42
0.0000000001
 43
0.0000000001
 12
1.0
 22
0.0
 32
0.0
 13
1.0
 23
0.0
 33
0.0
 40
0.0
 40
0.0
 40
0.0
 40
0.0
 40
1.0
 40
1.0
 40
1.0
 40
2.0
 40
2.0
 40
2.0
 40
3.0
 40
3.0
 40
3.0
 40
4.0
 40
4.0
 40
4.0
 40
4.0
 10
100.2798324416483
 20
-132.684766911273
 30
0.0
 10
100.2798324416483
 20
-132.6296277446206
 30
0.0
 10
100.2350649427904
 20
-132.5848602446314
 30
0.0
 10
100.1792554997698
 20
-132.5848602446314
 30
0.0
 10
100.1241163345099
 20
-132.5848602446314
 30
0.0
 10
100.079348835652
 20
-132.6296277446206
 30
0.0
 10
100.079348835652
 20
-132.684766911273
 30
0.0
 10
100.079348835652
 20
-132.7398708001486
 30
0.0
 10
100.1241163345099
 20
-132.7846735779146
 30
0.0
 10
100.1792554997698
 20
-132.7846735779146
 30
0.0
 10
100.2350649427904
 20
-132.7846735779146
 30
0.0
 10
100.2798324416483
 20
-132.7398708001486
 30
0.0
 10
100.2798324416483
 20
-132.684766911273
 30
0.0
  0
SPLINE
  5
69
330
1F
100
AcDbEntity
  8
_U+30EC_U+30A4_U+30E4_U+30FC 1
 62
   179
420
  2234388
370
     9
100
AcDbSpline
210
0.0
220
0.0
230
1.0
 70
    11
 71
     3
 72
    17
 73
    13
 74
     0
 42
0.0000000001
 43
0.0000000001
 12
1.0
 22
0.0
 32
0.0
 13
1.0
 23
0.0
 33
0.0
 40
0.0
 40
0.0
 40
0.0
 40
0.0
 40
1.0
 40
1.0
 40
1.0
 40
2.0
 40
2.0
 40
2.0
 40
3.0
 40
3.0
 40
3.0
 40
4.0
 40
4.0
 40
4.0
 40
4.0
 10
96.2794055314856
 20
-137.6842630211343
 30
0.0
 10
96.2794055314856
 20
-137.6291591322594
 30
0.0
 10
96.23460275371887
 20
-137.5843563544926
 30
0.0
 10
96.17949643514551
 20
-137.5843563544926
 30
0.0
 10
96.12435726988556
 20
-137.5843563544926
 30
0.0
 10
96.07958977102767
 20
-137.6291591322594
 30
0.0
 10
96.07958977102767
 20
-137.6842630211343
 30
0.0
 10
96.07958977102767
 20
-137.7400724655647
 30
0.0
 10
96.12435726988556
 20
-137.7848752433314
 30
0.0
 10
96.17949643514551
 20
-137.7848752433314
 30
0.0
 10
96.23460275371887
 20
-137.7848752433314
 30
0.0
 10
96.2794055314856
 20
-137.7400724655647
 30
0.0
 10
96.2794055314856
 20
-137.6842630211343
 30
0.0
  0
POLYLINE
  5
6A
330
1F
100
AcDbEntity
  8
_U+30EC_U+30A4_U+30E4_U+30FC 1
 62
   179
420
  2234388
370
     9
100
AcDb2dPolyline
 66
     1
 10
0.0
 20
0.0
 30
0.0
  0
VERTEX
  5
6B
330
6A
100
AcDbEntity
  8
_U+30EC_U+30A4_U+30E4_U+30FC 1
 62
   179
420
  2234388
370
     9
100
AcDbVertex
100
AcDb2dVertex
 10
100.1792554997698
 20
-132.684766911273
 30
0.0
  0
VERTEX
  5
6C
330
6A
100
AcDbEntity
  8
_U+30EC_U+30A4_U+30E4_U+30FC 1
 62
   179
420
  2234388
370
     9
100
AcDbVertex
100
AcDb2dVertex
 10
100.1792554997698
 20
-127.1846438570928
 30
0.0
  0
SEQEND
  5
6D
330
6A
100
AcDbEntity
  8
_U+30EC_U+30A4_U+30E4_U+30FC 1
 62
   179
420
  2234388
370
     9
  0
POLYLINE
  5
6E
330
1F
100
AcDbEntity
  8
_U+30EC_U+30A4_U+30E4_U+30FC 1
 62
   179
420
  2234388
370
     9
100
AcDb2dPolyline
 66
     1
 10
0.0
 20
0.0
 30
0.0
  0
VERTEX
  5
6F
330
6E
100
AcDbEntity
  8
_U+30EC_U+30A4_U+30E4_U+30FC 1
 62
   179
420
  2234388
370
     9
100
AcDbVertex
100
AcDb2dVertex
 10
97.71944442001458
 20
-132.684766911273
 30
0.0
  0
VERTEX
  5
70
330
6E
100
AcDbEntity
  8
_U+30EC_U+30A4_U+30E4_U+30FC 1
 62
   179
420
  2234388
370
     9
100
AcDbVertex
100
AcDb2dVertex
 10
101.1796979742464
 20
-132.684766911273
 30
0.0
  0
SEQEND
  5
71
330
6E
100
AcDbEntity
  8
_U+30EC_U+30A4_U+30E4_U+30FC 1
 62
   179
420
  2234388
370
     9
  0
POLYLINE
  5
72
330
1F
100
AcDbEntity
  8
_U+30EC_U+30A4_U+30E4_U+30FC 1
 62
   179
420
  2234388
370
     9
100
AcDb2dPolyline
 66
     1
 10
0.0
 20
0.0
 30
0.0
  0
VERTEX
  5
73
330
72
100
AcDbEntity
  8
_U+30EC_U+30A4_U+30E4_U+30FC 1
 62
   179
420
  2234388
370
     9
100
AcDbVertex
100
AcDb2dVertex
 10
92.96452679494399
 20
-127.1846438570928
 30
0.0
  0
VERTEX
  5
74
330
72
100
AcDbEntity
  8
_U+30EC_U+30A4_U+30E4_U+30FC 1
 62
   179
420
  2234388
370
     9
100
AcDbVertex
100
AcDb2dVertex
 10
101.1796979742464
 20
-127.1846438570928
 30
0.0
  0
SEQEND
  5
75
330
72
100
AcDbEntity
  8
_U+30EC_U+30A4_U+30E4_U+30FC 1
 62
   179
420
  2234388
370
     9
  0
INSERT
  5
77
330
1F
100
AcDbEntity
  8
_U+30EC_U+30A4_U+30E4_U+30FC 1
100
AcDbBlockReference
  2
block 2
 10
0.0
 20
0.0
 30
0.0
  0
SPLINE
  5
86
330
1F
100
AcDbEntity
  8
_U+30EC_U+30A4_U+30E4_U+30FC 1
 62
   179
420
  2234388
370
    25
100
AcDbSpline
210
0.0
220
0.0
230
1.0
 70
    11
 71
     3
 72
    17
 73
    13
 74
     0
 42
0.0000000001
 43
0.0000000001
 12
1.0
 22
0.0
 32
0.0
 13
1.0
 23
0.0
 33
0.0
 40
0.0
 40
0.0
 40
0.0
 40
0.0
 40
1.0
 40
1.0
 40
1.0
 40
2.0
 40
2.0
 40
2.0
 40
3.0
 40
3.0
 40
3.0
 40
4.0
 40
4.0
 40
4.0
 40
4.0
 10
95.21486090419985
 20
-132.684766911273
 30
0.0
 10
95.21486090419985
 20
-132.7040285779353
 30
0.0
 10
95.19902118238174
 20
-132.7199035779314
 30
0.0
 10
95.1797242384296
 20
-132.7199035779314
 30
0.0
 10
95.16042729447746
 20
-132.7199035779314
 30
0.0
 10
95.14458757265935
 20
-132.7040285779353
 30
0.0
 10
95.14458757265935
 20
-132.684766911273
 30
0.0
 10
95.14458757265935
 20
-132.6647644112783
 30
0.0
 10
95.16042729447746
 20
-132.6489246890598
 30
0.0
 10
95.1797242384296
 20
-132.6489246890598
 30
0.0
 10
95.19902118238174
 20
-132.6489246890598
 30
0.0
 10
95.21486090419985
 20
-132.6647644112783
 30
0.0
 10
95.21486090419985
 20
-132.684766911273
 30
0.0
  0
SPLINE
  5
87
330
1F
100
AcDbEntity
  8
_U+30EC_U+30A4_U+30E4_U+30FC 1
 62
   179
420
  2234388
370
    25
100
AcDbSpline
210
0.0
220
0.0
230
1.0
 70
    11
 71
     3
 72
    17
 73
    13
 74
     0
 42
0.0000000001
 43
0.0000000001
 12
1.0
 22
0.0
 32
0.0
 13
1.0
 23
0.0
 33
0.0
 40
0.0
 40
0.0
 40
0.0
 40
0.0
 40
1.0
 40
1.0
 40
1.0
 40
2.0
 40
2.0
 40
2.0
 40
3.0
 40
3.0
 40
3.0
 40
4.0
 40
4.0
 40
4.0
 40
4.0
 10
90.45994574773007
 20
-127.1846438570928
 30
0.0
 10
90.45994574773007
 20
-127.2039408015323
 30
0.0
 10
90.44410831072246
 20
-127.2197805237505
 30
0.0
 10
90.42480908195982
 20
-127.2197805237505
 30
0.0
 10
90.40480658247013
 20
-127.2197805237505
 30
0.0
 10
90.388966860652
 20
-127.2039408015323
 30
0.0
 10
90.388966860652
 20
-127.1846438570928
 30
0.0
 10
90.388966860652
 20
-127.1653821904308
 30
0.0
 10
90.40480658247013
 20
-127.149507190435
 30
0.0
 10
90.42480908195982
 20
-127.149507190435
 30
0.0
 10
90.44410831072246
 20
-127.149507190435
 30
0.0
 10
90.45994574773007
 20
-127.1653821904308
 30
0.0
 10
90.45994574773007
 20
-127.1846438570928
 30
0.0
  0
SPLINE
  5
88
330
1F
100
AcDbEntity
  8
_U+30EC_U+30A4_U+30E4_U+30FC 1
 62
   179
420
  2234388
370
     9
100
AcDbSpline
210
0.0
220
0.0
230
1.0
 70
    11
 71
     3
 72
    17
 73
    13
 74
     0
 42
0.0000000001
 43
0.0000000001
 12
1.0
 22
0.0
 32
0.0
 13
1.0
 23
0.0
 33
0.0
 40
0.0
 40
0.0
 40
0.0
 40
0.0
 40
1.0
 40
1.0
 40
1.0
 40
2.0
 40
2.0
 40
2.0
 40
3.0
 40
3.0
 40
3.0
 40
4.0
 40
4.0
 40
4.0
 40
4.0
 10
100.2150624433008
 20
-127.1846438570928
 30
0.0
 10
100.2150624433008
 20
-127.2039408015323
 30
0.0
 10
100.1992227214826
 20
-127.2197805237505
 30
0.0
 10
100.1792554997698
 20
-127.2197805237505
 30
0.0
 10
100.159961086071
 20
-127.2197805237505
 30
0.0
 10
100.1440860860749
 20
-127.2039408015323
 30
0.0
 10
100.1440860860749
 20
-127.1846438570928
 30
0.0
 10
100.1440860860749
 20
-127.1653821904308
 30
0.0
 10
100.159961086071
 20
-127.149507190435
 30
0.0
 10
100.1792554997698
 20
-127.149507190435
 30
0.0
 10
100.1992227214826
 20
-127.149507190435
 30
0.0
 10
100.2150624433008
 20
-127.1653821904308
 30
0.0
 10
100.2150624433008
 20
-127.1846438570928
 30
0.0
  0
POLYLINE
  5
89
330
1F
100
AcDbEntity
  8
_U+30EC_U+30A4_U+30E4_U+30FC 1
 62
   179
420
  2234388
370
     9
100
AcDb2dPolyline
 66
     1
 10
0.0
 20
0.0
 30
0.0
  0
VERTEX
  5
8A
330
89
100
AcDbEntity
  8
_U+30EC_U+30A4_U+30E4_U+30FC 1
 62
   179
420
  2234388
370
     9
100
AcDbVertex
100
AcDb2dVertex
 10
80.17978989888759
 20
-122.184442191676
 30
0.0
  0
VERTEX
  5
8B
330
89
100
AcDbEntity
  8
_U+30EC_U+30A4_U+30E4_U+30FC 1
 62
   179
420
  2234388
370
     9
100
AcDbVertex
100
AcDb2dVertex
 10
80.17978989888759
 20
-133.684503855468
 30
0.0
  0
SEQEND
  5
8C
330
89
100
AcDbEntity
  8
_U+30EC_U+30A4_U+30E4_U+30FC 1
 62
   179
420
  2234388
370
     9
  0
POLYLINE
  5
8D
330
1F
100
AcDbEntity
  8
_U+30EC_U+30A4_U+30E4_U+30FC 1
 62
   179
420
  2234388
370
     9
100
AcDb2dPolyline
 66
     1
 10
0.0
 20
0.0
 30
0.0
  0
VERTEX
  5
8E
330
8D
100
AcDbEntity
  8
_U+30EC_U+30A4_U+30E4_U+30FC 1
 62
   179
420
  2234388
370
     9
100
AcDbVertex
100
AcDb2dVertex
 10
81.63979597275085
 20
-122.184442191676
 30
0.0
  0
VERTEX
  5
8F
330
8D
100
AcDbEntity
  8
_U+30EC_U+30A4_U+30E4_U+30FC 1
 62
   179
420
  2234388
370
     9
100
AcDbVertex
100
AcDb2dVertex
 10
79.17931214663412
 20
-122.184442191676
 30
0.0
  0
SEQEND
  5
90
330
8D
100
AcDbEntity
  8
_U+30EC_U+30A4_U+30E4_U+30FC 1
 62
   179
420
  2234388
370
     9
  0
POLYLINE
  5
91
330
1F
100
AcDbEntity
  8
_U+30EC_U+30A4_U+30E4_U+30FC 1
 62
   179
420
  2234388
370
     9
100
AcDb2dPolyline
 66
     1
 10
0.0
 20
0.0
 30
0.0
  0
VERTEX
  5
92
330
91
100
AcDbEntity
  8
_U+30EC_U+30A4_U+30E4_U+30FC 1
 62
   179
420
  2234388
370
     9
100
AcDbVertex
100
AcDb2dVertex
 10
81.63979597275085
 20
-133.684503855468
 30
0.0
  0
VERTEX
  5
93
330
91
100
AcDbEntity
  8
_U+30EC_U+30A4_U+30E4_U+30FC 1
 62
   179
420
  2234388
370
     9
100
AcDbVertex
100
AcDb2dVertex
 10
79.17931214663412
 20
-133.684503855468
 30
0.0
  0
SEQEND
  5
94
330
91
100
AcDbEntity
  8
_U+30EC_U+30A4_U+30E4_U+30FC 1
 62
   179
420
  2234388
370
     9
  0
INSERT
  5
96
330
1F
100
AcDbEntity
  8
_U+30EC_U+30A4_U+30E4_U+30FC 1
100
AcDbBlockReference
  2
block 3
 10
0.0
 20
0.0
 30
0.0
  0
SPLINE
  5
9D
330
1F
100
AcDbEntity
  8
_U+30EC_U+30A4_U+30E4_U+30FC 1
 62
   179
420
  2234388
370
    25
100
AcDbSpline
210
0.0
220
0.0
230
1.0
 70
    11
 71
     3
 72
    17
 73
    13
 74
     0
 42
0.0000000001
 43
0.0000000001
 12
1.0
 22
0.0
 32
0.0
 13
1.0
 23
0.0
 33
0.0
 40
0.0
 40
0.0
 40
0.0
 40
0.0
 40
1.0
 40
1.0
 40
1.0
 40
2.0
 40
2.0
 40
2.0
 40
3.0
 40
3.0
 40
3.0
 40
4.0
 40
4.0
 40
4.0
 40
4.0
 10
84.21468562928216
 20
-122.184442191676
 30
0.0
 10
84.21468562928216
 20
-122.2037391361158
 30
0.0
 10
84.19881062968716
 20
-122.219578858334
 30
0.0
 10
84.17951368573502
 20
-122.219578858334
 30
0.0
 10
84.16025201955976
 20
-122.219578858334
 30
0.0
 10
84.14437701996476
 20
-122.2037391361158
 30
0.0
 10
84.14437701996476
 20
-122.184442191676
 30
0.0
 10
84.14437701996476
 20
-122.1651452472365
 30
0.0
 10
84.16025201955976
 20
-122.1493055250182
 30
0.0
 10
84.17951368573502
 20
-122.1493055250182
 30
0.0
 10
84.19881062968716
 20
-122.1493055250182
 30
0.0
 10
84.21468562928216
 20
-122.1651452472365
 30
0.0
 10
84.21468562928216
 20
-122.184442191676
 30
0.0
  0
SPLINE
  5
9E
330
1F
100
AcDbEntity
  8
_U+30EC_U+30A4_U+30E4_U+30FC 1
 62
   179
420
  2234388
370
    25
100
AcDbSpline
210
0.0
220
0.0
230
1.0
 70
    11
 71
     3
 72
    17
 73
    13
 74
     0
 42
0.0000000001
 43
0.0000000001
 12
1.0
 22
0.0
 32
0.0
 13
1.0
 23
0.0
 33
0.0
 40
0.0
 40
0.0
 40
0.0
 40
0.0
 40
1.0
 40
1.0
 40
1.0
 40
2.0
 40
2.0
 40
2.0
 40
3.0
 40
3.0
 40
3.0
 40
4.0
 40
4.0
 40
4.0
 40
4.0
 10
84.21468562928216
 20
-133.684503855468
 30
0.0
 10
84.21468562928216
 20
-133.7038007999072
 30
0.0
 10
84.19881062968716
 20
-133.7196757999033
 30
0.0
 10
84.17951368573502
 20
-133.7196757999033
 30
0.0
 10
84.16025201955976
 20
-133.7196757999033
 30
0.0
 10
84.14437701996476
 20
-133.7038007999072
 30
0.0
 10
84.14437701996476
 20
-133.684503855468
 30
0.0
 10
84.14437701996476
 20
-133.6652421888057
 30
0.0
 10
84.16025201955976
 20
-133.6493671888097
 30
0.0
 10
84.17951368573502
 20
-133.6493671888097
 30
0.0
 10
84.19881062968716
 20
-133.6493671888097
 30
0.0
 10
84.21468562928216
 20
-133.6652421888057
 30
0.0
 10
84.21468562928216
 20
-133.684503855468
 30
0.0
  0
SPLINE
  5
9F
330
1F
100
AcDbEntity
  8
_U+30EC_U+30A4_U+30E4_U+30FC 1
 62
   179
420
  2234388
370
     9
100
AcDbSpline
210
0.0
220
0.0
230
1.0
 70
    11
 71
     3
 72
    17
 73
    13
 74
     0
 42
0.0000000001
 43
0.0000000001
 12
1.0
 22
0.0
 32
0.0
 13
1.0
 23
0.0
 33
0.0
 40
0.0
 40
0.0
 40
0.0
 40
0.0
 40
1.0
 40
1.0
 40
1.0
 40
2.0
 40
2.0
 40
2.0
 40
3.0
 40
3.0
 40
3.0
 40
4.0
 40
4.0
 40
4.0
 40
4.0
 10
80.21492656465784
 20
-133.684503855468
 30
0.0
 10
80.21492656465784
 20
-133.7038007999072
 30
0.0
 10
80.19905156506285
 20
-133.7196757999033
 30
0.0
 10
80.17978989888759
 20
-133.7196757999033
 30
0.0
 10
80.1597873993979
 20
-133.7196757999033
 30
0.0
 10
80.14461795534045
 20
-133.7038007999072
 30
0.0
 10
80.14461795534045
 20
-133.684503855468
 30
0.0
 10
80.14461795534045
 20
-133.6652421888057
 30
0.0
 10
80.1597873993979
 20
-133.6493671888097
 30
0.0
 10
80.17978989888759
 20
-133.6493671888097
 30
0.0
 10
80.19905156506285
 20
-133.6493671888097
 30
0.0
 10
80.21492656465784
 20
-133.6652421888057
 30
0.0
 10
80.21492656465784
 20
-133.684503855468
 30
0.0
  0
POLYLINE
  5
A0
330
1F
100
AcDbEntity
  8
_U+30EC_U+30A4_U+30E4_U+30FC 1
 62
   179
420
  2234388
370
     9
100
AcDb2dPolyline
 66
     1
 10
0.0
 20
0.0
 30
0.0
  0
VERTEX
  5
A1
330
A0
100
AcDbEntity
  8
_U+30EC_U+30A4_U+30E4_U+30FC 1
 62
   179
420
  2234388
370
     9
100
AcDbVertex
100
AcDb2dVertex
 10
84.17951368573502
 20
-137.6842630211343
 30
0.0
  0
VERTEX
  5
A2
330
A0
100
AcDbEntity
  8
_U+30EC_U+30A4_U+30E4_U+30FC 1
 62
   179
420
  2234388
370
     9
100
AcDbVertex
100
AcDb2dVertex
 10
96.17949643514551
 20
-137.6842630211343
 30
0.0
  0
SEQEND
  5
A3
330
A0
100
AcDbEntity
  8
_U+30EC_U+30A4_U+30E4_U+30FC 1
 62
   179
420
  2234388
370
     9
  0
POLYLINE
  5
A4
330
1F
100
AcDbEntity
  8
_U+30EC_U+30A4_U+30E4_U+30FC 1
 62
   179
420
  2234388
370
     9
100
AcDb2dPolyline
 66
     1
 10
0.0
 20
0.0
 30
0.0
  0
VERTEX
  5
A5
330
A4
100
AcDbEntity
  8
_U+30EC_U+30A4_U+30E4_U+30FC 1
 62
   179
420
  2234388
370
     9
100
AcDbVertex
100
AcDb2dVertex
 10
84.17951368573502
 20
-136.2242569103881
 30
0.0
  0
VERTEX
  5
A6
330
A4
100
AcDbEntity
  8
_U+30EC_U+30A4_U+30E4_U+30FC 1
 62
   179
420
  2234388
370
     9
100
AcDbVertex
100
AcDb2dVertex
 10
84.17951368573502
 20
-138.6847407986623
 30
0.0
  0
SEQEND
  5
A7
330
A4
100
AcDbEntity
  8
_U+30EC_U+30A4_U+30E4_U+30FC 1
 62
   179
420
  2234388
370
     9
  0
POLYLINE
  5
A8
330
1F
100
AcDbEntity
  8
_U+30EC_U+30A4_U+30E4_U+30FC 1
 62
   179
420
  2234388
370
     9
100
AcDb2dPolyline
 66
     1
 10
0.0
 20
0.0
 30
0.0
  0
VERTEX
  5
A9
330
A8
100
AcDbEntity
  8
_U+30EC_U+30A4_U+30E4_U+30FC 1
 62
   179
420
  2234388
370
     9
100
AcDbVertex
100
AcDb2dVertex
 10
96.17949643514551
 20
-136.2242569103881
 30
0.0
  0
VERTEX
  5
AA
330
A8
100
AcDbEntity
  8
_U+30EC_U+30A4_U+30E4_U+30FC 1
 62
   179
420
  2234388
370
     9
100
AcDbVertex
100
AcDb2dVertex
 10
96.17949643514551
 20
-138.6847407986623
 30
0.0
  0
SEQEND
  5
AB
330
A8
100
AcDbEntity
  8
_U+30EC_U+30A4_U+30E4_U+30FC 1
 62
   179
420
  2234388
370
     9
  0
INSERT
  5
AD
330
1F
100
AcDbEntity
  8
_U+30EC_U+30A4_U+30E4_U+30FC 1
100
AcDbBlockReference
  2
block 4
 10
0.0
 20
0.0
 30
0.0
  0
SPLINE
  5
B4
330
1F
100
AcDbEntity
  8
_U+30EC_U+30A4_U+30E4_U+30FC 1
 62
   179
420
  2234388
370
    25
100
AcDbSpline
210
0.0
220
0.0
230
1.0
 70
    11
 71
     3
 72
    17
 73
    13
 74
     0
 42
0.0000000001
 43
0.0000000001
 12
1.0
 22
0.0
 32
0.0
 13
1.0
 23
0.0
 33
0.0
 40
0.0
 40
0.0
 40
0.0
 40
0.0
 40
1.0
 40
1.0
 40
1.0
 40
2.0
 40
2.0
 40
2.0
 40
3.0
 40
3.0
 40
3.0
 40
4.0
 40
4.0
 40
4.0
 40
4.0
 10
84.21468562928216
 20
-133.684503855468
 30
0.0
 10
84.21468562928216
 20
-133.7038007999072
 30
0.0
 10
84.19881062968716
 20
-133.7196757999033
 30
0.0
 10
84.17951368573502
 20
-133.7196757999033
 30
0.0
 10
84.16025201955976
 20
-133.7196757999033
 30
0.0
 10
84.14437701996476
 20
-133.7038007999072
 30
0.0
 10
84.14437701996476
 20
-133.684503855468
 30
0.0
 10
84.14437701996476
 20
-133.6652421888057
 30
0.0
 10
84.16025201955976
 20
-133.6493671888097
 30
0.0
 10
84.17951368573502
 20
-133.6493671888097
 30
0.0
 10
84.19881062968716
 20
-133.6493671888097
 30
0.0
 10
84.21468562928216
 20
-133.6652421888057
 30
0.0
 10
84.21468562928216
 20
-133.684503855468
 30
0.0
  0
SPLINE
  5
B5
330
1F
100
AcDbEntity
  8
_U+30EC_U+30A4_U+30E4_U+30FC 1
 62
   179
420
  2234388
370
    25
100
AcDbSpline
210
0.0
220
0.0
230
1.0
 70
    11
 71
     3
 72
    17
 73
    13
 74
     0
 42
0.0000000001
 43
0.0000000001
 12
1.0
 22
0.0
 32
0.0
 13
1.0
 23
0.0
 33
0.0
 40
0.0
 40
0.0
 40
0.0
 40
0.0
 40
1.0
 40
1.0
 40
1.0
 40
2.0
 40
2.0
 40
2.0
 40
3.0
 40
3.0
 40
3.0
 40
4.0
 40
4.0
 40
4.0
 40
4.0
 10
96.21463310091576
 20
-133.684503855468
 30
0.0
 10
96.21463310091576
 20
-133.7038007999072
 30
0.0
 10
96.19879337909765
 20
-133.7196757999033
 30
0.0
 10
96.17949643514551
 20
-133.7196757999033
 30
0.0
 10
96.16019949119337
 20
-133.7196757999033
 30
0.0
 10
96.14435976937526
 20
-133.7038007999072
 30
0.0
 10
96.14435976937526
 20
-133.684503855468
 30
0.0
 10
96.14435976937526
 20
-133.6652421888057
 30
0.0
 10
96.16019949119337
 20
-133.6493671888097
 30
0.0
 10
96.17949643514551
 20
-133.6493671888097
 30
0.0
 10
96.19879337909765
 20
-133.6493671888097
 30
0.0
 10
96.21463310091576
 20
-133.6652421888057
 30
0.0
 10
96.21463310091576
 20
-133.684503855468
 30
0.0
  0
SPLINE
  5
B6
330
1F
100
AcDbEntity
  8
_U+30EC_U+30A4_U+30E4_U+30FC 1
 62
   179
420
  2234388
370
     9
100
AcDbSpline
210
0.0
220
0.0
230
1.0
 70
    11
 71
     3
 72
    17
 73
    13
 74
     0
 42
0.0000000001
 43
0.0000000001
 12
1.0
 22
0.0
 32
0.0
 13
1.0
 23
0.0
 33
0.0
 40
0.0
 40
0.0
 40
0.0
 40
0.0
 40
1.0
 40
1.0
 40
1.0
 40
2.0
 40
2.0
 40
2.0
 40
3.0
 40
3.0
 40
3.0
 40
4.0
 40
4.0
 40
4.0
 40
4.0
 10
96.21463310091576
 20
-137.6842630211343
 30
0.0
 10
96.21463310091576
 20
-137.7042655211296
 30
0.0
 10
96.19879337909765
 20
-137.7201052433475
 30
0.0
 10
96.17949643514551
 20
-137.7201052433475
 30
0.0
 10
96.16019949119337
 20
-137.7201052433475
 30
0.0
 10
96.14435976937526
 20
-137.7042655211296
 30
0.0
 10
96.14435976937526
 20
-137.6842630211343
 30
0.0
 10
96.14435976937526
 20
-137.6649660766951
 30
0.0
 10
96.16019949119337
 20
-137.6491263544766
 30
0.0
 10
96.17949643514551
 20
-137.6491263544766
 30
0.0
 10
96.19879337909765
 20
-137.6491263544766
 30
0.0
 10
96.21463310091576
 20
-137.6649660766951
 30
0.0
 10
96.21463310091576
 20
-137.6842630211343
 30
0.0
  0
POLYLINE
  5
B7
330
1F
100
AcDbEntity
  8
_U+30EC_U+30A4_U+30E4_U+30FC 1
 62
   179
420
  2234388
370
     9
100
AcDb2dPolyline
 66
     1
 10
0.0
 20
0.0
 30
0.0
  0
VERTEX
  5
B8
330
B7
100
AcDbEntity
  8
_U+30EC_U+30A4_U+30E4_U+30FC 1
 62
   179
420
  2234388
370
     9
100
AcDbVertex
100
AcDb2dVertex
 10
92.92455707374148
 20
-124.0620313578735
 30
0.0
  0
VERTEX
  5
B9
330
B7
100
AcDbEntity
  8
_U+30EC_U+30A4_U+30E4_U+30FC 1
 62
   179
420
  2234388
370
     9
100
AcDbVertex
100
AcDb2dVertex
 10
86.67929695529357
 20
-119.0617944146789
 30
0.0
  0
SEQEND
  5
BA
330
B7
100
AcDbEntity
  8
_U+30EC_U+30A4_U+30E4_U+30FC 1
 62
   179
420
  2234388
370
     9
  0
POLYLINE
  5
BB
330
1F
100
AcDbEntity
  8
_U+30EC_U+30A4_U+30E4_U+30FC 1
 62
   179
420
  2234388
370
     9
100
AcDb2dPolyline
 66
     1
 10
0.0
 20
0.0
 30
0.0
  0
VERTEX
  5
BC
330
BB
100
AcDbEntity
  8
_U+30EC_U+30A4_U+30E4_U+30FC 1
 62
   179
420
  2234388
370
     9
100
AcDbVertex
100
AcDb2dVertex
 10
92.01230904145932
 20
-125.2016446909217
 30
0.0
  0
VERTEX
  5
BD
330
BB
100
AcDbEntity
  8
_U+30EC_U+30A4_U+30E4_U+30FC 1
 62
   179
420
  2234388
370
     9
100
AcDbVertex
100
AcDb2dVertex
 10
93.54950289113113
 20
-123.281369413624
 30
0.0
  0
SEQEND
  5
BE
330
BB
100
AcDbEntity
  8
_U+30EC_U+30A4_U+30E4_U+30FC 1
 62
   179
420
  2234388
370
     9
  0
POLYLINE
  5
BF
330
1F
100
AcDbEntity
  8
_U+30EC_U+30A4_U+30E4_U+30FC 1
 62
   179
420
  2234388
370
     9
100
AcDb2dPolyline
 66
     1
 10
0.0
 20
0.0
 30
0.0
  0
VERTEX
  5
C0
330
BF
100
AcDbEntity
  8
_U+30EC_U+30A4_U+30E4_U+30FC 1
 62
   179
420
  2234388
370
     9
100
AcDbVertex
100
AcDb2dVertex
 10
85.76701364523453
 20
-120.2014430255053
 30
0.0
  0
VERTEX
  5
C1
330
BF
100
AcDbEntity
  8
_U+30EC_U+30A4_U+30E4_U+30FC 1
 62
   179
420
  2234388
370
     9
100
AcDbVertex
100
AcDb2dVertex
 10
87.30491305044389
 20
-118.2811677482076
 30
0.0
  0
SEQEND
  5
C2
330
BF
100
AcDbEntity
  8
_U+30EC_U+30A4_U+30E4_U+30FC 1
 62
   179
420
  2234388
370
     9
  0
INSERT
  5
C4
330
1F
100
AcDbEntity
  8
_U+30EC_U+30A4_U+30E4_U+30FC 1
100
AcDbBlockReference
  2
block 5
 10
0.0
 20
0.0
 30
0.0
  0
SPLINE
  5
CB
330
1F
100
AcDbEntity
  8
_U+30EC_U+30A4_U+30E4_U+30FC 1
 62
   179
420
  2234388
370
    25
100
AcDbSpline
210
0.0
220
0.0
230
1.0
 70
    11
 71
     3
 72
    17
 73
    13
 74
     0
 42
0.0000000001
 43
0.0000000001
 12
1.0
 22
0.0
 32
0.0
 13
1.0
 23
0.0
 33
0.0
 40
0.0
 40
0.0
 40
0.0
 40
0.0
 40
1.0
 40
1.0
 40
1.0
 40
2.0
 40
2.0
 40
2.0
 40
3.0
 40
3.0
 40
3.0
 40
4.0
 40
4.0
 40
4.0
 40
4.0
 10
90.45994574773007
 20
-127.1846438570928
 30
0.0
 10
90.45994574773007
 20
-127.2039408015323
 30
0.0
 10
90.44410831072246
 20
-127.2197805237505
 30
0.0
 10
90.42480908195982
 20
-127.2197805237505
 30
0.0
 10
90.40480658247013
 20
-127.2197805237505
 30
0.0
 10
90.388966860652
 20
-127.2039408015323
 30
0.0
 10
90.388966860652
 20
-127.1846438570928
 30
0.0
 10
90.388966860652
 20
-127.1653821904308
 30
0.0
 10
90.40480658247013
 20
-127.149507190435
 30
0.0
 10
90.42480908195982
 20
-127.149507190435
 30
0.0
 10
90.44410831072246
 20
-127.149507190435
 30
0.0
 10
90.45994574773007
 20
-127.1653821904308
 30
0.0
 10
90.45994574773007
 20
-127.1846438570928
 30
0.0
  0
SPLINE
  5
CC
330
1F
100
AcDbEntity
  8
_U+30EC_U+30A4_U+30E4_U+30FC 1
 62
   179
420
  2234388
370
    25
100
AcDbSpline
210
0.0
220
0.0
230
1.0
 70
    11
 71
     3
 72
    17
 73
    13
 74
     0
 42
0.0000000001
 43
0.0000000001
 12
1.0
 22
0.0
 32
0.0
 13
1.0
 23
0.0
 33
0.0
 40
0.0
 40
0.0
 40
0.0
 40
0.0
 40
1.0
 40
1.0
 40
1.0
 40
2.0
 40
2.0
 40
2.0
 40
3.0
 40
3.0
 40
3.0
 40
4.0
 40
4.0
 40
4.0
 40
4.0
 10
84.21468562928216
 20
-122.184442191676
 30
0.0
 10
84.21468562928216
 20
-122.2037391361158
 30
0.0
 10
84.19881062968716
 20
-122.219578858334
 30
0.0
 10
84.17951368573502
 20
-122.219578858334
 30
0.0
 10
84.16025201955976
 20
-122.219578858334
 30
0.0
 10
84.14437701996476
 20
-122.2037391361158
 30
0.0
 10
84.14437701996476
 20
-122.184442191676
 30
0.0
 10
84.14437701996476
 20
-122.1651452472365
 30
0.0
 10
84.16025201955976
 20
-122.1493055250182
 30
0.0
 10
84.17951368573502
 20
-122.1493055250182
 30
0.0
 10
84.19881062968716
 20
-122.1493055250182
 30
0.0
 10
84.21468562928216
 20
-122.1651452472365
 30
0.0
 10
84.21468562928216
 20
-122.184442191676
 30
0.0
  0
POLYLINE
  5
CD
330
1F
100
AcDbEntity
  8
_U+30EC_U+30A4_U+30E4_U+30FC 1
 62
   179
420
  2234388
370
     9
100
AcDb2dPolyline
 66
     1
 10
0.0
 20
0.0
 30
0.0
  0
VERTEX
  5
CE
330
CD
100
AcDbEntity
  8
_U+30EC_U+30A4_U+30E4_U+30FC 1
 62
   179
420
  2234388
370
     9
100
AcDbVertex
100
AcDb2dVertex
 10
100.1757982776358
 20
-135.5438544105587
 30
0.0
  0
VERTEX
  5
CF
330
CD
100
AcDbEntity
  8
_U+30EC_U+30A4_U+30E4_U+30FC 1
 62
   179
420
  2234388
370
     9
100
AcDbVertex
100
AcDb2dVertex
 10
100.1757982776358
 20
-129.1759333010392
 30
0.0
  0
SEQEND
  5
D0
330
CD
100
AcDbEntity
  8
_U+30EC_U+30A4_U+30E4_U+30FC 1
 62
   179
420
  2234388
370
     9
  0
SPLINE
  5
D1
330
1F
100
AcDbEntity
  8
_U+30EC_U+30A4_U+30E4_U+30FC 1
 62
   179
420
  2234388
370
     9
100
AcDbSpline
210
0.0
220
0.0
230
1.0
 70
    11
 71
     3
 72
    17
 73
    13
 74
     0
 42
0.0000000001
 43
0.0000000001
 12
1.0
 22
0.0
 32
0.0
 13
1.0
 23
0.0
 33
0.0
 40
0.0
 40
0.0
 40
0.0
 40
0.0
 40
1.0
 40
1.0
 40
1.0
 40
2.0
 40
2.0
 40
2.0
 40
3.0
 40
3.0
 40
3.0
 40
4.0
 40
4.0
 40
4.0
 40
4.0
 10
100.2757049417536
 20
-133.6758960776923
 30
0.0
 10
100.2757049417536
 20
-133.6207921888168
 30
0.0
 10
100.2309021651189
 20
-133.5759894110507
 30
0.0
 10
100.1757982776358
 20
-133.5759894110507
 30
0.0
 10
100.1206591123758
 20
-133.5759894110507
 30
0.0
 10
100.075891613518
 20
-133.6207921888168
 30
0.0
 10
100.075891613518
 20
-133.6758960776923
 30
0.0
 10
100.075891613518
 20
-133.7310352443448
 30
0.0
 10
100.1206591123758
 20
-133.775802744334
 30
0.0
 10
100.1757982776358
 20
-133.775802744334
 30
0.0
 10
100.2309021651189
 20
-133.775802744334
 30
0.0
 10
100.2757049417536
 20
-133.7310352443448
 30
0.0
 10
100.2757049417536
 20
-133.6758960776923
 30
0.0
  0
POLYLINE
  5
D2
330
1F
100
AcDbEntity
  8
_U+30EC_U+30A4_U+30E4_U+30FC 1
 62
   179
420
  2234388
370
     9
100
AcDb2dPolyline
 66
     1
 10
0.0
 20
0.0
 30
0.0
  0
VERTEX
  5
D3
330
D2
100
AcDbEntity
  8
_U+30EC_U+30A4_U+30E4_U+30FC 1
 62
   179
420
  2234388
370
     9
100
AcDbVertex
100
AcDb2dVertex
 10
97.71944442001458
 20
-133.6900424665777
 30
0.0
  0
VERTEX
  5
D4
330
D2
100
AcDbEntity
  8
_U+30EC_U+30A4_U+30E4_U+30FC 1
 62
   179
420
  2234388
370
     9
100
AcDbVertex
100
AcDb2dVertex
 10
101.1762407521124
 20
-133.6758960776923
 30
0.0
  0
SEQEND
  5
D5
330
D2
100
AcDbEntity
  8
_U+30EC_U+30A4_U+30E4_U+30FC 1
 62
   179
420
  2234388
370
     9
  0
INSERT
  5
D7
330
1F
100
AcDbEntity
  8
_U+30EC_U+30A4_U+30E4_U+30FC 1
100
AcDbBlockReference
  2
block 6
 10
0.0
 20
0.0
 30
0.0
  0
ENDSEC
  0
SECTION
  2
OBJECTS
  0
DICTIONARY
  5
C
330
0
100
AcDbDictionary
281
     1
  3
ACAD_GROUP
350
D
  3
ACAD_LAYOUT
350
1A
  3
ACAD_MATERIAL
350
3B
  3
ACAD_MLEADERSTYLE
350
DD
  3
ACAD_MLINESTYLE
350
17
  3
ACAD_PLOTSETTINGS
350
19
  3
ACAD_PLOTSTYLENAME
350
E
  3
ACAD_TABLESTYLE
350
DC
  3
ACAD_VISUALSTYLE
350
2A
  0
SUN
  5
3F
330
29
100
AcDbSun
 90
        1
290
     0
 63
     7
421
 16777215
 40
1.0
291
     1
 91
  2455826
 92
 54000000
292
     0
 70
     2
 71
   256
280
     1
  0
DICTIONARY
  5
D
102
{ACAD_REACTORS
330
C
102
}
330
C
100
AcDbDictionary
281
     1
  0
DICTIONARY
  5
1A
102
{ACAD_REACTORS
330
C
102
}
330
C
100
AcDbDictionary
281
     1
  3
Layout1
350
1E
  3
Layout2
350
26
  3
Model
350
22
  0
DICTIONARY
  5
3B
102
{ACAD_REACTORS
330
C
102
}
330
C
100
AcDbDictionary
281
     1
  3
ByBlock
350
3D
  3
ByLayer
350
3C
  3
Global
350
3E
  0
DICTIONARY
  5
DD
102
{ACAD_REACTORS
330
C
102
}
330
C
100
AcDbDictionary
281
     1
  0
DICTIONARY
  5
17
102
{ACAD_REACTORS
330
C
102
}
330
C
100
AcDbDictionary
281
     1
  3
Standard
350
18
  0
DICTIONARY
  5
19
102
{ACAD_REACTORS
330
C
102
}
330
C
100
AcDbDictionary
281
     1
  0
ACDBDICTIONARYWDFLT
  5
E
102
{ACAD_REACTORS
330
C
102
}
330
C
100
AcDbDictionary
281
     1
  3
Normal
350
F
100
AcDbDictionaryWithDefault
340
F
  0
DICTIONARY
  5
DC
102
{ACAD_REACTORS
330
C
102
}
330
C
100
AcDbDictionary
281
     1
  0
DICTIONARY
  5
2A
102
{ACAD_REACTORS
330
C
102
}
330
C
100
AcDbDictionary
281
     1
  3
2dWireframe
350
2F
  3
3D Hidden
350
31
  3
3dWireframe
350
30
  3
Basic
350
32
  3
Brighten
350
36
  3
ColorChange
350
3A
  3
Conceptual
350
34
  3
Dim
350
35
  3
Facepattern
350
39
  3
Flat
350
2B
  3
FlatWithEdges
350
2C
  3
Gouraud
350
2D
  3
GouraudWithEdges
350
2E
  3
Linepattern
350
38
  3
Realistic
350
33
  3
Thicken
350
37
  0
LAYOUT
  5
1E
102
{ACAD_REACTORS
330
1A
102
}
330
1A
100
AcDbPlotSettings
  1

  2
none_device
  4

  6

 40
0.0
 41
0.0
 42
0.0
 43
0.0
 44
0.0
 45
0.0
 46
0.0
 47
0.0
 48
0.0
 49
0.0
140
0.0
141
0.0
142
1.0
143
1.0
 70
   688
 72
     0
 73
     0
 74
     5
  7

 75
    16
 76
     0
 77
     2
 78
   300
147
1.0
148
0.0
149
0.0
100
AcDbLayout
  1
Layout1
 70
     1
 71
     1
 10
0.0
 20
0.0
 11
12.0
 21
9.0
 12
0.0
 22
0.0
 32
0.0
 14
1.000000000000000E+20
 24
1.000000000000000E+20
 34
1.000000000000000E+20
 15
-1.000000000000000E+20
 25
-1.000000000000000E+20
 35
-1.000000000000000E+20
146
0.0
 13
0.0
 23
0.0
 33
0.0
 16
1.0
 26
0.0
 36
0.0
 17
0.0
 27
1.0
 37
0.0
 76
     0
330
1B
  0
LAYOUT
  5
26
102
{ACAD_REACTORS
330
1A
102
}
330
1A
100
AcDbPlotSettings
  1

  2
none_device
  4

  6

 40
0.0
 41
0.0
 42
0.0
 43
0.0
 44
0.0
 45
0.0
 46
0.0
 47
0.0
 48
0.0
 49
0.0
140
0.0
141
0.0
142
1.0
143
1.0
 70
   688
 72
     0
 73
     0
 74
     5
  7

 75
    16
 76
     0
 77
     2
 78
   300
147
1.0
148
0.0
149
0.0
100
AcDbLayout
  1
Layout2
 70
     1
 71
     2
 10
0.0
 20
0.0
 11
0.0
 21
0.0
 12
0.0
 22
0.0
 32
0.0
 14
0.0
 24
0.0
 34
0.0
 15
0.0
 25
0.0
 35
0.0
146
0.0
 13
0.0
 23
0.0
 33
0.0
 16
1.0
 26
0.0
 36
0.0
 17
0.0
 27
1.0
 37
0.0
 76
     0
330
23
  0
LAYOUT
  5
22
102
{ACAD_REACTORS
330
1A
102
}
330
1A
100
AcDbPlotSettings
  1

  2
none_device
  4

  6

 40
0.0
 41
0.0
 42
0.0
 43
0.0
 44
0.0
 45
0.0
 46
0.0
 47
0.0
 48
0.0
 49
0.0
140
0.0
141
0.0
142
1.0
143
1.0
 70
  1712
 72
     0
 73
     0
 74
     0
  7

 75
     0
 76
     0
 77
     2
 78
   300
147
1.0
148
0.0
149
0.0
100
AcDbLayout
  1
Model
 70
     1
 71
     0
 10
0.0
 20
0.0
 11
12.0
 21
9.0
 12
0.0
 22
0.0
 32
0.0
 14
1.000000000000000E+20
 24
1.000000000000000E+20
 34
1.000000000000000E+20
 15
-1.000000000000000E+20
 25
-1.000000000000000E+20
 35
-1.000000000000000E+20
146
0.0
 13
0.0
 23
0.0
 33
0.0
 16
1.0
 26
0.0
 36
0.0
 17
0.0
 27
1.0
 37
0.0
 76
     0
330
1F
331
29
  0
MATERIAL
  5
3D
102
{ACAD_REACTORS
330
3B
102
}
330
3B
100
AcDbMaterial
  1
ByBlock
 72
     1
 94
      127
  0
MATERIAL
  5
3C
102
{ACAD_REACTORS
330
3B
102
}
330
3B
100
AcDbMaterial
  1
ByLayer
 72
     1
 94
      127
  0
MATERIAL
  5
3E
102
{ACAD_REACTORS
330
3B
102
}
330
3B
100
AcDbMaterial
  1
Global
 72
     1
 94
      127
  0
MLINESTYLE
  5
18
102
{ACAD_REACTORS
330
17
102
}
330
17
100
AcDbMlineStyle
  2
Standard
 70
     0
  3

 62
   256
 51
90.0
 52
90.0
 71
     2
 49
0.5
 62
   256
  6
BYLAYER
 49
-0.5
 62
   256
  6
BYLAYER
  0
ACDBPLACEHOLDER
  5
F
102
{ACAD_REACTORS
330
E
102
}
330
E
  0
VISUALSTYLE
  5
2F
102
{ACAD_REACTORS
330
2A
102
}
330
2A
100
AcDbVisualStyle
  2
2dWireframe
 70
     4
177
     2
291
     0
 71
     0
176
     1
 72
     2
176
     1
 73
     0
176
     1
 90
        0
176
     1
 40
-0.6
176
     1
 41
-30.0
176
     1
 62
     5
 63
     7
421
 16777215
176
     1
 74
     1
176
     1
 91
        4
176
     1
 64
     7
176
     1
 65
   257
176
     1
 75
     1
176
     1
175
     1
176
     1
 42
1.0
176
     1
 92
        0
176
     1
 66
   257
176
     1
 43
1.0
176
     1
 76
     1
176
     1
 77
     6
176
     1
 78
     2
176
     1
 67
     7
176
     1
 79
     5
176
     1
170
     0
176
     1
171
     0
176
     1
290
     0
176
     1
 93
        1
176
     1
 44
0.0
176
     1
173
     0
176
     1
  0
VISUALSTYLE
  5
31
102
{ACAD_REACTORS
330
2A
102
}
330
2A
100
AcDbVisualStyle
  2
3D Hidden
 70
     6
177
     2
291
     0
 71
     1
176
     1
 72
     2
176
     1
 73
     2
176
     1
 90
        0
176
     1
 40
-0.6
176
     1
 41
-30.0
176
     1
 62
     5
 63
     7
421
 16777215
176
     1
 74
     2
176
     1
 91
        2
176
     1
 64
     7
176
     1
 65
   257
176
     1
 75
     2
176
     1
175
     1
176
     1
 42
40.0
176
     1
 92
        0
176
     1
 66
   257
176
     1
 43
1.0
176
     1
 76
     1
176
     1
 77
     6
176
     1
 78
     2
176
     1
 67
     7
176
     1
 79
     3
176
     1
170
     0
176
     1
171
     0
176
     1
290
     0
176
     1
 93
        1
176
     1
 44
0.0
176
     1
173
     0
176
     1
  0
VISUALSTYLE
  5
30
102
{ACAD_REACTORS
330
2A
102
}
330
2A
100
AcDbVisualStyle
  2
3dWireframe
 70
     5
177
     2
291
     0
 71
     0
176
     1
 72
     2
176
     1
 73
     0
176
     1
 90
        0
176
     1
 40
-0.6
176
     1
 41
-30.0
176
     1
 62
     5
 63
     7
421
 16777215
176
     1
 74
     1
176
     1
 91
        4
176
     1
 64
     7
176
     1
 65
   257
176
     1
 75
     1
176
     1
175
     1
176
     1
 42
1.0
176
     1
 92
        0
176
     1
 66
   257
176
     1
 43
1.0
176
     1
 76
     1
176
     1
 77
     6
176
     1
 78
     2
176
     1
 67
     7
176
     1
 79
     5
176
     1
170
     0
176
     1
171
     0
176
     1
290
     0
176
     1
 93
        1
176
     1
 44
0.0
176
     1
173
     0
176
     1
  0
VISUALSTYLE
  5
32
102
{ACAD_REACTORS
330
2A
102
}
330
2A
100
AcDbVisualStyle
  2
Basic
 70
     7
177
     2
291
     1
 71
     1
176
     1
 72
     0
176
     1
 73
     1
176
     1
 90
        0
176
     1
 40
-0.6
176
     1
 41
-30.0
176
     1
 62
     5
 63
     7
421
 16777215
176
     1
 74
     0
176
     1
 91
        4
176
     1
 64
     7
176
     1
 65
   257
176
     1
 75
     1
176
     1
175
     1
176
     1
 42
1.0
176
     1
 92
        8
176
     1
 66
     7
176
     1
 43
1.0
176
     1
 76
     1
176
     1
 77
     6
176
     1
 78
     2
176
     1
 67
     7
176
     1
 79
     5
176
     1
170
     0
176
     1
171
     0
176
     1
290
     0
176
     1
 93
        1
176
     1
 44
0.0
176
     1
173
     0
176
     1
  0
VISUALSTYLE
  5
36
102
{ACAD_REACTORS
330
2A
102
}
330
2A
100
AcDbVisualStyle
  2
Brighten
 70
    12
177
     2
291
     1
 71
     2
176
     1
 72
     2
176
     1
 73
     0
176
     1
 90
        0
176
     1
 40
-0.6
176
     1
 41
-30.0
176
     1
 62
     5
 63
     7
421
 16777215
176
     1
 74
     1
176
     1
 91
        4
176
     1
 64
     7
176
     1
 65
   257
176
     1
 75
     1
176
     1
175
     1
176
     1
 42
1.0
176
     1
 92
        8
176
     1
 66
     7
176
     1
 43
1.0
176
     1
 76
     1
176
     1
 77
     6
176
     1
 78
     2
176
     1
 67
     7
176
     1
 79
     5
176
     1
170
     0
176
     1
171
     0
176
     1
290
     0
176
     1
 93
        1
176
     1
 44
50.0
176
     1
173
     0
176
     1
  0
VISUALSTYLE
  5
3A
102
{ACAD_REACTORS
330
2A
102
}
330
2A
100
AcDbVisualStyle
  2
ColorChange
 70
    16
177
     2
291
     1
 71
     2
176
     1
 72
     2
176
     1
 73
     3
176
     1
 90
        0
176
     1
 40
-0.6
176
     1
 41
-30.0
176
     1
 62
     5
 63
     8
421
  8421504
176
     1
 74
     1
176
     1
 91
        4
176
     1
 64
     7
176
     1
 65
   257
176
     1
 75
     1
176
     1
175
     1
176
     1
 42
1.0
176
     1
 92
        8
176
     1
 66
     8
424
  8421504
176
     1
 43
1.0
176
     1
 76
     1
176
     1
 77
     6
176
     1
 78
     2
176
     1
 67
     7
176
     1
 79
     5
176
     1
170
     0
176
     1
171
     0
176
     1
290
     0
176
     1
 93
        1
176
     1
 44
0.0
176
     1
173
     0
176
     1
  0
VISUALSTYLE
  5
34
102
{ACAD_REACTORS
330
2A
102
}
330
2A
100
AcDbVisualStyle
  2
Conceptual
 70
     9
177
     2
291
     0
 71
     3
176
     1
 72
     2
176
     1
 73
     0
176
     1
 90
        0
176
     1
 40
-0.6
176
     1
 41
-30.0
176
     1
 62
     5
 63
     7
421
 16777215
176
     1
 74
     2
176
     1
 91
        2
176
     1
 64
     7
176
     1
 65
   257
176
     1
 75
     1
176
     1
175
     1
176
     1
 42
40.0
176
     1
 92
        8
176
     1
 66
     7
176
     1
 43
1.0
176
     1
 76
     1
176
     1
 77
     6
176
     1
 78
     2
176
     1
 67
     7
176
     1
 79
     3
176
     1
170
     0
176
     1
171
     0
176
     1
290
     0
176
     1
 93
        1
176
     1
 44
0.0
176
     1
173
     0
176
     1
  0
VISUALSTYLE
  5
35
102
{ACAD_REACTORS
330
2A
102
}
330
2A
100
AcDbVisualStyle
  2
Dim
 70
    11
177
     2
291
     1
 71
     2
176
     1
 72
     2
176
     1
 73
     0
176
     1
 90
        0
176
     1
 40
-0.6
176
     1
 41
-30.0
176
     1
 62
     5
 63
     7
421
 16777215
176
     1
 74
     1
176
     1
 91
        4
176
     1
 64
     7
176
     1
 65
   257
176
     1
 75
     1
176
     1
175
     1
176
     1
 42
1.0
176
     1
 92
        8
176
     1
 66
     7
176
     1
 43
1.0
176
     1
 76
     1
176
     1
 77
     6
176
     1
 78
     2
176
     1
 67
     7
176
     1
 79
     5
176
     1
170
     0
176
     1
171
     0
176
     1
290
     0
176
     1
 93
        1
176
     1
 44
-50.0
176
     1
173
     0
176
     1
  0
VISUALSTYLE
  5
39
102
{ACAD_REACTORS
330
2A
102
}
330
2A
100
AcDbVisualStyle
  2
Facepattern
 70
    15
177
     2
291
     1
 71
     2
176
     1
 72
     2
176
     1
 73
     0
176
     1
 90
        0
176
     1
 40
-0.6
176
     1
 41
-30.0
176
     1
 62
     5
 63
     7
421
 16777215
176
     1
 74
     1
176
     1
 91
        4
176
     1
 64
     7
176
     1
 65
   257
176
     1
 75
     1
176
     1
175
     1
176
     1
 42
1.0
176
     1
 92
        8
176
     1
 66
     7
176
     1
 43
1.0
176
     1
 76
     1
176
     1
 77
     6
176
     1
 78
     2
176
     1
 67
     7
176
     1
 79
     5
176
     1
170
     0
176
     1
171
     0
176
     1
290
     0
176
     1
 93
        1
176
     1
 44
0.0
176
     1
173
     0
176
     1
  0
VISUALSTYLE
  5
2B
102
{ACAD_REACTORS
330
2A
102
}
330
2A
100
AcDbVisualStyle
  2
Flat
 70
     0
177
     2
291
     1
 71
     2
176
     1
 72
     1
176
     1
 73
     1
176
     1
 90
        2
176
     1
 40
-0.6
176
     1
 41
30.0
176
     1
 62
     5
 63
     7
421
 16777215
176
     1
 74
     0
176
     1
 91
        4
176
     1
 64
     7
176
     1
 65
   257
176
     1
 75
     1
176
     1
175
     1
176
     1
 42
1.0
176
     1
 92
        8
176
     1
 66
     7
176
     1
 43
1.0
176
     1
 76
     1
176
     1
 77
     6
176
     1
 78
     2
176
     1
 67
     7
176
     1
 79
     5
176
     1
170
     0
176
     1
171
     0
176
     1
290
     0
176
     1
 93
       13
176
     1
 44
0.0
176
     1
173
     0
176
     1
  0
VISUALSTYLE
  5
2C
102
{ACAD_REACTORS
330
2A
102
}
330
2A
100
AcDbVisualStyle
  2
FlatWithEdges
 70
     1
177
     2
291
     1
 71
     2
176
     1
 72
     1
176
     1
 73
     1
176
     1
 90
        2
176
     1
 40
-0.6
176
     1
 41
30.0
176
     1
 62
     5
 63
     7
421
 16777215
176
     1
 74
     1
176
     1
 91
        4
176
     1
 64
     7
176
     1
 65
   257
176
     1
 75
     1
176
     1
175
     1
176
     1
 42
1.0
176
     1
 92
        0
176
     1
 66
   257
176
     1
 43
1.0
176
     1
 76
     1
176
     1
 77
     6
176
     1
 78
     2
176
     1
 67
     7
176
     1
 79
     5
176
     1
170
     0
176
     1
171
     0
176
     1
290
     0
176
     1
 93
       13
176
     1
 44
0.0
176
     1
173
     0
176
     1
  0
VISUALSTYLE
  5
2D
102
{ACAD_REACTORS
330
2A
102
}
330
2A
100
AcDbVisualStyle
  2
Gouraud
 70
     2
177
     2
291
     1
 71
     2
176
     1
 72
     2
176
     1
 73
     1
176
     1
 90
        2
176
     1
 40
-0.6
176
     1
 41
30.0
176
     1
 62
     5
 63
     7
421
 16777215
176
     1
 74
     0
176
     1
 91
        4
176
     1
 64
     7
176
     1
 65
   257
176
     1
 75
     1
176
     1
175
     1
176
     1
 42
1.0
176
     1
 92
        0
176
     1
 66
     7
176
     1
 43
1.0
176
     1
 76
     1
176
     1
 77
     6
176
     1
 78
     2
176
     1
 67
     7
176
     1
 79
     5
176
     1
170
     0
176
     1
171
     0
176
     1
290
     0
176
     1
 93
       13
176
     1
 44
0.0
176
     1
173
     0
176
     1
  0
VISUALSTYLE
  5
2E
102
{ACAD_REACTORS
330
2A
102
}
330
2A
100
AcDbVisualStyle
  2
GouraudWithEdges
 70
     3
177
     2
291
     1
 71
     2
176
     1
 72
     2
176
     1
 73
     1
176
     1
 90
        2
176
     1
 40
-0.6
176
     1
 41
30.0
176
     1
 62
     5
 63
     7
421
 16777215
176
     1
 74
     1
176
     1
 91
        4
176
     1
 64
     7
176
     1
 65
   257
176
     1
 75
     1
176
     1
175
     1
176
     1
 42
1.0
176
     1
 92
        0
176
     1
 66
   257
176
     1
 43
1.0
176
     1
 76
     1
176
     1
 77
     6
176
     1
 78
     2
176
     1
 67
     7
176
     1
 79
     5
176
     1
170
     0
176
     1
171
     0
176
     1
290
     0
176
     1
 93
       13
176
     1
 44
0.0
176
     1
173
     0
176
     1
  0
VISUALSTYLE
  5
38
102
{ACAD_REACTORS
330
2A
102
}
330
2A
100
AcDbVisualStyle
  2
Linepattern
 70
    14
177
     2
291
     1
 71
     2
176
     1
 72
     2
176
     1
 73
     0
176
     1
 90
        0
176
     1
 40
-0.6
176
     1
 41
-30.0
176
     1
 62
     5
 63
     7
421
 16777215
176
     1
 74
     1
176
     1
 91
        4
176
     1
 64
     7
176
     1
 65
   257
176
     1
 75
     7
176
     1
175
     7
176
     1
 42
1.0
176
     1
 92
        8
176
     1
 66
     7
176
     1
 43
1.0
176
     1
 76
     1
176
     1
 77
     6
176
     1
 78
     2
176
     1
 67
     7
176
     1
 79
     5
176
     1
170
     0
176
     1
171
     0
176
     1
290
     0
176
     1
 93
        1
176
     1
 44
0.0
176
     1
173
     0
176
     1
  0
VISUALSTYLE
  5
33
102
{ACAD_REACTORS
330
2A
102
}
330
2A
100
AcDbVisualStyle
  2
Realistic
 70
     8
177
     2
291
     0
 71
     2
176
     1
 72
     2
176
     1
 73
     0
176
     1
 90
        0
176
     1
 40
-0.6
176
     1
 41
-30.0
176
     1
 62
     5
 63
     7
421
 16777215
176
     1
 74
     1
176
     1
 91
        0
176
     1
 64
     7
176
     1
 65
   257
176
     1
 75
     1
176
     1
175
     1
176
     1
 42
1.0
176
     1
 92
        8
176
     1
 66
     8
424
  7895160
176
     1
 43
1.0
176
     1
 76
     1
176
     1
 77
     6
176
     1
 78
     2
176
     1
 67
     7
176
     1
 79
     5
176
     1
170
     0
176
     1
171
     0
176
     1
290
     0
176
     1
 93
       13
176
     1
 44
0.0
176
     1
173
     0
176
     1
  0
VISUALSTYLE
  5
37
102
{ACAD_REACTORS
330
2A
102
}
330
2A
100
AcDbVisualStyle
  2
Thicken
 70
    13
177
     2
291
     1
 71
     2
176
     1
 72
     2
176
     1
 73
     0
176
     1
 90
        0
176
     1
 40
-0.6
176
     1
 41
-30.0
176
     1
 62
     5
 63
     7
421
 16777215
176
     1
 74
     1
176
     1
 91
        4
176
     1
 64
     7
176
     1
 65
   257
176
     1
 75
     1
176
     1
175
     1
176
     1
 42
1.0
176
     1
 92
       12
176
     1
 66
     7
176
     1
 43
1.0
176
     1
 76
     1
176
     1
 77
     6
176
     1
 78
     2
176
     1
 67
     7
176
     1
 79
     5
176
     1
170
     0
176
     1
171
     0
176
     1
290
     0
176
     1
 93
        1
176
     1
 44
0.0
176
     1
173
     0
176
     1
  0
ENDSEC
  0
EOF
