  0
SECTION
  2
HEADER
  9
$ACADVER
  1
AC1024
  9
$ACADMAINTVER
 70
     6
  9
$DWGCODEPAGE
  3
UNDEFINED
  9
$INSBASE
 10
0.0
 20
0.0
 30
0.0
  9
$EXTMIN
 10
1.000000000000000E+20
 20
1.000000000000000E+20
 30
1.000000000000000E+20
  9
$EXTMAX
 10
-1.000000000000000E+20
 20
-1.000000000000000E+20
 30
-1.000000000000000E+20
  9
$LIMMIN
 10
0.0
 20
0.0
  9
$LIMMAX
 10
12.0
 20
9.0
  9
$ORTHOMODE
 70
     0
  9
$REGENMODE
 70
     1
  9
$FILLMODE
 70
     1
  9
$QTEXTMODE
 70
     0
  9
$MIRRTEXT
 70
     1
  9
$LTSCALE
 40
1.0
  9
$ATTMODE
 70
     1
  9
$TEXTSIZE
 40
0.2
  9
$TRACEWID
 40
0.05
  9
$TEXTSTYLE
  7
Standard
  9
$CLAYER
  8
0
  9
$CELTYPE
  6
ByLayer
  9
$CECOLOR
 62
   256
  9
$CELTSCALE
 40
1.0
  9
$DISPSILH
 70
     0
  9
$DIMSCALE
 40
1.0
  9
$DIMASZ
 40
0.18
  9
$DIMEXO
 40
0.0625
  9
$DIMDLI
 40
0.38
  9
$DIMRND
 40
0.0
  9
$DIMDLE
 40
0.0
  9
$DIMEXE
 40
0.18
  9
$DIMTP
 40
0.0
  9
$DIMTM
 40
0.0
  9
$DIMTXT
 40
0.18
  9
$DIMCEN
 40
0.09
  9
$DIMTSZ
 40
0.0
  9
$DIMTOL
 70
     0
  9
$DIMLIM
 70
     0
  9
$DIMTIH
 70
     1
  9
$DIMTOH
 70
     1
  9
$DIMSE1
 70
     0
  9
$DIMSE2
 70
     0
  9
$DIMTAD
 70
     0
  9
$DIMZIN
 70
     0
  9
$DIMBLK
  1

  9
$DIMASO
 70
     1
  9
$DIMSHO
 70
     1
  9
$DIMPOST
  1

  9
$DIMAPOST
  1

  9
$DIMALT
 70
     0
  9
$DIMALTD
 70
     2
  9
$DIMALTF
 40
25.4
  9
$DIMLFAC
 40
1.0
  9
$DIMTOFL
 70
     0
  9
$DIMTVP
 40
0.0
  9
$DIMTIX
 70
     0
  9
$DIMSOXD
 70
     0
  9
$DIMSAH
 70
     0
  9
$DIMBLK1
  1

  9
$DIMBLK2
  1

  9
$DIMSTYLE
  2
Standard
  9
$DIMCLRD
 70
     0
  9
$DIMCLRE
 70
     0
  9
$DIMCLRT
 70
     0
  9
$DIMTFAC
 40
1.0
  9
$DIMGAP
 40
0.09
  9
$DIMJUST
 70
     0
  9
$DIMSD1
 70
     0
  9
$DIMSD2
 70
     0
  9
$DIMTOLJ
 70
     1
  9
$DIMTZIN
 70
     0
  9
$DIMALTZ
 70
     0
  9
$DIMALTTZ
 70
     0
  9
$DIMUPT
 70
     0
  9
$DIMDEC
 70
     4
  9
$DIMTDEC
 70
     4
  9
$DIMALTU
 70
     2
  9
$DIMALTTD
 70
     2
  9
$DIMTXSTY
  7
Standard
  9
$DIMAUNIT
 70
     0
  9
$DIMADEC
 70
     0
  9
$DIMALTRND
 40
0.0
  9
$DIMAZIN
 70
     0
  9
$DIMDSEP
 70
    46
  9
$DIMATFIT
 70
     3
  9
$DIMFRAC
 70
     0
  9
$DIMLDRBLK
  1

  9
$DIMLUNIT
 70
     2
  9
$DIMLWD
 70
    -2
  9
$DIMLWE
 70
    -2
  9
$DIMTMOVE
 70
     0
  9
$DIMFXL
 40
1.0
  9
$DIMFXLON
 70
     0
  9
$DIMJOGANG
 40
0.7853981633974483
  9
$DIMTFILL
 70
     0
  9
$DIMTFILLCLR
 70
     0
  9
$DIMARCSYM
 70
     0
  9
$DIMLTYPE
  6

  9
$DIMLTEX1
  6

  9
$DIMLTEX2
  6

  9
$DIMTXTDIRECTION
 70
     0
  9
$LUNITS
 70
     2
  9
$LUPREC
 70
     4
  9
$SKETCHINC
 40
0.1
  9
$FILLETRAD
 40
0.5
  9
$AUNITS
 70
     0
  9
$AUPREC
 70
     0
  9
$MENU
  1
.
  9
$ELEVATION
 40
0.0
  9
$PELEVATION
 40
0.0
  9
$THICKNESS
 40
0.0
  9
$LIMCHECK
 70
     0
  9
$CHAMFERA
 40
0.5
  9
$CHAMFERB
 40
0.5
  9
$CHAMFERC
 40
1.0
  9
$CHAMFERD
 40
0.0
  9
$SKPOLY
 70
     0
  9
$TDCREATE
 40
2457917.619513877
  9
$TDUCREATE
 40
2457917.244513889
  9
$TDUPDATE
 40
2457917.619513877
  9
$TDUUPDATE
 40
2457917.244513889
  9
$TDINDWG
 40
0.0000000116
  9
$TDUSRTIMER
 40
0.0000000116
  9
$USRTIMER
 70
     1
  9
$ANGBASE
 50
0.0
  9
$ANGDIR
 70
     0
  9
$PDMODE
 70
     0
  9
$PDSIZE
 40
0.0
  9
$PLINEWID
 40
0.0
  9
$SPLFRAME
 70
     0
  9
$SPLINETYPE
 70
     6
  9
$SPLINESEGS
 70
     8
  9
$HANDSEED
  5
157
  9
$SURFTAB1
 70
     6
  9
$SURFTAB2
 70
     6
  9
$SURFTYPE
 70
     6
  9
$SURFU
 70
     6
  9
$SURFV
 70
     6
  9
$UCSBASE
  2

  9
$UCSNAME
  2

  9
$UCSORG
 10
0.0
 20
0.0
 30
0.0
  9
$UCSXDIR
 10
1.0
 20
0.0
 30
0.0
  9
$UCSYDIR
 10
0.0
 20
1.0
 30
0.0
  9
$UCSORTHOREF
  2

  9
$UCSORTHOVIEW
 70
     0
  9
$UCSORGTOP
 10
0.0
 20
0.0
 30
0.0
  9
$UCSORGBOTTOM
 10
0.0
 20
0.0
 30
0.0
  9
$UCSORGLEFT
 10
0.0
 20
0.0
 30
0.0
  9
$UCSORGRIGHT
 10
0.0
 20
0.0
 30
0.0
  9
$UCSORGFRONT
 10
0.0
 20
0.0
 30
0.0
  9
$UCSORGBACK
 10
0.0
 20
0.0
 30
0.0
  9
$PUCSBASE
  2

  9
$PUCSNAME
  2

  9
$PUCSORG
 10
0.0
 20
0.0
 30
0.0
  9
$PUCSXDIR
 10
1.0
 20
0.0
 30
0.0
  9
$PUCSYDIR
 10
0.0
 20
1.0
 30
0.0
  9
$PUCSORTHOREF
  2

  9
$PUCSORTHOVIEW
 70
     0
  9
$PUCSORGTOP
 10
0.0
 20
0.0
 30
0.0
  9
$PUCSORGBOTTOM
 10
0.0
 20
0.0
 30
0.0
  9
$PUCSORGLEFT
 10
0.0
 20
0.0
 30
0.0
  9
$PUCSORGRIGHT
 10
0.0
 20
0.0
 30
0.0
  9
$PUCSORGFRONT
 10
0.0
 20
0.0
 30
0.0
  9
$PUCSORGBACK
 10
0.0
 20
0.0
 30
0.0
  9
$USERI1
 70
     0
  9
$USERI2
 70
     0
  9
$USERI3
 70
     0
  9
$USERI4
 70
     0
  9
$USERI5
 70
     0
  9
$USERR1
 40
0.0
  9
$USERR2
 40
0.0
  9
$USERR3
 40
0.0
  9
$USERR4
 40
0.0
  9
$USERR5
 40
0.0
  9
$WORLDVIEW
 70
     1
  9
$SHADEDGE
 70
     3
  9
$SHADEDIF
 70
    70
  9
$TILEMODE
 70
     1
  9
$MAXACTVP
 70
    64
  9
$PINSBASE
 10
0.0
 20
0.0
 30
0.0
  9
$PLIMCHECK
 70
     0
  9
$PEXTMIN
 10
1.000000000000000E+20
 20
1.000000000000000E+20
 30
1.000000000000000E+20
  9
$PEXTMAX
 10
-1.000000000000000E+20
 20
-1.000000000000000E+20
 30
-1.000000000000000E+20
  9
$PLIMMIN
 10
0.0
 20
0.0
  9
$PLIMMAX
 10
12.0
 20
9.0
  9
$UNITMODE
 70
     0
  9
$VISRETAIN
 70
     1
  9
$PLINEGEN
 70
     0
  9
$PSLTSCALE
 70
     1
  9
$TREEDEPTH
 70
  3020
  9
$CMLSTYLE
  2
Standard
  9
$CMLJUST
 70
     0
  9
$CMLSCALE
 40
1.0
  9
$PROXYGRAPHICS
 70
     1
  9
$MEASUREMENT
 70
     0
  9
$CELWEIGHT
370
    -1
  9
$ENDCAPS
280
     0
  9
$JOINSTYLE
280
     0
  9
$LWDISPLAY
290
     1
  9
$INSUNITS
 70
     1
  9
$HYPERLINKBASE
  1

  9
$STYLESHEET
  1

  9
$XEDIT
290
     1
  9
$CEPSNTYPE
380
     0
  9
$PSTYLEMODE
290
     1
  9
$FINGERPRINTGUID
  2
{1D534D6C-4178-3737-52D1-3EF181F1502F}
  9
$VERSIONGUID
  2
{FAEB1C32-E019-11D5-929B-00C0DF256EC4}
  9
$EXTNAMES
290
     1
  9
$PSVPSCALE
 40
0.0
  9
$OLESTARTUP
290
     0
  9
$SORTENTS
280
   127
  9
$INDEXCTL
280
     0
  9
$HIDETEXT
280
     1
  9
$XCLIPFRAME
280
     2
  9
$HALOGAP
280
     0
  9
$OBSCOLOR
 70
   257
  9
$OBSLTYPE
280
     0
  9
$INTERSECTIONDISPLAY
280
     0
  9
$INTERSECTIONCOLOR
 70
   257
  9
$DIMASSOC
280
     2
  9
$PROJECTNAME
  1

  9
$CAMERADISPLAY
290
     0
  9
$LENSLENGTH
 40
50.0
  9
$CAMERAHEIGHT
 40
0.0
  9
$STEPSPERSEC
 40
2.0
  9
$STEPSIZE
 40
6.0
  9
$3DDWFPREC
 40
2.0
  9
$PSOLWIDTH
 40
0.25
  9
$PSOLHEIGHT
 40
4.0
  9
$LOFTANG1
 40
1.570796326794897
  9
$LOFTANG2
 40
1.570796326794897
  9
$LOFTMAG1
 40
0.0
  9
$LOFTMAG2
 40
0.0
  9
$LOFTPARAM
 70
     7
  9
$LOFTNORMALS
280
     1
  9
$LATITUDE
 40
37.795
  9
$LONGITUDE
 40
-122.394
  9
$NORTHDIRECTION
 40
0.0
  9
$TIMEZONE
 70
 -8000
  9
$LIGHTGLYPHDISPLAY
280
     1
  9
$TILEMODELIGHTSYNCH
280
     1
  9
$CMATERIAL
347
3C
  9
$SOLIDHIST
280
     1
  9
$SHOWHIST
280
     1
  9
$DWFFRAME
280
     2
  9
$DGNFRAME
280
     2
  9
$REALWORLDSCALE
290
     1
  9
$INTERFERECOLOR
 62
   256
  9
$CSHADOW
280
     0
  9
$SHADOWPLANELOCATION
 40
0.0
  0
ENDSEC
  0
SECTION
  2
CLASSES
  0
CLASS
  1
ACDBDICTIONARYWDFLT
  2
AcDbDictionaryWithDefault
  3
ObjectDBX Classes
 90
        0
 91
        4
280
     0
281
     0
  0
CLASS
  1
VISUALSTYLE
  2
AcDbVisualStyle
  3
ObjectDBX Classes
 90
     4095
 91
        4
280
     0
281
     0
  0
CLASS
  1
MATERIAL
  2
AcDbMaterial
  3
ObjectDBX Classes
 90
     1153
 91
        4
280
     0
281
     0
  0
CLASS
  1
SUN
  2
AcDbSun
  3
SCENEOE
 90
     1024
 91
        4
280
     0
281
     0
  0
ENDSEC
  0
SECTION
  2
TABLES
  0
TABLE
  2
VPORT
  5
8
330
0
100
AcDbSymbolTable
 70
     1
  0
VPORT
  5
29
330
8
100
AcDbSymbolTableRecord
100
AcDbViewportTableRecord
  2
*Active
 70
     0
 10
0.0
 20
0.0
 11
1.0
 21
1.0
 12
0.0
 22
0.0
 13
0.0
 23
0.0
 14
0.5
 24
0.5
 15
0.5
 25
0.5
 16
0.0
 26
0.0
 36
1.0
 17
91.00082462281999
 27
-128.4993055234307
 37
0.0
 40
256.9986110468615
 41
0.7081814508812795
 42
50.0
 43
0.0
 44
0.0
 50
0.0
 51
0.0
 71
     0
 72
   100
 73
     1
 74
     3
 75
     0
 76
     0
 77
     0
 78
     0
281
     0
 65
     1
110
0.0
120
0.0
130
0.0
111
1.0
121
0.0
131
0.0
112
0.0
122
1.0
132
0.0
 79
     0
146
0.0
 60
     3
 61
     5
292
     1
282
     1
141
0.0
142
0.0
 63
   250
361
3F
  0
ENDTAB
  0
TABLE
  2
LTYPE
  5
5
330
0
100
AcDbSymbolTable
 70
     1
  0
LTYPE
  5
14
330
5
100
AcDbSymbolTableRecord
100
AcDbLinetypeTableRecord
  2
ByBlock
 70
     0
  3

 72
    65
 73
     0
 40
0.0
  0
LTYPE
  5
15
330
5
100
AcDbSymbolTableRecord
100
AcDbLinetypeTableRecord
  2
ByLayer
 70
     0
  3

 72
    65
 73
     0
 40
0.0
  0
LTYPE
  5
16
330
5
100
AcDbSymbolTableRecord
100
AcDbLinetypeTableRecord
  2
Continuous
 70
     0
  3
Solid line
 72
    65
 73
     0
 40
0.0
  0
ENDTAB
  0
TABLE
  2
LAYER
  5
2
330
0
100
AcDbSymbolTable
 70
     2
  0
LAYER
  5
10
330
2
100
AcDbSymbolTableRecord
100
AcDbLayerTableRecord
  2
0
 70
     0
 62
     7
  6
Continuous
370
    -3
390
F
347
3E
  0
LAYER
  5
40
330
2
100
AcDbSymbolTableRecord
100
AcDbLayerTableRecord
  2
_U+30EC_U+30A4_U+30E4_U+30FC 1
 70
     0
 62
     7
  6
Continuous
370
    -3
390
F
347
3E
  0
ENDTAB
  0
TABLE
  2
STYLE
  5
3
330
0
100
AcDbSymbolTable
 70
     1
  0
STYLE
  5
11
330
3
100
AcDbSymbolTableRecord
100
AcDbTextStyleTableRecord
  2
Standard
 70
     0
 40
0.0
 41
1.0
 50
0.0
 71
     0
 42
0.2
  3
txt
  4

  0
ENDTAB
  0
TABLE
  2
VIEW
  5
6
330
0
100
AcDbSymbolTable
 70
     0
  0
ENDTAB
  0
TABLE
  2
UCS
  5
7
330
0
100
AcDbSymbolTable
 70
     0
  0
ENDTAB
  0
TABLE
  2
APPID
  5
9
330
0
100
AcDbSymbolTable
 70
     1
  0
APPID
  5
12
330
9
100
AcDbSymbolTableRecord
100
AcDbRegAppTableRecord
  2
ACAD
 70
     0
  0
ENDTAB
  0
TABLE
  2
DIMSTYLE
  5
A
330
0
100
AcDbSymbolTable
 70
     1
100
AcDbDimStyleTable
  0
DIMSTYLE
105
27
330
A
100
AcDbSymbolTableRecord
100
AcDbDimStyleTableRecord
  2
Standard
 70
     0
178
     0
340
11
  0
ENDTAB
  0
TABLE
  2
BLOCK_RECORD
  5
1
330
0
100
AcDbSymbolTable
 70
     8
  0
BLOCK_RECORD
  5
1F
330
1
100
AcDbSymbolTableRecord
100
AcDbBlockTableRecord
  2
*Model_Space
340
22
 70
     0
280
     1
281
     0
  0
BLOCK_RECORD
  5
1B
330
1
100
AcDbSymbolTableRecord
100
AcDbBlockTableRecord
  2
*Paper_Space
340
1E
 70
     0
280
     1
281
     0
  0
BLOCK_RECORD
  5
23
330
1
100
AcDbSymbolTableRecord
100
AcDbBlockTableRecord
  2
*Paper_Space0
340
26
 70
     0
280
     1
281
     0
  0
BLOCK_RECORD
  5
69
330
1
100
AcDbSymbolTableRecord
100
AcDbBlockTableRecord
  2
block 2
340
0
102
{BLKREFS
331
6A
102
}
 70
     0
280
     1
281
     0
  0
BLOCK_RECORD
  5
8F
330
1
100
AcDbSymbolTableRecord
100
AcDbBlockTableRecord
  2
block 3
340
0
102
{BLKREFS
331
90
102
}
 70
     0
280
     1
281
     0
  0
BLOCK_RECORD
  5
95
330
1
100
AcDbSymbolTableRecord
100
AcDbBlockTableRecord
  2
block 4
340
0
102
{BLKREFS
331
96
102
}
 70
     0
280
     1
281
     0
  0
BLOCK_RECORD
  5
A5
330
1
100
AcDbSymbolTableRecord
100
AcDbBlockTableRecord
  2
block 5
340
0
102
{BLKREFS
331
A6
102
}
 70
     0
280
     1
281
     0
  0
BLOCK_RECORD
  5
B3
330
1
100
AcDbSymbolTableRecord
100
AcDbBlockTableRecord
  2
block 6
340
0
102
{BLKREFS
331
B4
102
}
 70
     0
280
     1
281
     0
  0
BLOCK_RECORD
  5
CE
330
1
100
AcDbSymbolTableRecord
100
AcDbBlockTableRecord
  2
block 7
340
0
102
{BLKREFS
331
CF
102
}
 70
     0
280
     1
281
     0
  0
BLOCK_RECORD
  5
F5
330
1
100
AcDbSymbolTableRecord
100
AcDbBlockTableRecord
  2
block 8
340
0
102
{BLKREFS
331
F6
102
}
 70
     0
280
     1
281
     0
  0
ENDTAB
  0
ENDSEC
  0
SECTION
  2
BLOCKS
  0
BLOCK
  5
20
330
1F
100
AcDbEntity
  8
0
100
AcDbBlockBegin
  2
*Model_Space
 70
     0
 10
0.0
 20
0.0
 30
0.0
  3
*Model_Space
  1

  0
ENDBLK
  5
21
330
1F
100
AcDbEntity
  8
0
100
AcDbBlockEnd
  0
BLOCK
  5
1C
330
1B
100
AcDbEntity
 67
     1
  8
0
100
AcDbBlockBegin
  2
*Paper_Space
 70
     0
 10
0.0
 20
0.0
 30
0.0
  3
*Paper_Space
  1

  0
ENDBLK
  5
1D
330
1B
100
AcDbEntity
 67
     1
  8
0
100
AcDbBlockEnd
  0
BLOCK
  5
24
330
23
100
AcDbEntity
  8
0
100
AcDbBlockBegin
  2
*Paper_Space0
 70
     0
 10
0.0
 20
0.0
 30
0.0
  3
*Paper_Space0
  1

  0
ENDBLK
  5
25
330
23
100
AcDbEntity
  8
0
100
AcDbBlockEnd
  0
BLOCK
  5
6B
330
69
100
AcDbEntity
  8
0
100
AcDbBlockBegin
  2
block 2
 70
     0
 10
0.0
 20
0.0
 30
0.0
  3
block 2
  1

  0
SPLINE
  5
6D
330
69
100
AcDbEntity
  8
_U+30EC_U+30A4_U+30E4_U+30FC 1
370
     0
100
AcDbSpline
210
0.0
220
0.0
230
1.0
 70
    11
 71
     3
 72
    26
 73
    22
 74
     0
 42
0.0000000001
 43
0.0000000001
 12
1.0
 22
0.0
 32
0.0
 13
1.0
 23
0.0
 33
0.0
 40
0.0
 40
0.0
 40
0.0
 40
0.0
 40
1.0
 40
1.0
 40
1.0
 40
2.0
 40
2.0
 40
2.0
 40
3.0
 40
3.0
 40
3.0
 40
4.0
 40
4.0
 40
4.0
 40
5.0
 40
5.0
 40
5.0
 40
6.0
 40
6.0
 40
6.0
 40
7.0
 40
7.0
 40
7.0
 40
7.0
 10
112.7493624935141
 20
-138.4511528516719
 30
0.0
 10
112.7493624935141
 20
-138.4511528516719
 30
0.0
 10
111.6452093904915
 20
-138.4511528516719
 30
0.0
 10
111.6452093904915
 20
-138.4511528516719
 30
0.0
 10
111.6452093904915
 20
-138.4511528516719
 30
0.0
 10
111.6452093904915
 20
-138.803586119813
 30
0.0
 10
111.6452093904915
 20
-138.803586119813
 30
0.0
 10
111.6452093904915
 20
-138.803586119813
 30
0.0
 10
111.4970702846257
 20
-138.803586119813
 30
0.0
 10
111.4970702846257
 20
-138.803586119813
 30
0.0
 10
111.4822563740392
 20
-138.4487412848323
 30
0.0
 10
111.3193033575868
 20
-138.3991319098447
 30
0.0
 10
111.2049261874765
 20
-138.3674370313804
 30
0.0
 10
111.2049261874765
 20
-138.3674370313804
 30
0.0
 10
111.2049261874765
 20
-138.2113742058986
 30
0.0
 10
111.2049261874765
 20
-138.2113742058986
 30
0.0
 10
111.2049261874765
 20
-138.2113742058986
 30
0.0
 10
112.7493624935141
 20
-138.2113742058986
 30
0.0
 10
112.7493624935141
 20
-138.2113742058986
 30
0.0
 10
112.7493624935141
 20
-138.2113742058986
 30
0.0
 10
112.7493624935141
 20
-138.4511528516719
 30
0.0
 10
112.7493624935141
 20
-138.4511528516719
 30
0.0
  0
HATCH
  5
6E
330
69
100
AcDbEntity
  8
_U+30EC_U+30A4_U+30E4_U+30FC 1
 62
     7
420
 16777215
100
AcDbHatch
 10
0.0
 20
0.0
 30
0.0
210
0.0
220
0.0
230
1.0
  2
SOLID
 70
     1
 71
     0
 91
        1
 92
        1
 93
        1
 72
     4
 94
        3
 73
     0
 74
     1
 95
       26
 96
       22
 40
0.0
 40
0.0
 40
0.0
 40
0.0
 40
1.0
 40
1.0
 40
1.0
 40
2.0
 40
2.0
 40
2.0
 40
3.0
 40
3.0
 40
3.0
 40
4.0
 40
4.0
 40
4.0
 40
5.0
 40
5.0
 40
5.0
 40
6.0
 40
6.0
 40
6.0
 40
7.0
 40
7.0
 40
7.0
 40
7.0
 10
112.7493624935141
 20
-138.4511528516719
 10
112.7493624935141
 20
-138.4511528516719
 10
111.6452093904915
 20
-138.4511528516719
 10
111.6452093904915
 20
-138.4511528516719
 10
111.6452093904915
 20
-138.4511528516719
 10
111.6452093904915
 20
-138.803586119813
 10
111.6452093904915
 20
-138.803586119813
 10
111.6452093904915
 20
-138.803586119813
 10
111.4970702846257
 20
-138.803586119813
 10
111.4970702846257
 20
-138.803586119813
 10
111.4822563740392
 20
-138.4487412848323
 10
111.3193033575868
 20
-138.3991319098447
 10
111.2049261874765
 20
-138.3674370313804
 10
111.2049261874765
 20
-138.3674370313804
 10
111.2049261874765
 20
-138.2113742058986
 10
111.2049261874765
 20
-138.2113742058986
 10
111.2049261874765
 20
-138.2113742058986
 10
112.7493624935141
 20
-138.2113742058986
 10
112.7493624935141
 20
-138.2113742058986
 10
112.7493624935141
 20
-138.2113742058986
 10
112.7493624935141
 20
-138.4511528516719
 10
112.7493624935141
 20
-138.4511528516719
 97
        0
 97
        0
 75
     2
 76
     1
 98
        0
  0
POLYLINE
  5
6F
330
69
100
AcDbEntity
  8
_U+30EC_U+30A4_U+30E4_U+30FC 1
370
     0
100
AcDb2dPolyline
 66
     1
 10
0.0
 20
0.0
 30
0.0
  0
VERTEX
  5
70
330
6F
100
AcDbEntity
  8
_U+30EC_U+30A4_U+30E4_U+30FC 1
370
     0
100
AcDbVertex
100
AcDb2dVertex
 10
112.7493624935141
 20
-137.6115830819166
 30
0.0
  0
VERTEX
  5
71
330
6F
100
AcDbEntity
  8
_U+30EC_U+30A4_U+30E4_U+30FC 1
370
     0
100
AcDbVertex
100
AcDb2dVertex
 10
112.4975260135423
 20
-137.6115830819166
 30
0.0
  0
VERTEX
  5
72
330
6F
100
AcDbEntity
  8
_U+30EC_U+30A4_U+30E4_U+30FC 1
370
     0
100
AcDbVertex
100
AcDb2dVertex
 10
112.4975260135423
 20
-137.3425211245186
 30
0.0
  0
VERTEX
  5
73
330
6F
100
AcDbEntity
  8
_U+30EC_U+30A4_U+30E4_U+30FC 1
370
     0
100
AcDbVertex
100
AcDb2dVertex
 10
112.7493624935141
 20
-137.3425211245186
 30
0.0
  0
VERTEX
  5
74
330
6F
100
AcDbEntity
  8
_U+30EC_U+30A4_U+30E4_U+30FC 1
370
     0
100
AcDbVertex
100
AcDb2dVertex
 10
112.7493624935141
 20
-137.6115830819166
 30
0.0
  0
SEQEND
  5
75
330
6F
100
AcDbEntity
  8
_U+30EC_U+30A4_U+30E4_U+30FC 1
370
     0
  0
HATCH
  5
76
330
69
100
AcDbEntity
  8
_U+30EC_U+30A4_U+30E4_U+30FC 1
 62
     7
420
 16777215
100
AcDbHatch
 10
0.0
 20
0.0
 30
0.0
210
0.0
220
0.0
230
1.0
  2
SOLID
 70
     1
 71
     0
 91
        1
 92
        1
 93
        4
 72
     1
 10
112.7493624935141
 20
-137.6115830819166
 11
112.4975260135423
 21
-137.6115830819166
 72
     1
 10
112.4975260135423
 20
-137.6115830819166
 11
112.4975260135423
 21
-137.3425211245186
 72
     1
 10
112.4975260135423
 20
-137.3425211245186
 11
112.7493624935141
 21
-137.3425211245186
 72
     1
 10
112.7493624935141
 20
-137.3425211245186
 11
112.7493624935141
 21
-137.6115830819166
 97
        0
 75
     2
 76
     1
 98
        0
  0
SPLINE
  5
77
330
69
100
AcDbEntity
  8
_U+30EC_U+30A4_U+30E4_U+30FC 1
370
     0
100
AcDbSpline
210
0.0
220
0.0
230
1.0
 70
    11
 71
     3
 72
    53
 73
    49
 74
     0
 42
0.0000000001
 43
0.0000000001
 12
1.0
 22
0.0
 32
0.0
 13
1.0
 23
0.0
 33
0.0
 40
0.0
 40
0.0
 40
0.0
 40
0.0
 40
1.0
 40
1.0
 40
1.0
 40
2.0
 40
2.0
 40
2.0
 40
3.0
 40
3.0
 40
3.0
 40
4.0
 40
4.0
 40
4.0
 40
5.0
 40
5.0
 40
5.0
 40
6.0
 40
6.0
 40
6.0
 40
7.0
 40
7.0
 40
7.0
 40
8.0
 40
8.0
 40
8.0
 40
9.0
 40
9.0
 40
9.0
 40
10.0
 40
10.0
 40
10.0
 40
11.0
 40
11.0
 40
11.0
 40
12.0
 40
12.0
 40
12.0
 40
13.0
 40
13.0
 40
13.0
 40
14.0
 40
14.0
 40
14.0
 40
15.0
 40
15.0
 40
15.0
 40
16.0
 40
16.0
 40
16.0
 40
16.0
 10
112.8000053971472
 20
-136.5756428695019
 30
0.0
 10
112.8000053971472
 20
-136.6593586897935
 30
0.0
 10
112.7831244292695
 20
-136.7675346880303
 30
0.0
 10
112.7197346723409
 20
-136.8763997053642
 30
0.0
 10
112.6098361263614
 20
-137.0617458424707
 30
0.0
 10
112.4785779883734
 20
-137.0841389631248
 30
0.0
 10
112.3707464996851
 20
-137.1044650264878
 30
0.0
 10
112.3707464996851
 20
-137.1044650264878
 30
0.0
 10
112.3707464996851
 20
-136.8670979475541
 30
0.0
 10
112.3707464996851
 20
-136.8670979475541
 30
0.0
 10
112.569528509184
 20
-136.8085313243048
 30
0.0
 10
112.5991563303572
 20
-136.672794562186
 30
0.0
 10
112.5991563303572
 20
-136.5732313026623
 30
0.0
 10
112.5991563303572
 20
-136.4240586681509
 30
0.0
 10
112.4995930708334
 20
-136.2611056516986
 30
0.0
 10
112.2670491255791
 20
-136.2611056516986
 30
0.0
 10
112.011078531025
 20
-136.2611056516986
 30
0.0
 10
111.9411430926744
 20
-136.4533419797756
 30
0.0
 10
111.9411430926744
 20
-136.5821885509239
 30
0.0
 10
111.9411430926744
 20
-136.6162949962279
 30
0.0
 10
111.9411430926744
 20
-136.7675346880303
 30
0.0
 10
112.0703341733713
 20
-136.8626193234232
 30
0.0
 10
112.0703341733713
 20
-136.8626193234232
 30
0.0
 10
112.0513861482024
 20
-137.0503770273694
 30
0.0
 10
112.0513861482024
 20
-137.0503770273694
 30
0.0
 10
112.0513861482024
 20
-137.0503770273694
 30
0.0
 10
111.2049261874765
 20
-136.921530456221
 30
0.0
 10
111.2049261874765
 20
-136.921530456221
 30
0.0
 10
111.2049261874765
 20
-136.921530456221
 30
0.0
 10
111.2049261874765
 20
-136.0895398965332
 30
0.0
 10
111.2049261874765
 20
-136.0895398965332
 30
0.0
 10
111.2049261874765
 20
-136.0895398965332
 30
0.0
 10
111.3995740823932
 20
-136.0895398965332
 30
0.0
 10
111.3995740823932
 20
-136.0895398965332
 30
0.0
 10
111.3995740823932
 20
-136.0895398965332
 30
0.0
 10
111.3995740823932
 20
-136.7472086246674
 30
0.0
 10
111.3995740823932
 20
-136.7472086246674
 30
0.0
 10
111.3995740823932
 20
-136.7472086246674
 30
0.0
 10
111.8226318079818
 20
-136.8174885725665
 30
0.0
 10
111.8226318079818
 20
-136.8174885725665
 30
0.0
 10
111.7888698722264
 20
-136.7520317583467
 30
0.0
 10
111.748562255049
 20
-136.6638373139243
 30
0.0
 10
111.748562255049
 20
-136.5370578000671
 30
0.0
 10
111.748562255049
 20
-136.265928785378
 30
0.0
 10
111.934941920801
 20
-136.0127142672121
 30
0.0
 10
112.2481011004102
 20
-136.0127142672121
 30
0.0
 10
112.5653943946017
 20
-136.0127142672121
 30
0.0
 10
112.8000053971472
 20
-136.252148403437
 30
0.0
 10
112.8000053971472
 20
-136.5756428695019
 30
0.0
  0
HATCH
  5
78
330
69
100
AcDbEntity
  8
_U+30EC_U+30A4_U+30E4_U+30FC 1
 62
     7
420
 16777215
100
AcDbHatch
 10
0.0
 20
0.0
 30
0.0
210
0.0
220
0.0
230
1.0
  2
SOLID
 70
     1
 71
     0
 91
        1
 92
        1
 93
        1
 72
     4
 94
        3
 73
     0
 74
     1
 95
       53
 96
       49
 40
0.0
 40
0.0
 40
0.0
 40
0.0
 40
1.0
 40
1.0
 40
1.0
 40
2.0
 40
2.0
 40
2.0
 40
3.0
 40
3.0
 40
3.0
 40
4.0
 40
4.0
 40
4.0
 40
5.0
 40
5.0
 40
5.0
 40
6.0
 40
6.0
 40
6.0
 40
7.0
 40
7.0
 40
7.0
 40
8.0
 40
8.0
 40
8.0
 40
9.0
 40
9.0
 40
9.0
 40
10.0
 40
10.0
 40
10.0
 40
11.0
 40
11.0
 40
11.0
 40
12.0
 40
12.0
 40
12.0
 40
13.0
 40
13.0
 40
13.0
 40
14.0
 40
14.0
 40
14.0
 40
15.0
 40
15.0
 40
15.0
 40
16.0
 40
16.0
 40
16.0
 40
16.0
 10
112.8000053971472
 20
-136.5756428695019
 10
112.8000053971472
 20
-136.6593586897935
 10
112.7831244292695
 20
-136.7675346880303
 10
112.7197346723409
 20
-136.8763997053642
 10
112.6098361263614
 20
-137.0617458424707
 10
112.4785779883734
 20
-137.0841389631248
 10
112.3707464996851
 20
-137.1044650264878
 10
112.3707464996851
 20
-137.1044650264878
 10
112.3707464996851
 20
-136.8670979475541
 10
112.3707464996851
 20
-136.8670979475541
 10
112.569528509184
 20
-136.8085313243048
 10
112.5991563303572
 20
-136.672794562186
 10
112.5991563303572
 20
-136.5732313026623
 10
112.5991563303572
 20
-136.4240586681509
 10
112.4995930708334
 20
-136.2611056516986
 10
112.2670491255791
 20
-136.2611056516986
 10
112.011078531025
 20
-136.2611056516986
 10
111.9411430926744
 20
-136.4533419797756
 10
111.9411430926744
 20
-136.5821885509239
 10
111.9411430926744
 20
-136.6162949962279
 10
111.9411430926744
 20
-136.7675346880303
 10
112.0703341733713
 20
-136.8626193234232
 10
112.0703341733713
 20
-136.8626193234232
 10
112.0513861482024
 20
-137.0503770273694
 10
112.0513861482024
 20
-137.0503770273694
 10
112.0513861482024
 20
-137.0503770273694
 10
111.2049261874765
 20
-136.921530456221
 10
111.2049261874765
 20
-136.921530456221
 10
111.2049261874765
 20
-136.921530456221
 10
111.2049261874765
 20
-136.0895398965332
 10
111.2049261874765
 20
-136.0895398965332
 10
111.2049261874765
 20
-136.0895398965332
 10
111.3995740823932
 20
-136.0895398965332
 10
111.3995740823932
 20
-136.0895398965332
 10
111.3995740823932
 20
-136.0895398965332
 10
111.3995740823932
 20
-136.7472086246674
 10
111.3995740823932
 20
-136.7472086246674
 10
111.3995740823932
 20
-136.7472086246674
 10
111.8226318079818
 20
-136.8174885725665
 10
111.8226318079818
 20
-136.8174885725665
 10
111.7888698722264
 20
-136.7520317583467
 10
111.748562255049
 20
-136.6638373139243
 10
111.748562255049
 20
-136.5370578000671
 10
111.748562255049
 20
-136.265928785378
 10
111.934941920801
 20
-136.0127142672121
 10
112.2481011004102
 20
-136.0127142672121
 10
112.5653943946017
 20
-136.0127142672121
 10
112.8000053971472
 20
-136.252148403437
 10
112.8000053971472
 20
-136.5756428695019
 97
        0
 97
        0
 75
     2
 76
     1
 98
        0
  0
ENDBLK
  5
6C
330
69
100
AcDbEntity
  8
0
100
AcDbBlockEnd
  0
BLOCK
  5
91
330
8F
100
AcDbEntity
  8
0
100
AcDbBlockBegin
  2
block 3
 70
     0
 10
0.0
 20
0.0
 30
0.0
  3
block 3
  1

  0
SPLINE
  5
93
330
8F
100
AcDbEntity
  8
_U+30EC_U+30A4_U+30E4_U+30FC 1
370
     0
100
AcDbSpline
210
0.0
220
0.0
230
1.0
 70
    11
 71
     3
 72
    26
 73
    22
 74
     0
 42
0.0000000001
 43
0.0000000001
 12
1.0
 22
0.0
 32
0.0
 13
1.0
 23
0.0
 33
0.0
 40
0.0
 40
0.0
 40
0.0
 40
0.0
 40
1.0
 40
1.0
 40
1.0
 40
2.0
 40
2.0
 40
2.0
 40
3.0
 40
3.0
 40
3.0
 40
4.0
 40
4.0
 40
4.0
 40
5.0
 40
5.0
 40
5.0
 40
6.0
 40
6.0
 40
6.0
 40
7.0
 40
7.0
 40
7.0
 40
7.0
 10
112.7493624935141
 20
-129.1797118817676
 30
0.0
 10
112.7493624935141
 20
-129.1797118817676
 30
0.0
 10
111.6452093904915
 20
-129.1797118817676
 30
0.0
 10
111.6452093904915
 20
-129.1797118817676
 30
0.0
 10
111.6452093904915
 20
-129.1797118817676
 30
0.0
 10
111.6452093904915
 20
-129.5321451499086
 30
0.0
 10
111.6452093904915
 20
-129.5321451499086
 30
0.0
 10
111.6452093904915
 20
-129.5321451499086
 30
0.0
 10
111.4970702846257
 20
-129.5321451499086
 30
0.0
 10
111.4970702846257
 20
-129.5321451499086
 30
0.0
 10
111.4822563740392
 20
-129.1773003149279
 30
0.0
 10
111.3193033575868
 20
-129.1276909399403
 30
0.0
 10
111.2049261874765
 20
-129.095996061476
 30
0.0
 10
111.2049261874765
 20
-129.095996061476
 30
0.0
 10
111.2049261874765
 20
-128.9399332359942
 30
0.0
 10
111.2049261874765
 20
-128.9399332359942
 30
0.0
 10
111.2049261874765
 20
-128.9399332359942
 30
0.0
 10
112.7493624935141
 20
-128.9399332359942
 30
0.0
 10
112.7493624935141
 20
-128.9399332359942
 30
0.0
 10
112.7493624935141
 20
-128.9399332359942
 30
0.0
 10
112.7493624935141
 20
-129.1797118817676
 30
0.0
 10
112.7493624935141
 20
-129.1797118817676
 30
0.0
  0
HATCH
  5
94
330
8F
100
AcDbEntity
  8
_U+30EC_U+30A4_U+30E4_U+30FC 1
 62
     7
420
 16777215
100
AcDbHatch
 10
0.0
 20
0.0
 30
0.0
210
0.0
220
0.0
230
1.0
  2
SOLID
 70
     1
 71
     0
 91
        1
 92
        1
 93
        1
 72
     4
 94
        3
 73
     0
 74
     1
 95
       26
 96
       22
 40
0.0
 40
0.0
 40
0.0
 40
0.0
 40
1.0
 40
1.0
 40
1.0
 40
2.0
 40
2.0
 40
2.0
 40
3.0
 40
3.0
 40
3.0
 40
4.0
 40
4.0
 40
4.0
 40
5.0
 40
5.0
 40
5.0
 40
6.0
 40
6.0
 40
6.0
 40
7.0
 40
7.0
 40
7.0
 40
7.0
 10
112.7493624935141
 20
-129.1797118817676
 10
112.7493624935141
 20
-129.1797118817676
 10
111.6452093904915
 20
-129.1797118817676
 10
111.6452093904915
 20
-129.1797118817676
 10
111.6452093904915
 20
-129.1797118817676
 10
111.6452093904915
 20
-129.5321451499086
 10
111.6452093904915
 20
-129.5321451499086
 10
111.6452093904915
 20
-129.5321451499086
 10
111.4970702846257
 20
-129.5321451499086
 10
111.4970702846257
 20
-129.5321451499086
 10
111.4822563740392
 20
-129.1773003149279
 10
111.3193033575868
 20
-129.1276909399403
 10
111.2049261874765
 20
-129.095996061476
 10
111.2049261874765
 20
-129.095996061476
 10
111.2049261874765
 20
-128.9399332359942
 10
111.2049261874765
 20
-128.9399332359942
 10
111.2049261874765
 20
-128.9399332359942
 10
112.7493624935141
 20
-128.9399332359942
 10
112.7493624935141
 20
-128.9399332359942
 10
112.7493624935141
 20
-128.9399332359942
 10
112.7493624935141
 20
-129.1797118817676
 10
112.7493624935141
 20
-129.1797118817676
 97
        0
 97
        0
 75
     2
 76
     1
 98
        0
  0
ENDBLK
  5
92
330
8F
100
AcDbEntity
  8
0
100
AcDbBlockEnd
  0
BLOCK
  5
97
330
95
100
AcDbEntity
  8
0
100
AcDbBlockBegin
  2
block 4
 70
     0
 10
0.0
 20
0.0
 30
0.0
  3
block 4
  1

  0
SPLINE
  5
99
330
95
100
AcDbEntity
  8
_U+30EC_U+30A4_U+30E4_U+30FC 1
370
     0
100
AcDbSpline
210
0.0
220
0.0
230
1.0
 70
    11
 71
     3
 72
    44
 73
    40
 74
     0
 42
0.0000000001
 43
0.0000000001
 12
1.0
 22
0.0
 32
0.0
 13
1.0
 23
0.0
 33
0.0
 40
0.0
 40
0.0
 40
0.0
 40
0.0
 40
1.0
 40
1.0
 40
1.0
 40
2.0
 40
2.0
 40
2.0
 40
3.0
 40
3.0
 40
3.0
 40
4.0
 40
4.0
 40
4.0
 40
5.0
 40
5.0
 40
5.0
 40
6.0
 40
6.0
 40
6.0
 40
7.0
 40
7.0
 40
7.0
 40
8.0
 40
8.0
 40
8.0
 40
9.0
 40
9.0
 40
9.0
 40
10.0
 40
10.0
 40
10.0
 40
11.0
 40
11.0
 40
11.0
 40
12.0
 40
12.0
 40
12.0
 40
13.0
 40
13.0
 40
13.0
 40
13.0
 10
112.1674858660554
 20
-116.6564452833359
 30
0.0
 10
112.3263047679254
 20
-116.8893337381388
 30
0.0
 10
112.4003743208582
 20
-116.9888969976625
 30
0.0
 10
112.5440348025932
 20
-117.0405734299412
 30
0.0
 10
112.5440348025932
 20
-117.0405734299412
 30
0.0
 10
112.5440348025932
 20
-116.2089273798019
 30
0.0
 10
112.5440348025932
 20
-116.2089273798019
 30
0.0
 10
112.5440348025932
 20
-116.2089273798019
 30
0.0
 10
112.7493624935141
 20
-116.2089273798019
 30
0.0
 10
112.7493624935141
 20
-116.2089273798019
 30
0.0
 10
112.7493624935141
 20
-116.2089273798019
 30
0.0
 10
112.7493624935141
 20
-117.3075683300481
 30
0.0
 10
112.7493624935141
 20
-117.3075683300481
 30
0.0
 10
112.3917615821451
 20
-117.2734618847441
 30
0.0
 10
112.31355791463
 20
-117.2035264463936
 30
0.0
 10
112.0152126456073
 20
-116.7921820454547
 30
0.0
 10
111.8164306361084
 20
-116.5186414639259
 30
0.0
 10
111.748562255049
 20
-116.4483615160268
 30
0.0
 10
111.6111029451875
 20
-116.4483615160268
 30
0.0
 10
111.4925916604949
 20
-116.4483615160268
 30
0.0
 10
111.3616780320554
 20
-116.5251871453479
 30
0.0
 10
111.3616780320554
 20
-116.7356824794966
 30
0.0
 10
111.3616780320554
 20
-117.0137016851563
 30
0.0
 10
111.5921549200186
 20
-117.022658933418
 30
0.0
 10
111.7085991474201
 20
-117.0271375575488
 30
0.0
 10
111.7085991474201
 20
-117.0271375575488
 30
0.0
 10
111.7085991474201
 20
-117.2669162033222
 30
0.0
 10
111.7085991474201
 20
-117.2669162033222
 30
0.0
 10
111.5814751240144
 20
-117.257614445512
 30
0.0
 10
111.4695095207437
 20
-117.2465901399592
 30
0.0
 10
111.3509982360511
 20
-117.1604627528279
 30
0.0
 10
111.19011227689
 20
-117.0429849967809
 30
0.0
 10
111.1563503411345
 20
-116.844202987282
 30
0.0
 10
111.1563503411345
 20
-116.7198350402645
 30
0.0
 10
111.1563503411345
 20
-116.423556828533
 30
0.0
 10
111.3403184400469
 20
-116.2020371888314
 30
0.0
 10
111.6131700024787
 20
-116.2020371888314
 30
0.0
 10
111.8419243426992
 20
-116.2020371888314
 30
0.0
 10
111.9411430926744
 20
-116.326405135849
 30
0.0
 10
112.1674858660554
 20
-116.6564452833359
 30
0.0
  0
HATCH
  5
9A
330
95
100
AcDbEntity
  8
_U+30EC_U+30A4_U+30E4_U+30FC 1
 62
     7
420
 16777215
100
AcDbHatch
 10
0.0
 20
0.0
 30
0.0
210
0.0
220
0.0
230
1.0
  2
SOLID
 70
     1
 71
     0
 91
        1
 92
        1
 93
        1
 72
     4
 94
        3
 73
     0
 74
     1
 95
       44
 96
       40
 40
0.0
 40
0.0
 40
0.0
 40
0.0
 40
1.0
 40
1.0
 40
1.0
 40
2.0
 40
2.0
 40
2.0
 40
3.0
 40
3.0
 40
3.0
 40
4.0
 40
4.0
 40
4.0
 40
5.0
 40
5.0
 40
5.0
 40
6.0
 40
6.0
 40
6.0
 40
7.0
 40
7.0
 40
7.0
 40
8.0
 40
8.0
 40
8.0
 40
9.0
 40
9.0
 40
9.0
 40
10.0
 40
10.0
 40
10.0
 40
11.0
 40
11.0
 40
11.0
 40
12.0
 40
12.0
 40
12.0
 40
13.0
 40
13.0
 40
13.0
 40
13.0
 10
112.1674858660554
 20
-116.6564452833359
 10
112.3263047679254
 20
-116.8893337381388
 10
112.4003743208582
 20
-116.9888969976625
 10
112.5440348025932
 20
-117.0405734299412
 10
112.5440348025932
 20
-117.0405734299412
 10
112.5440348025932
 20
-116.2089273798019
 10
112.5440348025932
 20
-116.2089273798019
 10
112.5440348025932
 20
-116.2089273798019
 10
112.7493624935141
 20
-116.2089273798019
 10
112.7493624935141
 20
-116.2089273798019
 10
112.7493624935141
 20
-116.2089273798019
 10
112.7493624935141
 20
-117.3075683300481
 10
112.7493624935141
 20
-117.3075683300481
 10
112.3917615821451
 20
-117.2734618847441
 10
112.31355791463
 20
-117.2035264463936
 10
112.0152126456073
 20
-116.7921820454547
 10
111.8164306361084
 20
-116.5186414639259
 10
111.748562255049
 20
-116.4483615160268
 10
111.6111029451875
 20
-116.4483615160268
 10
111.4925916604949
 20
-116.4483615160268
 10
111.3616780320554
 20
-116.5251871453479
 10
111.3616780320554
 20
-116.7356824794966
 10
111.3616780320554
 20
-117.0137016851563
 10
111.5921549200186
 20
-117.022658933418
 10
111.7085991474201
 20
-117.0271375575488
 10
111.7085991474201
 20
-117.0271375575488
 10
111.7085991474201
 20
-117.2669162033222
 10
111.7085991474201
 20
-117.2669162033222
 10
111.5814751240144
 20
-117.257614445512
 10
111.4695095207437
 20
-117.2465901399592
 10
111.3509982360511
 20
-117.1604627528279
 10
111.19011227689
 20
-117.0429849967809
 10
111.1563503411345
 20
-116.844202987282
 10
111.1563503411345
 20
-116.7198350402645
 10
111.1563503411345
 20
-116.423556828533
 10
111.3403184400469
 20
-116.2020371888314
 10
111.6131700024787
 20
-116.2020371888314
 10
111.8419243426992
 20
-116.2020371888314
 10
111.9411430926744
 20
-116.326405135849
 10
112.1674858660554
 20
-116.6564452833359
 97
        0
 97
        0
 75
     2
 76
     1
 98
        0
  0
SPLINE
  5
9B
330
95
100
AcDbEntity
  8
_U+30EC_U+30A4_U+30E4_U+30FC 1
370
     0
100
AcDbSpline
210
0.0
220
0.0
230
1.0
 70
    11
 71
     3
 72
    53
 73
    49
 74
     0
 42
0.0000000001
 43
0.0000000001
 12
1.0
 22
0.0
 32
0.0
 13
1.0
 23
0.0
 33
0.0
 40
0.0
 40
0.0
 40
0.0
 40
0.0
 40
1.0
 40
1.0
 40
1.0
 40
2.0
 40
2.0
 40
2.0
 40
3.0
 40
3.0
 40
3.0
 40
4.0
 40
4.0
 40
4.0
 40
5.0
 40
5.0
 40
5.0
 40
6.0
 40
6.0
 40
6.0
 40
7.0
 40
7.0
 40
7.0
 40
8.0
 40
8.0
 40
8.0
 40
9.0
 40
9.0
 40
9.0
 40
10.0
 40
10.0
 40
10.0
 40
11.0
 40
11.0
 40
11.0
 40
12.0
 40
12.0
 40
12.0
 40
13.0
 40
13.0
 40
13.0
 40
14.0
 40
14.0
 40
14.0
 40
15.0
 40
15.0
 40
15.0
 40
16.0
 40
16.0
 40
16.0
 40
16.0
 10
112.8000053971472
 20
-115.5185302445579
 30
0.0
 10
112.8000053971472
 20
-115.6019015553009
 30
0.0
 10
112.7831244292695
 20
-115.7107665726348
 30
0.0
 10
112.7197346723409
 20
-115.8189425708717
 30
0.0
 10
112.6098361263614
 20
-116.0046332175266
 30
0.0
 10
112.4785779883734
 20
-116.0270263381807
 30
0.0
 10
112.3707464996851
 20
-116.0473524015437
 30
0.0
 10
112.3707464996851
 20
-116.0473524015437
 30
0.0
 10
112.3707464996851
 20
-115.80998532261
 30
0.0
 10
112.3707464996851
 20
-115.80998532261
 30
0.0
 10
112.569528509184
 20
-115.7514186993608
 30
0.0
 10
112.5991563303572
 20
-115.6156819372419
 30
0.0
 10
112.5991563303572
 20
-115.5161186777182
 30
0.0
 10
112.5991563303572
 20
-115.3669460432069
 30
0.0
 10
112.4995930708334
 20
-115.2043375363031
 30
0.0
 10
112.2670491255791
 20
-115.2043375363031
 30
0.0
 10
112.011078531025
 20
-115.2043375363031
 30
0.0
 10
111.9411430926744
 20
-115.3962293548315
 30
0.0
 10
111.9411430926744
 20
-115.5250759259798
 30
0.0
 10
111.9411430926744
 20
-115.5591823712838
 30
0.0
 10
111.9411430926744
 20
-115.7107665726348
 30
0.0
 10
112.0703341733713
 20
-115.8055066984792
 30
0.0
 10
112.0703341733713
 20
-115.8055066984792
 30
0.0
 10
112.0513861482024
 20
-115.9932644024253
 30
0.0
 10
112.0513861482024
 20
-115.9932644024253
 30
0.0
 10
112.0513861482024
 20
-115.9932644024253
 30
0.0
 10
111.2049261874765
 20
-115.864417831277
 30
0.0
 10
111.2049261874765
 20
-115.864417831277
 30
0.0
 10
111.2049261874765
 20
-115.864417831277
 30
0.0
 10
111.2049261874765
 20
-115.0324272715891
 30
0.0
 10
111.2049261874765
 20
-115.0324272715891
 30
0.0
 10
111.2049261874765
 20
-115.0324272715891
 30
0.0
 10
111.3995740823932
 20
-115.0324272715891
 30
0.0
 10
111.3995740823932
 20
-115.0324272715891
 30
0.0
 10
111.3995740823932
 20
-115.0324272715891
 30
0.0
 10
111.3995740823932
 20
-115.6900959997233
 30
0.0
 10
111.3995740823932
 20
-115.6900959997233
 30
0.0
 10
111.3995740823932
 20
-115.6900959997233
 30
0.0
 10
111.8226318079818
 20
-115.7603759476224
 30
0.0
 10
111.8226318079818
 20
-115.7603759476224
 30
0.0
 10
111.7888698722264
 20
-115.6949191334027
 30
0.0
 10
111.748562255049
 20
-115.6067246889803
 30
0.0
 10
111.748562255049
 20
-115.4799451751231
 30
0.0
 10
111.748562255049
 20
-115.2088161604339
 30
0.0
 10
111.934941920801
 20
-114.955601642268
 30
0.0
 10
112.2481011004102
 20
-114.955601642268
 30
0.0
 10
112.5653943946017
 20
-114.955601642268
 30
0.0
 10
112.8000053971472
 20
-115.1950357784929
 30
0.0
 10
112.8000053971472
 20
-115.5185302445579
 30
0.0
  0
HATCH
  5
9C
330
95
100
AcDbEntity
  8
_U+30EC_U+30A4_U+30E4_U+30FC 1
 62
     7
420
 16777215
100
AcDbHatch
 10
0.0
 20
0.0
 30
0.0
210
0.0
220
0.0
230
1.0
  2
SOLID
 70
     1
 71
     0
 91
        1
 92
        1
 93
        1
 72
     4
 94
        3
 73
     0
 74
     1
 95
       53
 96
       49
 40
0.0
 40
0.0
 40
0.0
 40
0.0
 40
1.0
 40
1.0
 40
1.0
 40
2.0
 40
2.0
 40
2.0
 40
3.0
 40
3.0
 40
3.0
 40
4.0
 40
4.0
 40
4.0
 40
5.0
 40
5.0
 40
5.0
 40
6.0
 40
6.0
 40
6.0
 40
7.0
 40
7.0
 40
7.0
 40
8.0
 40
8.0
 40
8.0
 40
9.0
 40
9.0
 40
9.0
 40
10.0
 40
10.0
 40
10.0
 40
11.0
 40
11.0
 40
11.0
 40
12.0
 40
12.0
 40
12.0
 40
13.0
 40
13.0
 40
13.0
 40
14.0
 40
14.0
 40
14.0
 40
15.0
 40
15.0
 40
15.0
 40
16.0
 40
16.0
 40
16.0
 40
16.0
 10
112.8000053971472
 20
-115.5185302445579
 10
112.8000053971472
 20
-115.6019015553009
 10
112.7831244292695
 20
-115.7107665726348
 10
112.7197346723409
 20
-115.8189425708717
 10
112.6098361263614
 20
-116.0046332175266
 10
112.4785779883734
 20
-116.0270263381807
 10
112.3707464996851
 20
-116.0473524015437
 10
112.3707464996851
 20
-116.0473524015437
 10
112.3707464996851
 20
-115.80998532261
 10
112.3707464996851
 20
-115.80998532261
 10
112.569528509184
 20
-115.7514186993608
 10
112.5991563303572
 20
-115.6156819372419
 10
112.5991563303572
 20
-115.5161186777182
 10
112.5991563303572
 20
-115.3669460432069
 10
112.4995930708334
 20
-115.2043375363031
 10
112.2670491255791
 20
-115.2043375363031
 10
112.011078531025
 20
-115.2043375363031
 10
111.9411430926744
 20
-115.3962293548315
 10
111.9411430926744
 20
-115.5250759259798
 10
111.9411430926744
 20
-115.5591823712838
 10
111.9411430926744
 20
-115.7107665726348
 10
112.0703341733713
 20
-115.8055066984792
 10
112.0703341733713
 20
-115.8055066984792
 10
112.0513861482024
 20
-115.9932644024253
 10
112.0513861482024
 20
-115.9932644024253
 10
112.0513861482024
 20
-115.9932644024253
 10
111.2049261874765
 20
-115.864417831277
 10
111.2049261874765
 20
-115.864417831277
 10
111.2049261874765
 20
-115.864417831277
 10
111.2049261874765
 20
-115.0324272715891
 10
111.2049261874765
 20
-115.0324272715891
 10
111.2049261874765
 20
-115.0324272715891
 10
111.3995740823932
 20
-115.0324272715891
 10
111.3995740823932
 20
-115.0324272715891
 10
111.3995740823932
 20
-115.0324272715891
 10
111.3995740823932
 20
-115.6900959997233
 10
111.3995740823932
 20
-115.6900959997233
 10
111.3995740823932
 20
-115.6900959997233
 10
111.8226318079818
 20
-115.7603759476224
 10
111.8226318079818
 20
-115.7603759476224
 10
111.7888698722264
 20
-115.6949191334027
 10
111.748562255049
 20
-115.6067246889803
 10
111.748562255049
 20
-115.4799451751231
 10
111.748562255049
 20
-115.2088161604339
 10
111.934941920801
 20
-114.955601642268
 10
112.2481011004102
 20
-114.955601642268
 10
112.5653943946017
 20
-114.955601642268
 10
112.8000053971472
 20
-115.1950357784929
 10
112.8000053971472
 20
-115.5185302445579
 97
        0
 97
        0
 75
     2
 76
     1
 98
        0
  0
ENDBLK
  5
98
330
95
100
AcDbEntity
  8
0
100
AcDbBlockEnd
  0
BLOCK
  5
A7
330
A5
100
AcDbEntity
  8
0
100
AcDbBlockBegin
  2
block 5
 70
     0
 10
0.0
 20
0.0
 30
0.0
  3
block 5
  1

  0
SPLINE
  5
A9
330
A5
100
AcDbEntity
  8
_U+30EC_U+30A4_U+30E4_U+30FC 1
370
     0
100
AcDbSpline
210
0.0
220
0.0
230
1.0
 70
    11
 71
     3
 72
    26
 73
    22
 74
     0
 42
0.0000000001
 43
0.0000000001
 12
1.0
 22
0.0
 32
0.0
 13
1.0
 23
0.0
 33
0.0
 40
0.0
 40
0.0
 40
0.0
 40
0.0
 40
1.0
 40
1.0
 40
1.0
 40
2.0
 40
2.0
 40
2.0
 40
3.0
 40
3.0
 40
3.0
 40
4.0
 40
4.0
 40
4.0
 40
5.0
 40
5.0
 40
5.0
 40
6.0
 40
6.0
 40
6.0
 40
7.0
 40
7.0
 40
7.0
 40
7.0
 10
108.8691514484772
 20
-133.2214979050627
 30
0.0
 10
108.8691514484772
 20
-133.2214979050627
 30
0.0
 10
108.8691514484772
 20
-133.4747124232285
 30
0.0
 10
108.8691514484772
 20
-133.4747124232285
 30
0.0
 10
108.5601263834503
 20
-133.4478406784436
 30
0.0
 10
108.0419840224687
 20
-133.2418239684256
 30
0.0
 10
107.536244005234
 20
-132.8077419372842
 30
0.0
 10
107.536244005234
 20
-132.8077419372842
 30
0.0
 10
107.536244005234
 20
-133.7031222539006
 30
0.0
 10
107.536244005234
 20
-133.7031222539006
 30
0.0
 10
107.536244005234
 20
-133.7031222539006
 30
0.0
 10
107.3247151424397
 20
-133.7031222539006
 30
0.0
 10
107.3247151424397
 20
-133.7031222539006
 30
0.0
 10
107.3247151424397
 20
-133.7031222539006
 30
0.0
 10
107.3247151424397
 20
-132.5545274191183
 30
0.0
 10
107.3247151424397
 20
-132.5545274191183
 30
0.0
 10
107.3247151424397
 20
-132.5545274191183
 30
0.0
 10
107.536244005234
 20
-132.5545274191183
 30
0.0
 10
107.536244005234
 20
-132.5545274191183
 30
0.0
 10
107.826321045092
 20
-132.9004150058374
 30
0.0
 10
108.4185329590065
 20
-133.1853244024676
 30
0.0
 10
108.8691514484772
 20
-133.2214979050627
 30
0.0
  0
HATCH
  5
AA
330
A5
100
AcDbEntity
  8
_U+30EC_U+30A4_U+30E4_U+30FC 1
 62
     7
420
 16777215
100
AcDbHatch
 10
0.0
 20
0.0
 30
0.0
210
0.0
220
0.0
230
1.0
  2
SOLID
 70
     1
 71
     0
 91
        1
 92
        1
 93
        1
 72
     4
 94
        3
 73
     0
 74
     1
 95
       26
 96
       22
 40
0.0
 40
0.0
 40
0.0
 40
0.0
 40
1.0
 40
1.0
 40
1.0
 40
2.0
 40
2.0
 40
2.0
 40
3.0
 40
3.0
 40
3.0
 40
4.0
 40
4.0
 40
4.0
 40
5.0
 40
5.0
 40
5.0
 40
6.0
 40
6.0
 40
6.0
 40
7.0
 40
7.0
 40
7.0
 40
7.0
 10
108.8691514484772
 20
-133.2214979050627
 10
108.8691514484772
 20
-133.2214979050627
 10
108.8691514484772
 20
-133.4747124232285
 10
108.8691514484772
 20
-133.4747124232285
 10
108.5601263834503
 20
-133.4478406784436
 10
108.0419840224687
 20
-133.2418239684256
 10
107.536244005234
 20
-132.8077419372842
 10
107.536244005234
 20
-132.8077419372842
 10
107.536244005234
 20
-133.7031222539006
 10
107.536244005234
 20
-133.7031222539006
 10
107.536244005234
 20
-133.7031222539006
 10
107.3247151424397
 20
-133.7031222539006
 10
107.3247151424397
 20
-133.7031222539006
 10
107.3247151424397
 20
-133.7031222539006
 10
107.3247151424397
 20
-132.5545274191183
 10
107.3247151424397
 20
-132.5545274191183
 10
107.3247151424397
 20
-132.5545274191183
 10
107.536244005234
 20
-132.5545274191183
 10
107.536244005234
 20
-132.5545274191183
 10
107.826321045092
 20
-132.9004150058374
 10
108.4185329590065
 20
-133.1853244024676
 10
108.8691514484772
 20
-133.2214979050627
 97
        0
 97
        0
 75
     2
 76
     1
 98
        0
  0
ENDBLK
  5
A8
330
A5
100
AcDbEntity
  8
0
100
AcDbBlockEnd
  0
BLOCK
  5
B5
330
B3
100
AcDbEntity
  8
0
100
AcDbBlockBegin
  2
block 6
 70
     0
 10
0.0
 20
0.0
 30
0.0
  3
block 6
  1

  0
SPLINE
  5
B7
330
B3
100
AcDbEntity
  8
_U+30EC_U+30A4_U+30E4_U+30FC 1
370
     0
100
AcDbSpline
210
0.0
220
0.0
230
1.0
 70
    11
 71
     3
 72
    26
 73
    22
 74
     0
 42
0.0000000001
 43
0.0000000001
 12
1.0
 22
0.0
 32
0.0
 13
1.0
 23
0.0
 33
0.0
 40
0.0
 40
0.0
 40
0.0
 40
0.0
 40
1.0
 40
1.0
 40
1.0
 40
2.0
 40
2.0
 40
2.0
 40
3.0
 40
3.0
 40
3.0
 40
4.0
 40
4.0
 40
4.0
 40
5.0
 40
5.0
 40
5.0
 40
6.0
 40
6.0
 40
6.0
 40
7.0
 40
7.0
 40
7.0
 40
7.0
 10
69.18819713982101
 20
-140.2994465795085
 30
0.0
 10
69.18819713982101
 20
-140.2994465795085
 30
0.0
 10
69.02059324446361
 20
-140.1320149389253
 30
0.0
 10
69.02059324446361
 20
-140.1320149389253
 30
0.0
 10
69.257099049526
 20
-139.9311658721353
 30
0.0
 10
69.75973848082396
 20
-139.7010334937206
 30
0.0
 10
70.40448810088847
 20
-139.630409036273
 30
0.0
 10
70.40448810088847
 20
-139.630409036273
 30
0.0
 10
69.81210393219976
 20
-139.0381971223585
 30
0.0
 10
69.81210393219976
 20
-139.0381971223585
 30
0.0
 10
69.81210393219976
 20
-139.0381971223585
 30
0.0
 10
69.9616210762596
 20
-138.8886799782987
 30
0.0
 10
69.9616210762596
 20
-138.8886799782987
 30
0.0
 10
69.9616210762596
 20
-138.8886799782987
 30
0.0
 10
70.72160914030572
 20
-139.6486680423448
 30
0.0
 10
70.72160914030572
 20
-139.6486680423448
 30
0.0
 10
70.72160914030572
 20
-139.6486680423448
 30
0.0
 10
70.57209199624587
 20
-139.7981851864046
 30
0.0
 10
70.57209199624587
 20
-139.7981851864046
 30
0.0
 10
70.13800996510439
 20
-139.7744140275564
 30
0.0
 10
69.53063963105484
 20
-140.0045464059711
 30
0.0
 10
69.18819713982101
 20
-140.2994465795085
 30
0.0
  0
HATCH
  5
B8
330
B3
100
AcDbEntity
  8
_U+30EC_U+30A4_U+30E4_U+30FC 1
 62
     7
420
 16777215
100
AcDbHatch
 10
0.0
 20
0.0
 30
0.0
210
0.0
220
0.0
230
1.0
  2
SOLID
 70
     1
 71
     0
 91
        1
 92
        1
 93
        1
 72
     4
 94
        3
 73
     0
 74
     1
 95
       26
 96
       22
 40
0.0
 40
0.0
 40
0.0
 40
0.0
 40
1.0
 40
1.0
 40
1.0
 40
2.0
 40
2.0
 40
2.0
 40
3.0
 40
3.0
 40
3.0
 40
4.0
 40
4.0
 40
4.0
 40
5.0
 40
5.0
 40
5.0
 40
6.0
 40
6.0
 40
6.0
 40
7.0
 40
7.0
 40
7.0
 40
7.0
 10
69.18819713982101
 20
-140.2994465795085
 10
69.18819713982101
 20
-140.2994465795085
 10
69.02059324446361
 20
-140.1320149389253
 10
69.02059324446361
 20
-140.1320149389253
 10
69.257099049526
 20
-139.9311658721353
 10
69.75973848082396
 20
-139.7010334937206
 10
70.40448810088847
 20
-139.630409036273
 10
70.40448810088847
 20
-139.630409036273
 10
69.81210393219976
 20
-139.0381971223585
 10
69.81210393219976
 20
-139.0381971223585
 10
69.81210393219976
 20
-139.0381971223585
 10
69.9616210762596
 20
-138.8886799782987
 10
69.9616210762596
 20
-138.8886799782987
 10
69.9616210762596
 20
-138.8886799782987
 10
70.72160914030572
 20
-139.6486680423448
 10
70.72160914030572
 20
-139.6486680423448
 10
70.72160914030572
 20
-139.6486680423448
 10
70.57209199624587
 20
-139.7981851864046
 10
70.57209199624587
 20
-139.7981851864046
 10
70.13800996510439
 20
-139.7744140275564
 10
69.53063963105484
 20
-140.0045464059711
 10
69.18819713982101
 20
-140.2994465795085
 97
        0
 97
        0
 75
     2
 76
     1
 98
        0
  0
ENDBLK
  5
B6
330
B3
100
AcDbEntity
  8
0
100
AcDbBlockEnd
  0
BLOCK
  5
D0
330
CE
100
AcDbEntity
  8
0
100
AcDbBlockBegin
  2
block 7
 70
     0
 10
0.0
 20
0.0
 30
0.0
  3
block 7
  1

  0
SPLINE
  5
D2
330
CE
100
AcDbEntity
  8
_U+30EC_U+30A4_U+30E4_U+30FC 1
370
     0
100
AcDbSpline
210
0.0
220
0.0
230
1.0
 70
    11
 71
     3
 72
    26
 73
    22
 74
     0
 42
0.0000000001
 43
0.0000000001
 12
1.0
 22
0.0
 32
0.0
 13
1.0
 23
0.0
 33
0.0
 40
0.0
 40
0.0
 40
0.0
 40
0.0
 40
1.0
 40
1.0
 40
1.0
 40
2.0
 40
2.0
 40
2.0
 40
3.0
 40
3.0
 40
3.0
 40
4.0
 40
4.0
 40
4.0
 40
5.0
 40
5.0
 40
5.0
 40
6.0
 40
6.0
 40
6.0
 40
7.0
 40
7.0
 40
7.0
 40
7.0
 10
83.71116941266597
 20
-146.5829562350557
 30
0.0
 10
83.71116941266597
 20
-146.5829562350557
 30
0.0
 10
83.71116941266597
 20
-145.4788031320331
 30
0.0
 10
83.71116941266597
 20
-145.4788031320331
 30
0.0
 10
83.71116941266597
 20
-145.4788031320331
 30
0.0
 10
83.38112926517903
 20
-145.4788031320331
 30
0.0
 10
83.38112926517903
 20
-145.4788031320331
 30
0.0
 10
83.38112926517903
 20
-145.4788031320331
 30
0.0
 10
83.38112926517903
 20
-145.3306640261673
 30
0.0
 10
83.38112926517903
 20
-145.3306640261673
 30
0.0
 10
83.71323646995711
 20
-145.3158501155808
 30
0.0
 10
83.75974525900799
 20
-145.1528970991284
 30
0.0
 10
83.78937308018114
 20
-145.0385199290182
 30
0.0
 10
83.78937308018114
 20
-145.0385199290182
 30
0.0
 10
83.93544512875573
 20
-145.0385199290182
 30
0.0
 10
83.93544512875573
 20
-145.0385199290182
 30
0.0
 10
83.93544512875573
 20
-145.0385199290182
 30
0.0
 10
83.93544512875573
 20
-146.5829562350557
 30
0.0
 10
83.93544512875573
 20
-146.5829562350557
 30
0.0
 10
83.93544512875573
 20
-146.5829562350557
 30
0.0
 10
83.71116941266597
 20
-146.5829562350557
 30
0.0
 10
83.71116941266597
 20
-146.5829562350557
 30
0.0
  0
HATCH
  5
D3
330
CE
100
AcDbEntity
  8
_U+30EC_U+30A4_U+30E4_U+30FC 1
 62
     7
420
 16777215
100
AcDbHatch
 10
0.0
 20
0.0
 30
0.0
210
0.0
220
0.0
230
1.0
  2
SOLID
 70
     1
 71
     0
 91
        1
 92
        1
 93
        1
 72
     4
 94
        3
 73
     0
 74
     1
 95
       26
 96
       22
 40
0.0
 40
0.0
 40
0.0
 40
0.0
 40
1.0
 40
1.0
 40
1.0
 40
2.0
 40
2.0
 40
2.0
 40
3.0
 40
3.0
 40
3.0
 40
4.0
 40
4.0
 40
4.0
 40
5.0
 40
5.0
 40
5.0
 40
6.0
 40
6.0
 40
6.0
 40
7.0
 40
7.0
 40
7.0
 40
7.0
 10
83.71116941266597
 20
-146.5829562350557
 10
83.71116941266597
 20
-146.5829562350557
 10
83.71116941266597
 20
-145.4788031320331
 10
83.71116941266597
 20
-145.4788031320331
 10
83.71116941266597
 20
-145.4788031320331
 10
83.38112926517903
 20
-145.4788031320331
 10
83.38112926517903
 20
-145.4788031320331
 10
83.38112926517903
 20
-145.4788031320331
 10
83.38112926517903
 20
-145.3306640261673
 10
83.38112926517903
 20
-145.3306640261673
 10
83.71323646995711
 20
-145.3158501155808
 10
83.75974525900799
 20
-145.1528970991284
 10
83.78937308018114
 20
-145.0385199290182
 10
83.78937308018114
 20
-145.0385199290182
 10
83.93544512875573
 20
-145.0385199290182
 10
83.93544512875573
 20
-145.0385199290182
 10
83.93544512875573
 20
-145.0385199290182
 10
83.93544512875573
 20
-146.5829562350557
 10
83.93544512875573
 20
-146.5829562350557
 10
83.93544512875573
 20
-146.5829562350557
 10
83.71116941266597
 20
-146.5829562350557
 10
83.71116941266597
 20
-146.5829562350557
 97
        0
 97
        0
 75
     2
 76
     1
 98
        0
  0
POLYLINE
  5
D4
330
CE
100
AcDbEntity
  8
_U+30EC_U+30A4_U+30E4_U+30FC 1
370
     0
100
AcDb2dPolyline
 66
     1
 10
0.0
 20
0.0
 30
0.0
  0
VERTEX
  5
D5
330
D4
100
AcDbEntity
  8
_U+30EC_U+30A4_U+30E4_U+30FC 1
370
     0
100
AcDbVertex
100
AcDb2dVertex
 10
85.26869708154742
 20
-146.236035119691
 30
0.0
  0
VERTEX
  5
D6
330
D4
100
AcDbEntity
  8
_U+30EC_U+30A4_U+30E4_U+30FC 1
370
     0
100
AcDbVertex
100
AcDb2dVertex
 10
85.26869708154742
 20
-146.5829562350557
 30
0.0
  0
VERTEX
  5
D7
330
D4
100
AcDbEntity
  8
_U+30EC_U+30A4_U+30E4_U+30FC 1
370
     0
100
AcDbVertex
100
AcDb2dVertex
 10
85.05079479210536
 20
-146.5829562350557
 30
0.0
  0
VERTEX
  5
D8
330
D4
100
AcDbEntity
  8
_U+30EC_U+30A4_U+30E4_U+30FC 1
370
     0
100
AcDbVertex
100
AcDb2dVertex
 10
85.05079479210536
 20
-146.236035119691
 30
0.0
  0
VERTEX
  5
D9
330
D4
100
AcDbEntity
  8
_U+30EC_U+30A4_U+30E4_U+30FC 1
370
     0
100
AcDbVertex
100
AcDb2dVertex
 10
84.39502086648805
 20
-146.236035119691
 30
0.0
  0
VERTEX
  5
DA
330
D4
100
AcDbEntity
  8
_U+30EC_U+30A4_U+30E4_U+30FC 1
370
     0
100
AcDbVertex
100
AcDb2dVertex
 10
84.39502086648805
 20
-146.0117594036012
 30
0.0
  0
VERTEX
  5
DB
330
D4
100
AcDbEntity
  8
_U+30EC_U+30A4_U+30E4_U+30FC 1
370
     0
100
AcDbVertex
100
AcDb2dVertex
 10
85.0740491866308
 20
-145.0385199290182
 30
0.0
  0
VERTEX
  5
DC
330
D4
100
AcDbEntity
  8
_U+30EC_U+30A4_U+30E4_U+30FC 1
370
     0
100
AcDbVertex
100
AcDb2dVertex
 10
85.26869708154742
 20
-145.0385199290182
 30
0.0
  0
VERTEX
  5
DD
330
D4
100
AcDbEntity
  8
_U+30EC_U+30A4_U+30E4_U+30FC 1
370
     0
100
AcDbVertex
100
AcDb2dVertex
 10
85.26869708154742
 20
-146.0372531101921
 30
0.0
  0
VERTEX
  5
DE
330
D4
100
AcDbEntity
  8
_U+30EC_U+30A4_U+30E4_U+30FC 1
370
     0
100
AcDbVertex
100
AcDb2dVertex
 10
85.47609182975945
 20
-146.0372531101921
 30
0.0
  0
VERTEX
  5
DF
330
D4
100
AcDbEntity
  8
_U+30EC_U+30A4_U+30E4_U+30FC 1
370
     0
100
AcDbVertex
100
AcDb2dVertex
 10
85.47609182975945
 20
-146.236035119691
 30
0.0
  0
VERTEX
  5
E0
330
D4
100
AcDbEntity
  8
_U+30EC_U+30A4_U+30E4_U+30FC 1
370
     0
100
AcDbVertex
100
AcDb2dVertex
 10
85.26869708154742
 20
-146.236035119691
 30
0.0
  0
SEQEND
  5
E1
330
D4
100
AcDbEntity
  8
_U+30EC_U+30A4_U+30E4_U+30FC 1
370
     0
  0
POLYLINE
  5
E2
330
CE
100
AcDbEntity
  8
_U+30EC_U+30A4_U+30E4_U+30FC 1
370
     0
100
AcDb2dPolyline
 66
     1
 10
0.0
 20
0.0
 30
0.0
  0
VERTEX
  5
E3
330
E2
100
AcDbEntity
  8
_U+30EC_U+30A4_U+30E4_U+30FC 1
370
     0
100
AcDbVertex
100
AcDb2dVertex
 10
85.05079479210536
 20
-145.3813069298005
 30
0.0
  0
VERTEX
  5
E4
330
E2
100
AcDbEntity
  8
_U+30EC_U+30A4_U+30E4_U+30FC 1
370
     0
100
AcDbVertex
100
AcDb2dVertex
 10
84.59397513076124
 20
-146.0372531101921
 30
0.0
  0
VERTEX
  5
E5
330
E2
100
AcDbEntity
  8
_U+30EC_U+30A4_U+30E4_U+30FC 1
370
     0
100
AcDbVertex
100
AcDb2dVertex
 10
85.05079479210536
 20
-146.0372531101921
 30
0.0
  0
VERTEX
  5
E6
330
E2
100
AcDbEntity
  8
_U+30EC_U+30A4_U+30E4_U+30FC 1
370
     0
100
AcDbVertex
100
AcDb2dVertex
 10
85.05079479210536
 20
-145.3813069298005
 30
0.0
  0
SEQEND
  5
E7
330
E2
100
AcDbEntity
  8
_U+30EC_U+30A4_U+30E4_U+30FC 1
370
     0
  0
HATCH
  5
E8
330
CE
100
AcDbEntity
  8
_U+30EC_U+30A4_U+30E4_U+30FC 1
 62
     7
420
 16777215
100
AcDbHatch
 10
0.0
 20
0.0
 30
0.0
210
0.0
220
0.0
230
1.0
  2
SOLID
 70
     1
 71
     0
 91
        2
 92
        1
 93
       11
 72
     1
 10
85.26869708154742
 20
-146.236035119691
 11
85.26869708154742
 21
-146.5829562350557
 72
     1
 10
85.26869708154742
 20
-146.5829562350557
 11
85.05079479210536
 21
-146.5829562350557
 72
     1
 10
85.05079479210536
 20
-146.5829562350557
 11
85.05079479210536
 21
-146.236035119691
 72
     1
 10
85.05079479210536
 20
-146.236035119691
 11
84.39502086648805
 21
-146.236035119691
 72
     1
 10
84.39502086648805
 20
-146.236035119691
 11
84.39502086648805
 21
-146.0117594036012
 72
     1
 10
84.39502086648805
 20
-146.0117594036012
 11
85.0740491866308
 21
-145.0385199290182
 72
     1
 10
85.0740491866308
 20
-145.0385199290182
 11
85.26869708154742
 21
-145.0385199290182
 72
     1
 10
85.26869708154742
 20
-145.0385199290182
 11
85.26869708154742
 21
-146.0372531101921
 72
     1
 10
85.26869708154742
 20
-146.0372531101921
 11
85.47609182975945
 21
-146.0372531101921
 72
     1
 10
85.47609182975945
 20
-146.0372531101921
 11
85.47609182975945
 21
-146.236035119691
 72
     1
 10
85.47609182975945
 20
-146.236035119691
 11
85.26869708154742
 21
-146.236035119691
 97
        0
 92
        1
 93
        3
 72
     1
 10
85.05079479210536
 20
-145.3813069298005
 11
84.59397513076124
 21
-146.0372531101921
 72
     1
 10
84.59397513076124
 20
-146.0372531101921
 11
85.05079479210536
 21
-146.0372531101921
 72
     1
 10
85.05079479210536
 20
-146.0372531101921
 11
85.05079479210536
 21
-145.3813069298005
 97
        0
 75
     2
 76
     1
 98
        0
  0
ENDBLK
  5
D1
330
CE
100
AcDbEntity
  8
0
100
AcDbBlockEnd
  0
BLOCK
  5
F7
330
F5
100
AcDbEntity
  8
0
100
AcDbBlockBegin
  2
block 8
 70
     0
 10
0.0
 20
0.0
 30
0.0
  3
block 8
  1

  0
SPLINE
  5
F9
330
F5
100
AcDbEntity
  8
_U+30EC_U+30A4_U+30E4_U+30FC 1
370
     0
100
AcDbSpline
210
0.0
220
0.0
230
1.0
 70
    11
 71
     3
 72
    26
 73
    22
 74
     0
 42
0.0000000001
 43
0.0000000001
 12
1.0
 22
0.0
 32
0.0
 13
1.0
 23
0.0
 33
0.0
 40
0.0
 40
0.0
 40
0.0
 40
0.0
 40
1.0
 40
1.0
 40
1.0
 40
2.0
 40
2.0
 40
2.0
 40
3.0
 40
3.0
 40
3.0
 40
4.0
 40
4.0
 40
4.0
 40
5.0
 40
5.0
 40
5.0
 40
6.0
 40
6.0
 40
6.0
 40
7.0
 40
7.0
 40
7.0
 40
7.0
 10
90.18691539629008
 20
-150.8162895673307
 30
0.0
 10
90.18691539629008
 20
-150.8162895673307
 30
0.0
 10
90.18691539629008
 20
-149.7121364643081
 30
0.0
 10
90.18691539629008
 20
-149.7121364643081
 30
0.0
 10
90.18691539629008
 20
-149.7121364643081
 30
0.0
 10
89.85687524880315
 20
-149.7121364643081
 30
0.0
 10
89.85687524880315
 20
-149.7121364643081
 30
0.0
 10
89.85687524880315
 20
-149.7121364643081
 30
0.0
 10
89.85687524880315
 20
-149.5639973584424
 30
0.0
 10
89.85687524880315
 20
-149.5639973584424
 30
0.0
 10
90.18898245358123
 20
-149.5491834478558
 30
0.0
 10
90.23549124263211
 20
-149.3862304314034
 30
0.0
 10
90.26511906380526
 20
-149.2718532612932
 30
0.0
 10
90.26511906380526
 20
-149.2718532612932
 30
0.0
 10
90.41119111237984
 20
-149.2718532612932
 30
0.0
 10
90.41119111237984
 20
-149.2718532612932
 30
0.0
 10
90.41119111237984
 20
-149.2718532612932
 30
0.0
 10
90.41119111237984
 20
-150.8162895673307
 30
0.0
 10
90.41119111237984
 20
-150.8162895673307
 30
0.0
 10
90.41119111237984
 20
-150.8162895673307
 30
0.0
 10
90.18691539629008
 20
-150.8162895673307
 30
0.0
 10
90.18691539629008
 20
-150.8162895673307
 30
0.0
  0
HATCH
  5
FA
330
F5
100
AcDbEntity
  8
_U+30EC_U+30A4_U+30E4_U+30FC 1
 62
     7
420
 16777215
100
AcDbHatch
 10
0.0
 20
0.0
 30
0.0
210
0.0
220
0.0
230
1.0
  2
SOLID
 70
     1
 71
     0
 91
        1
 92
        1
 93
        1
 72
     4
 94
        3
 73
     0
 74
     1
 95
       26
 96
       22
 40
0.0
 40
0.0
 40
0.0
 40
0.0
 40
1.0
 40
1.0
 40
1.0
 40
2.0
 40
2.0
 40
2.0
 40
3.0
 40
3.0
 40
3.0
 40
4.0
 40
4.0
 40
4.0
 40
5.0
 40
5.0
 40
5.0
 40
6.0
 40
6.0
 40
6.0
 40
7.0
 40
7.0
 40
7.0
 40
7.0
 10
90.18691539629008
 20
-150.8162895673307
 10
90.18691539629008
 20
-150.8162895673307
 10
90.18691539629008
 20
-149.7121364643081
 10
90.18691539629008
 20
-149.7121364643081
 10
90.18691539629008
 20
-149.7121364643081
 10
89.85687524880315
 20
-149.7121364643081
 10
89.85687524880315
 20
-149.7121364643081
 10
89.85687524880315
 20
-149.7121364643081
 10
89.85687524880315
 20
-149.5639973584424
 10
89.85687524880315
 20
-149.5639973584424
 10
90.18898245358123
 20
-149.5491834478558
 10
90.23549124263211
 20
-149.3862304314034
 10
90.26511906380526
 20
-149.2718532612932
 10
90.26511906380526
 20
-149.2718532612932
 10
90.41119111237984
 20
-149.2718532612932
 10
90.41119111237984
 20
-149.2718532612932
 10
90.41119111237984
 20
-149.2718532612932
 10
90.41119111237984
 20
-150.8162895673307
 10
90.41119111237984
 20
-150.8162895673307
 10
90.41119111237984
 20
-150.8162895673307
 10
90.18691539629008
 20
-150.8162895673307
 10
90.18691539629008
 20
-150.8162895673307
 97
        0
 97
        0
 75
     2
 76
     1
 98
        0
  0
POLYLINE
  5
FB
330
F5
100
AcDbEntity
  8
_U+30EC_U+30A4_U+30E4_U+30FC 1
370
     0
100
AcDb2dPolyline
 66
     1
 10
0.0
 20
0.0
 30
0.0
  0
VERTEX
  5
FC
330
FB
100
AcDbEntity
  8
_U+30EC_U+30A4_U+30E4_U+30FC 1
370
     0
100
AcDbVertex
100
AcDb2dVertex
 10
90.97239716692704
 20
-150.8162895673307
 30
0.0
  0
VERTEX
  5
FD
330
FB
100
AcDbEntity
  8
_U+30EC_U+30A4_U+30E4_U+30FC 1
370
     0
100
AcDbVertex
100
AcDb2dVertex
 10
90.97239716692704
 20
-150.5644530873589
 30
0.0
  0
VERTEX
  5
FE
330
FB
100
AcDbEntity
  8
_U+30EC_U+30A4_U+30E4_U+30FC 1
370
     0
100
AcDbVertex
100
AcDb2dVertex
 10
91.22423364689881
 20
-150.5644530873589
 30
0.0
  0
VERTEX
  5
FF
330
FB
100
AcDbEntity
  8
_U+30EC_U+30A4_U+30E4_U+30FC 1
370
     0
100
AcDbVertex
100
AcDb2dVertex
 10
91.22423364689881
 20
-150.8162895673307
 30
0.0
  0
VERTEX
  5
100
330
FB
100
AcDbEntity
  8
_U+30EC_U+30A4_U+30E4_U+30FC 1
370
     0
100
AcDbVertex
100
AcDb2dVertex
 10
90.97239716692704
 20
-150.8162895673307
 30
0.0
  0
SEQEND
  5
101
330
FB
100
AcDbEntity
  8
_U+30EC_U+30A4_U+30E4_U+30FC 1
370
     0
  0
HATCH
  5
102
330
F5
100
AcDbEntity
  8
_U+30EC_U+30A4_U+30E4_U+30FC 1
 62
     7
420
 16777215
100
AcDbHatch
 10
0.0
 20
0.0
 30
0.0
210
0.0
220
0.0
230
1.0
  2
SOLID
 70
     1
 71
     0
 91
        1
 92
        1
 93
        4
 72
     1
 10
90.97239716692704
 20
-150.8162895673307
 11
90.97239716692704
 21
-150.5644530873589
 72
     1
 10
90.97239716692704
 20
-150.5644530873589
 11
91.22423364689881
 21
-150.5644530873589
 72
     1
 10
91.22423364689881
 20
-150.5644530873589
 11
91.22423364689881
 21
-150.8162895673307
 72
     1
 10
91.22423364689881
 20
-150.8162895673307
 11
90.97239716692704
 21
-150.8162895673307
 97
        0
 75
     2
 76
     1
 98
        0
  0
SPLINE
  5
103
330
F5
100
AcDbEntity
  8
_U+30EC_U+30A4_U+30E4_U+30FC 1
370
     0
100
AcDbSpline
210
0.0
220
0.0
230
1.0
 70
    11
 71
     3
 72
    53
 73
    49
 74
     0
 42
0.0000000001
 43
0.0000000001
 12
1.0
 22
0.0
 32
0.0
 13
1.0
 23
0.0
 33
0.0
 40
0.0
 40
0.0
 40
0.0
 40
0.0
 40
1.0
 40
1.0
 40
1.0
 40
2.0
 40
2.0
 40
2.0
 40
3.0
 40
3.0
 40
3.0
 40
4.0
 40
4.0
 40
4.0
 40
5.0
 40
5.0
 40
5.0
 40
6.0
 40
6.0
 40
6.0
 40
7.0
 40
7.0
 40
7.0
 40
8.0
 40
8.0
 40
8.0
 40
9.0
 40
9.0
 40
9.0
 40
10.0
 40
10.0
 40
10.0
 40
11.0
 40
11.0
 40
11.0
 40
12.0
 40
12.0
 40
12.0
 40
13.0
 40
13.0
 40
13.0
 40
14.0
 40
14.0
 40
14.0
 40
15.0
 40
15.0
 40
15.0
 40
16.0
 40
16.0
 40
16.0
 40
16.0
 10
91.94133027215356
 20
-150.8669324709638
 30
0.0
 10
91.8631266046384
 20
-150.8669324709638
 30
0.0
 10
91.76149628782352
 20
-150.8500515030861
 30
0.0
 10
91.65986597100864
 20
-150.7866617461575
 30
0.0
 10
91.48657766810058
 20
-150.676763200178
 30
0.0
 10
91.46521807609203
 20
-150.54550506219
 30
0.0
 10
91.44627005092316
 20
-150.4376735735017
 30
0.0
 10
91.44627005092316
 20
-150.4376735735017
 30
0.0
 10
91.66847870972177
 20
-150.4376735735017
 30
0.0
 10
91.66847870972177
 20
-150.4376735735017
 30
0.0
 10
91.72325572793724
 20
-150.6364555830006
 30
0.0
 10
91.85037975134297
 20
-150.6660834041738
 30
0.0
 10
91.94339732944471
 20
-150.6660834041738
 30
0.0
 10
92.08292369659733
 20
-150.6660834041738
 30
0.0
 10
92.23519691704537
 20
-150.56652014465
 30
0.0
 10
92.23519691704537
 20
-150.3339761993957
 30
0.0
 10
92.23519691704537
 20
-150.0780056048416
 30
0.0
 10
92.05536293271533
 20
-150.0080701664911
 30
0.0
 10
91.93478459073158
 20
-150.0080701664911
 30
0.0
 10
91.90308971226729
 20
-150.0080701664911
 30
0.0
 10
91.76149628782352
 20
-150.0080701664911
 30
0.0
 10
91.67261282430407
 20
-150.1372612471879
 30
0.0
 10
91.67261282430407
 20
-150.1372612471879
 30
0.0
 10
91.49691295455634
 20
-150.118313222019
 30
0.0
 10
91.49691295455634
 20
-150.118313222019
 30
0.0
 10
91.49691295455634
 20
-150.118313222019
 30
0.0
 10
91.61749129654008
 20
-149.2718532612932
 30
0.0
 10
91.61749129654008
 20
-149.2718532612932
 30
0.0
 10
91.61749129654008
 20
-149.2718532612932
 30
0.0
 10
92.39608287620653
 20
-149.2718532612932
 30
0.0
 10
92.39608287620653
 20
-149.2718532612932
 30
0.0
 10
92.39608287620653
 20
-149.2718532612932
 30
0.0
 10
92.39608287620653
 20
-149.4665011562098
 30
0.0
 10
92.39608287620653
 20
-149.4665011562098
 30
0.0
 10
92.39608287620653
 20
-149.4665011562098
 30
0.0
 10
91.78044431299239
 20
-149.4665011562098
 30
0.0
 10
91.78044431299239
 20
-149.4665011562098
 30
0.0
 10
91.78044431299239
 20
-149.4665011562098
 30
0.0
 10
91.71498749877264
 20
-149.8895588817985
 30
0.0
 10
91.71498749877264
 20
-149.8895588817985
 30
0.0
 10
91.77631019841009
 20
-149.855796946043
 30
0.0
 10
91.85864798050757
 20
-149.8154893288656
 30
0.0
 10
91.97715926520016
 20
-149.8154893288656
 30
0.0
 10
92.23106280246307
 20
-149.8154893288656
 30
0.0
 10
92.46808537184826
 20
-150.0018689946176
 30
0.0
 10
92.46808537184826
 20
-150.3150281742268
 30
0.0
 10
92.46808537184826
 20
-150.6323214684183
 30
0.0
 10
92.2438096557585
 20
-150.8669324709638
 30
0.0
 10
91.94133027215356
 20
-150.8669324709638
 30
0.0
  0
HATCH
  5
104
330
F5
100
AcDbEntity
  8
_U+30EC_U+30A4_U+30E4_U+30FC 1
 62
     7
420
 16777215
100
AcDbHatch
 10
0.0
 20
0.0
 30
0.0
210
0.0
220
0.0
230
1.0
  2
SOLID
 70
     1
 71
     0
 91
        1
 92
        1
 93
        1
 72
     4
 94
        3
 73
     0
 74
     1
 95
       53
 96
       49
 40
0.0
 40
0.0
 40
0.0
 40
0.0
 40
1.0
 40
1.0
 40
1.0
 40
2.0
 40
2.0
 40
2.0
 40
3.0
 40
3.0
 40
3.0
 40
4.0
 40
4.0
 40
4.0
 40
5.0
 40
5.0
 40
5.0
 40
6.0
 40
6.0
 40
6.0
 40
7.0
 40
7.0
 40
7.0
 40
8.0
 40
8.0
 40
8.0
 40
9.0
 40
9.0
 40
9.0
 40
10.0
 40
10.0
 40
10.0
 40
11.0
 40
11.0
 40
11.0
 40
12.0
 40
12.0
 40
12.0
 40
13.0
 40
13.0
 40
13.0
 40
14.0
 40
14.0
 40
14.0
 40
15.0
 40
15.0
 40
15.0
 40
16.0
 40
16.0
 40
16.0
 40
16.0
 10
91.94133027215356
 20
-150.8669324709638
 10
91.8631266046384
 20
-150.8669324709638
 10
91.76149628782352
 20
-150.8500515030861
 10
91.65986597100864
 20
-150.7866617461575
 10
91.48657766810058
 20
-150.676763200178
 10
91.46521807609203
 20
-150.54550506219
 10
91.44627005092316
 20
-150.4376735735017
 10
91.44627005092316
 20
-150.4376735735017
 10
91.66847870972177
 20
-150.4376735735017
 10
91.66847870972177
 20
-150.4376735735017
 10
91.72325572793724
 20
-150.6364555830006
 10
91.85037975134297
 20
-150.6660834041738
 10
91.94339732944471
 20
-150.6660834041738
 10
92.08292369659733
 20
-150.6660834041738
 10
92.23519691704537
 20
-150.56652014465
 10
92.23519691704537
 20
-150.3339761993957
 10
92.23519691704537
 20
-150.0780056048416
 10
92.05536293271533
 20
-150.0080701664911
 10
91.93478459073158
 20
-150.0080701664911
 10
91.90308971226729
 20
-150.0080701664911
 10
91.76149628782352
 20
-150.0080701664911
 10
91.67261282430407
 20
-150.1372612471879
 10
91.67261282430407
 20
-150.1372612471879
 10
91.49691295455634
 20
-150.118313222019
 10
91.49691295455634
 20
-150.118313222019
 10
91.49691295455634
 20
-150.118313222019
 10
91.61749129654008
 20
-149.2718532612932
 10
91.61749129654008
 20
-149.2718532612932
 10
91.61749129654008
 20
-149.2718532612932
 10
92.39608287620653
 20
-149.2718532612932
 10
92.39608287620653
 20
-149.2718532612932
 10
92.39608287620653
 20
-149.2718532612932
 10
92.39608287620653
 20
-149.4665011562098
 10
92.39608287620653
 20
-149.4665011562098
 10
92.39608287620653
 20
-149.4665011562098
 10
91.78044431299239
 20
-149.4665011562098
 10
91.78044431299239
 20
-149.4665011562098
 10
91.78044431299239
 20
-149.4665011562098
 10
91.71498749877264
 20
-149.8895588817985
 10
91.71498749877264
 20
-149.8895588817985
 10
91.77631019841009
 20
-149.855796946043
 10
91.85864798050757
 20
-149.8154893288656
 10
91.97715926520016
 20
-149.8154893288656
 10
92.23106280246307
 20
-149.8154893288656
 10
92.46808537184826
 20
-150.0018689946176
 10
92.46808537184826
 20
-150.3150281742268
 10
92.46808537184826
 20
-150.6323214684183
 10
92.2438096557585
 20
-150.8669324709638
 10
91.94133027215356
 20
-150.8669324709638
 97
        0
 97
        0
 75
     2
 76
     1
 98
        0
  0
ENDBLK
  5
F8
330
F5
100
AcDbEntity
  8
0
100
AcDbBlockEnd
  0
ENDSEC
  0
SECTION
  2
ENTITIES
  0
POLYLINE
  5
41
330
1F
100
AcDbEntity
  8
_U+30EC_U+30A4_U+30E4_U+30FC 1
 62
   253
420
 10855845
370
     9
100
AcDb2dPolyline
 66
     1
 10
0.0
 20
0.0
 30
0.0
  0
VERTEX
  5
42
330
41
100
AcDbEntity
  8
_U+30EC_U+30A4_U+30E4_U+30FC 1
 62
   253
420
 10855845
370
     9
100
AcDbVertex
100
AcDb2dVertex
 10
71.1212329077684
 20
-133.4333613555307
 30
0.0
  0
VERTEX
  5
43
330
41
100
AcDbEntity
  8
_U+30EC_U+30A4_U+30E4_U+30FC 1
 62
   253
420
 10855845
370
     9
100
AcDbVertex
100
AcDb2dVertex
 10
71.1212329077684
 20
-119.4986391367922
 30
0.0
  0
VERTEX
  5
44
330
41
100
AcDbEntity
  8
_U+30EC_U+30A4_U+30E4_U+30FC 1
 62
   253
420
 10855845
370
     9
100
AcDbVertex
100
AcDb2dVertex
 10
72.73836619984523
 20
-118.0282966371596
 30
0.0
  0
VERTEX
  5
45
330
41
100
AcDbEntity
  8
_U+30EC_U+30A4_U+30E4_U+30FC 1
 62
   253
420
 10855845
370
     9
100
AcDbVertex
100
AcDb2dVertex
 10
72.73836619984523
 20
-119.3222502479474
 30
0.0
  0
VERTEX
  5
46
330
41
100
AcDbEntity
  8
_U+30EC_U+30A4_U+30E4_U+30FC 1
 62
   253
420
 10855845
370
     9
100
AcDbVertex
100
AcDb2dVertex
 10
72.15028565929286
 20
-119.9685744144523
 30
0.0
  0
VERTEX
  5
47
330
41
100
AcDbEntity
  8
_U+30EC_U+30A4_U+30E4_U+30FC 1
 62
   253
420
 10855845
370
     9
100
AcDbVertex
100
AcDb2dVertex
 10
72.12100510448431
 20
-132.8449633001221
 30
0.0
  0
VERTEX
  5
48
330
41
100
AcDbEntity
  8
_U+30EC_U+30A4_U+30E4_U+30FC 1
 62
   253
420
 10855845
370
     9
100
AcDbVertex
100
AcDb2dVertex
 10
73.94345505798974
 20
-134.6680835774443
 30
0.0
  0
VERTEX
  5
49
330
41
100
AcDbEntity
  8
_U+30EC_U+30A4_U+30E4_U+30FC 1
 62
   253
420
 10855845
370
     9
100
AcDbVertex
100
AcDb2dVertex
 10
80.11706601159892
 20
-128.5234355234248
 30
0.0
  0
VERTEX
  5
4A
330
41
100
AcDbEntity
  8
_U+30EC_U+30A4_U+30E4_U+30FC 1
 62
   253
420
 10855845
370
     9
100
AcDbVertex
100
AcDb2dVertex
 10
80.11706601159892
 20
-103.5644077518867
 30
0.0
  0
VERTEX
  5
4B
330
41
100
AcDbEntity
  8
_U+30EC_U+30A4_U+30E4_U+30FC 1
 62
   253
420
 10855845
370
     9
100
AcDbVertex
100
AcDb2dVertex
 10
81.02864376612041
 20
-103.5354446963385
 30
0.0
  0
VERTEX
  5
4C
330
41
100
AcDbEntity
  8
_U+30EC_U+30A4_U+30E4_U+30FC 1
 62
   253
420
 10855845
370
     9
100
AcDbVertex
100
AcDb2dVertex
 10
81.05757154316018
 20
-128.6412280233952
 30
0.0
  0
VERTEX
  5
4D
330
41
100
AcDbEntity
  8
_U+30EC_U+30A4_U+30E4_U+30FC 1
 62
   253
420
 10855845
370
     9
100
AcDbVertex
100
AcDb2dVertex
 10
106.0165986841801
 20
-128.6412280233952
 30
0.0
  0
VERTEX
  5
4E
330
41
100
AcDbEntity
  8
_U+30EC_U+30A4_U+30E4_U+30FC 1
 62
   253
420
 10855845
370
     9
100
AcDbVertex
100
AcDb2dVertex
 10
106.0165986841801
 20
-129.6699633009159
 30
0.0
  0
VERTEX
  5
4F
330
41
100
AcDbEntity
  8
_U+30EC_U+30A4_U+30E4_U+30FC 1
 62
   253
420
 10855845
370
     9
100
AcDbVertex
100
AcDb2dVertex
 10
80.49947711295391
 20
-129.6113669120415
 30
0.0
  0
VERTEX
  5
50
330
41
100
AcDbEntity
  8
_U+30EC_U+30A4_U+30E4_U+30FC 1
 62
   253
420
 10855845
370
     9
100
AcDbVertex
100
AcDb2dVertex
 10
74.91359392212833
 20
-135.3440057994972
 30
0.0
  0
VERTEX
  5
51
330
41
100
AcDbEntity
  8
_U+30EC_U+30A4_U+30E4_U+30FC 1
 62
   253
420
 10855845
370
     9
100
AcDbVertex
100
AcDb2dVertex
 10
76.76567720821109
 20
-137.2257224656937
 30
0.0
  0
VERTEX
  5
52
330
41
100
AcDbEntity
  8
_U+30EC_U+30A4_U+30E4_U+30FC 1
 62
   253
420
 10855845
370
     9
100
AcDbVertex
100
AcDb2dVertex
 10
89.7009796559818
 20
-137.3431974656639
 30
0.0
  0
VERTEX
  5
53
330
41
100
AcDbEntity
  8
_U+30EC_U+30A4_U+30E4_U+30FC 1
 62
   253
420
 10855845
370
     9
100
AcDbVertex
100
AcDb2dVertex
 10
90.2301463091483
 20
-136.7551169102556
 30
0.0
  0
VERTEX
  5
54
330
41
100
AcDbEntity
  8
_U+30EC_U+30A4_U+30E4_U+30FC 1
 62
   253
420
 10855845
370
     9
100
AcDbVertex
100
AcDb2dVertex
 10
91.67053793906751
 20
-136.8140307991295
 30
0.0
  0
VERTEX
  5
55
330
41
100
AcDbEntity
  8
_U+30EC_U+30A4_U+30E4_U+30FC 1
 62
   253
420
 10855845
370
     9
100
AcDbVertex
100
AcDb2dVertex
 10
90.20086575433976
 20
-138.3426169098587
 30
0.0
  0
VERTEX
  5
56
330
41
100
AcDbEntity
  8
_U+30EC_U+30A4_U+30E4_U+30FC 1
 62
   253
420
 10855845
370
     9
100
AcDbVertex
100
AcDb2dVertex
 10
76.20723000023604
 20
-138.3722502431849
 30
0.0
  0
VERTEX
  5
57
330
41
100
AcDbEntity
  8
_U+30EC_U+30A4_U+30E4_U+30FC 1
 62
   253
420
 10855845
370
     9
100
AcDbVertex
100
AcDb2dVertex
 10
71.1212329077684
 20
-133.4333613555307
 30
0.0
  0
SEQEND
  5
59
330
41
100
AcDbEntity
  8
_U+30EC_U+30A4_U+30E4_U+30FC 1
 62
   253
420
 10855845
370
     9
  0
HATCH
  5
58
330
1F
100
AcDbEntity
  8
_U+30EC_U+30A4_U+30E4_U+30FC 1
 62
   253
420
 10855845
100
AcDbHatch
 10
0.0
 20
0.0
 30
0.0
210
0.0
220
0.0
230
1.0
  2
SOLID
 70
     1
 71
     0
 91
        1
 92
        1
 93
       21
 72
     1
 10
71.1212329077684
 20
-133.4333613555307
 11
71.1212329077684
 21
-119.4986391367922
 72
     1
 10
71.1212329077684
 20
-119.4986391367922
 11
72.73836619984523
 21
-118.0282966371596
 72
     1
 10
72.73836619984523
 20
-118.0282966371596
 11
72.73836619984523
 21
-119.3222502479474
 72
     1
 10
72.73836619984523
 20
-119.3222502479474
 11
72.15028565929286
 21
-119.9685744144523
 72
     1
 10
72.15028565929286
 20
-119.9685744144523
 11
72.12100510448431
 21
-132.8449633001221
 72
     1
 10
72.12100510448431
 20
-132.8449633001221
 11
73.94345505798974
 21
-134.6680835774443
 72
     1
 10
73.94345505798974
 20
-134.6680835774443
 11
80.11706601159892
 21
-128.5234355234248
 72
     1
 10
80.11706601159892
 20
-128.5234355234248
 11
80.11706601159892
 21
-103.5644077518867
 72
     1
 10
80.11706601159892
 20
-103.5644077518867
 11
81.02864376612041
 21
-103.5354446963385
 72
     1
 10
81.02864376612041
 20
-103.5354446963385
 11
81.05757154316018
 21
-128.6412280233952
 72
     1
 10
81.05757154316018
 20
-128.6412280233952
 11
106.0165986841801
 21
-128.6412280233952
 72
     1
 10
106.0165986841801
 20
-128.6412280233952
 11
106.0165986841801
 21
-129.6699633009159
 72
     1
 10
106.0165986841801
 20
-129.6699633009159
 11
80.49947711295391
 21
-129.6113669120415
 72
     1
 10
80.49947711295391
 20
-129.6113669120415
 11
74.91359392212833
 21
-135.3440057994972
 72
     1
 10
74.91359392212833
 20
-135.3440057994972
 11
76.76567720821109
 21
-137.2257224656937
 72
     1
 10
76.76567720821109
 20
-137.2257224656937
 11
89.7009796559818
 21
-137.3431974656639
 72
     1
 10
89.7009796559818
 20
-137.3431974656639
 11
90.2301463091483
 21
-136.7551169102556
 72
     1
 10
90.2301463091483
 20
-136.7551169102556
 11
91.67053793906751
 21
-136.8140307991295
 72
     1
 10
91.67053793906751
 20
-136.8140307991295
 11
90.20086575433976
 21
-138.3426169098587
 72
     1
 10
90.20086575433976
 20
-138.3426169098587
 11
76.20723000023604
 21
-138.3722502431849
 72
     1
 10
76.20723000023604
 20
-138.3722502431849
 11
71.1212329077684
 21
-133.4333613555307
 97
        0
 75
     2
 76
     1
 98
        0
  0
SPLINE
  5
5A
330
1F
100
AcDbEntity
  8
_U+30EC_U+30A4_U+30E4_U+30FC 1
 62
     7
420
 16777215
370
     9
100
AcDbSpline
210
0.0
220
0.0
230
1.0
 70
    11
 71
     3
 72
    17
 73
    13
 74
     0
 42
0.0000000001
 43
0.0000000001
 12
1.0
 22
0.0
 32
0.0
 13
1.0
 23
0.0
 33
0.0
 40
0.0
 40
0.0
 40
0.0
 40
0.0
 40
1.0
 40
1.0
 40
1.0
 40
2.0
 40
2.0
 40
2.0
 40
3.0
 40
3.0
 40
3.0
 40
4.0
 40
4.0
 40
4.0
 40
4.0
 10
109.5650491492072
 20
-129.6258660787047
 30
0.0
 10
109.5650491492072
 20
-129.5707269120516
 30
0.0
 10
109.5202816503493
 20
-129.5259594120631
 30
0.0
 10
109.4651424850893
 20
-129.5259594120631
 30
0.0
 10
109.4100385976063
 20
-129.5259594120631
 30
0.0
 10
109.3652358209715
 20
-129.5707269120516
 30
0.0
 10
109.3652358209715
 20
-129.6258660787047
 30
0.0
 10
109.3652358209715
 20
-129.6809699675796
 30
0.0
 10
109.4100385976063
 20
-129.7257727453463
 30
0.0
 10
109.4651424850893
 20
-129.7257727453463
 30
0.0
 10
109.5202816503493
 20
-129.7257727453463
 30
0.0
 10
109.5650491492072
 20
-129.6809699675796
 30
0.0
 10
109.5650491492072
 20
-129.6258660787047
 30
0.0
  0
SPLINE
  5
5B
330
1F
100
AcDbEntity
  8
_U+30EC_U+30A4_U+30E4_U+30FC 1
 62
     7
420
 16777215
370
     9
100
AcDbSpline
210
0.0
220
0.0
230
1.0
 70
    11
 71
     3
 72
    17
 73
    13
 74
     0
 42
0.0000000001
 43
0.0000000001
 12
1.0
 22
0.0
 32
0.0
 13
1.0
 23
0.0
 33
0.0
 40
0.0
 40
0.0
 40
0.0
 40
0.0
 40
1.0
 40
1.0
 40
1.0
 40
2.0
 40
2.0
 40
2.0
 40
3.0
 40
3.0
 40
3.0
 40
4.0
 40
4.0
 40
4.0
 40
4.0
 10
109.5650491492072
 20
-136.6256121880659
 30
0.0
 10
109.5650491492072
 20
-136.5704730214129
 30
0.0
 10
109.5202816503493
 20
-136.5257055214243
 30
0.0
 10
109.4651424850893
 20
-136.5257055214243
 30
0.0
 10
109.4100385976063
 20
-136.5257055214243
 30
0.0
 10
109.3652358209715
 20
-136.5704730214129
 30
0.0
 10
109.3652358209715
 20
-136.6256121880659
 30
0.0
 10
109.3652358209715
 20
-136.6807160769408
 30
0.0
 10
109.4100385976063
 20
-136.7255188547076
 30
0.0
 10
109.4651424850893
 20
-136.7255188547076
 30
0.0
 10
109.5202816503493
 20
-136.7255188547076
 30
0.0
 10
109.5650491492072
 20
-136.6807160769408
 30
0.0
 10
109.5650491492072
 20
-136.6256121880659
 30
0.0
  0
SPLINE
  5
5C
330
1F
100
AcDbEntity
  8
_U+30EC_U+30A4_U+30E4_U+30FC 1
 62
     7
420
 16777215
370
     9
100
AcDbSpline
210
0.0
220
0.0
230
1.0
 70
    11
 71
     3
 72
    17
 73
    13
 74
     0
 42
0.0000000001
 43
0.0000000001
 12
1.0
 22
0.0
 32
0.0
 13
1.0
 23
0.0
 33
0.0
 40
0.0
 40
0.0
 40
0.0
 40
0.0
 40
1.0
 40
1.0
 40
1.0
 40
2.0
 40
2.0
 40
2.0
 40
3.0
 40
3.0
 40
3.0
 40
4.0
 40
4.0
 40
4.0
 40
4.0
 10
109.5650491492072
 20
-138.2254946876656
 30
0.0
 10
109.5650491492072
 20
-138.1703907987907
 30
0.0
 10
109.5202816503493
 20
-138.125588021024
 30
0.0
 10
109.4651424850893
 20
-138.125588021024
 30
0.0
 10
109.4100385976063
 20
-138.125588021024
 30
0.0
 10
109.3652358209715
 20
-138.1703907987907
 30
0.0
 10
109.3652358209715
 20
-138.2254946876656
 30
0.0
 10
109.3652358209715
 20
-138.2813041320961
 30
0.0
 10
109.4100385976063
 20
-138.3261069098628
 30
0.0
 10
109.4651424850893
 20
-138.3261069098628
 30
0.0
 10
109.5202816503493
 20
-138.3261069098628
 30
0.0
 10
109.5650491492072
 20
-138.2813041320961
 30
0.0
 10
109.5650491492072
 20
-138.2254946876656
 30
0.0
  0
POLYLINE
  5
5D
330
1F
100
AcDbEntity
  8
_U+30EC_U+30A4_U+30E4_U+30FC 1
 62
     7
420
 16777215
370
     9
100
AcDb2dPolyline
 66
     1
 10
0.0
 20
0.0
 30
0.0
  0
VERTEX
  5
5E
330
5D
100
AcDbEntity
  8
_U+30EC_U+30A4_U+30E4_U+30FC 1
 62
     7
420
 16777215
370
     9
100
AcDbVertex
100
AcDb2dVertex
 10
109.4651424850893
 20
-138.2254946876656
 30
0.0
  0
VERTEX
  5
5F
330
5D
100
AcDbEntity
  8
_U+30EC_U+30A4_U+30E4_U+30FC 1
 62
     7
420
 16777215
370
     9
100
AcDbVertex
100
AcDb2dVertex
 10
109.4651424850893
 20
-136.7255188547076
 30
0.0
  0
SEQEND
  5
60
330
5D
100
AcDbEntity
  8
_U+30EC_U+30A4_U+30E4_U+30FC 1
 62
     7
420
 16777215
370
     9
  0
POLYLINE
  5
61
330
1F
100
AcDbEntity
  8
_U+30EC_U+30A4_U+30E4_U+30FC 1
 62
     7
420
 16777215
370
     9
100
AcDb2dPolyline
 66
     1
 10
0.0
 20
0.0
 30
0.0
  0
VERTEX
  5
62
330
61
100
AcDbEntity
  8
_U+30EC_U+30A4_U+30E4_U+30FC 1
 62
     7
420
 16777215
370
     9
100
AcDbVertex
100
AcDb2dVertex
 10
98.00536833300808
 20
-138.2254946876656
 30
0.0
  0
VERTEX
  5
63
330
61
100
AcDbEntity
  8
_U+30EC_U+30A4_U+30E4_U+30FC 1
 62
     7
420
 16777215
370
     9
100
AcDbVertex
100
AcDb2dVertex
 10
110.4656202373428
 20
-138.2254946876656
 30
0.0
  0
SEQEND
  5
64
330
61
100
AcDbEntity
  8
_U+30EC_U+30A4_U+30E4_U+30FC 1
 62
     7
420
 16777215
370
     9
  0
POLYLINE
  5
65
330
1F
100
AcDbEntity
  8
_U+30EC_U+30A4_U+30E4_U+30FC 1
 62
     7
420
 16777215
370
     9
100
AcDb2dPolyline
 66
     1
 10
0.0
 20
0.0
 30
0.0
  0
VERTEX
  5
66
330
65
100
AcDbEntity
  8
_U+30EC_U+30A4_U+30E4_U+30FC 1
 62
     7
420
 16777215
370
     9
100
AcDbVertex
100
AcDb2dVertex
 10
98.00536833300808
 20
-136.6256121880659
 30
0.0
  0
VERTEX
  5
67
330
65
100
AcDbEntity
  8
_U+30EC_U+30A4_U+30E4_U+30FC 1
 62
     7
420
 16777215
370
     9
100
AcDbVertex
100
AcDb2dVertex
 10
110.4656202373428
 20
-136.6256121880659
 30
0.0
  0
SEQEND
  5
68
330
65
100
AcDbEntity
  8
_U+30EC_U+30A4_U+30E4_U+30FC 1
 62
     7
420
 16777215
370
     9
  0
INSERT
  5
6A
330
1F
100
AcDbEntity
  8
_U+30EC_U+30A4_U+30E4_U+30FC 1
100
AcDbBlockReference
  2
block 2
 10
0.0
 20
0.0
 30
0.0
  0
SPLINE
  5
79
330
1F
100
AcDbEntity
  8
_U+30EC_U+30A4_U+30E4_U+30FC 1
 62
     7
420
 16777215
370
     9
100
AcDbSpline
210
0.0
220
0.0
230
1.0
 70
    11
 71
     3
 72
    17
 73
    13
 74
     0
 42
0.0000000001
 43
0.0000000001
 12
1.0
 22
0.0
 32
0.0
 13
1.0
 23
0.0
 33
0.0
 40
0.0
 40
0.0
 40
0.0
 40
0.0
 40
1.0
 40
1.0
 40
1.0
 40
2.0
 40
2.0
 40
2.0
 40
3.0
 40
3.0
 40
3.0
 40
4.0
 40
4.0
 40
4.0
 40
4.0
 10
109.5650491492072
 20
-128.6257410789547
 30
0.0
 10
109.5650491492072
 20
-128.570601912302
 30
0.0
 10
109.5202816503493
 20
-128.5258344123131
 30
0.0
 10
109.4651424850893
 20
-128.5258344123131
 30
0.0
 10
109.4100385976063
 20
-128.5258344123131
 30
0.0
 10
109.3652358209715
 20
-128.570601912302
 30
0.0
 10
109.3652358209715
 20
-128.6257410789547
 30
0.0
 10
109.3652358209715
 20
-128.68084496783
 30
0.0
 10
109.4100385976063
 20
-128.7256477455963
 30
0.0
 10
109.4651424850893
 20
-128.7256477455963
 30
0.0
 10
109.5202816503493
 20
-128.7256477455963
 30
0.0
 10
109.5650491492072
 20
-128.68084496783
 30
0.0
 10
109.5650491492072
 20
-128.6257410789547
 30
0.0
  0
POLYLINE
  5
7A
330
1F
100
AcDbEntity
  8
_U+30EC_U+30A4_U+30E4_U+30FC 1
 62
     7
420
 16777215
370
     9
100
AcDb2dPolyline
 66
     1
 10
0.0
 20
0.0
 30
0.0
  0
VERTEX
  5
7B
330
7A
100
AcDbEntity
  8
_U+30EC_U+30A4_U+30E4_U+30FC 1
 62
     7
420
 16777215
370
     9
100
AcDbVertex
100
AcDb2dVertex
 10
109.4651424850893
 20
-129.6258660787047
 30
0.0
  0
VERTEX
  5
7C
330
7A
100
AcDbEntity
  8
_U+30EC_U+30A4_U+30E4_U+30FC 1
 62
     7
420
 16777215
370
     9
100
AcDbVertex
100
AcDb2dVertex
 10
109.4651424850893
 20
-128.6257410789547
 30
0.0
  0
SEQEND
  5
7D
330
7A
100
AcDbEntity
  8
_U+30EC_U+30A4_U+30E4_U+30FC 1
 62
     7
420
 16777215
370
     9
  0
POLYLINE
  5
7E
330
1F
100
AcDbEntity
  8
_U+30EC_U+30A4_U+30E4_U+30FC 1
 62
     7
420
 16777215
370
     9
100
AcDb2dPolyline
 66
     1
 10
0.0
 20
0.0
 30
0.0
  0
VERTEX
  5
7F
330
7E
100
AcDbEntity
  8
_U+30EC_U+30A4_U+30E4_U+30FC 1
 62
     7
420
 16777215
370
     9
100
AcDbVertex
100
AcDb2dVertex
 10
109.4651424850893
 20
-128.6257410789547
 30
0.0
  0
VERTEX
  5
80
330
7E
100
AcDbEntity
  8
_U+30EC_U+30A4_U+30E4_U+30FC 1
 62
     7
420
 16777215
370
     9
100
AcDbVertex
100
AcDb2dVertex
 10
109.4651424850893
 20
-103.6253677518716
 30
0.0
  0
SEQEND
  5
81
330
7E
100
AcDbEntity
  8
_U+30EC_U+30A4_U+30E4_U+30FC 1
 62
     7
420
 16777215
370
     9
  0
POLYLINE
  5
82
330
1F
100
AcDbEntity
  8
_U+30EC_U+30A4_U+30E4_U+30FC 1
 62
     7
420
 16777215
370
     9
100
AcDb2dPolyline
 66
     1
 10
0.0
 20
0.0
 30
0.0
  0
VERTEX
  5
83
330
82
100
AcDbEntity
  8
_U+30EC_U+30A4_U+30E4_U+30FC 1
 62
     7
420
 16777215
370
     9
100
AcDbVertex
100
AcDb2dVertex
 10
109.5712580379377
 20
-129.6258660787047
 30
0.0
  0
VERTEX
  5
84
330
82
100
AcDbEntity
  8
_U+30EC_U+30A4_U+30E4_U+30FC 1
 62
     7
420
 16777215
370
     9
100
AcDbVertex
100
AcDb2dVertex
 10
110.4656202373428
 20
-129.6258660787047
 30
0.0
  0
SEQEND
  5
85
330
82
100
AcDbEntity
  8
_U+30EC_U+30A4_U+30E4_U+30FC 1
 62
     7
420
 16777215
370
     9
  0
POLYLINE
  5
86
330
1F
100
AcDbEntity
  8
_U+30EC_U+30A4_U+30E4_U+30FC 1
 62
     7
420
 16777215
370
     9
100
AcDb2dPolyline
 66
     1
 10
0.0
 20
0.0
 30
0.0
  0
VERTEX
  5
87
330
86
100
AcDbEntity
  8
_U+30EC_U+30A4_U+30E4_U+30FC 1
 62
     7
420
 16777215
370
     9
100
AcDbVertex
100
AcDb2dVertex
 10
108.0051364112261
 20
-128.6257410789547
 30
0.0
  0
VERTEX
  5
88
330
86
100
AcDbEntity
  8
_U+30EC_U+30A4_U+30E4_U+30FC 1
 62
     7
420
 16777215
370
     9
100
AcDbVertex
100
AcDb2dVertex
 10
110.4656202373428
 20
-128.6257410789547
 30
0.0
  0
SEQEND
  5
89
330
86
100
AcDbEntity
  8
_U+30EC_U+30A4_U+30E4_U+30FC 1
 62
     7
420
 16777215
370
     9
  0
SPLINE
  5
8A
330
1F
100
AcDbEntity
  8
_U+30EC_U+30A4_U+30E4_U+30FC 1
 62
     7
420
 16777215
370
     9
100
AcDbSpline
210
0.0
220
0.0
230
1.0
 70
    11
 71
     3
 72
    17
 73
    13
 74
     0
 42
0.0000000001
 43
0.0000000001
 12
1.0
 22
0.0
 32
0.0
 13
1.0
 23
0.0
 33
0.0
 40
0.0
 40
0.0
 40
0.0
 40
0.0
 40
1.0
 40
1.0
 40
1.0
 40
2.0
 40
2.0
 40
2.0
 40
3.0
 40
3.0
 40
3.0
 40
4.0
 40
4.0
 40
4.0
 40
4.0
 10
109.5650491492072
 20
-103.6253677518716
 30
0.0
 10
109.5650491492072
 20
-103.5702638629963
 30
0.0
 10
109.5202816503493
 20
-103.5254610852296
 30
0.0
 10
109.4651424850893
 20
-103.5254610852296
 30
0.0
 10
109.4100385976063
 20
-103.5254610852296
 30
0.0
 10
109.3652358209715
 20
-103.5702638629963
 30
0.0
 10
109.3652358209715
 20
-103.6253677518716
 30
0.0
 10
109.3652358209715
 20
-103.6805069185243
 30
0.0
 10
109.4100385976063
 20
-103.7252744185132
 30
0.0
 10
109.4651424850893
 20
-103.7252744185132
 30
0.0
 10
109.5202816503493
 20
-103.7252744185132
 30
0.0
 10
109.5650491492072
 20
-103.6805069185243
 30
0.0
 10
109.5650491492072
 20
-103.6253677518716
 30
0.0
  0
POLYLINE
  5
8B
330
1F
100
AcDbEntity
  8
_U+30EC_U+30A4_U+30E4_U+30FC 1
 62
     7
420
 16777215
370
     9
100
AcDb2dPolyline
 66
     1
 10
0.0
 20
0.0
 30
0.0
  0
VERTEX
  5
8C
330
8B
100
AcDbEntity
  8
_U+30EC_U+30A4_U+30E4_U+30FC 1
 62
     7
420
 16777215
370
     9
100
AcDbVertex
100
AcDb2dVertex
 10
98.00536833300808
 20
-103.6253677518716
 30
0.0
  0
VERTEX
  5
8D
330
8B
100
AcDbEntity
  8
_U+30EC_U+30A4_U+30E4_U+30FC 1
 62
     7
420
 16777215
370
     9
100
AcDbVertex
100
AcDb2dVertex
 10
110.4656202373428
 20
-103.6253677518716
 30
0.0
  0
SEQEND
  5
8E
330
8B
100
AcDbEntity
  8
_U+30EC_U+30A4_U+30E4_U+30FC 1
 62
     7
420
 16777215
370
     9
  0
INSERT
  5
90
330
1F
100
AcDbEntity
  8
_U+30EC_U+30A4_U+30E4_U+30FC 1
100
AcDbBlockReference
  2
block 3
 10
0.0
 20
0.0
 30
0.0
  0
INSERT
  5
96
330
1F
100
AcDbEntity
  8
_U+30EC_U+30A4_U+30E4_U+30FC 1
100
AcDbBlockReference
  2
block 4
 10
0.0
 20
0.0
 30
0.0
  0
POLYLINE
  5
9D
330
1F
100
AcDbEntity
  8
_U+30EC_U+30A4_U+30E4_U+30FC 1
 62
     7
420
 16777215
370
     9
100
AcDb2dPolyline
 66
     1
 10
0.0
 20
0.0
 30
0.0
  0
VERTEX
  5
9E
330
9D
100
AcDbEntity
  8
_U+30EC_U+30A4_U+30E4_U+30FC 1
 62
     7
420
 16777215
370
     9
100
AcDbVertex
100
AcDb2dVertex
 10
109.4651424850893
 20
-136.6256121880659
 30
0.0
  0
VERTEX
  5
9F
330
9D
100
AcDbEntity
  8
_U+30EC_U+30A4_U+30E4_U+30FC 1
 62
     7
420
 16777215
370
     9
100
AcDbVertex
100
AcDb2dVertex
 10
109.4651424850893
 20
-129.6258660787047
 30
0.0
  0
SEQEND
  5
A0
330
9D
100
AcDbEntity
  8
_U+30EC_U+30A4_U+30E4_U+30FC 1
 62
     7
420
 16777215
370
     9
  0
POLYLINE
  5
A1
330
1F
100
AcDbEntity
  8
_U+30EC_U+30A4_U+30E4_U+30FC 1
 62
     7
420
 16777215
370
     9
100
AcDb2dPolyline
 66
     1
 10
0.0
 20
0.0
 30
0.0
  0
VERTEX
  5
A2
330
A1
100
AcDbEntity
  8
_U+30EC_U+30A4_U+30E4_U+30FC 1
 62
     7
420
 16777215
370
     9
100
AcDbVertex
100
AcDb2dVertex
 10
108.0051364112261
 20
-129.6258660787047
 30
0.0
  0
VERTEX
  5
A3
330
A1
100
AcDbEntity
  8
_U+30EC_U+30A4_U+30E4_U+30FC 1
 62
     7
420
 16777215
370
     9
100
AcDbVertex
100
AcDb2dVertex
 10
110.4656202373428
 20
-129.6258660787047
 30
0.0
  0
SEQEND
  5
A4
330
A1
100
AcDbEntity
  8
_U+30EC_U+30A4_U+30E4_U+30FC 1
 62
     7
420
 16777215
370
     9
  0
INSERT
  5
A6
330
1F
100
AcDbEntity
  8
_U+30EC_U+30A4_U+30E4_U+30FC 1
100
AcDbBlockReference
  2
block 5
 10
0.0
 20
0.0
 30
0.0
  0
POLYLINE
  5
AB
330
1F
100
AcDbEntity
  8
_U+30EC_U+30A4_U+30E4_U+30FC 1
 62
     7
420
 16777215
370
    25
100
AcDb2dPolyline
 66
     1
 10
0.0
 20
0.0
 30
0.0
  0
VERTEX
  5
AC
330
AB
100
AcDbEntity
  8
_U+30EC_U+30A4_U+30E4_U+30FC 1
 62
     7
420
 16777215
370
    25
100
AcDbVertex
100
AcDb2dVertex
 10
71.21909346082734
 20
-133.4567857999692
 30
0.0
  0
VERTEX
  5
AD
330
AB
100
AcDbEntity
  8
_U+30EC_U+30A4_U+30E4_U+30FC 1
 62
     7
420
 16777215
370
    25
100
AcDbVertex
100
AcDb2dVertex
 10
76.24822277696799
 20
-138.3261069098628
 30
0.0
  0
SEQEND
  5
AE
330
AB
100
AcDbEntity
  8
_U+30EC_U+30A4_U+30E4_U+30FC 1
 62
     7
420
 16777215
370
    25
  0
POLYLINE
  5
AF
330
1F
100
AcDbEntity
  8
_U+30EC_U+30A4_U+30E4_U+30FC 1
 62
     7
420
 16777215
370
     9
100
AcDb2dPolyline
 66
     1
 10
0.0
 20
0.0
 30
0.0
  0
VERTEX
  5
B0
330
AF
100
AcDbEntity
  8
_U+30EC_U+30A4_U+30E4_U+30FC 1
 62
     7
420
 16777215
370
     9
100
AcDbVertex
100
AcDb2dVertex
 10
66.3243019190372
 20
-138.3515774654122
 30
0.0
  0
VERTEX
  5
B1
330
AF
100
AcDbEntity
  8
_U+30EC_U+30A4_U+30E4_U+30FC 1
 62
     7
420
 16777215
370
     9
100
AcDbVertex
100
AcDb2dVertex
 10
71.35343123517787
 20
-143.2208985753058
 30
0.0
  0
SEQEND
  5
B2
330
AF
100
AcDbEntity
  8
_U+30EC_U+30A4_U+30E4_U+30FC 1
 62
     7
420
 16777215
370
     9
  0
INSERT
  5
B4
330
1F
100
AcDbEntity
  8
_U+30EC_U+30A4_U+30E4_U+30FC 1
100
AcDbBlockReference
  2
block 6
 10
0.0
 20
0.0
 30
0.0
  0
SPLINE
  5
B9
330
1F
100
AcDbEntity
  8
_U+30EC_U+30A4_U+30E4_U+30FC 1
 62
     7
420
 16777215
370
     9
100
AcDbSpline
210
0.0
220
0.0
230
1.0
 70
    11
 71
     3
 72
    17
 73
    13
 74
     0
 42
0.0000000001
 43
0.0000000001
 12
1.0
 22
0.0
 32
0.0
 13
1.0
 23
0.0
 33
0.0
 40
0.0
 40
0.0
 40
0.0
 40
0.0
 40
1.0
 40
1.0
 40
1.0
 40
2.0
 40
2.0
 40
2.0
 40
3.0
 40
3.0
 40
3.0
 40
4.0
 40
4.0
 40
4.0
 40
4.0
 10
76.44803610520367
 20
-147.2271841298599
 30
0.0
 10
76.44803610520367
 20
-147.1717274632073
 30
0.0
 10
76.40326860634579
 20
-147.1269246854406
 30
0.0
 10
76.34812944108583
 20
-147.1269246854406
 30
0.0
 10
76.29302555360276
 20
-147.1269246854406
 30
0.0
 10
76.24822277696799
 20
-147.1717274632073
 30
0.0
 10
76.24822277696799
 20
-147.2271841298599
 30
0.0
 10
76.24822277696799
 20
-147.282323296513
 30
0.0
 10
76.29302555360276
 20
-147.3270907965016
 30
0.0
 10
76.34812944108583
 20
-147.3270907965016
 30
0.0
 10
76.40326860634579
 20
-147.3270907965016
 30
0.0
 10
76.44803610520367
 20
-147.282323296513
 30
0.0
 10
76.44803610520367
 20
-147.2271841298599
 30
0.0
  0
SPLINE
  5
BA
330
1F
100
AcDbEntity
  8
_U+30EC_U+30A4_U+30E4_U+30FC 1
 62
     7
420
 16777215
370
     9
100
AcDbSpline
210
0.0
220
0.0
230
1.0
 70
    11
 71
     3
 72
    17
 73
    13
 74
     0
 42
0.0000000001
 43
0.0000000001
 12
1.0
 22
0.0
 32
0.0
 13
1.0
 23
0.0
 33
0.0
 40
0.0
 40
0.0
 40
0.0
 40
0.0
 40
1.0
 40
1.0
 40
1.0
 40
2.0
 40
2.0
 40
2.0
 40
3.0
 40
3.0
 40
3.0
 40
4.0
 40
4.0
 40
4.0
 40
4.0
 10
91.94820932087242
 20
-147.2271841298599
 30
0.0
 10
91.94820932087242
 20
-147.1717274632073
 30
0.0
 10
91.90344182201453
 20
-147.1269246854406
 30
0.0
 10
91.84830265675458
 20
-147.1269246854406
 30
0.0
 10
91.79319876927151
 20
-147.1269246854406
 30
0.0
 10
91.74839599263674
 20
-147.1717274632073
 30
0.0
 10
91.74839599263674
 20
-147.2271841298599
 30
0.0
 10
91.74839599263674
 20
-147.282323296513
 30
0.0
 10
91.79319876927151
 20
-147.3270907965016
 30
0.0
 10
91.84830265675458
 20
-147.3270907965016
 30
0.0
 10
91.90344182201453
 20
-147.3270907965016
 30
0.0
 10
91.94820932087242
 20
-147.282323296513
 30
0.0
 10
91.94820932087242
 20
-147.2271841298599
 30
0.0
  0
SPLINE
  5
BB
330
1F
100
AcDbEntity
  8
_U+30EC_U+30A4_U+30E4_U+30FC 1
 62
     7
420
 16777215
370
     9
100
AcDbSpline
210
0.0
220
0.0
230
1.0
 70
    11
 71
     3
 72
    17
 73
    13
 74
     0
 42
0.0000000001
 43
0.0000000001
 12
1.0
 22
0.0
 32
0.0
 13
1.0
 23
0.0
 33
0.0
 40
0.0
 40
0.0
 40
0.0
 40
0.0
 40
1.0
 40
1.0
 40
1.0
 40
2.0
 40
2.0
 40
2.0
 40
3.0
 40
3.0
 40
3.0
 40
4.0
 40
4.0
 40
4.0
 40
4.0
 10
90.44890380356733
 20
-147.2271841298599
 30
0.0
 10
90.44890380356733
 20
-147.1717274632073
 30
0.0
 10
90.40413630470944
 20
-147.1269246854406
 30
0.0
 10
90.34832686168882
 20
-147.1269246854406
 30
0.0
 10
90.29318769642887
 20
-147.1269246854406
 30
0.0
 10
90.24842019757098
 20
-147.1717274632073
 30
0.0
 10
90.24842019757098
 20
-147.2271841298599
 30
0.0
 10
90.24842019757098
 20
-147.282323296513
 30
0.0
 10
90.29318769642887
 20
-147.3270907965016
 30
0.0
 10
90.34832686168882
 20
-147.3270907965016
 30
0.0
 10
90.40413630470944
 20
-147.3270907965016
 30
0.0
 10
90.44890380356733
 20
-147.282323296513
 30
0.0
 10
90.44890380356733
 20
-147.2271841298599
 30
0.0
  0
POLYLINE
  5
BC
330
1F
100
AcDbEntity
  8
_U+30EC_U+30A4_U+30E4_U+30FC 1
 62
     7
420
 16777215
370
     9
100
AcDb2dPolyline
 66
     1
 10
0.0
 20
0.0
 30
0.0
  0
VERTEX
  5
BD
330
BC
100
AcDbEntity
  8
_U+30EC_U+30A4_U+30E4_U+30FC 1
 62
     7
420
 16777215
370
     9
100
AcDbVertex
100
AcDb2dVertex
 10
76.34812944108583
 20
-147.2271841298599
 30
0.0
  0
VERTEX
  5
BE
330
BC
100
AcDbEntity
  8
_U+30EC_U+30A4_U+30E4_U+30FC 1
 62
     7
420
 16777215
370
     9
100
AcDbVertex
100
AcDb2dVertex
 10
90.34832686168882
 20
-147.2271841298599
 30
0.0
  0
SEQEND
  5
BF
330
BC
100
AcDbEntity
  8
_U+30EC_U+30A4_U+30E4_U+30FC 1
 62
     7
420
 16777215
370
     9
  0
POLYLINE
  5
C0
330
1F
100
AcDbEntity
  8
_U+30EC_U+30A4_U+30E4_U+30FC 1
 62
     7
420
 16777215
370
     9
100
AcDb2dPolyline
 66
     1
 10
0.0
 20
0.0
 30
0.0
  0
VERTEX
  5
C1
330
C0
100
AcDbEntity
  8
_U+30EC_U+30A4_U+30E4_U+30FC 1
 62
     7
420
 16777215
370
     9
100
AcDbVertex
100
AcDb2dVertex
 10
76.34812944108583
 20
-145.7671427413362
 30
0.0
  0
VERTEX
  5
C2
330
C0
100
AcDbEntity
  8
_U+30EC_U+30A4_U+30E4_U+30FC 1
 62
     7
420
 16777215
370
     9
100
AcDbVertex
100
AcDb2dVertex
 10
76.34812944108583
 20
-148.2269563518319
 30
0.0
  0
SEQEND
  5
C3
330
C0
100
AcDbEntity
  8
_U+30EC_U+30A4_U+30E4_U+30FC 1
 62
     7
420
 16777215
370
     9
  0
SPLINE
  5
C4
330
1F
100
AcDbEntity
  8
_U+30EC_U+30A4_U+30E4_U+30FC 1
 62
     7
420
 16777215
370
     9
100
AcDbSpline
210
0.0
220
0.0
230
1.0
 70
    11
 71
     3
 72
    17
 73
    13
 74
     0
 42
0.0000000001
 43
0.0000000001
 12
1.0
 22
0.0
 32
0.0
 13
1.0
 23
0.0
 33
0.0
 40
0.0
 40
0.0
 40
0.0
 40
0.0
 40
1.0
 40
1.0
 40
1.0
 40
2.0
 40
2.0
 40
2.0
 40
3.0
 40
3.0
 40
3.0
 40
4.0
 40
4.0
 40
4.0
 40
4.0
 10
71.42751456662118
 20
-143.3056357975069
 30
0.0
 10
71.46678053768873
 20
-143.2663716308498
 30
0.0
 10
71.46678053768873
 20
-143.2033302419772
 30
0.0
 10
71.42786734438995
 20
-143.1643835753198
 30
0.0
 10
71.3889206787169
 20
-143.1251194086634
 30
0.0
 10
71.32552651366755
 20
-143.1251194086634
 30
0.0
 10
71.2862623480026
 20
-143.1643835753198
 30
0.0
 10
71.24731568232954
 20
-143.2036477419768
 30
0.0
 10
71.24731568232954
 20
-143.2667244086276
 30
0.0
 10
71.2862623480026
 20
-143.3056357975069
 30
0.0
 10
71.32517373589877
 20
-143.3448999641639
 30
0.0
 10
71.38856790094812
 20
-143.3448999641639
 30
0.0
 10
71.42751456662118
 20
-143.3056357975069
 30
0.0
  0
POLYLINE
  5
C5
330
1F
100
AcDbEntity
  8
_U+30EC_U+30A4_U+30E4_U+30FC 1
 62
     7
420
 16777215
370
     9
100
AcDb2dPolyline
 66
     1
 10
0.0
 20
0.0
 30
0.0
  0
VERTEX
  5
C6
330
C5
100
AcDbEntity
  8
_U+30EC_U+30A4_U+30E4_U+30FC 1
 62
     7
420
 16777215
370
     9
100
AcDbVertex
100
AcDb2dVertex
 10
72.38936315319349
 20
-142.2025349644496
 30
0.0
  0
VERTEX
  5
C7
330
C5
100
AcDbEntity
  8
_U+30EC_U+30A4_U+30E4_U+30FC 1
 62
     7
420
 16777215
370
     9
100
AcDbVertex
100
AcDb2dVertex
 10
70.64995708645831
 20
-143.9422938529035
 30
0.0
  0
SEQEND
  5
C8
330
C5
100
AcDbEntity
  8
_U+30EC_U+30A4_U+30E4_U+30FC 1
 62
     7
420
 16777215
370
     9
  0
SPLINE
  5
C9
330
1F
100
AcDbEntity
  8
_U+30EC_U+30A4_U+30E4_U+30FC 1
 62
     7
420
 16777215
370
     9
100
AcDbSpline
210
0.0
220
0.0
230
1.0
 70
    11
 71
     3
 72
    17
 73
    13
 74
     0
 42
0.0000000001
 43
0.0000000001
 12
1.0
 22
0.0
 32
0.0
 13
1.0
 23
0.0
 33
0.0
 40
0.0
 40
0.0
 40
0.0
 40
0.0
 40
1.0
 40
1.0
 40
1.0
 40
2.0
 40
2.0
 40
2.0
 40
3.0
 40
3.0
 40
3.0
 40
4.0
 40
4.0
 40
4.0
 40
4.0
 10
66.45553524902249
 20
-138.465983298717
 30
0.0
 10
66.49483469246432
 20
-138.4266838542825
 30
0.0
 10
66.49483469246432
 20
-138.3636424654092
 30
0.0
 10
66.45588802679127
 20
-138.3247310765299
 30
0.0
 10
66.4169766388951
 20
-138.2854316320954
 30
0.0
 10
66.35358247384575
 20
-138.2854316320954
 30
0.0
 10
66.31428303040391
 20
-138.3247310765299
 30
0.0
 10
66.27537164250774
 20
-138.3639952431869
 30
0.0
 10
66.27537164250774
 20
-138.4270366320602
 30
0.0
 10
66.31428303040391
 20
-138.465983298717
 30
0.0
 10
66.35322969607697
 20
-138.505247465374
 30
0.0
 10
66.41662386112631
 20
-138.505247465374
 30
0.0
 10
66.45553524902249
 20
-138.465983298717
 30
0.0
  0
POLYLINE
  5
CA
330
1F
100
AcDbEntity
  8
_U+30EC_U+30A4_U+30E4_U+30FC 1
 62
     7
420
 16777215
370
     9
100
AcDb2dPolyline
 66
     1
 10
0.0
 20
0.0
 30
0.0
  0
VERTEX
  5
CB
330
CA
100
AcDbEntity
  8
_U+30EC_U+30A4_U+30E4_U+30FC 1
 62
     7
420
 16777215
370
     9
100
AcDbVertex
100
AcDb2dVertex
 10
67.41741911337168
 20
-137.3628471878815
 30
0.0
  0
VERTEX
  5
CC
330
CA
100
AcDbEntity
  8
_U+30EC_U+30A4_U+30E4_U+30FC 1
 62
     7
420
 16777215
370
     9
100
AcDbVertex
100
AcDb2dVertex
 10
65.67797776885963
 20
-139.1026060763354
 30
0.0
  0
SEQEND
  5
CD
330
CA
100
AcDbEntity
  8
_U+30EC_U+30A4_U+30E4_U+30FC 1
 62
     7
420
 16777215
370
     9
  0
INSERT
  5
CF
330
1F
100
AcDbEntity
  8
_U+30EC_U+30A4_U+30E4_U+30FC 1
100
AcDbBlockReference
  2
block 7
 10
0.0
 20
0.0
 30
0.0
  0
POLYLINE
  5
E9
330
1F
100
AcDbEntity
  8
_U+30EC_U+30A4_U+30E4_U+30FC 1
 62
     7
420
 16777215
370
     9
100
AcDb2dPolyline
 66
     1
 10
0.0
 20
0.0
 30
0.0
  0
VERTEX
  5
EA
330
E9
100
AcDbEntity
  8
_U+30EC_U+30A4_U+30E4_U+30FC 1
 62
     7
420
 16777215
370
     9
100
AcDbVertex
100
AcDb2dVertex
 10
90.34832686168882
 20
-147.2271841298599
 30
0.0
  0
VERTEX
  5
EB
330
E9
100
AcDbEntity
  8
_U+30EC_U+30A4_U+30E4_U+30FC 1
 62
     7
420
 16777215
370
     9
100
AcDbVertex
100
AcDb2dVertex
 10
91.84830265675458
 20
-147.2271841298599
 30
0.0
  0
SEQEND
  5
EC
330
E9
100
AcDbEntity
  8
_U+30EC_U+30A4_U+30E4_U+30FC 1
 62
     7
420
 16777215
370
     9
  0
POLYLINE
  5
ED
330
1F
100
AcDbEntity
  8
_U+30EC_U+30A4_U+30E4_U+30FC 1
 62
     7
420
 16777215
370
     9
100
AcDb2dPolyline
 66
     1
 10
0.0
 20
0.0
 30
0.0
  0
VERTEX
  5
EE
330
ED
100
AcDbEntity
  8
_U+30EC_U+30A4_U+30E4_U+30FC 1
 62
     7
420
 16777215
370
     9
100
AcDbVertex
100
AcDb2dVertex
 10
90.34832686168882
 20
-145.7671427413362
 30
0.0
  0
VERTEX
  5
EF
330
ED
100
AcDbEntity
  8
_U+30EC_U+30A4_U+30E4_U+30FC 1
 62
     7
420
 16777215
370
     9
100
AcDbVertex
100
AcDb2dVertex
 10
90.34832686168882
 20
-148.2269563518319
 30
0.0
  0
SEQEND
  5
F0
330
ED
100
AcDbEntity
  8
_U+30EC_U+30A4_U+30E4_U+30FC 1
 62
     7
420
 16777215
370
     9
  0
POLYLINE
  5
F1
330
1F
100
AcDbEntity
  8
_U+30EC_U+30A4_U+30E4_U+30FC 1
 62
     7
420
 16777215
370
     9
100
AcDb2dPolyline
 66
     1
 10
0.0
 20
0.0
 30
0.0
  0
VERTEX
  5
F2
330
F1
100
AcDbEntity
  8
_U+30EC_U+30A4_U+30E4_U+30FC 1
 62
     7
420
 16777215
370
     9
100
AcDbVertex
100
AcDb2dVertex
 10
91.84830265675458
 20
-145.7671427413362
 30
0.0
  0
VERTEX
  5
F3
330
F1
100
AcDbEntity
  8
_U+30EC_U+30A4_U+30E4_U+30FC 1
 62
     7
420
 16777215
370
     9
100
AcDbVertex
100
AcDb2dVertex
 10
91.84830265675458
 20
-148.2269563518319
 30
0.0
  0
SEQEND
  5
F4
330
F1
100
AcDbEntity
  8
_U+30EC_U+30A4_U+30E4_U+30FC 1
 62
     7
420
 16777215
370
     9
  0
INSERT
  5
F6
330
1F
100
AcDbEntity
  8
_U+30EC_U+30A4_U+30E4_U+30FC 1
100
AcDbBlockReference
  2
block 8
 10
0.0
 20
0.0
 30
0.0
  0
POLYLINE
  5
105
330
1F
100
AcDbEntity
  8
_U+30EC_U+30A4_U+30E4_U+30FC 1
 62
     7
420
 16777215
370
    25
100
AcDb2dPolyline
 66
     1
 10
0.0
 20
0.0
 30
0.0
  0
VERTEX
  5
106
330
105
100
AcDbEntity
  8
_U+30EC_U+30A4_U+30E4_U+30FC 1
 62
     7
420
 16777215
370
    25
100
AcDbVertex
100
AcDb2dVertex
 10
76.24822277696799
 20
-138.3261069098628
 30
0.0
  0
VERTEX
  5
107
330
105
100
AcDbEntity
  8
_U+30EC_U+30A4_U+30E4_U+30FC 1
 62
     7
420
 16777215
370
    25
100
AcDbVertex
100
AcDb2dVertex
 10
90.24842019757098
 20
-138.3261069098628
 30
0.0
  0
SEQEND
  5
108
330
105
100
AcDbEntity
  8
_U+30EC_U+30A4_U+30E4_U+30FC 1
 62
     7
420
 16777215
370
    25
  0
POLYLINE
  5
109
330
1F
100
AcDbEntity
  8
_U+30EC_U+30A4_U+30E4_U+30FC 1
 62
     7
420
 16777215
370
    25
100
AcDb2dPolyline
 66
     1
 10
0.0
 20
0.0
 30
0.0
  0
VERTEX
  5
10A
330
109
100
AcDbEntity
  8
_U+30EC_U+30A4_U+30E4_U+30FC 1
 62
     7
420
 16777215
370
    25
100
AcDbVertex
100
AcDb2dVertex
 10
76.8318249807921
 20
-137.3263346878909
 30
0.0
  0
VERTEX
  5
10B
330
109
100
AcDbEntity
  8
_U+30EC_U+30A4_U+30E4_U+30FC 1
 62
     7
420
 16777215
370
    25
100
AcDbVertex
100
AcDb2dVertex
 10
89.7089194220171
 20
-137.3263346878909
 30
0.0
  0
SEQEND
  5
10C
330
109
100
AcDbEntity
  8
_U+30EC_U+30A4_U+30E4_U+30FC 1
 62
     7
420
 16777215
370
    25
  0
POLYLINE
  5
10D
330
1F
100
AcDbEntity
  8
_U+30EC_U+30A4_U+30E4_U+30FC 1
 62
     7
420
 16777215
370
    25
100
AcDb2dPolyline
 66
     1
 10
0.0
 20
0.0
 30
0.0
  0
VERTEX
  5
10E
330
10D
100
AcDbEntity
  8
_U+30EC_U+30A4_U+30E4_U+30FC 1
 62
     7
420
 16777215
370
    25
100
AcDbVertex
100
AcDb2dVertex
 10
90.24842019757098
 20
-138.3261069098628
 30
0.0
  0
VERTEX
  5
10F
330
10D
100
AcDbEntity
  8
_U+30EC_U+30A4_U+30E4_U+30FC 1
 62
     7
420
 16777215
370
    25
100
AcDbVertex
100
AcDb2dVertex
 10
91.83796626812939
 20
-136.7361727435935
 30
0.0
  0
SEQEND
  5
110
330
10D
100
AcDbEntity
  8
_U+30EC_U+30A4_U+30E4_U+30FC 1
 62
     7
420
 16777215
370
    25
  0
POLYLINE
  5
111
330
1F
100
AcDbEntity
  8
_U+30EC_U+30A4_U+30E4_U+30FC 1
 62
     7
420
 16777215
370
    25
100
AcDb2dPolyline
 66
     1
 10
0.0
 20
0.0
 30
0.0
  0
VERTEX
  5
112
330
111
100
AcDbEntity
  8
_U+30EC_U+30A4_U+30E4_U+30FC 1
 62
     7
420
 16777215
370
    25
100
AcDbVertex
100
AcDb2dVertex
 10
89.65310771275867
 20
-137.3628471878815
 30
0.0
  0
VERTEX
  5
113
330
111
100
AcDbEntity
  8
_U+30EC_U+30A4_U+30E4_U+30FC 1
 62
     7
420
 16777215
370
    25
100
AcDbVertex
100
AcDb2dVertex
 10
90.28666130770648
 20
-136.7303166324842
 30
0.0
  0
SEQEND
  5
114
330
111
100
AcDbEntity
  8
_U+30EC_U+30A4_U+30E4_U+30FC 1
 62
     7
420
 16777215
370
    25
  0
POLYLINE
  5
115
330
1F
100
AcDbEntity
  8
_U+30EC_U+30A4_U+30E4_U+30FC 1
 62
     7
420
 16777215
370
    25
100
AcDb2dPolyline
 66
     1
 10
0.0
 20
0.0
 30
0.0
  0
VERTEX
  5
116
330
115
100
AcDbEntity
  8
_U+30EC_U+30A4_U+30E4_U+30FC 1
 62
     7
420
 16777215
370
    25
100
AcDbVertex
100
AcDb2dVertex
 10
71.19221179484647
 20
-133.4168513555348
 30
0.0
  0
VERTEX
  5
117
330
115
100
AcDbEntity
  8
_U+30EC_U+30A4_U+30E4_U+30FC 1
 62
     7
420
 16777215
370
    25
100
AcDbVertex
100
AcDb2dVertex
 10
71.19221179484647
 20
-119.4166535812569
 30
0.0
  0
SEQEND
  5
118
330
115
100
AcDbEntity
  8
_U+30EC_U+30A4_U+30E4_U+30FC 1
 62
     7
420
 16777215
370
    25
  0
POLYLINE
  5
119
330
1F
100
AcDbEntity
  8
_U+30EC_U+30A4_U+30E4_U+30FC 1
 62
     7
420
 16777215
370
    25
100
AcDb2dPolyline
 66
     1
 10
0.0
 20
0.0
 30
0.0
  0
VERTEX
  5
11A
330
119
100
AcDbEntity
  8
_U+30EC_U+30A4_U+30E4_U+30FC 1
 62
     7
420
 16777215
370
    25
100
AcDbVertex
100
AcDb2dVertex
 10
72.19198399156238
 20
-132.8525127445646
 30
0.0
  0
VERTEX
  5
11B
330
119
100
AcDbEntity
  8
_U+30EC_U+30A4_U+30E4_U+30FC 1
 62
     7
420
 16777215
370
    25
100
AcDbVertex
100
AcDb2dVertex
 10
72.19198399156238
 20
-119.9754535811174
 30
0.0
  0
SEQEND
  5
11C
330
119
100
AcDbEntity
  8
_U+30EC_U+30A4_U+30E4_U+30FC 1
 62
     7
420
 16777215
370
    25
  0
POLYLINE
  5
11D
330
1F
100
AcDbEntity
  8
_U+30EC_U+30A4_U+30E4_U+30FC 1
 62
     7
420
 16777215
370
    25
100
AcDb2dPolyline
 66
     1
 10
0.0
 20
0.0
 30
0.0
  0
VERTEX
  5
11E
330
11D
100
AcDbEntity
  8
_U+30EC_U+30A4_U+30E4_U+30FC 1
 62
     7
420
 16777215
370
    25
100
AcDbVertex
100
AcDb2dVertex
 10
71.19221179484647
 20
-119.4166535812569
 30
0.0
  0
VERTEX
  5
11F
330
11D
100
AcDbEntity
  8
_U+30EC_U+30A4_U+30E4_U+30FC 1
 62
     7
420
 16777215
370
    25
100
AcDbVertex
100
AcDb2dVertex
 10
72.78175786540488
 20
-117.8270721927653
 30
0.0
  0
SEQEND
  5
120
330
11D
100
AcDbEntity
  8
_U+30EC_U+30A4_U+30E4_U+30FC 1
 62
     7
420
 16777215
370
    25
  0
POLYLINE
  5
121
330
1F
100
AcDbEntity
  8
_U+30EC_U+30A4_U+30E4_U+30FC 1
 62
     7
420
 16777215
370
    25
100
AcDb2dPolyline
 66
     1
 10
0.0
 20
0.0
 30
0.0
  0
VERTEX
  5
122
330
121
100
AcDbEntity
  8
_U+30EC_U+30A4_U+30E4_U+30FC 1
 62
     7
420
 16777215
370
    25
100
AcDbVertex
100
AcDb2dVertex
 10
72.15547149249389
 20
-120.011966081108
 30
0.0
  0
VERTEX
  5
123
330
121
100
AcDbEntity
  8
_U+30EC_U+30A4_U+30E4_U+30FC 1
 62
     7
420
 16777215
370
    25
100
AcDbVertex
100
AcDb2dVertex
 10
72.78796675413537
 20
-119.378765247933
 30
0.0
  0
SEQEND
  5
124
330
121
100
AcDbEntity
  8
_U+30EC_U+30A4_U+30E4_U+30FC 1
 62
     7
420
 16777215
370
    25
  0
POLYLINE
  5
125
330
1F
100
AcDbEntity
  8
_U+30EC_U+30A4_U+30E4_U+30FC 1
 62
     7
420
 16777215
370
    25
100
AcDb2dPolyline
 66
     1
 10
0.0
 20
0.0
 30
0.0
  0
VERTEX
  5
126
330
125
100
AcDbEntity
  8
_U+30EC_U+30A4_U+30E4_U+30FC 1
 62
     7
420
 16777215
370
    25
100
AcDbVertex
100
AcDb2dVertex
 10
72.20507204678404
 20
-132.8659535778945
 30
0.0
  0
VERTEX
  5
127
330
125
100
AcDbEntity
  8
_U+30EC_U+30A4_U+30E4_U+30FC 1
 62
     7
420
 16777215
370
    25
100
AcDbVertex
100
AcDb2dVertex
 10
73.97379394610462
 20
-134.6343227441194
 30
0.0
  0
SEQEND
  5
128
330
125
100
AcDbEntity
  8
_U+30EC_U+30A4_U+30E4_U+30FC 1
 62
     7
420
 16777215
370
    25
  0
POLYLINE
  5
129
330
1F
100
AcDbEntity
  8
_U+30EC_U+30A4_U+30E4_U+30FC 1
 62
     7
420
 16777215
370
    25
100
AcDb2dPolyline
 66
     1
 10
0.0
 20
0.0
 30
0.0
  0
VERTEX
  5
12A
330
129
100
AcDbEntity
  8
_U+30EC_U+30A4_U+30E4_U+30FC 1
 62
     7
420
 16777215
370
    25
100
AcDbVertex
100
AcDb2dVertex
 10
74.81404003577927
 20
-135.3161010772824
 30
0.0
  0
VERTEX
  5
12B
330
129
100
AcDbEntity
  8
_U+30EC_U+30A4_U+30E4_U+30FC 1
 62
     7
420
 16777215
370
    25
100
AcDbVertex
100
AcDb2dVertex
 10
76.83044720655866
 20
-137.332543576778
 30
0.0
  0
SEQEND
  5
12C
330
129
100
AcDbEntity
  8
_U+30EC_U+30A4_U+30E4_U+30FC 1
 62
     7
420
 16777215
370
    25
  0
POLYLINE
  5
12D
330
1F
100
AcDbEntity
  8
_U+30EC_U+30A4_U+30E4_U+30FC 1
 62
     7
420
 16777215
370
    25
100
AcDb2dPolyline
 66
     1
 10
0.0
 20
0.0
 30
0.0
  0
VERTEX
  5
12E
330
12D
100
AcDbEntity
  8
_U+30EC_U+30A4_U+30E4_U+30FC 1
 62
     7
420
 16777215
370
    25
100
AcDbVertex
100
AcDb2dVertex
 10
90.33799047306363
 20
-136.7361727435935
 30
0.0
  0
VERTEX
  5
12F
330
12D
100
AcDbEntity
  8
_U+30EC_U+30A4_U+30E4_U+30FC 1
 62
     7
420
 16777215
370
    25
100
AcDbVertex
100
AcDb2dVertex
 10
91.83796626812939
 20
-136.7361727435935
 30
0.0
  0
SEQEND
  5
130
330
12D
100
AcDbEntity
  8
_U+30EC_U+30A4_U+30E4_U+30FC 1
 62
     7
420
 16777215
370
    25
  0
POLYLINE
  5
131
330
1F
100
AcDbEntity
  8
_U+30EC_U+30A4_U+30E4_U+30FC 1
 62
     7
420
 16777215
370
    25
100
AcDb2dPolyline
 66
     1
 10
0.0
 20
0.0
 30
0.0
  0
VERTEX
  5
132
330
131
100
AcDbEntity
  8
_U+30EC_U+30A4_U+30E4_U+30FC 1
 62
     7
420
 16777215
370
    25
100
AcDbVertex
100
AcDb2dVertex
 10
72.78175786540488
 20
-119.3270833035016
 30
0.0
  0
VERTEX
  5
133
330
131
100
AcDbEntity
  8
_U+30EC_U+30A4_U+30E4_U+30FC 1
 62
     7
420
 16777215
370
    25
100
AcDbVertex
100
AcDb2dVertex
 10
72.78175786540488
 20
-117.8270721927653
 30
0.0
  0
SEQEND
  5
134
330
131
100
AcDbEntity
  8
_U+30EC_U+30A4_U+30E4_U+30FC 1
 62
     7
420
 16777215
370
    25
  0
POLYLINE
  5
135
330
1F
100
AcDbEntity
  8
_U+30EC_U+30A4_U+30E4_U+30FC 1
 62
     7
420
 16777215
370
    25
100
AcDb2dPolyline
 66
     1
 10
0.0
 20
0.0
 30
0.0
  0
VERTEX
  5
136
330
135
100
AcDbEntity
  8
_U+30EC_U+30A4_U+30E4_U+30FC 1
 62
     7
420
 16777215
370
    25
100
AcDbVertex
100
AcDb2dVertex
 10
81.13130209683472
 20
-128.6550216345028
 30
0.0
  0
VERTEX
  5
137
330
135
100
AcDbEntity
  8
_U+30EC_U+30A4_U+30E4_U+30FC 1
 62
     7
420
 16777215
370
    25
100
AcDbVertex
100
AcDb2dVertex
 10
106.1316747923554
 20
-128.6550216345028
 30
0.0
  0
SEQEND
  5
138
330
135
100
AcDbEntity
  8
_U+30EC_U+30A4_U+30E4_U+30FC 1
 62
     7
420
 16777215
370
    25
  0
POLYLINE
  5
139
330
1F
100
AcDbEntity
  8
_U+30EC_U+30A4_U+30E4_U+30FC 1
 62
     7
420
 16777215
370
    25
100
AcDb2dPolyline
 66
     1
 10
0.0
 20
0.0
 30
0.0
  0
VERTEX
  5
13A
330
139
100
AcDbEntity
  8
_U+30EC_U+30A4_U+30E4_U+30FC 1
 62
     7
420
 16777215
370
    25
100
AcDbVertex
100
AcDb2dVertex
 10
80.52840488999368
 20
-129.6547938564754
 30
0.0
  0
VERTEX
  5
13B
330
139
100
AcDbEntity
  8
_U+30EC_U+30A4_U+30E4_U+30FC 1
 62
     7
420
 16777215
370
    25
100
AcDbVertex
100
AcDb2dVertex
 10
106.1316747923554
 20
-129.6547938564754
 30
0.0
  0
SEQEND
  5
13C
330
139
100
AcDbEntity
  8
_U+30EC_U+30A4_U+30E4_U+30FC 1
 62
     7
420
 16777215
370
    25
  0
POLYLINE
  5
13D
330
1F
100
AcDbEntity
  8
_U+30EC_U+30A4_U+30E4_U+30FC 1
 62
     7
420
 16777215
370
    25
100
AcDb2dPolyline
 66
     1
 10
0.0
 20
0.0
 30
0.0
  0
VERTEX
  5
13E
330
13D
100
AcDbEntity
  8
_U+30EC_U+30A4_U+30E4_U+30FC 1
 62
     7
420
 16777215
370
    25
100
AcDbVertex
100
AcDb2dVertex
 10
106.1316747923554
 20
-128.6550216345028
 30
0.0
  0
VERTEX
  5
13F
330
13D
100
AcDbEntity
  8
_U+30EC_U+30A4_U+30E4_U+30FC 1
 62
     7
420
 16777215
370
    25
100
AcDbVertex
100
AcDb2dVertex
 10
106.1316747923554
 20
-129.6547938564754
 30
0.0
  0
SEQEND
  5
140
330
13D
100
AcDbEntity
  8
_U+30EC_U+30A4_U+30E4_U+30FC 1
 62
     7
420
 16777215
370
    25
  0
POLYLINE
  5
141
330
1F
100
AcDbEntity
  8
_U+30EC_U+30A4_U+30E4_U+30FC 1
 62
     7
420
 16777215
370
    25
100
AcDb2dPolyline
 66
     1
 10
0.0
 20
0.0
 30
0.0
  0
VERTEX
  5
142
330
141
100
AcDbEntity
  8
_U+30EC_U+30A4_U+30E4_U+30FC 1
 62
     7
420
 16777215
370
    25
100
AcDbVertex
100
AcDb2dVertex
 10
80.10052073424325
 20
-128.6116299678471
 30
0.0
  0
VERTEX
  5
143
330
141
100
AcDbEntity
  8
_U+30EC_U+30A4_U+30E4_U+30FC 1
 62
     7
420
 16777215
370
    25
100
AcDbVertex
100
AcDb2dVertex
 10
80.10052073424325
 20
-103.5368205296714
 30
0.0
  0
SEQEND
  5
144
330
141
100
AcDbEntity
  8
_U+30EC_U+30A4_U+30E4_U+30FC 1
 62
     7
420
 16777215
370
    25
  0
POLYLINE
  5
145
330
1F
100
AcDbEntity
  8
_U+30EC_U+30A4_U+30E4_U+30FC 1
 62
     7
420
 16777215
370
    25
100
AcDb2dPolyline
 66
     1
 10
0.0
 20
0.0
 30
0.0
  0
VERTEX
  5
146
330
145
100
AcDbEntity
  8
_U+30EC_U+30A4_U+30E4_U+30FC 1
 62
     7
420
 16777215
370
    25
100
AcDbVertex
100
AcDb2dVertex
 10
81.10064570872794
 20
-128.6708613567214
 30
0.0
  0
VERTEX
  5
147
330
145
100
AcDbEntity
  8
_U+30EC_U+30A4_U+30E4_U+30FC 1
 62
     7
420
 16777215
370
    25
100
AcDbVertex
100
AcDb2dVertex
 10
81.10064570872794
 20
-103.5368205296714
 30
0.0
  0
SEQEND
  5
148
330
145
100
AcDbEntity
  8
_U+30EC_U+30A4_U+30E4_U+30FC 1
 62
     7
420
 16777215
370
    25
  0
POLYLINE
  5
149
330
1F
100
AcDbEntity
  8
_U+30EC_U+30A4_U+30E4_U+30FC 1
 62
     7
420
 16777215
370
    25
100
AcDb2dPolyline
 66
     1
 10
0.0
 20
0.0
 30
0.0
  0
VERTEX
  5
14A
330
149
100
AcDbEntity
  8
_U+30EC_U+30A4_U+30E4_U+30FC 1
 62
     7
420
 16777215
370
    25
100
AcDbVertex
100
AcDb2dVertex
 10
80.10052073424325
 20
-103.5368205296714
 30
0.0
  0
VERTEX
  5
14B
330
149
100
AcDbEntity
  8
_U+30EC_U+30A4_U+30E4_U+30FC 1
 62
     7
420
 16777215
370
    25
100
AcDbVertex
100
AcDb2dVertex
 10
81.1009984864967
 20
-103.5368205296714
 30
0.0
  0
SEQEND
  5
14C
330
149
100
AcDbEntity
  8
_U+30EC_U+30A4_U+30E4_U+30FC 1
 62
     7
420
 16777215
370
    25
  0
POLYLINE
  5
14D
330
1F
100
AcDbEntity
  8
_U+30EC_U+30A4_U+30E4_U+30FC 1
 62
     7
420
 16777215
370
    25
100
AcDb2dPolyline
 66
     1
 10
0.0
 20
0.0
 30
0.0
  0
VERTEX
  5
14E
330
14D
100
AcDbEntity
  8
_U+30EC_U+30A4_U+30E4_U+30FC 1
 62
     7
420
 16777215
370
    25
100
AcDbVertex
100
AcDb2dVertex
 10
74.03027366688593
 20
-134.7135566329883
 30
0.0
  0
VERTEX
  5
14F
330
14D
100
AcDbEntity
  8
_U+30EC_U+30A4_U+30E4_U+30FC 1
 62
     7
420
 16777215
370
    25
100
AcDbVertex
100
AcDb2dVertex
 10
80.09226573445385
 20
-128.6519171900593
 30
0.0
  0
SEQEND
  5
150
330
14D
100
AcDbEntity
  8
_U+30EC_U+30A4_U+30E4_U+30FC 1
 62
     7
420
 16777215
370
    25
  0
POLYLINE
  5
151
330
1F
100
AcDbEntity
  8
_U+30EC_U+30A4_U+30E4_U+30FC 1
 62
     7
420
 16777215
370
    25
100
AcDb2dPolyline
 66
     1
 10
0.0
 20
0.0
 30
0.0
  0
VERTEX
  5
152
330
151
100
AcDbEntity
  8
_U+30EC_U+30A4_U+30E4_U+30FC 1
 62
     7
420
 16777215
370
    25
100
AcDbVertex
100
AcDb2dVertex
 10
74.89429697817619
 20
-135.2479091328547
 30
0.0
  0
VERTEX
  5
153
330
151
100
AcDbEntity
  8
_U+30EC_U+30A4_U+30E4_U+30FC 1
 62
     7
420
 16777215
370
    25
100
AcDbVertex
100
AcDb2dVertex
 10
80.4415862810975
 20
-129.7006196897972
 30
0.0
  0
SEQEND
  5
154
330
151
100
AcDbEntity
  8
_U+30EC_U+30A4_U+30E4_U+30FC 1
 62
     7
420
 16777215
370
    25
  0
ENDSEC
  0
SECTION
  2
OBJECTS
  0
DICTIONARY
  5
C
330
0
100
AcDbDictionary
281
     1
  3
ACAD_GROUP
350
D
  3
ACAD_LAYOUT
350
1A
  3
ACAD_MATERIAL
350
3B
  3
ACAD_MLEADERSTYLE
350
156
  3
ACAD_MLINESTYLE
350
17
  3
ACAD_PLOTSETTINGS
350
19
  3
ACAD_PLOTSTYLENAME
350
E
  3
ACAD_TABLESTYLE
350
155
  3
ACAD_VISUALSTYLE
350
2A
  0
SUN
  5
3F
330
29
100
AcDbSun
 90
        1
290
     0
 63
     7
421
 16777215
 40
1.0
291
     1
 91
  2455826
 92
 54000000
292
     0
 70
     2
 71
   256
280
     1
  0
DICTIONARY
  5
D
102
{ACAD_REACTORS
330
C
102
}
330
C
100
AcDbDictionary
281
     1
  0
DICTIONARY
  5
1A
102
{ACAD_REACTORS
330
C
102
}
330
C
100
AcDbDictionary
281
     1
  3
Layout1
350
1E
  3
Layout2
350
26
  3
Model
350
22
  0
DICTIONARY
  5
3B
102
{ACAD_REACTORS
330
C
102
}
330
C
100
AcDbDictionary
281
     1
  3
ByBlock
350
3D
  3
ByLayer
350
3C
  3
Global
350
3E
  0
DICTIONARY
  5
156
102
{ACAD_REACTORS
330
C
102
}
330
C
100
AcDbDictionary
281
     1
  0
DICTIONARY
  5
17
102
{ACAD_REACTORS
330
C
102
}
330
C
100
AcDbDictionary
281
     1
  3
Standard
350
18
  0
DICTIONARY
  5
19
102
{ACAD_REACTORS
330
C
102
}
330
C
100
AcDbDictionary
281
     1
  0
ACDBDICTIONARYWDFLT
  5
E
102
{ACAD_REACTORS
330
C
102
}
330
C
100
AcDbDictionary
281
     1
  3
Normal
350
F
100
AcDbDictionaryWithDefault
340
F
  0
DICTIONARY
  5
155
102
{ACAD_REACTORS
330
C
102
}
330
C
100
AcDbDictionary
281
     1
  0
DICTIONARY
  5
2A
102
{ACAD_REACTORS
330
C
102
}
330
C
100
AcDbDictionary
281
     1
  3
2dWireframe
350
2F
  3
3D Hidden
350
31
  3
3dWireframe
350
30
  3
Basic
350
32
  3
Brighten
350
36
  3
ColorChange
350
3A
  3
Conceptual
350
34
  3
Dim
350
35
  3
Facepattern
350
39
  3
Flat
350
2B
  3
FlatWithEdges
350
2C
  3
Gouraud
350
2D
  3
GouraudWithEdges
350
2E
  3
Linepattern
350
38
  3
Realistic
350
33
  3
Thicken
350
37
  0
LAYOUT
  5
1E
102
{ACAD_REACTORS
330
1A
102
}
330
1A
100
AcDbPlotSettings
  1

  2
none_device
  4

  6

 40
0.0
 41
0.0
 42
0.0
 43
0.0
 44
0.0
 45
0.0
 46
0.0
 47
0.0
 48
0.0
 49
0.0
140
0.0
141
0.0
142
1.0
143
1.0
 70
   688
 72
     0
 73
     0
 74
     5
  7

 75
    16
 76
     0
 77
     2
 78
   300
147
1.0
148
0.0
149
0.0
100
AcDbLayout
  1
Layout1
 70
     1
 71
     1
 10
0.0
 20
0.0
 11
12.0
 21
9.0
 12
0.0
 22
0.0
 32
0.0
 14
1.000000000000000E+20
 24
1.000000000000000E+20
 34
1.000000000000000E+20
 15
-1.000000000000000E+20
 25
-1.000000000000000E+20
 35
-1.000000000000000E+20
146
0.0
 13
0.0
 23
0.0
 33
0.0
 16
1.0
 26
0.0
 36
0.0
 17
0.0
 27
1.0
 37
0.0
 76
     0
330
1B
  0
LAYOUT
  5
26
102
{ACAD_REACTORS
330
1A
102
}
330
1A
100
AcDbPlotSettings
  1

  2
none_device
  4

  6

 40
0.0
 41
0.0
 42
0.0
 43
0.0
 44
0.0
 45
0.0
 46
0.0
 47
0.0
 48
0.0
 49
0.0
140
0.0
141
0.0
142
1.0
143
1.0
 70
   688
 72
     0
 73
     0
 74
     5
  7

 75
    16
 76
     0
 77
     2
 78
   300
147
1.0
148
0.0
149
0.0
100
AcDbLayout
  1
Layout2
 70
     1
 71
     2
 10
0.0
 20
0.0
 11
0.0
 21
0.0
 12
0.0
 22
0.0
 32
0.0
 14
0.0
 24
0.0
 34
0.0
 15
0.0
 25
0.0
 35
0.0
146
0.0
 13
0.0
 23
0.0
 33
0.0
 16
1.0
 26
0.0
 36
0.0
 17
0.0
 27
1.0
 37
0.0
 76
     0
330
23
  0
LAYOUT
  5
22
102
{ACAD_REACTORS
330
1A
102
}
330
1A
100
AcDbPlotSettings
  1

  2
none_device
  4

  6

 40
0.0
 41
0.0
 42
0.0
 43
0.0
 44
0.0
 45
0.0
 46
0.0
 47
0.0
 48
0.0
 49
0.0
140
0.0
141
0.0
142
1.0
143
1.0
 70
  1712
 72
     0
 73
     0
 74
     0
  7

 75
     0
 76
     0
 77
     2
 78
   300
147
1.0
148
0.0
149
0.0
100
AcDbLayout
  1
Model
 70
     1
 71
     0
 10
0.0
 20
0.0
 11
12.0
 21
9.0
 12
0.0
 22
0.0
 32
0.0
 14
1.000000000000000E+20
 24
1.000000000000000E+20
 34
1.000000000000000E+20
 15
-1.000000000000000E+20
 25
-1.000000000000000E+20
 35
-1.000000000000000E+20
146
0.0
 13
0.0
 23
0.0
 33
0.0
 16
1.0
 26
0.0
 36
0.0
 17
0.0
 27
1.0
 37
0.0
 76
     0
330
1F
331
29
  0
MATERIAL
  5
3D
102
{ACAD_REACTORS
330
3B
102
}
330
3B
100
AcDbMaterial
  1
ByBlock
 72
     1
 94
      127
  0
MATERIAL
  5
3C
102
{ACAD_REACTORS
330
3B
102
}
330
3B
100
AcDbMaterial
  1
ByLayer
 72
     1
 94
      127
  0
MATERIAL
  5
3E
102
{ACAD_REACTORS
330
3B
102
}
330
3B
100
AcDbMaterial
  1
Global
 72
     1
 94
      127
  0
MLINESTYLE
  5
18
102
{ACAD_REACTORS
330
17
102
}
330
17
100
AcDbMlineStyle
  2
Standard
 70
     0
  3

 62
   256
 51
90.0
 52
90.0
 71
     2
 49
0.5
 62
   256
  6
BYLAYER
 49
-0.5
 62
   256
  6
BYLAYER
  0
ACDBPLACEHOLDER
  5
F
102
{ACAD_REACTORS
330
E
102
}
330
E
  0
VISUALSTYLE
  5
2F
102
{ACAD_REACTORS
330
2A
102
}
330
2A
100
AcDbVisualStyle
  2
2dWireframe
 70
     4
177
     2
291
     0
 71
     0
176
     1
 72
     2
176
     1
 73
     0
176
     1
 90
        0
176
     1
 40
-0.6
176
     1
 41
-30.0
176
     1
 62
     5
 63
     7
421
 16777215
176
     1
 74
     1
176
     1
 91
        4
176
     1
 64
     7
176
     1
 65
   257
176
     1
 75
     1
176
     1
175
     1
176
     1
 42
1.0
176
     1
 92
        0
176
     1
 66
   257
176
     1
 43
1.0
176
     1
 76
     1
176
     1
 77
     6
176
     1
 78
     2
176
     1
 67
     7
176
     1
 79
     5
176
     1
170
     0
176
     1
171
     0
176
     1
290
     0
176
     1
 93
        1
176
     1
 44
0.0
176
     1
173
     0
176
     1
  0
VISUALSTYLE
  5
31
102
{ACAD_REACTORS
330
2A
102
}
330
2A
100
AcDbVisualStyle
  2
3D Hidden
 70
     6
177
     2
291
     0
 71
     1
176
     1
 72
     2
176
     1
 73
     2
176
     1
 90
        0
176
     1
 40
-0.6
176
     1
 41
-30.0
176
     1
 62
     5
 63
     7
421
 16777215
176
     1
 74
     2
176
     1
 91
        2
176
     1
 64
     7
176
     1
 65
   257
176
     1
 75
     2
176
     1
175
     1
176
     1
 42
40.0
176
     1
 92
        0
176
     1
 66
   257
176
     1
 43
1.0
176
     1
 76
     1
176
     1
 77
     6
176
     1
 78
     2
176
     1
 67
     7
176
     1
 79
     3
176
     1
170
     0
176
     1
171
     0
176
     1
290
     0
176
     1
 93
        1
176
     1
 44
0.0
176
     1
173
     0
176
     1
  0
VISUALSTYLE
  5
30
102
{ACAD_REACTORS
330
2A
102
}
330
2A
100
AcDbVisualStyle
  2
3dWireframe
 70
     5
177
     2
291
     0
 71
     0
176
     1
 72
     2
176
     1
 73
     0
176
     1
 90
        0
176
     1
 40
-0.6
176
     1
 41
-30.0
176
     1
 62
     5
 63
     7
421
 16777215
176
     1
 74
     1
176
     1
 91
        4
176
     1
 64
     7
176
     1
 65
   257
176
     1
 75
     1
176
     1
175
     1
176
     1
 42
1.0
176
     1
 92
        0
176
     1
 66
   257
176
     1
 43
1.0
176
     1
 76
     1
176
     1
 77
     6
176
     1
 78
     2
176
     1
 67
     7
176
     1
 79
     5
176
     1
170
     0
176
     1
171
     0
176
     1
290
     0
176
     1
 93
        1
176
     1
 44
0.0
176
     1
173
     0
176
     1
  0
VISUALSTYLE
  5
32
102
{ACAD_REACTORS
330
2A
102
}
330
2A
100
AcDbVisualStyle
  2
Basic
 70
     7
177
     2
291
     1
 71
     1
176
     1
 72
     0
176
     1
 73
     1
176
     1
 90
        0
176
     1
 40
-0.6
176
     1
 41
-30.0
176
     1
 62
     5
 63
     7
421
 16777215
176
     1
 74
     0
176
     1
 91
        4
176
     1
 64
     7
176
     1
 65
   257
176
     1
 75
     1
176
     1
175
     1
176
     1
 42
1.0
176
     1
 92
        8
176
     1
 66
     7
176
     1
 43
1.0
176
     1
 76
     1
176
     1
 77
     6
176
     1
 78
     2
176
     1
 67
     7
176
     1
 79
     5
176
     1
170
     0
176
     1
171
     0
176
     1
290
     0
176
     1
 93
        1
176
     1
 44
0.0
176
     1
173
     0
176
     1
  0
VISUALSTYLE
  5
36
102
{ACAD_REACTORS
330
2A
102
}
330
2A
100
AcDbVisualStyle
  2
Brighten
 70
    12
177
     2
291
     1
 71
     2
176
     1
 72
     2
176
     1
 73
     0
176
     1
 90
        0
176
     1
 40
-0.6
176
     1
 41
-30.0
176
     1
 62
     5
 63
     7
421
 16777215
176
     1
 74
     1
176
     1
 91
        4
176
     1
 64
     7
176
     1
 65
   257
176
     1
 75
     1
176
     1
175
     1
176
     1
 42
1.0
176
     1
 92
        8
176
     1
 66
     7
176
     1
 43
1.0
176
     1
 76
     1
176
     1
 77
     6
176
     1
 78
     2
176
     1
 67
     7
176
     1
 79
     5
176
     1
170
     0
176
     1
171
     0
176
     1
290
     0
176
     1
 93
        1
176
     1
 44
50.0
176
     1
173
     0
176
     1
  0
VISUALSTYLE
  5
3A
102
{ACAD_REACTORS
330
2A
102
}
330
2A
100
AcDbVisualStyle
  2
ColorChange
 70
    16
177
     2
291
     1
 71
     2
176
     1
 72
     2
176
     1
 73
     3
176
     1
 90
        0
176
     1
 40
-0.6
176
     1
 41
-30.0
176
     1
 62
     5
 63
     8
421
  8421504
176
     1
 74
     1
176
     1
 91
        4
176
     1
 64
     7
176
     1
 65
   257
176
     1
 75
     1
176
     1
175
     1
176
     1
 42
1.0
176
     1
 92
        8
176
     1
 66
     8
424
  8421504
176
     1
 43
1.0
176
     1
 76
     1
176
     1
 77
     6
176
     1
 78
     2
176
     1
 67
     7
176
     1
 79
     5
176
     1
170
     0
176
     1
171
     0
176
     1
290
     0
176
     1
 93
        1
176
     1
 44
0.0
176
     1
173
     0
176
     1
  0
VISUALSTYLE
  5
34
102
{ACAD_REACTORS
330
2A
102
}
330
2A
100
AcDbVisualStyle
  2
Conceptual
 70
     9
177
     2
291
     0
 71
     3
176
     1
 72
     2
176
     1
 73
     0
176
     1
 90
        0
176
     1
 40
-0.6
176
     1
 41
-30.0
176
     1
 62
     5
 63
     7
421
 16777215
176
     1
 74
     2
176
     1
 91
        2
176
     1
 64
     7
176
     1
 65
   257
176
     1
 75
     1
176
     1
175
     1
176
     1
 42
40.0
176
     1
 92
        8
176
     1
 66
     7
176
     1
 43
1.0
176
     1
 76
     1
176
     1
 77
     6
176
     1
 78
     2
176
     1
 67
     7
176
     1
 79
     3
176
     1
170
     0
176
     1
171
     0
176
     1
290
     0
176
     1
 93
        1
176
     1
 44
0.0
176
     1
173
     0
176
     1
  0
VISUALSTYLE
  5
35
102
{ACAD_REACTORS
330
2A
102
}
330
2A
100
AcDbVisualStyle
  2
Dim
 70
    11
177
     2
291
     1
 71
     2
176
     1
 72
     2
176
     1
 73
     0
176
     1
 90
        0
176
     1
 40
-0.6
176
     1
 41
-30.0
176
     1
 62
     5
 63
     7
421
 16777215
176
     1
 74
     1
176
     1
 91
        4
176
     1
 64
     7
176
     1
 65
   257
176
     1
 75
     1
176
     1
175
     1
176
     1
 42
1.0
176
     1
 92
        8
176
     1
 66
     7
176
     1
 43
1.0
176
     1
 76
     1
176
     1
 77
     6
176
     1
 78
     2
176
     1
 67
     7
176
     1
 79
     5
176
     1
170
     0
176
     1
171
     0
176
     1
290
     0
176
     1
 93
        1
176
     1
 44
-50.0
176
     1
173
     0
176
     1
  0
VISUALSTYLE
  5
39
102
{ACAD_REACTORS
330
2A
102
}
330
2A
100
AcDbVisualStyle
  2
Facepattern
 70
    15
177
     2
291
     1
 71
     2
176
     1
 72
     2
176
     1
 73
     0
176
     1
 90
        0
176
     1
 40
-0.6
176
     1
 41
-30.0
176
     1
 62
     5
 63
     7
421
 16777215
176
     1
 74
     1
176
     1
 91
        4
176
     1
 64
     7
176
     1
 65
   257
176
     1
 75
     1
176
     1
175
     1
176
     1
 42
1.0
176
     1
 92
        8
176
     1
 66
     7
176
     1
 43
1.0
176
     1
 76
     1
176
     1
 77
     6
176
     1
 78
     2
176
     1
 67
     7
176
     1
 79
     5
176
     1
170
     0
176
     1
171
     0
176
     1
290
     0
176
     1
 93
        1
176
     1
 44
0.0
176
     1
173
     0
176
     1
  0
VISUALSTYLE
  5
2B
102
{ACAD_REACTORS
330
2A
102
}
330
2A
100
AcDbVisualStyle
  2
Flat
 70
     0
177
     2
291
     1
 71
     2
176
     1
 72
     1
176
     1
 73
     1
176
     1
 90
        2
176
     1
 40
-0.6
176
     1
 41
30.0
176
     1
 62
     5
 63
     7
421
 16777215
176
     1
 74
     0
176
     1
 91
        4
176
     1
 64
     7
176
     1
 65
   257
176
     1
 75
     1
176
     1
175
     1
176
     1
 42
1.0
176
     1
 92
        8
176
     1
 66
     7
176
     1
 43
1.0
176
     1
 76
     1
176
     1
 77
     6
176
     1
 78
     2
176
     1
 67
     7
176
     1
 79
     5
176
     1
170
     0
176
     1
171
     0
176
     1
290
     0
176
     1
 93
       13
176
     1
 44
0.0
176
     1
173
     0
176
     1
  0
VISUALSTYLE
  5
2C
102
{ACAD_REACTORS
330
2A
102
}
330
2A
100
AcDbVisualStyle
  2
FlatWithEdges
 70
     1
177
     2
291
     1
 71
     2
176
     1
 72
     1
176
     1
 73
     1
176
     1
 90
        2
176
     1
 40
-0.6
176
     1
 41
30.0
176
     1
 62
     5
 63
     7
421
 16777215
176
     1
 74
     1
176
     1
 91
        4
176
     1
 64
     7
176
     1
 65
   257
176
     1
 75
     1
176
     1
175
     1
176
     1
 42
1.0
176
     1
 92
        0
176
     1
 66
   257
176
     1
 43
1.0
176
     1
 76
     1
176
     1
 77
     6
176
     1
 78
     2
176
     1
 67
     7
176
     1
 79
     5
176
     1
170
     0
176
     1
171
     0
176
     1
290
     0
176
     1
 93
       13
176
     1
 44
0.0
176
     1
173
     0
176
     1
  0
VISUALSTYLE
  5
2D
102
{ACAD_REACTORS
330
2A
102
}
330
2A
100
AcDbVisualStyle
  2
Gouraud
 70
     2
177
     2
291
     1
 71
     2
176
     1
 72
     2
176
     1
 73
     1
176
     1
 90
        2
176
     1
 40
-0.6
176
     1
 41
30.0
176
     1
 62
     5
 63
     7
421
 16777215
176
     1
 74
     0
176
     1
 91
        4
176
     1
 64
     7
176
     1
 65
   257
176
     1
 75
     1
176
     1
175
     1
176
     1
 42
1.0
176
     1
 92
        0
176
     1
 66
     7
176
     1
 43
1.0
176
     1
 76
     1
176
     1
 77
     6
176
     1
 78
     2
176
     1
 67
     7
176
     1
 79
     5
176
     1
170
     0
176
     1
171
     0
176
     1
290
     0
176
     1
 93
       13
176
     1
 44
0.0
176
     1
173
     0
176
     1
  0
VISUALSTYLE
  5
2E
102
{ACAD_REACTORS
330
2A
102
}
330
2A
100
AcDbVisualStyle
  2
GouraudWithEdges
 70
     3
177
     2
291
     1
 71
     2
176
     1
 72
     2
176
     1
 73
     1
176
     1
 90
        2
176
     1
 40
-0.6
176
     1
 41
30.0
176
     1
 62
     5
 63
     7
421
 16777215
176
     1
 74
     1
176
     1
 91
        4
176
     1
 64
     7
176
     1
 65
   257
176
     1
 75
     1
176
     1
175
     1
176
     1
 42
1.0
176
     1
 92
        0
176
     1
 66
   257
176
     1
 43
1.0
176
     1
 76
     1
176
     1
 77
     6
176
     1
 78
     2
176
     1
 67
     7
176
     1
 79
     5
176
     1
170
     0
176
     1
171
     0
176
     1
290
     0
176
     1
 93
       13
176
     1
 44
0.0
176
     1
173
     0
176
     1
  0
VISUALSTYLE
  5
38
102
{ACAD_REACTORS
330
2A
102
}
330
2A
100
AcDbVisualStyle
  2
Linepattern
 70
    14
177
     2
291
     1
 71
     2
176
     1
 72
     2
176
     1
 73
     0
176
     1
 90
        0
176
     1
 40
-0.6
176
     1
 41
-30.0
176
     1
 62
     5
 63
     7
421
 16777215
176
     1
 74
     1
176
     1
 91
        4
176
     1
 64
     7
176
     1
 65
   257
176
     1
 75
     7
176
     1
175
     7
176
     1
 42
1.0
176
     1
 92
        8
176
     1
 66
     7
176
     1
 43
1.0
176
     1
 76
     1
176
     1
 77
     6
176
     1
 78
     2
176
     1
 67
     7
176
     1
 79
     5
176
     1
170
     0
176
     1
171
     0
176
     1
290
     0
176
     1
 93
        1
176
     1
 44
0.0
176
     1
173
     0
176
     1
  0
VISUALSTYLE
  5
33
102
{ACAD_REACTORS
330
2A
102
}
330
2A
100
AcDbVisualStyle
  2
Realistic
 70
     8
177
     2
291
     0
 71
     2
176
     1
 72
     2
176
     1
 73
     0
176
     1
 90
        0
176
     1
 40
-0.6
176
     1
 41
-30.0
176
     1
 62
     5
 63
     7
421
 16777215
176
     1
 74
     1
176
     1
 91
        0
176
     1
 64
     7
176
     1
 65
   257
176
     1
 75
     1
176
     1
175
     1
176
     1
 42
1.0
176
     1
 92
        8
176
     1
 66
     8
424
  7895160
176
     1
 43
1.0
176
     1
 76
     1
176
     1
 77
     6
176
     1
 78
     2
176
     1
 67
     7
176
     1
 79
     5
176
     1
170
     0
176
     1
171
     0
176
     1
290
     0
176
     1
 93
       13
176
     1
 44
0.0
176
     1
173
     0
176
     1
  0
VISUALSTYLE
  5
37
102
{ACAD_REACTORS
330
2A
102
}
330
2A
100
AcDbVisualStyle
  2
Thicken
 70
    13
177
     2
291
     1
 71
     2
176
     1
 72
     2
176
     1
 73
     0
176
     1
 90
        0
176
     1
 40
-0.6
176
     1
 41
-30.0
176
     1
 62
     5
 63
     7
421
 16777215
176
     1
 74
     1
176
     1
 91
        4
176
     1
 64
     7
176
     1
 65
   257
176
     1
 75
     1
176
     1
175
     1
176
     1
 42
1.0
176
     1
 92
       12
176
     1
 66
     7
176
     1
 43
1.0
176
     1
 76
     1
176
     1
 77
     6
176
     1
 78
     2
176
     1
 67
     7
176
     1
 79
     5
176
     1
170
     0
176
     1
171
     0
176
     1
290
     0
176
     1
 93
        1
176
     1
 44
0.0
176
     1
173
     0
176
     1
  0
ENDSEC
  0
EOF
