  0
SECTION
  2
HEADER
  9
$ACADVER
  1
AC1024
  9
$ACADMAINTVER
 70
     6
  9
$DWGCODEPAGE
  3
UNDEFINED
  9
$INSBASE
 10
0.0
 20
0.0
 30
0.0
  9
$EXTMIN
 10
1.000000000000000E+20
 20
1.000000000000000E+20
 30
1.000000000000000E+20
  9
$EXTMAX
 10
-1.000000000000000E+20
 20
-1.000000000000000E+20
 30
-1.000000000000000E+20
  9
$LIMMIN
 10
0.0
 20
0.0
  9
$LIMMAX
 10
12.0
 20
9.0
  9
$ORTHOMODE
 70
     0
  9
$REGENMODE
 70
     1
  9
$FILLMODE
 70
     1
  9
$QTEXTMODE
 70
     0
  9
$MIRRTEXT
 70
     1
  9
$LTSCALE
 40
1.0
  9
$ATTMODE
 70
     1
  9
$TEXTSIZE
 40
0.2
  9
$TRACEWID
 40
0.05
  9
$TEXTSTYLE
  7
Standard
  9
$CLAYER
  8
0
  9
$CELTYPE
  6
ByLayer
  9
$CECOLOR
 62
   256
  9
$CELTSCALE
 40
1.0
  9
$DISPSILH
 70
     0
  9
$DIMSCALE
 40
1.0
  9
$DIMASZ
 40
0.18
  9
$DIMEXO
 40
0.0625
  9
$DIMDLI
 40
0.38
  9
$DIMRND
 40
0.0
  9
$DIMDLE
 40
0.0
  9
$DIMEXE
 40
0.18
  9
$DIMTP
 40
0.0
  9
$DIMTM
 40
0.0
  9
$DIMTXT
 40
0.18
  9
$DIMCEN
 40
0.09
  9
$DIMTSZ
 40
0.0
  9
$DIMTOL
 70
     0
  9
$DIMLIM
 70
     0
  9
$DIMTIH
 70
     1
  9
$DIMTOH
 70
     1
  9
$DIMSE1
 70
     0
  9
$DIMSE2
 70
     0
  9
$DIMTAD
 70
     0
  9
$DIMZIN
 70
     0
  9
$DIMBLK
  1

  9
$DIMASO
 70
     1
  9
$DIMSHO
 70
     1
  9
$DIMPOST
  1

  9
$DIMAPOST
  1

  9
$DIMALT
 70
     0
  9
$DIMALTD
 70
     2
  9
$DIMALTF
 40
25.4
  9
$DIMLFAC
 40
1.0
  9
$DIMTOFL
 70
     0
  9
$DIMTVP
 40
0.0
  9
$DIMTIX
 70
     0
  9
$DIMSOXD
 70
     0
  9
$DIMSAH
 70
     0
  9
$DIMBLK1
  1

  9
$DIMBLK2
  1

  9
$DIMSTYLE
  2
Standard
  9
$DIMCLRD
 70
     0
  9
$DIMCLRE
 70
     0
  9
$DIMCLRT
 70
     0
  9
$DIMTFAC
 40
1.0
  9
$DIMGAP
 40
0.09
  9
$DIMJUST
 70
     0
  9
$DIMSD1
 70
     0
  9
$DIMSD2
 70
     0
  9
$DIMTOLJ
 70
     1
  9
$DIMTZIN
 70
     0
  9
$DIMALTZ
 70
     0
  9
$DIMALTTZ
 70
     0
  9
$DIMUPT
 70
     0
  9
$DIMDEC
 70
     4
  9
$DIMTDEC
 70
     4
  9
$DIMALTU
 70
     2
  9
$DIMALTTD
 70
     2
  9
$DIMTXSTY
  7
Standard
  9
$DIMAUNIT
 70
     0
  9
$DIMADEC
 70
     0
  9
$DIMALTRND
 40
0.0
  9
$DIMAZIN
 70
     0
  9
$DIMDSEP
 70
    46
  9
$DIMATFIT
 70
     3
  9
$DIMFRAC
 70
     0
  9
$DIMLDRBLK
  1

  9
$DIMLUNIT
 70
     2
  9
$DIMLWD
 70
    -2
  9
$DIMLWE
 70
    -2
  9
$DIMTMOVE
 70
     0
  9
$DIMFXL
 40
1.0
  9
$DIMFXLON
 70
     0
  9
$DIMJOGANG
 40
0.7853981633974483
  9
$DIMTFILL
 70
     0
  9
$DIMTFILLCLR
 70
     0
  9
$DIMARCSYM
 70
     0
  9
$DIMLTYPE
  6

  9
$DIMLTEX1
  6

  9
$DIMLTEX2
  6

  9
$DIMTXTDIRECTION
 70
     0
  9
$LUNITS
 70
     2
  9
$LUPREC
 70
     4
  9
$SKETCHINC
 40
0.1
  9
$FILLETRAD
 40
0.5
  9
$AUNITS
 70
     0
  9
$AUPREC
 70
     0
  9
$MENU
  1
.
  9
$ELEVATION
 40
0.0
  9
$PELEVATION
 40
0.0
  9
$THICKNESS
 40
0.0
  9
$LIMCHECK
 70
     0
  9
$CHAMFERA
 40
0.5
  9
$CHAMFERB
 40
0.5
  9
$CHAMFERC
 40
1.0
  9
$CHAMFERD
 40
0.0
  9
$SKPOLY
 70
     0
  9
$TDCREATE
 40
2457917.619444433
  9
$TDUCREATE
 40
2457917.244444444
  9
$TDUPDATE
 40
2457917.619456007
  9
$TDUUPDATE
 40
2457917.244456018
  9
$TDINDWG
 40
0.0000000116
  9
$TDUSRTIMER
 40
0.0000000116
  9
$USRTIMER
 70
     1
  9
$ANGBASE
 50
0.0
  9
$ANGDIR
 70
     0
  9
$PDMODE
 70
     0
  9
$PDSIZE
 40
0.0
  9
$PLINEWID
 40
0.0
  9
$SPLFRAME
 70
     0
  9
$SPLINETYPE
 70
     6
  9
$SPLINESEGS
 70
     8
  9
$HANDSEED
  5
D1
  9
$SURFTAB1
 70
     6
  9
$SURFTAB2
 70
     6
  9
$SURFTYPE
 70
     6
  9
$SURFU
 70
     6
  9
$SURFV
 70
     6
  9
$UCSBASE
  2

  9
$UCSNAME
  2

  9
$UCSORG
 10
0.0
 20
0.0
 30
0.0
  9
$UCSXDIR
 10
1.0
 20
0.0
 30
0.0
  9
$UCSYDIR
 10
0.0
 20
1.0
 30
0.0
  9
$UCSORTHOREF
  2

  9
$UCSORTHOVIEW
 70
     0
  9
$UCSORGTOP
 10
0.0
 20
0.0
 30
0.0
  9
$UCSORGBOTTOM
 10
0.0
 20
0.0
 30
0.0
  9
$UCSORGLEFT
 10
0.0
 20
0.0
 30
0.0
  9
$UCSORGRIGHT
 10
0.0
 20
0.0
 30
0.0
  9
$UCSORGFRONT
 10
0.0
 20
0.0
 30
0.0
  9
$UCSORGBACK
 10
0.0
 20
0.0
 30
0.0
  9
$PUCSBASE
  2

  9
$PUCSNAME
  2

  9
$PUCSORG
 10
0.0
 20
0.0
 30
0.0
  9
$PUCSXDIR
 10
1.0
 20
0.0
 30
0.0
  9
$PUCSYDIR
 10
0.0
 20
1.0
 30
0.0
  9
$PUCSORTHOREF
  2

  9
$PUCSORTHOVIEW
 70
     0
  9
$PUCSORGTOP
 10
0.0
 20
0.0
 30
0.0
  9
$PUCSORGBOTTOM
 10
0.0
 20
0.0
 30
0.0
  9
$PUCSORGLEFT
 10
0.0
 20
0.0
 30
0.0
  9
$PUCSORGRIGHT
 10
0.0
 20
0.0
 30
0.0
  9
$PUCSORGFRONT
 10
0.0
 20
0.0
 30
0.0
  9
$PUCSORGBACK
 10
0.0
 20
0.0
 30
0.0
  9
$USERI1
 70
     0
  9
$USERI2
 70
     0
  9
$USERI3
 70
     0
  9
$USERI4
 70
     0
  9
$USERI5
 70
     0
  9
$USERR1
 40
0.0
  9
$USERR2
 40
0.0
  9
$USERR3
 40
0.0
  9
$USERR4
 40
0.0
  9
$USERR5
 40
0.0
  9
$WORLDVIEW
 70
     1
  9
$SHADEDGE
 70
     3
  9
$SHADEDIF
 70
    70
  9
$TILEMODE
 70
     1
  9
$MAXACTVP
 70
    64
  9
$PINSBASE
 10
0.0
 20
0.0
 30
0.0
  9
$PLIMCHECK
 70
     0
  9
$PEXTMIN
 10
1.000000000000000E+20
 20
1.000000000000000E+20
 30
1.000000000000000E+20
  9
$PEXTMAX
 10
-1.000000000000000E+20
 20
-1.000000000000000E+20
 30
-1.000000000000000E+20
  9
$PLIMMIN
 10
0.0
 20
0.0
  9
$PLIMMAX
 10
12.0
 20
9.0
  9
$UNITMODE
 70
     0
  9
$VISRETAIN
 70
     1
  9
$PLINEGEN
 70
     0
  9
$PSLTSCALE
 70
     1
  9
$TREEDEPTH
 70
  3020
  9
$CMLSTYLE
  2
Standard
  9
$CMLJUST
 70
     0
  9
$CMLSCALE
 40
1.0
  9
$PROXYGRAPHICS
 70
     1
  9
$MEASUREMENT
 70
     0
  9
$CELWEIGHT
370
    -1
  9
$ENDCAPS
280
     0
  9
$JOINSTYLE
280
     0
  9
$LWDISPLAY
290
     1
  9
$INSUNITS
 70
     1
  9
$HYPERLINKBASE
  1

  9
$STYLESHEET
  1

  9
$XEDIT
290
     1
  9
$CEPSNTYPE
380
     0
  9
$PSTYLEMODE
290
     1
  9
$FINGERPRINTGUID
  2
{6090EED5-A7E5-B67B-BA5E-4A9DF034D388}
  9
$VERSIONGUID
  2
{FAEB1C32-E019-11D5-929B-00C0DF256EC4}
  9
$EXTNAMES
290
     1
  9
$PSVPSCALE
 40
0.0
  9
$OLESTARTUP
290
     0
  9
$SORTENTS
280
   127
  9
$INDEXCTL
280
     0
  9
$HIDETEXT
280
     1
  9
$XCLIPFRAME
280
     2
  9
$HALOGAP
280
     0
  9
$OBSCOLOR
 70
   257
  9
$OBSLTYPE
280
     0
  9
$INTERSECTIONDISPLAY
280
     0
  9
$INTERSECTIONCOLOR
 70
   257
  9
$DIMASSOC
280
     2
  9
$PROJECTNAME
  1

  9
$CAMERADISPLAY
290
     0
  9
$LENSLENGTH
 40
50.0
  9
$CAMERAHEIGHT
 40
0.0
  9
$STEPSPERSEC
 40
2.0
  9
$STEPSIZE
 40
6.0
  9
$3DDWFPREC
 40
2.0
  9
$PSOLWIDTH
 40
0.25
  9
$PSOLHEIGHT
 40
4.0
  9
$LOFTANG1
 40
1.570796326794897
  9
$LOFTANG2
 40
1.570796326794897
  9
$LOFTMAG1
 40
0.0
  9
$LOFTMAG2
 40
0.0
  9
$LOFTPARAM
 70
     7
  9
$LOFTNORMALS
280
     1
  9
$LATITUDE
 40
37.795
  9
$LONGITUDE
 40
-122.394
  9
$NORTHDIRECTION
 40
0.0
  9
$TIMEZONE
 70
 -8000
  9
$LIGHTGLYPHDISPLAY
280
     1
  9
$TILEMODELIGHTSYNCH
280
     1
  9
$CMATERIAL
347
3C
  9
$SOLIDHIST
280
     1
  9
$SHOWHIST
280
     1
  9
$DWFFRAME
280
     2
  9
$DGNFRAME
280
     2
  9
$REALWORLDSCALE
290
     1
  9
$INTERFERECOLOR
 62
   256
  9
$CSHADOW
280
     0
  9
$SHADOWPLANELOCATION
 40
0.0
  0
ENDSEC
  0
SECTION
  2
CLASSES
  0
CLASS
  1
ACDBDICTIONARYWDFLT
  2
AcDbDictionaryWithDefault
  3
ObjectDBX Classes
 90
        0
 91
        4
280
     0
281
     0
  0
CLASS
  1
VISUALSTYLE
  2
AcDbVisualStyle
  3
ObjectDBX Classes
 90
     4095
 91
        4
280
     0
281
     0
  0
CLASS
  1
MATERIAL
  2
AcDbMaterial
  3
ObjectDBX Classes
 90
     1153
 91
        4
280
     0
281
     0
  0
CLASS
  1
SUN
  2
AcDbSun
  3
SCENEOE
 90
     1024
 91
        4
280
     0
281
     0
  0
ENDSEC
  0
SECTION
  2
TABLES
  0
TABLE
  2
VPORT
  5
8
330
0
100
AcDbSymbolTable
 70
     1
  0
VPORT
  5
29
330
8
100
AcDbSymbolTableRecord
100
AcDbViewportTableRecord
  2
*Active
 70
     0
 10
0.0
 20
0.0
 11
1.0
 21
1.0
 12
0.0
 22
0.0
 13
0.0
 23
0.0
 14
0.5
 24
0.5
 15
0.5
 25
0.5
 16
0.0
 26
0.0
 36
1.0
 17
91.00082462281999
 27
-128.4993055234307
 37
0.0
 40
256.9986110468615
 41
0.7081814508812795
 42
50.0
 43
0.0
 44
0.0
 50
0.0
 51
0.0
 71
     0
 72
   100
 73
     1
 74
     3
 75
     0
 76
     0
 77
     0
 78
     0
281
     0
 65
     1
110
0.0
120
0.0
130
0.0
111
1.0
121
0.0
131
0.0
112
0.0
122
1.0
132
0.0
 79
     0
146
0.0
 60
     3
 61
     5
292
     1
282
     1
141
0.0
142
0.0
 63
   250
361
3F
  0
ENDTAB
  0
TABLE
  2
LTYPE
  5
5
330
0
100
AcDbSymbolTable
 70
     1
  0
LTYPE
  5
14
330
5
100
AcDbSymbolTableRecord
100
AcDbLinetypeTableRecord
  2
ByBlock
 70
     0
  3

 72
    65
 73
     0
 40
0.0
  0
LTYPE
  5
15
330
5
100
AcDbSymbolTableRecord
100
AcDbLinetypeTableRecord
  2
ByLayer
 70
     0
  3

 72
    65
 73
     0
 40
0.0
  0
LTYPE
  5
16
330
5
100
AcDbSymbolTableRecord
100
AcDbLinetypeTableRecord
  2
Continuous
 70
     0
  3
Solid line
 72
    65
 73
     0
 40
0.0
  0
ENDTAB
  0
TABLE
  2
LAYER
  5
2
330
0
100
AcDbSymbolTable
 70
     2
  0
LAYER
  5
10
330
2
100
AcDbSymbolTableRecord
100
AcDbLayerTableRecord
  2
0
 70
     0
 62
     7
  6
Continuous
370
    -3
390
F
347
3E
  0
LAYER
  5
40
330
2
100
AcDbSymbolTableRecord
100
AcDbLayerTableRecord
  2
_U+30EC_U+30A4_U+30E4_U+30FC 1
 70
     0
 62
     7
  6
Continuous
370
    -3
390
F
347
3E
  0
ENDTAB
  0
TABLE
  2
STYLE
  5
3
330
0
100
AcDbSymbolTable
 70
     1
  0
STYLE
  5
11
330
3
100
AcDbSymbolTableRecord
100
AcDbTextStyleTableRecord
  2
Standard
 70
     0
 40
0.0
 41
1.0
 50
0.0
 71
     0
 42
0.2
  3
txt
  4

  0
ENDTAB
  0
TABLE
  2
VIEW
  5
6
330
0
100
AcDbSymbolTable
 70
     0
  0
ENDTAB
  0
TABLE
  2
UCS
  5
7
330
0
100
AcDbSymbolTable
 70
     0
  0
ENDTAB
  0
TABLE
  2
APPID
  5
9
330
0
100
AcDbSymbolTable
 70
     1
  0
APPID
  5
12
330
9
100
AcDbSymbolTableRecord
100
AcDbRegAppTableRecord
  2
ACAD
 70
     0
  0
ENDTAB
  0
TABLE
  2
DIMSTYLE
  5
A
330
0
100
AcDbSymbolTable
 70
     1
100
AcDbDimStyleTable
  0
DIMSTYLE
105
27
330
A
100
AcDbSymbolTableRecord
100
AcDbDimStyleTableRecord
  2
Standard
 70
     0
178
     0
340
11
  0
ENDTAB
  0
TABLE
  2
BLOCK_RECORD
  5
1
330
0
100
AcDbSymbolTable
 70
     6
  0
BLOCK_RECORD
  5
1F
330
1
100
AcDbSymbolTableRecord
100
AcDbBlockTableRecord
  2
*Model_Space
340
22
 70
     0
280
     1
281
     0
  0
BLOCK_RECORD
  5
1B
330
1
100
AcDbSymbolTableRecord
100
AcDbBlockTableRecord
  2
*Paper_Space
340
1E
 70
     0
280
     1
281
     0
  0
BLOCK_RECORD
  5
23
330
1
100
AcDbSymbolTableRecord
100
AcDbBlockTableRecord
  2
*Paper_Space0
340
26
 70
     0
280
     1
281
     0
  0
BLOCK_RECORD
  5
46
330
1
100
AcDbSymbolTableRecord
100
AcDbBlockTableRecord
  2
block 2
340
0
102
{BLKREFS
331
47
102
}
 70
     0
280
     1
281
     0
  0
BLOCK_RECORD
  5
6A
330
1
100
AcDbSymbolTableRecord
100
AcDbBlockTableRecord
  2
block 3
340
0
102
{BLKREFS
331
6B
102
}
 70
     0
280
     1
281
     0
  0
BLOCK_RECORD
  5
70
330
1
100
AcDbSymbolTableRecord
100
AcDbBlockTableRecord
  2
block 4
340
0
102
{BLKREFS
331
71
102
}
 70
     0
280
     1
281
     0
  0
BLOCK_RECORD
  5
98
330
1
100
AcDbSymbolTableRecord
100
AcDbBlockTableRecord
  2
block 5
340
0
102
{BLKREFS
331
99
102
}
 70
     0
280
     1
281
     0
  0
BLOCK_RECORD
  5
AE
330
1
100
AcDbSymbolTableRecord
100
AcDbBlockTableRecord
  2
block 6
340
0
102
{BLKREFS
331
AF
102
}
 70
     0
280
     1
281
     0
  0
ENDTAB
  0
ENDSEC
  0
SECTION
  2
BLOCKS
  0
BLOCK
  5
20
330
1F
100
AcDbEntity
  8
0
100
AcDbBlockBegin
  2
*Model_Space
 70
     0
 10
0.0
 20
0.0
 30
0.0
  3
*Model_Space
  1

  0
ENDBLK
  5
21
330
1F
100
AcDbEntity
  8
0
100
AcDbBlockEnd
  0
BLOCK
  5
1C
330
1B
100
AcDbEntity
 67
     1
  8
0
100
AcDbBlockBegin
  2
*Paper_Space
 70
     0
 10
0.0
 20
0.0
 30
0.0
  3
*Paper_Space
  1

  0
ENDBLK
  5
1D
330
1B
100
AcDbEntity
 67
     1
  8
0
100
AcDbBlockEnd
  0
BLOCK
  5
24
330
23
100
AcDbEntity
  8
0
100
AcDbBlockBegin
  2
*Paper_Space0
 70
     0
 10
0.0
 20
0.0
 30
0.0
  3
*Paper_Space0
  1

  0
ENDBLK
  5
25
330
23
100
AcDbEntity
  8
0
100
AcDbBlockEnd
  0
BLOCK
  5
48
330
46
100
AcDbEntity
  8
0
100
AcDbBlockBegin
  2
block 2
 70
     0
 10
0.0
 20
0.0
 30
0.0
  3
block 2
  1

  0
SPLINE
  5
4A
330
46
100
AcDbEntity
  8
_U+30EC_U+30A4_U+30E4_U+30FC 1
370
     0
100
AcDbSpline
210
0.0
220
0.0
230
1.0
 70
    11
 71
     3
 72
    26
 73
    22
 74
     0
 42
0.0000000001
 43
0.0000000001
 12
1.0
 22
0.0
 32
0.0
 13
1.0
 23
0.0
 33
0.0
 40
0.0
 40
0.0
 40
0.0
 40
0.0
 40
1.0
 40
1.0
 40
1.0
 40
2.0
 40
2.0
 40
2.0
 40
3.0
 40
3.0
 40
3.0
 40
4.0
 40
4.0
 40
4.0
 40
5.0
 40
5.0
 40
5.0
 40
6.0
 40
6.0
 40
6.0
 40
7.0
 40
7.0
 40
7.0
 40
7.0
 10
89.26845293992247
 20
-122.2795301343607
 30
0.0
 10
89.26845293992247
 20
-122.2795301343607
 30
0.0
 10
89.69116615596263
 20
-121.2590928516297
 30
0.0
 10
89.69116615596263
 20
-121.2590928516297
 30
0.0
 10
89.69116615596263
 20
-121.2590928516297
 30
0.0
 10
89.36560463260652
 20
-121.1240451086079
 30
0.0
 10
89.36560463260652
 20
-121.1240451086079
 30
0.0
 10
89.36560463260652
 20
-121.1240451086079
 30
0.0
 10
89.42210419856461
 20
-120.987619327392
 30
0.0
 10
89.42210419856461
 20
-120.987619327392
 30
0.0
 10
89.7555894415368
 20
-121.1095757075698
 30
0.0
 10
89.86376543977364
 20
-120.9779730600333
 30
0.0
 10
89.93680146406095
 20
-120.8849554819315
 30
0.0
 10
89.93680146406095
 20
-120.8849554819315
 30
0.0
 10
90.08080645534439
 20
-120.9442111242778
 30
0.0
 10
90.08080645534439
 20
-120.9442111242778
 30
0.0
 10
90.08080645534439
 20
-120.9442111242778
 30
0.0
 10
89.48997257962404
 20
-122.3711696742683
 30
0.0
 10
89.48997257962404
 20
-122.3711696742683
 30
0.0
 10
89.48997257962404
 20
-122.3711696742683
 30
0.0
 10
89.26845293992247
 20
-122.2795301343607
 30
0.0
 10
89.26845293992247
 20
-122.2795301343607
 30
0.0
  0
HATCH
  5
4B
330
46
100
AcDbEntity
  8
_U+30EC_U+30A4_U+30E4_U+30FC 1
 62
     7
420
 16777215
100
AcDbHatch
 10
0.0
 20
0.0
 30
0.0
210
0.0
220
0.0
230
1.0
  2
SOLID
 70
     1
 71
     0
 91
        1
 92
        1
 93
        1
 72
     4
 94
        3
 73
     0
 74
     1
 95
       26
 96
       22
 40
0.0
 40
0.0
 40
0.0
 40
0.0
 40
1.0
 40
1.0
 40
1.0
 40
2.0
 40
2.0
 40
2.0
 40
3.0
 40
3.0
 40
3.0
 40
4.0
 40
4.0
 40
4.0
 40
5.0
 40
5.0
 40
5.0
 40
6.0
 40
6.0
 40
6.0
 40
7.0
 40
7.0
 40
7.0
 40
7.0
 10
89.26845293992247
 20
-122.2795301343607
 10
89.26845293992247
 20
-122.2795301343607
 10
89.69116615596263
 20
-121.2590928516297
 10
89.69116615596263
 20
-121.2590928516297
 10
89.69116615596263
 20
-121.2590928516297
 10
89.36560463260652
 20
-121.1240451086079
 10
89.36560463260652
 20
-121.1240451086079
 10
89.36560463260652
 20
-121.1240451086079
 10
89.42210419856461
 20
-120.987619327392
 10
89.42210419856461
 20
-120.987619327392
 10
89.7555894415368
 20
-121.1095757075698
 10
89.86376543977364
 20
-120.9779730600333
 10
89.93680146406095
 20
-120.8849554819315
 10
89.93680146406095
 20
-120.8849554819315
 10
90.08080645534439
 20
-120.9442111242778
 10
90.08080645534439
 20
-120.9442111242778
 10
90.08080645534439
 20
-120.9442111242778
 10
89.48997257962404
 20
-122.3711696742683
 10
89.48997257962404
 20
-122.3711696742683
 10
89.48997257962404
 20
-122.3711696742683
 10
89.26845293992247
 20
-122.2795301343607
 10
89.26845293992247
 20
-122.2795301343607
 97
        0
 97
        0
 75
     2
 76
     1
 98
        0
  0
SPLINE
  5
4C
330
46
100
AcDbEntity
  8
_U+30EC_U+30A4_U+30E4_U+30FC 1
370
     0
100
AcDbSpline
210
0.0
220
0.0
230
1.0
 70
    11
 71
     3
 72
    62
 73
    58
 74
     0
 42
0.0000000001
 43
0.0000000001
 12
1.0
 22
0.0
 32
0.0
 13
1.0
 23
0.0
 33
0.0
 40
0.0
 40
0.0
 40
0.0
 40
0.0
 40
1.0
 40
1.0
 40
1.0
 40
2.0
 40
2.0
 40
2.0
 40
3.0
 40
3.0
 40
3.0
 40
4.0
 40
4.0
 40
4.0
 40
5.0
 40
5.0
 40
5.0
 40
6.0
 40
6.0
 40
6.0
 40
7.0
 40
7.0
 40
7.0
 40
8.0
 40
8.0
 40
8.0
 40
9.0
 40
9.0
 40
9.0
 40
10.0
 40
10.0
 40
10.0
 40
11.0
 40
11.0
 40
11.0
 40
12.0
 40
12.0
 40
12.0
 40
13.0
 40
13.0
 40
13.0
 40
14.0
 40
14.0
 40
14.0
 40
15.0
 40
15.0
 40
15.0
 40
16.0
 40
16.0
 40
16.0
 40
17.0
 40
17.0
 40
17.0
 40
18.0
 40
18.0
 40
18.0
 40
19.0
 40
19.0
 40
19.0
 40
19.0
 10
90.45080971046022
 20
-122.8238552210302
 30
0.0
 10
90.35710311326142
 20
-122.7852701515954
 30
0.0
 10
90.1500528745979
 20
-122.6764051342615
 30
0.0
 10
90.09803193277064
 20
-122.4535074563658
 30
0.0
 10
90.06771509250044
 20
-122.3194932419896
 30
0.0
 10
90.10182153780441
 20
-122.2257866447908
 30
0.0
 10
90.13007132078346
 20
-122.145860429533
 30
0.0
 10
90.13007132078346
 20
-122.145860429533
 30
0.0
 10
90.3471123363542
 20
-122.2361219312465
 30
0.0
 10
90.3471123363542
 20
-122.2361219312465
 30
0.0
 10
90.32058510111777
 20
-122.3053683505
 30
0.0
 10
90.24169241450555
 20
-122.5268879902016
 30
0.0
 10
90.52143416790784
 20
-122.642643198506
 30
0.0
 10
90.65717093002668
 20
-122.6987982549156
 30
0.0
 10
90.83390432842
 20
-122.6963866880759
 30
0.0
 10
90.92140975374535
 20
-122.4855468443786
 30
0.0
 10
90.96585148550507
 20
-122.3780598652388
 30
0.0
 10
90.9469034603362
 20
-122.3174261846984
 30
0.0
 10
90.92795543516732
 20
-122.2750515102299
 30
0.0
 10
90.88316919385908
 20
-122.1761772698032
 30
0.0
 10
90.7732706478796
 20
-122.1172661370054
 30
0.0
 10
90.71883813921265
 20
-122.0948730163513
 30
0.0
 10
90.69989011404378
 20
-122.0869492967352
 30
0.0
 10
90.66406112099719
 20
-122.0742024434398
 30
0.0
 10
90.63477780937257
 20
-122.0666232333722
 30
0.0
 10
90.63477780937257
 20
-122.0666232333722
 30
0.0
 10
90.70919187185396
 20
-121.8867892490422
 30
0.0
 10
90.70919187185396
 20
-121.8867892490422
 30
0.0
 10
90.7443318458035
 20
-121.9081488410507
 30
0.0
 10
90.7856729916265
 20
-121.9274413757681
 30
0.0
 10
90.79187416349995
 20
-121.9301974521563
 30
0.0
 10
90.85664195862265
 20
-121.9570691969413
 30
0.0
 10
91.06093612089796
 20
-122.0190809156758
 30
0.0
 10
91.15154213216003
 20
-121.7999728428139
 30
0.0
 10
91.21975502276798
 20
-121.635986297716
 30
0.0
 10
91.11123451498261
 20
-121.5312553949644
 30
0.0
 10
91.00271400719724
 20
-121.4864691536562
 30
0.0
 10
90.7415757694153
 20
-121.3779486458708
 30
0.0
 10
90.64442407673126
 20
-121.5898220182137
 30
0.0
 10
90.61272919826696
 20
-121.6545898133364
 30
0.0
 10
90.61272919826696
 20
-121.6545898133364
 30
0.0
 10
90.41222464102542
 20
-121.5712185025933
 30
0.0
 10
90.41222464102542
 20
-121.5712185025933
 30
0.0
 10
90.46803518788647
 20
-121.4595974088712
 30
0.0
 10
90.63891192395486
 20
-121.1226670704138
 30
0.0
 10
91.09021943252259
 20
-121.3097357552628
 30
0.0
 10
91.31208358177268
 20
-121.4013752951705
 30
0.0
 10
91.50173608823569
 20
-121.6173827820957
 30
0.0
 10
91.38839244677096
 20
-121.8909233636245
 30
0.0
 10
91.31690671545202
 20
-122.063178137887
 30
0.0
 10
91.19116073024041
 20
-122.1003851691277
 30
0.0
 10
91.06954885961109
 20
-122.1162326083598
 30
0.0
 10
91.11950274414721
 20
-122.1665310024445
 30
0.0
 10
91.26867537865853
 20
-122.3153591274073
 30
0.0
 10
91.16256643771284
 20
-122.5716742315099
 30
0.0
 10
91.03303084746744
 20
-122.8844889015705
 30
0.0
 10
90.72435029198905
 20
-122.9375433720434
 30
0.0
 10
90.45080971046022
 20
-122.8238552210302
 30
0.0
  0
HATCH
  5
4D
330
46
100
AcDbEntity
  8
_U+30EC_U+30A4_U+30E4_U+30FC 1
 62
     7
420
 16777215
100
AcDbHatch
 10
0.0
 20
0.0
 30
0.0
210
0.0
220
0.0
230
1.0
  2
SOLID
 70
     1
 71
     0
 91
        1
 92
        1
 93
        1
 72
     4
 94
        3
 73
     0
 74
     1
 95
       62
 96
       58
 40
0.0
 40
0.0
 40
0.0
 40
0.0
 40
1.0
 40
1.0
 40
1.0
 40
2.0
 40
2.0
 40
2.0
 40
3.0
 40
3.0
 40
3.0
 40
4.0
 40
4.0
 40
4.0
 40
5.0
 40
5.0
 40
5.0
 40
6.0
 40
6.0
 40
6.0
 40
7.0
 40
7.0
 40
7.0
 40
8.0
 40
8.0
 40
8.0
 40
9.0
 40
9.0
 40
9.0
 40
10.0
 40
10.0
 40
10.0
 40
11.0
 40
11.0
 40
11.0
 40
12.0
 40
12.0
 40
12.0
 40
13.0
 40
13.0
 40
13.0
 40
14.0
 40
14.0
 40
14.0
 40
15.0
 40
15.0
 40
15.0
 40
16.0
 40
16.0
 40
16.0
 40
17.0
 40
17.0
 40
17.0
 40
18.0
 40
18.0
 40
18.0
 40
19.0
 40
19.0
 40
19.0
 40
19.0
 10
90.45080971046022
 20
-122.8238552210302
 10
90.35710311326142
 20
-122.7852701515954
 10
90.1500528745979
 20
-122.6764051342615
 10
90.09803193277064
 20
-122.4535074563658
 10
90.06771509250044
 20
-122.3194932419896
 10
90.10182153780441
 20
-122.2257866447908
 10
90.13007132078346
 20
-122.145860429533
 10
90.13007132078346
 20
-122.145860429533
 10
90.3471123363542
 20
-122.2361219312465
 10
90.3471123363542
 20
-122.2361219312465
 10
90.32058510111777
 20
-122.3053683505
 10
90.24169241450555
 20
-122.5268879902016
 10
90.52143416790784
 20
-122.642643198506
 10
90.65717093002668
 20
-122.6987982549156
 10
90.83390432842
 20
-122.6963866880759
 10
90.92140975374535
 20
-122.4855468443786
 10
90.96585148550507
 20
-122.3780598652388
 10
90.9469034603362
 20
-122.3174261846984
 10
90.92795543516732
 20
-122.2750515102299
 10
90.88316919385908
 20
-122.1761772698032
 10
90.7732706478796
 20
-122.1172661370054
 10
90.71883813921265
 20
-122.0948730163513
 10
90.69989011404378
 20
-122.0869492967352
 10
90.66406112099719
 20
-122.0742024434398
 10
90.63477780937257
 20
-122.0666232333722
 10
90.63477780937257
 20
-122.0666232333722
 10
90.70919187185396
 20
-121.8867892490422
 10
90.70919187185396
 20
-121.8867892490422
 10
90.7443318458035
 20
-121.9081488410507
 10
90.7856729916265
 20
-121.9274413757681
 10
90.79187416349995
 20
-121.9301974521563
 10
90.85664195862265
 20
-121.9570691969413
 10
91.06093612089796
 20
-122.0190809156758
 10
91.15154213216003
 20
-121.7999728428139
 10
91.21975502276798
 20
-121.635986297716
 10
91.11123451498261
 20
-121.5312553949644
 10
91.00271400719724
 20
-121.4864691536562
 10
90.7415757694153
 20
-121.3779486458708
 10
90.64442407673126
 20
-121.5898220182137
 10
90.61272919826696
 20
-121.6545898133364
 10
90.61272919826696
 20
-121.6545898133364
 10
90.41222464102542
 20
-121.5712185025933
 10
90.41222464102542
 20
-121.5712185025933
 10
90.46803518788647
 20
-121.4595974088712
 10
90.63891192395486
 20
-121.1226670704138
 10
91.09021943252259
 20
-121.3097357552628
 10
91.31208358177268
 20
-121.4013752951705
 10
91.50173608823569
 20
-121.6173827820957
 10
91.38839244677096
 20
-121.8909233636245
 10
91.31690671545202
 20
-122.063178137887
 10
91.19116073024041
 20
-122.1003851691277
 10
91.06954885961109
 20
-122.1162326083598
 10
91.11950274414721
 20
-122.1665310024445
 10
91.26867537865853
 20
-122.3153591274073
 10
91.16256643771284
 20
-122.5716742315099
 10
91.03303084746744
 20
-122.8844889015705
 10
90.72435029198905
 20
-122.9375433720434
 10
90.45080971046022
 20
-122.8238552210302
 97
        0
 97
        0
 75
     2
 76
     1
 98
        0
  0
SPLINE
  5
4E
330
46
100
AcDbEntity
  8
_U+30EC_U+30A4_U+30E4_U+30FC 1
370
     0
100
AcDbSpline
210
0.0
220
0.0
230
1.0
 70
    11
 71
     3
 72
    53
 73
    49
 74
     0
 42
0.0000000001
 43
0.0000000001
 12
1.0
 22
0.0
 32
0.0
 13
1.0
 23
0.0
 33
0.0
 40
0.0
 40
0.0
 40
0.0
 40
0.0
 40
1.0
 40
1.0
 40
1.0
 40
2.0
 40
2.0
 40
2.0
 40
3.0
 40
3.0
 40
3.0
 40
4.0
 40
4.0
 40
4.0
 40
5.0
 40
5.0
 40
5.0
 40
6.0
 40
6.0
 40
6.0
 40
7.0
 40
7.0
 40
7.0
 40
8.0
 40
8.0
 40
8.0
 40
9.0
 40
9.0
 40
9.0
 40
10.0
 40
10.0
 40
10.0
 40
11.0
 40
11.0
 40
11.0
 40
12.0
 40
12.0
 40
12.0
 40
13.0
 40
13.0
 40
13.0
 40
14.0
 40
14.0
 40
14.0
 40
15.0
 40
15.0
 40
15.0
 40
16.0
 40
16.0
 40
16.0
 40
16.0
 10
91.60302189550202
 20
-123.3010009457373
 30
0.0
 10
91.52516273753538
 20
-123.2689615577244
 30
0.0
 10
91.4318006498851
 20
-123.2117729726693
 30
0.0
 10
91.35549178488682
 20
-123.111865203597
 30
0.0
 10
91.22630070418995
 20
-122.9389214102375
 30
0.0
 10
91.2559285253631
 20
-122.8093858199921
 30
0.0
 10
91.27832164601723
 20
-122.7018988408523
 30
0.0
 10
91.27832164601723
 20
-122.7018988408523
 30
0.0
 10
91.49760197365339
 20
-122.7928493616629
 30
0.0
 10
91.49760197365339
 20
-122.7928493616629
 30
0.0
 10
91.47589787209631
 20
-122.9988660716809
 30
0.0
 10
91.58993053265807
 20
-123.0781032678416
 30
0.0
 10
91.68191458211425
 20
-123.1159993181793
 30
0.0
 10
91.81971840152424
 20
-123.1731879032345
 30
0.0
 10
92.00816512456741
 20
-123.1439045916099
 30
0.0
 10
92.09739309763538
 20
-122.9285861237817
 30
0.0
 10
92.19523380941648
 20
-122.6922525734936
 30
0.0
 10
92.04468313671106
 20
-122.5544487540836
 30
0.0
 10
91.92548283292142
 20
-122.504839379096
 30
0.0
 10
91.89378795445711
 20
-122.4917480162521
 30
0.0
 10
91.75391707775597
 20
-122.4338704120999
 30
0.0
 10
91.61680227744303
 20
-122.5165527037459
 30
0.0
 10
91.61680227744303
 20
-122.5165527037459
 30
0.0
 10
91.45074867505399
 20
-122.4273247306779
 30
0.0
 10
91.45074867505399
 20
-122.4273247306779
 30
0.0
 10
91.45074867505399
 20
-122.4273247306779
 30
0.0
 10
91.89344344490858
 20
-121.6952419400623
 30
0.0
 10
91.89344344490858
 20
-121.6952419400623
 30
0.0
 10
91.89344344490858
 20
-121.6952419400623
 30
0.0
 10
92.66204424766782
 20
-122.0135687628994
 30
0.0
 10
92.66204424766782
 20
-122.0135687628994
 30
0.0
 10
92.66204424766782
 20
-122.0135687628994
 30
0.0
 10
92.58763018518643
 20
-122.1934027472294
 30
0.0
 10
92.58763018518643
 20
-122.1934027472294
 30
0.0
 10
92.58763018518643
 20
-122.1934027472294
 30
0.0
 10
91.97991534158835
 20
-121.9415662672577
 30
0.0
 10
91.97991534158835
 20
-121.9415662672577
 30
0.0
 10
91.97991534158835
 20
-121.9415662672577
 30
0.0
 10
91.75322805865892
 20
-122.3057128600486
 30
0.0
 10
91.75322805865892
 20
-122.3057128600486
 30
0.0
 10
91.82695310204326
 20
-122.2991671786266
 30
0.0
 10
91.92341577563026
 20
-122.2957220831414
 30
0.0
 10
92.04054902212876
 20
-122.3442979294834
 30
0.0
 10
92.29135197345495
 20
-122.4479953035894
 30
0.0
 10
92.45396048035873
 20
-122.7170572609874
 30
0.0
 10
92.33407115747204
 20
-123.0061007721999
 30
0.0
 10
92.21245928684272
 20
-123.2992783979946
 30
0.0
 10
91.90136716452466
 20
-123.4246798736577
 30
0.0
 10
91.60302189550202
 20
-123.3010009457373
 30
0.0
  0
HATCH
  5
4F
330
46
100
AcDbEntity
  8
_U+30EC_U+30A4_U+30E4_U+30FC 1
 62
     7
420
 16777215
100
AcDbHatch
 10
0.0
 20
0.0
 30
0.0
210
0.0
220
0.0
230
1.0
  2
SOLID
 70
     1
 71
     0
 91
        1
 92
        1
 93
        1
 72
     4
 94
        3
 73
     0
 74
     1
 95
       53
 96
       49
 40
0.0
 40
0.0
 40
0.0
 40
0.0
 40
1.0
 40
1.0
 40
1.0
 40
2.0
 40
2.0
 40
2.0
 40
3.0
 40
3.0
 40
3.0
 40
4.0
 40
4.0
 40
4.0
 40
5.0
 40
5.0
 40
5.0
 40
6.0
 40
6.0
 40
6.0
 40
7.0
 40
7.0
 40
7.0
 40
8.0
 40
8.0
 40
8.0
 40
9.0
 40
9.0
 40
9.0
 40
10.0
 40
10.0
 40
10.0
 40
11.0
 40
11.0
 40
11.0
 40
12.0
 40
12.0
 40
12.0
 40
13.0
 40
13.0
 40
13.0
 40
14.0
 40
14.0
 40
14.0
 40
15.0
 40
15.0
 40
15.0
 40
16.0
 40
16.0
 40
16.0
 40
16.0
 10
91.60302189550202
 20
-123.3010009457373
 10
91.52516273753538
 20
-123.2689615577244
 10
91.4318006498851
 20
-123.2117729726693
 10
91.35549178488682
 20
-123.111865203597
 10
91.22630070418995
 20
-122.9389214102375
 10
91.2559285253631
 20
-122.8093858199921
 10
91.27832164601723
 20
-122.7018988408523
 10
91.27832164601723
 20
-122.7018988408523
 10
91.49760197365339
 20
-122.7928493616629
 10
91.49760197365339
 20
-122.7928493616629
 10
91.47589787209631
 20
-122.9988660716809
 10
91.58993053265807
 20
-123.0781032678416
 10
91.68191458211425
 20
-123.1159993181793
 10
91.81971840152424
 20
-123.1731879032345
 10
92.00816512456741
 20
-123.1439045916099
 10
92.09739309763538
 20
-122.9285861237817
 10
92.19523380941648
 20
-122.6922525734936
 10
92.04468313671106
 20
-122.5544487540836
 10
91.92548283292142
 20
-122.504839379096
 10
91.89378795445711
 20
-122.4917480162521
 10
91.75391707775597
 20
-122.4338704120999
 10
91.61680227744303
 20
-122.5165527037459
 10
91.61680227744303
 20
-122.5165527037459
 10
91.45074867505399
 20
-122.4273247306779
 10
91.45074867505399
 20
-122.4273247306779
 10
91.45074867505399
 20
-122.4273247306779
 10
91.89344344490858
 20
-121.6952419400623
 10
91.89344344490858
 20
-121.6952419400623
 10
91.89344344490858
 20
-121.6952419400623
 10
92.66204424766782
 20
-122.0135687628994
 10
92.66204424766782
 20
-122.0135687628994
 10
92.66204424766782
 20
-122.0135687628994
 10
92.58763018518643
 20
-122.1934027472294
 10
92.58763018518643
 20
-122.1934027472294
 10
92.58763018518643
 20
-122.1934027472294
 10
91.97991534158835
 20
-121.9415662672577
 10
91.97991534158835
 20
-121.9415662672577
 10
91.97991534158835
 20
-121.9415662672577
 10
91.75322805865892
 20
-122.3057128600486
 10
91.75322805865892
 20
-122.3057128600486
 10
91.82695310204326
 20
-122.2991671786266
 10
91.92341577563026
 20
-122.2957220831414
 10
92.04054902212876
 20
-122.3442979294834
 10
92.29135197345495
 20
-122.4479953035894
 10
92.45396048035873
 20
-122.7170572609874
 10
92.33407115747204
 20
-123.0061007721999
 10
92.21245928684272
 20
-123.2992783979946
 10
91.90136716452466
 20
-123.4246798736577
 10
91.60302189550202
 20
-123.3010009457373
 97
        0
 97
        0
 75
     2
 76
     1
 98
        0
  0
SPLINE
  5
50
330
46
100
AcDbEntity
  8
_U+30EC_U+30A4_U+30E4_U+30FC 1
370
     0
100
AcDbSpline
210
0.0
220
0.0
230
1.0
 70
    11
 71
     3
 72
    17
 73
    13
 74
     0
 42
0.0000000001
 43
0.0000000001
 12
1.0
 22
0.0
 32
0.0
 13
1.0
 23
0.0
 33
0.0
 40
0.0
 40
0.0
 40
0.0
 40
0.0
 40
1.0
 40
1.0
 40
1.0
 40
2.0
 40
2.0
 40
2.0
 40
3.0
 40
3.0
 40
3.0
 40
4.0
 40
4.0
 40
4.0
 40
4.0
 10
93.4213432926169
 20
-122.6047471481683
 30
0.0
 10
93.35829804523682
 20
-122.7570203686163
 30
0.0
 10
93.17364092722742
 20
-122.8314344310977
 30
0.0
 10
93.00414222935314
 20
-122.7614989927471
 30
0.0
 10
92.83705509831852
 20
-122.6922525734936
 30
0.0
 10
92.75575084486663
 20
-122.5100070223239
 30
0.0
 10
92.81982962089226
 20
-122.3556667445847
 30
0.0
 10
92.88390839691792
 20
-122.200981957297
 30
0.0
 10
93.0699435531214
 20
-122.1293239712038
 30
0.0
 10
93.23737519370455
 20
-122.1985703904573
 30
0.0
 10
93.40687389157884
 20
-122.2685058288079
 30
0.0
 10
93.48438853999696
 20
-122.4521294181717
 30
0.0
 10
93.4213432926169
 20
-122.6047471481683
 30
0.0
  0
SPLINE
  5
51
330
46
100
AcDbEntity
  8
_U+30EC_U+30A4_U+30E4_U+30FC 1
370
     0
100
AcDbSpline
210
0.0
220
0.0
230
1.0
 70
    11
 71
     3
 72
    17
 73
    13
 74
     0
 42
0.0000000001
 43
0.0000000001
 12
1.0
 22
0.0
 32
0.0
 13
1.0
 23
0.0
 33
0.0
 40
0.0
 40
0.0
 40
0.0
 40
0.0
 40
1.0
 40
1.0
 40
1.0
 40
2.0
 40
2.0
 40
2.0
 40
3.0
 40
3.0
 40
3.0
 40
4.0
 40
4.0
 40
4.0
 40
4.0
 10
92.94316403926422
 20
-122.4066541577664
 30
0.0
 10
92.90526798892647
 20
-122.4986382072226
 30
0.0
 10
92.95384383526849
 20
-122.6057806768138
 30
0.0
 10
93.05168454704959
 20
-122.6460882939913
 30
0.0
 10
93.1498697683792
 20
-122.6867404207172
 30
0.0
 10
93.26045733345572
 20
-122.6453992748942
 30
0.0
 10
93.29835338379347
 20
-122.5537597349866
 30
0.0
 10
93.33659394367974
 20
-122.4617756855304
 30
0.0
 10
93.28974064508034
 20
-122.3553222350362
 30
0.0
 10
93.18948836645957
 20
-122.3139810892132
 30
0.0
 10
93.08923608783881
 20
-122.2726399433902
 30
0.0
 10
92.98140459915048
 20
-122.3146701083102
 30
0.0
 10
92.94316403926422
 20
-122.4066541577664
 30
0.0
  0
HATCH
  5
52
330
46
100
AcDbEntity
  8
_U+30EC_U+30A4_U+30E4_U+30FC 1
 62
     7
420
 16777215
100
AcDbHatch
 10
0.0
 20
0.0
 30
0.0
210
0.0
220
0.0
230
1.0
  2
SOLID
 70
     1
 71
     0
 91
        2
 92
        1
 93
        1
 72
     4
 94
        3
 73
     0
 74
     1
 95
       17
 96
       13
 40
0.0
 40
0.0
 40
0.0
 40
0.0
 40
1.0
 40
1.0
 40
1.0
 40
2.0
 40
2.0
 40
2.0
 40
3.0
 40
3.0
 40
3.0
 40
4.0
 40
4.0
 40
4.0
 40
4.0
 10
93.4213432926169
 20
-122.6047471481683
 10
93.35829804523682
 20
-122.7570203686163
 10
93.17364092722742
 20
-122.8314344310977
 10
93.00414222935314
 20
-122.7614989927471
 10
92.83705509831852
 20
-122.6922525734936
 10
92.75575084486663
 20
-122.5100070223239
 10
92.81982962089226
 20
-122.3556667445847
 10
92.88390839691792
 20
-122.200981957297
 10
93.0699435531214
 20
-122.1293239712038
 10
93.23737519370455
 20
-122.1985703904573
 10
93.40687389157884
 20
-122.2685058288079
 10
93.48438853999696
 20
-122.4521294181717
 10
93.4213432926169
 20
-122.6047471481683
 97
        0
 97
        0
 92
        1
 93
        1
 72
     4
 94
        3
 73
     0
 74
     1
 95
       17
 96
       13
 40
0.0
 40
0.0
 40
0.0
 40
0.0
 40
1.0
 40
1.0
 40
1.0
 40
2.0
 40
2.0
 40
2.0
 40
3.0
 40
3.0
 40
3.0
 40
4.0
 40
4.0
 40
4.0
 40
4.0
 10
92.94316403926422
 20
-122.4066541577664
 10
92.90526798892647
 20
-122.4986382072226
 10
92.95384383526849
 20
-122.6057806768138
 10
93.05168454704959
 20
-122.6460882939913
 10
93.1498697683792
 20
-122.6867404207172
 10
93.26045733345572
 20
-122.6453992748942
 10
93.29835338379347
 20
-122.5537597349866
 10
93.33659394367974
 20
-122.4617756855304
 10
93.28974064508034
 20
-122.3553222350362
 10
93.18948836645957
 20
-122.3139810892132
 10
93.08923608783881
 20
-122.2726399433902
 10
92.98140459915048
 20
-122.3146701083102
 10
92.94316403926422
 20
-122.4066541577664
 97
        0
 97
        0
 75
     2
 76
     1
 98
        0
  0
ENDBLK
  5
49
330
46
100
AcDbEntity
  8
0
100
AcDbBlockEnd
  0
BLOCK
  5
6C
330
6A
100
AcDbEntity
  8
0
100
AcDbBlockBegin
  2
block 3
 70
     0
 10
0.0
 20
0.0
 30
0.0
  3
block 3
  1

  0
SPLINE
  5
6E
330
6A
100
AcDbEntity
  8
_U+30EC_U+30A4_U+30E4_U+30FC 1
370
     0
100
AcDbSpline
210
0.0
220
0.0
230
1.0
 70
    11
 71
     3
 72
    26
 73
    22
 74
     0
 42
0.0000000001
 43
0.0000000001
 12
1.0
 22
0.0
 32
0.0
 13
1.0
 23
0.0
 33
0.0
 40
0.0
 40
0.0
 40
0.0
 40
0.0
 40
1.0
 40
1.0
 40
1.0
 40
2.0
 40
2.0
 40
2.0
 40
3.0
 40
3.0
 40
3.0
 40
4.0
 40
4.0
 40
4.0
 40
5.0
 40
5.0
 40
5.0
 40
6.0
 40
6.0
 40
6.0
 40
7.0
 40
7.0
 40
7.0
 40
7.0
 10
103.8916774913882
 20
-131.695320605097
 30
0.0
 10
103.8916774913882
 20
-131.695320605097
 30
0.0
 10
103.8916774913882
 20
-131.9485351232629
 30
0.0
 10
103.8916774913882
 20
-131.9485351232629
 30
0.0
 10
103.5826524263613
 20
-131.9216633784779
 30
0.0
 10
103.0645100653797
 20
-131.71564666846
 30
0.0
 10
102.558770048145
 20
-131.2815646373185
 30
0.0
 10
102.558770048145
 20
-131.2815646373185
 30
0.0
 10
102.558770048145
 20
-132.1769449539349
 30
0.0
 10
102.558770048145
 20
-132.1769449539349
 30
0.0
 10
102.558770048145
 20
-132.1769449539349
 30
0.0
 10
102.3472411853507
 20
-132.1769449539349
 30
0.0
 10
102.3472411853507
 20
-132.1769449539349
 30
0.0
 10
102.3472411853507
 20
-132.1769449539349
 30
0.0
 10
102.3472411853507
 20
-131.0283501191526
 30
0.0
 10
102.3472411853507
 20
-131.0283501191526
 30
0.0
 10
102.3472411853507
 20
-131.0283501191526
 30
0.0
 10
102.558770048145
 20
-131.0283501191526
 30
0.0
 10
102.558770048145
 20
-131.0283501191526
 30
0.0
 10
102.8488470880031
 20
-131.3742377058717
 30
0.0
 10
103.4410590019175
 20
-131.6591471025019
 30
0.0
 10
103.8916774913882
 20
-131.695320605097
 30
0.0
  0
HATCH
  5
6F
330
6A
100
AcDbEntity
  8
_U+30EC_U+30A4_U+30E4_U+30FC 1
 62
     7
420
 16777215
100
AcDbHatch
 10
0.0
 20
0.0
 30
0.0
210
0.0
220
0.0
230
1.0
  2
SOLID
 70
     1
 71
     0
 91
        1
 92
        1
 93
        1
 72
     4
 94
        3
 73
     0
 74
     1
 95
       26
 96
       22
 40
0.0
 40
0.0
 40
0.0
 40
0.0
 40
1.0
 40
1.0
 40
1.0
 40
2.0
 40
2.0
 40
2.0
 40
3.0
 40
3.0
 40
3.0
 40
4.0
 40
4.0
 40
4.0
 40
5.0
 40
5.0
 40
5.0
 40
6.0
 40
6.0
 40
6.0
 40
7.0
 40
7.0
 40
7.0
 40
7.0
 10
103.8916774913882
 20
-131.695320605097
 10
103.8916774913882
 20
-131.695320605097
 10
103.8916774913882
 20
-131.9485351232629
 10
103.8916774913882
 20
-131.9485351232629
 10
103.5826524263613
 20
-131.9216633784779
 10
103.0645100653797
 20
-131.71564666846
 10
102.558770048145
 20
-131.2815646373185
 10
102.558770048145
 20
-131.2815646373185
 10
102.558770048145
 20
-132.1769449539349
 10
102.558770048145
 20
-132.1769449539349
 10
102.558770048145
 20
-132.1769449539349
 10
102.3472411853507
 20
-132.1769449539349
 10
102.3472411853507
 20
-132.1769449539349
 10
102.3472411853507
 20
-132.1769449539349
 10
102.3472411853507
 20
-131.0283501191526
 10
102.3472411853507
 20
-131.0283501191526
 10
102.3472411853507
 20
-131.0283501191526
 10
102.558770048145
 20
-131.0283501191526
 10
102.558770048145
 20
-131.0283501191526
 10
102.8488470880031
 20
-131.3742377058717
 10
103.4410590019175
 20
-131.6591471025019
 10
103.8916774913882
 20
-131.695320605097
 97
        0
 97
        0
 75
     2
 76
     1
 98
        0
  0
ENDBLK
  5
6D
330
6A
100
AcDbEntity
  8
0
100
AcDbBlockEnd
  0
BLOCK
  5
72
330
70
100
AcDbEntity
  8
0
100
AcDbBlockBegin
  2
block 4
 70
     0
 10
0.0
 20
0.0
 30
0.0
  3
block 4
  1

  0
SPLINE
  5
74
330
70
100
AcDbEntity
  8
_U+30EC_U+30A4_U+30E4_U+30FC 1
370
     0
100
AcDbSpline
210
0.0
220
0.0
230
1.0
 70
    11
 71
     3
 72
    26
 73
    22
 74
     0
 42
0.0000000001
 43
0.0000000001
 12
1.0
 22
0.0
 32
0.0
 13
1.0
 23
0.0
 33
0.0
 40
0.0
 40
0.0
 40
0.0
 40
0.0
 40
1.0
 40
1.0
 40
1.0
 40
2.0
 40
2.0
 40
2.0
 40
3.0
 40
3.0
 40
3.0
 40
4.0
 40
4.0
 40
4.0
 40
5.0
 40
5.0
 40
5.0
 40
6.0
 40
6.0
 40
6.0
 40
7.0
 40
7.0
 40
7.0
 40
7.0
 10
103.8916774913882
 20
-138.2237765496455
 30
0.0
 10
103.8916774913882
 20
-138.2237765496455
 30
0.0
 10
102.7875243883656
 20
-138.2237765496455
 30
0.0
 10
102.7875243883656
 20
-138.2237765496455
 30
0.0
 10
102.7875243883656
 20
-138.2237765496455
 30
0.0
 10
102.7875243883656
 20
-138.5762098177865
 30
0.0
 10
102.7875243883656
 20
-138.5762098177865
 30
0.0
 10
102.7875243883656
 20
-138.5762098177865
 30
0.0
 10
102.6393852824999
 20
-138.5762098177865
 30
0.0
 10
102.6393852824999
 20
-138.5762098177865
 30
0.0
 10
102.6245713719133
 20
-138.2213649828058
 30
0.0
 10
102.461618355461
 20
-138.1717556078182
 30
0.0
 10
102.3472411853507
 20
-138.1400607293539
 30
0.0
 10
102.3472411853507
 20
-138.1400607293539
 30
0.0
 10
102.3472411853507
 20
-137.9839979038721
 30
0.0
 10
102.3472411853507
 20
-137.9839979038721
 30
0.0
 10
102.3472411853507
 20
-137.9839979038721
 30
0.0
 10
103.8916774913882
 20
-137.9839979038721
 30
0.0
 10
103.8916774913882
 20
-137.9839979038721
 30
0.0
 10
103.8916774913882
 20
-137.9839979038721
 30
0.0
 10
103.8916774913882
 20
-138.2237765496455
 30
0.0
 10
103.8916774913882
 20
-138.2237765496455
 30
0.0
  0
HATCH
  5
75
330
70
100
AcDbEntity
  8
_U+30EC_U+30A4_U+30E4_U+30FC 1
 62
     7
420
 16777215
100
AcDbHatch
 10
0.0
 20
0.0
 30
0.0
210
0.0
220
0.0
230
1.0
  2
SOLID
 70
     1
 71
     0
 91
        1
 92
        1
 93
        1
 72
     4
 94
        3
 73
     0
 74
     1
 95
       26
 96
       22
 40
0.0
 40
0.0
 40
0.0
 40
0.0
 40
1.0
 40
1.0
 40
1.0
 40
2.0
 40
2.0
 40
2.0
 40
3.0
 40
3.0
 40
3.0
 40
4.0
 40
4.0
 40
4.0
 40
5.0
 40
5.0
 40
5.0
 40
6.0
 40
6.0
 40
6.0
 40
7.0
 40
7.0
 40
7.0
 40
7.0
 10
103.8916774913882
 20
-138.2237765496455
 10
103.8916774913882
 20
-138.2237765496455
 10
102.7875243883656
 20
-138.2237765496455
 10
102.7875243883656
 20
-138.2237765496455
 10
102.7875243883656
 20
-138.2237765496455
 10
102.7875243883656
 20
-138.5762098177865
 10
102.7875243883656
 20
-138.5762098177865
 10
102.7875243883656
 20
-138.5762098177865
 10
102.6393852824999
 20
-138.5762098177865
 10
102.6393852824999
 20
-138.5762098177865
 10
102.6245713719133
 20
-138.2213649828058
 10
102.461618355461
 20
-138.1717556078182
 10
102.3472411853507
 20
-138.1400607293539
 10
102.3472411853507
 20
-138.1400607293539
 10
102.3472411853507
 20
-137.9839979038721
 10
102.3472411853507
 20
-137.9839979038721
 10
102.3472411853507
 20
-137.9839979038721
 10
103.8916774913882
 20
-137.9839979038721
 10
103.8916774913882
 20
-137.9839979038721
 10
103.8916774913882
 20
-137.9839979038721
 10
103.8916774913882
 20
-138.2237765496455
 10
103.8916774913882
 20
-138.2237765496455
 97
        0
 97
        0
 75
     2
 76
     1
 98
        0
  0
ENDBLK
  5
73
330
70
100
AcDbEntity
  8
0
100
AcDbBlockEnd
  0
BLOCK
  5
9A
330
98
100
AcDbEntity
  8
0
100
AcDbBlockBegin
  2
block 5
 70
     0
 10
0.0
 20
0.0
 30
0.0
  3
block 5
  1

  0
SPLINE
  5
9C
330
98
100
AcDbEntity
  8
_U+30EC_U+30A4_U+30E4_U+30FC 1
370
     0
100
AcDbSpline
210
0.0
220
0.0
230
1.0
 70
    11
 71
     3
 72
    26
 73
    22
 74
     0
 42
0.0000000001
 43
0.0000000001
 12
1.0
 22
0.0
 32
0.0
 13
1.0
 23
0.0
 33
0.0
 40
0.0
 40
0.0
 40
0.0
 40
0.0
 40
1.0
 40
1.0
 40
1.0
 40
2.0
 40
2.0
 40
2.0
 40
3.0
 40
3.0
 40
3.0
 40
4.0
 40
4.0
 40
4.0
 40
5.0
 40
5.0
 40
5.0
 40
6.0
 40
6.0
 40
6.0
 40
7.0
 40
7.0
 40
7.0
 40
7.0
 10
90.53280298300916
 20
-139.7723469702653
 30
0.0
 10
90.53280298300916
 20
-139.7723469702653
 30
0.0
 10
90.53280298300916
 20
-138.6681938672427
 30
0.0
 10
90.53280298300916
 20
-138.6681938672427
 30
0.0
 10
90.53280298300916
 20
-138.6681938672427
 30
0.0
 10
90.1803697148681
 20
-138.6681938672427
 30
0.0
 10
90.1803697148681
 20
-138.6681938672427
 30
0.0
 10
90.1803697148681
 20
-138.6681938672427
 30
0.0
 10
90.1803697148681
 20
-138.5200547613769
 30
0.0
 10
90.1803697148681
 20
-138.5200547613769
 30
0.0
 10
90.53521454984885
 20
-138.5052408507904
 30
0.0
 10
90.58482392483644
 20
-138.342287834338
 30
0.0
 10
90.61651880330074
 20
-138.2279106642277
 30
0.0
 10
90.61651880330074
 20
-138.2279106642277
 30
0.0
 10
90.77258162878255
 20
-138.2279106642277
 30
0.0
 10
90.77258162878255
 20
-138.2279106642277
 30
0.0
 10
90.77258162878255
 20
-138.2279106642277
 30
0.0
 10
90.77258162878255
 20
-139.7723469702653
 30
0.0
 10
90.77258162878255
 20
-139.7723469702653
 30
0.0
 10
90.77258162878255
 20
-139.7723469702653
 30
0.0
 10
90.53280298300916
 20
-139.7723469702653
 30
0.0
 10
90.53280298300916
 20
-139.7723469702653
 30
0.0
  0
HATCH
  5
9D
330
98
100
AcDbEntity
  8
_U+30EC_U+30A4_U+30E4_U+30FC 1
 62
     7
420
 16777215
100
AcDbHatch
 10
0.0
 20
0.0
 30
0.0
210
0.0
220
0.0
230
1.0
  2
SOLID
 70
     1
 71
     0
 91
        1
 92
        1
 93
        1
 72
     4
 94
        3
 73
     0
 74
     1
 95
       26
 96
       22
 40
0.0
 40
0.0
 40
0.0
 40
0.0
 40
1.0
 40
1.0
 40
1.0
 40
2.0
 40
2.0
 40
2.0
 40
3.0
 40
3.0
 40
3.0
 40
4.0
 40
4.0
 40
4.0
 40
5.0
 40
5.0
 40
5.0
 40
6.0
 40
6.0
 40
6.0
 40
7.0
 40
7.0
 40
7.0
 40
7.0
 10
90.53280298300916
 20
-139.7723469702653
 10
90.53280298300916
 20
-139.7723469702653
 10
90.53280298300916
 20
-138.6681938672427
 10
90.53280298300916
 20
-138.6681938672427
 10
90.53280298300916
 20
-138.6681938672427
 10
90.1803697148681
 20
-138.6681938672427
 10
90.1803697148681
 20
-138.6681938672427
 10
90.1803697148681
 20
-138.6681938672427
 10
90.1803697148681
 20
-138.5200547613769
 10
90.1803697148681
 20
-138.5200547613769
 10
90.53521454984885
 20
-138.5052408507904
 10
90.58482392483644
 20
-138.342287834338
 10
90.61651880330074
 20
-138.2279106642277
 10
90.61651880330074
 20
-138.2279106642277
 10
90.77258162878255
 20
-138.2279106642277
 10
90.77258162878255
 20
-138.2279106642277
 10
90.77258162878255
 20
-138.2279106642277
 10
90.77258162878255
 20
-139.7723469702653
 10
90.77258162878255
 20
-139.7723469702653
 10
90.77258162878255
 20
-139.7723469702653
 10
90.53280298300916
 20
-139.7723469702653
 10
90.53280298300916
 20
-139.7723469702653
 97
        0
 97
        0
 75
     2
 76
     1
 98
        0
  0
SPLINE
  5
9E
330
98
100
AcDbEntity
  8
_U+30EC_U+30A4_U+30E4_U+30FC 1
370
     0
100
AcDbSpline
210
0.0
220
0.0
230
1.0
 70
    11
 71
     3
 72
    44
 73
    40
 74
     0
 42
0.0000000001
 43
0.0000000001
 12
1.0
 22
0.0
 32
0.0
 13
1.0
 23
0.0
 33
0.0
 40
0.0
 40
0.0
 40
0.0
 40
0.0
 40
1.0
 40
1.0
 40
1.0
 40
2.0
 40
2.0
 40
2.0
 40
3.0
 40
3.0
 40
3.0
 40
4.0
 40
4.0
 40
4.0
 40
5.0
 40
5.0
 40
5.0
 40
6.0
 40
6.0
 40
6.0
 40
7.0
 40
7.0
 40
7.0
 40
8.0
 40
8.0
 40
8.0
 40
9.0
 40
9.0
 40
9.0
 40
10.0
 40
10.0
 40
10.0
 40
11.0
 40
11.0
 40
11.0
 40
12.0
 40
12.0
 40
12.0
 40
13.0
 40
13.0
 40
13.0
 40
13.0
 10
91.94201929125062
 20
-139.1904703428065
 30
0.0
 10
91.70913083644773
 20
-139.3492892446766
 30
0.0
 10
91.60956757692401
 20
-139.4233587976094
 30
0.0
 10
91.55754663509673
 20
-139.5670192793444
 30
0.0
 10
91.55754663509673
 20
-139.5670192793444
 30
0.0
 10
92.38988170433309
 20
-139.5670192793444
 30
0.0
 10
92.38988170433309
 20
-139.5670192793444
 30
0.0
 10
92.38988170433309
 20
-139.5670192793444
 30
0.0
 10
92.38988170433309
 20
-139.7723469702653
 30
0.0
 10
92.38988170433309
 20
-139.7723469702653
 30
0.0
 10
92.38988170433309
 20
-139.7723469702653
 30
0.0
 10
91.29106849931266
 20
-139.7723469702653
 30
0.0
 10
91.29106849931266
 20
-139.7723469702653
 30
0.0
 10
91.32517494461662
 20
-139.4147460588963
 30
0.0
 10
91.39493812819293
 20
-139.3365423913812
 30
0.0
 10
91.80628252913176
 20
-139.0381971223585
 30
0.0
 10
92.0798231106606
 20
-138.8394151128596
 30
0.0
 10
92.1501030585597
 20
-138.7715467318002
 30
0.0
 10
92.1501030585597
 20
-138.6340874219387
 30
0.0
 10
92.1501030585597
 20
-138.5155761372461
 30
0.0
 10
92.07327742923863
 20
-138.3846625088066
 30
0.0
 10
91.86278209508987
 20
-138.3846625088066
 30
0.0
 10
91.58476288943021
 20
-138.3846625088066
 30
0.0
 10
91.57580564116856
 20
-138.6151393967698
 30
0.0
 10
91.57132701703773
 20
-138.7315836241713
 30
0.0
 10
91.57132701703773
 20
-138.7315836241713
 30
0.0
 10
91.3317206260386
 20
-138.7315836241713
 30
0.0
 10
91.3317206260386
 20
-138.7315836241713
 30
0.0
 10
91.34067787430025
 20
-138.6044596007656
 30
0.0
 10
91.35204668940158
 20
-138.4924939974949
 30
0.0
 10
91.43800182175856
 20
-138.3739827128023
 30
0.0
 10
91.55547957780558
 20
-138.2130967536412
 30
0.0
 10
91.7542615873045
 20
-138.1793348178857
 30
0.0
 10
91.87862953432202
 20
-138.1793348178857
 30
0.0
 10
92.1749077460535
 20
-138.1793348178857
 30
0.0
 10
92.39642738575506
 20
-138.3633029167981
 30
0.0
 10
92.39642738575506
 20
-138.6361544792298
 30
0.0
 10
92.39642738575506
 20
-138.8649088194504
 30
0.0
 10
92.27205943873754
 20
-138.9641275694256
 30
0.0
 10
91.94201929125062
 20
-139.1904703428065
 30
0.0
  0
HATCH
  5
9F
330
98
100
AcDbEntity
  8
_U+30EC_U+30A4_U+30E4_U+30FC 1
 62
     7
420
 16777215
100
AcDbHatch
 10
0.0
 20
0.0
 30
0.0
210
0.0
220
0.0
230
1.0
  2
SOLID
 70
     1
 71
     0
 91
        1
 92
        1
 93
        1
 72
     4
 94
        3
 73
     0
 74
     1
 95
       44
 96
       40
 40
0.0
 40
0.0
 40
0.0
 40
0.0
 40
1.0
 40
1.0
 40
1.0
 40
2.0
 40
2.0
 40
2.0
 40
3.0
 40
3.0
 40
3.0
 40
4.0
 40
4.0
 40
4.0
 40
5.0
 40
5.0
 40
5.0
 40
6.0
 40
6.0
 40
6.0
 40
7.0
 40
7.0
 40
7.0
 40
8.0
 40
8.0
 40
8.0
 40
9.0
 40
9.0
 40
9.0
 40
10.0
 40
10.0
 40
10.0
 40
11.0
 40
11.0
 40
11.0
 40
12.0
 40
12.0
 40
12.0
 40
13.0
 40
13.0
 40
13.0
 40
13.0
 10
91.94201929125062
 20
-139.1904703428065
 10
91.70913083644773
 20
-139.3492892446766
 10
91.60956757692401
 20
-139.4233587976094
 10
91.55754663509673
 20
-139.5670192793444
 10
91.55754663509673
 20
-139.5670192793444
 10
92.38988170433309
 20
-139.5670192793444
 10
92.38988170433309
 20
-139.5670192793444
 10
92.38988170433309
 20
-139.5670192793444
 10
92.38988170433309
 20
-139.7723469702653
 10
92.38988170433309
 20
-139.7723469702653
 10
92.38988170433309
 20
-139.7723469702653
 10
91.29106849931266
 20
-139.7723469702653
 10
91.29106849931266
 20
-139.7723469702653
 10
91.32517494461662
 20
-139.4147460588963
 10
91.39493812819293
 20
-139.3365423913812
 10
91.80628252913176
 20
-139.0381971223585
 10
92.0798231106606
 20
-138.8394151128596
 10
92.1501030585597
 20
-138.7715467318002
 10
92.1501030585597
 20
-138.6340874219387
 10
92.1501030585597
 20
-138.5155761372461
 10
92.07327742923863
 20
-138.3846625088066
 10
91.86278209508987
 20
-138.3846625088066
 10
91.58476288943021
 20
-138.3846625088066
 10
91.57580564116856
 20
-138.6151393967698
 10
91.57132701703773
 20
-138.7315836241713
 10
91.57132701703773
 20
-138.7315836241713
 10
91.3317206260386
 20
-138.7315836241713
 10
91.3317206260386
 20
-138.7315836241713
 10
91.34067787430025
 20
-138.6044596007656
 10
91.35204668940158
 20
-138.4924939974949
 10
91.43800182175856
 20
-138.3739827128023
 10
91.55547957780558
 20
-138.2130967536412
 10
91.7542615873045
 20
-138.1793348178857
 10
91.87862953432202
 20
-138.1793348178857
 10
92.1749077460535
 20
-138.1793348178857
 10
92.39642738575506
 20
-138.3633029167981
 10
92.39642738575506
 20
-138.6361544792298
 10
92.39642738575506
 20
-138.8649088194504
 10
92.27205943873754
 20
-138.9641275694256
 10
91.94201929125062
 20
-139.1904703428065
 97
        0
 97
        0
 75
     2
 76
     1
 98
        0
  0
ENDBLK
  5
9B
330
98
100
AcDbEntity
  8
0
100
AcDbBlockEnd
  0
BLOCK
  5
B0
330
AE
100
AcDbEntity
  8
0
100
AcDbBlockBegin
  2
block 6
 70
     0
 10
0.0
 20
0.0
 30
0.0
  3
block 6
  1

  0
SPLINE
  5
B2
330
AE
100
AcDbEntity
  8
_U+30EC_U+30A4_U+30E4_U+30FC 1
370
     0
100
AcDbSpline
210
0.0
220
0.0
230
1.0
 70
    11
 71
     3
 72
    26
 73
    22
 74
     0
 42
0.0000000001
 43
0.0000000001
 12
1.0
 22
0.0
 32
0.0
 13
1.0
 23
0.0
 33
0.0
 40
0.0
 40
0.0
 40
0.0
 40
0.0
 40
1.0
 40
1.0
 40
1.0
 40
2.0
 40
2.0
 40
2.0
 40
3.0
 40
3.0
 40
3.0
 40
4.0
 40
4.0
 40
4.0
 40
5.0
 40
5.0
 40
5.0
 40
6.0
 40
6.0
 40
6.0
 40
7.0
 40
7.0
 40
7.0
 40
7.0
 10
95.12115340503917
 20
-117.4247015765466
 30
0.0
 10
95.12115340503917
 20
-117.4247015765466
 30
0.0
 10
95.12115340503917
 20
-116.320548473524
 30
0.0
 10
95.12115340503917
 20
-116.320548473524
 30
0.0
 10
95.12115340503917
 20
-116.320548473524
 30
0.0
 10
94.76906464644662
 20
-116.320548473524
 30
0.0
 10
94.76906464644662
 20
-116.320548473524
 30
0.0
 10
94.76906464644662
 20
-116.320548473524
 30
0.0
 10
94.76906464644662
 20
-116.1724093676583
 30
0.0
 10
94.76906464644662
 20
-116.1724093676583
 30
0.0
 10
95.12390948142736
 20
-116.1575954570717
 30
0.0
 10
95.17351885641496
 20
-115.9946424406194
 30
0.0
 10
95.20521373487925
 20
-115.8802652705091
 30
0.0
 10
95.20521373487925
 20
-115.8802652705091
 30
0.0
 10
95.36093205081255
 20
-115.8802652705091
 30
0.0
 10
95.36093205081255
 20
-115.8802652705091
 30
0.0
 10
95.36093205081255
 20
-115.8802652705091
 30
0.0
 10
95.36093205081255
 20
-117.4247015765466
 30
0.0
 10
95.36093205081255
 20
-117.4247015765466
 30
0.0
 10
95.36093205081255
 20
-117.4247015765466
 30
0.0
 10
95.12115340503917
 20
-117.4247015765466
 30
0.0
 10
95.12115340503917
 20
-117.4247015765466
 30
0.0
  0
HATCH
  5
B3
330
AE
100
AcDbEntity
  8
_U+30EC_U+30A4_U+30E4_U+30FC 1
 62
     7
420
 16777215
100
AcDbHatch
 10
0.0
 20
0.0
 30
0.0
210
0.0
220
0.0
230
1.0
  2
SOLID
 70
     1
 71
     0
 91
        1
 92
        1
 93
        1
 72
     4
 94
        3
 73
     0
 74
     1
 95
       26
 96
       22
 40
0.0
 40
0.0
 40
0.0
 40
0.0
 40
1.0
 40
1.0
 40
1.0
 40
2.0
 40
2.0
 40
2.0
 40
3.0
 40
3.0
 40
3.0
 40
4.0
 40
4.0
 40
4.0
 40
5.0
 40
5.0
 40
5.0
 40
6.0
 40
6.0
 40
6.0
 40
7.0
 40
7.0
 40
7.0
 40
7.0
 10
95.12115340503917
 20
-117.4247015765466
 10
95.12115340503917
 20
-117.4247015765466
 10
95.12115340503917
 20
-116.320548473524
 10
95.12115340503917
 20
-116.320548473524
 10
95.12115340503917
 20
-116.320548473524
 10
94.76906464644662
 20
-116.320548473524
 10
94.76906464644662
 20
-116.320548473524
 10
94.76906464644662
 20
-116.320548473524
 10
94.76906464644662
 20
-116.1724093676583
 10
94.76906464644662
 20
-116.1724093676583
 10
95.12390948142736
 20
-116.1575954570717
 10
95.17351885641496
 20
-115.9946424406194
 10
95.20521373487925
 20
-115.8802652705091
 10
95.20521373487925
 20
-115.8802652705091
 10
95.36093205081255
 20
-115.8802652705091
 10
95.36093205081255
 20
-115.8802652705091
 10
95.36093205081255
 20
-115.8802652705091
 10
95.36093205081255
 20
-117.4247015765466
 10
95.36093205081255
 20
-117.4247015765466
 10
95.36093205081255
 20
-117.4247015765466
 10
95.12115340503917
 20
-117.4247015765466
 10
95.12115340503917
 20
-117.4247015765466
 97
        0
 97
        0
 75
     2
 76
     1
 98
        0
  0
POLYLINE
  5
B4
330
AE
100
AcDbEntity
  8
_U+30EC_U+30A4_U+30E4_U+30FC 1
370
     0
100
AcDb2dPolyline
 66
     1
 10
0.0
 20
0.0
 30
0.0
  0
VERTEX
  5
B5
330
B4
100
AcDbEntity
  8
_U+30EC_U+30A4_U+30E4_U+30FC 1
370
     0
100
AcDbVertex
100
AcDb2dVertex
 10
96.78651256260893
 20
-117.0777804611819
 30
0.0
  0
VERTEX
  5
B6
330
B4
100
AcDbEntity
  8
_U+30EC_U+30A4_U+30E4_U+30FC 1
370
     0
100
AcDbVertex
100
AcDb2dVertex
 10
96.78651256260893
 20
-117.4247015765466
 30
0.0
  0
VERTEX
  5
B7
330
B4
100
AcDbEntity
  8
_U+30EC_U+30A4_U+30E4_U+30FC 1
370
     0
100
AcDbVertex
100
AcDb2dVertex
 10
96.55362410780604
 20
-117.4247015765466
 30
0.0
  0
VERTEX
  5
B8
330
B4
100
AcDbEntity
  8
_U+30EC_U+30A4_U+30E4_U+30FC 1
370
     0
100
AcDbVertex
100
AcDb2dVertex
 10
96.55362410780604
 20
-117.0777804611819
 30
0.0
  0
VERTEX
  5
B9
330
B4
100
AcDbEntity
  8
_U+30EC_U+30A4_U+30E4_U+30FC 1
370
     0
100
AcDbVertex
100
AcDb2dVertex
 10
95.85220266700918
 20
-117.0777804611819
 30
0.0
  0
VERTEX
  5
BA
330
B4
100
AcDbEntity
  8
_U+30EC_U+30A4_U+30E4_U+30FC 1
370
     0
100
AcDbVertex
100
AcDb2dVertex
 10
95.85220266700918
 20
-116.8535047450922
 30
0.0
  0
VERTEX
  5
BB
330
B4
100
AcDbEntity
  8
_U+30EC_U+30A4_U+30E4_U+30FC 1
370
     0
100
AcDbVertex
100
AcDb2dVertex
 10
96.57842879529984
 20
-115.8802652705091
 30
0.0
  0
VERTEX
  5
BC
330
B4
100
AcDbEntity
  8
_U+30EC_U+30A4_U+30E4_U+30FC 1
370
     0
100
AcDbVertex
100
AcDb2dVertex
 10
96.78651256260893
 20
-115.8802652705091
 30
0.0
  0
VERTEX
  5
BD
330
B4
100
AcDbEntity
  8
_U+30EC_U+30A4_U+30E4_U+30FC 1
370
     0
100
AcDbVertex
100
AcDb2dVertex
 10
96.78651256260893
 20
-116.878998451683
 30
0.0
  0
VERTEX
  5
BE
330
B4
100
AcDbEntity
  8
_U+30EC_U+30A4_U+30E4_U+30FC 1
370
     0
100
AcDbVertex
100
AcDb2dVertex
 10
97.00768769276198
 20
-116.878998451683
 30
0.0
  0
VERTEX
  5
BF
330
B4
100
AcDbEntity
  8
_U+30EC_U+30A4_U+30E4_U+30FC 1
370
     0
100
AcDbVertex
100
AcDb2dVertex
 10
97.00768769276198
 20
-117.0777804611819
 30
0.0
  0
VERTEX
  5
C0
330
B4
100
AcDbEntity
  8
_U+30EC_U+30A4_U+30E4_U+30FC 1
370
     0
100
AcDbVertex
100
AcDb2dVertex
 10
96.78651256260893
 20
-117.0777804611819
 30
0.0
  0
SEQEND
  5
C1
330
B4
100
AcDbEntity
  8
_U+30EC_U+30A4_U+30E4_U+30FC 1
370
     0
  0
POLYLINE
  5
C2
330
AE
100
AcDbEntity
  8
_U+30EC_U+30A4_U+30E4_U+30FC 1
370
     0
100
AcDb2dPolyline
 66
     1
 10
0.0
 20
0.0
 30
0.0
  0
VERTEX
  5
C3
330
C2
100
AcDbEntity
  8
_U+30EC_U+30A4_U+30E4_U+30FC 1
370
     0
100
AcDbVertex
100
AcDb2dVertex
 10
96.55362410780604
 20
-116.2230522712915
 30
0.0
  0
VERTEX
  5
C4
330
C2
100
AcDbEntity
  8
_U+30EC_U+30A4_U+30E4_U+30FC 1
370
     0
100
AcDbVertex
100
AcDb2dVertex
 10
96.06510956799761
 20
-116.878998451683
 30
0.0
  0
VERTEX
  5
C5
330
C2
100
AcDbEntity
  8
_U+30EC_U+30A4_U+30E4_U+30FC 1
370
     0
100
AcDbVertex
100
AcDb2dVertex
 10
96.55362410780604
 20
-116.878998451683
 30
0.0
  0
VERTEX
  5
C6
330
C2
100
AcDbEntity
  8
_U+30EC_U+30A4_U+30E4_U+30FC 1
370
     0
100
AcDbVertex
100
AcDb2dVertex
 10
96.55362410780604
 20
-116.2230522712915
 30
0.0
  0
SEQEND
  5
C7
330
C2
100
AcDbEntity
  8
_U+30EC_U+30A4_U+30E4_U+30FC 1
370
     0
  0
HATCH
  5
C8
330
AE
100
AcDbEntity
  8
_U+30EC_U+30A4_U+30E4_U+30FC 1
 62
     7
420
 16777215
100
AcDbHatch
 10
0.0
 20
0.0
 30
0.0
210
0.0
220
0.0
230
1.0
  2
SOLID
 70
     1
 71
     0
 91
        2
 92
        1
 93
       11
 72
     1
 10
96.78651256260893
 20
-117.0777804611819
 11
96.78651256260893
 21
-117.4247015765466
 72
     1
 10
96.78651256260893
 20
-117.4247015765466
 11
96.55362410780604
 21
-117.4247015765466
 72
     1
 10
96.55362410780604
 20
-117.4247015765466
 11
96.55362410780604
 21
-117.0777804611819
 72
     1
 10
96.55362410780604
 20
-117.0777804611819
 11
95.85220266700918
 21
-117.0777804611819
 72
     1
 10
95.85220266700918
 20
-117.0777804611819
 11
95.85220266700918
 21
-116.8535047450922
 72
     1
 10
95.85220266700918
 20
-116.8535047450922
 11
96.57842879529984
 21
-115.8802652705091
 72
     1
 10
96.57842879529984
 20
-115.8802652705091
 11
96.78651256260893
 21
-115.8802652705091
 72
     1
 10
96.78651256260893
 20
-115.8802652705091
 11
96.78651256260893
 21
-116.878998451683
 72
     1
 10
96.78651256260893
 20
-116.878998451683
 11
97.00768769276198
 21
-116.878998451683
 72
     1
 10
97.00768769276198
 20
-116.878998451683
 11
97.00768769276198
 21
-117.0777804611819
 72
     1
 10
97.00768769276198
 20
-117.0777804611819
 11
96.78651256260893
 21
-117.0777804611819
 97
        0
 92
        1
 93
        3
 72
     1
 10
96.55362410780604
 20
-116.2230522712915
 11
96.06510956799761
 21
-116.878998451683
 72
     1
 10
96.06510956799761
 20
-116.878998451683
 11
96.55362410780604
 21
-116.878998451683
 72
     1
 10
96.55362410780604
 20
-116.878998451683
 11
96.55362410780604
 21
-116.2230522712915
 97
        0
 75
     2
 76
     1
 98
        0
  0
ENDBLK
  5
B1
330
AE
100
AcDbEntity
  8
0
100
AcDbBlockEnd
  0
ENDSEC
  0
SECTION
  2
ENTITIES
  0
SPLINE
  5
41
330
1F
100
AcDbEntity
  8
_U+30EC_U+30A4_U+30E4_U+30FC 1
 62
   253
420
 11711154
370
     9
100
AcDbSpline
210
0.0
220
0.0
230
1.0
 70
    11
 71
     3
 72
    47
 73
    43
 74
     0
 42
0.0000000001
 43
0.0000000001
 12
1.0
 22
0.0
 32
0.0
 13
1.0
 23
0.0
 33
0.0
 40
0.0
 40
0.0
 40
0.0
 40
0.0
 40
1.0
 40
1.0
 40
1.0
 40
2.0
 40
2.0
 40
2.0
 40
3.0
 40
3.0
 40
3.0
 40
4.0
 40
4.0
 40
4.0
 40
5.0
 40
5.0
 40
5.0
 40
6.0
 40
6.0
 40
6.0
 40
7.0
 40
7.0
 40
7.0
 40
8.0
 40
8.0
 40
8.0
 40
9.0
 40
9.0
 40
9.0
 40
10.0
 40
10.0
 40
10.0
 40
11.0
 40
11.0
 40
11.0
 40
12.0
 40
12.0
 40
12.0
 40
13.0
 40
13.0
 40
13.0
 40
14.0
 40
14.0
 40
14.0
 40
14.0
 10
87.68905276286588
 20
-127.7811910791658
 30
0.0
 10
87.68905276286588
 20
-127.7811910791658
 30
0.0
 10
78.78691942474758
 20
-118.9079833036063
 30
0.0
 10
78.78691942474758
 20
-118.9079833036063
 30
0.0
 10
78.78691942474758
 20
-118.9079833036063
 30
0.0
 10
78.1654288391671
 20
-117.9612688593984
 30
0.0
 10
78.78691942474758
 20
-117.1034544151685
 30
0.0
 10
78.78691942474758
 20
-117.1034544151685
 30
0.0
 10
88.6949985705354
 20
-127.0418746904618
 30
0.0
 10
88.6949985705354
 20
-127.0418746904618
 30
0.0
 10
88.6949985705354
 20
-127.0418746904618
 30
0.0
 10
102.6848596025132
 20
-127.1004358015583
 30
0.0
 10
102.6848596025132
 20
-127.1004358015583
 30
0.0
 10
102.6848596025132
 20
-127.1004358015583
 30
0.0
 10
102.6255929373586
 20
-128.195281634618
 30
0.0
 10
101.0580954773487
 20
-128.1360149679659
 30
0.0
 10
101.0580954773487
 20
-128.1360149679659
 30
0.0
 10
88.75426523569006
 20
-128.1360149679659
 30
0.0
 10
88.75426523569006
 20
-128.1360149679659
 30
0.0
 10
88.75426523569006
 20
-128.1360149679659
 30
0.0
 10
85.91482753035237
 20
-135.4714996883542
 30
0.0
 10
85.91482753035237
 20
-135.4714996883542
 30
0.0
 10
85.91482753035237
 20
-135.4714996883542
 30
0.0
 10
97.27190807394244
 20
-135.4418663550287
 30
0.0
 10
97.27190807394244
 20
-135.4418663550287
 30
0.0
 10
97.27190807394244
 20
-135.4418663550287
 30
0.0
 10
96.85781752895122
 20
-136.3589474659103
 30
0.0
 10
96.85781752895122
 20
-136.3589474659103
 30
0.0
 10
96.85781752895122
 20
-136.3589474659103
 30
0.0
 10
84.8496150575282
 20
-136.4767752436589
 30
0.0
 10
84.8496150575282
 20
-136.4767752436589
 30
0.0
 10
84.8496150575282
 20
-136.4767752436589
 30
0.0
 10
76.30230553647996
 20
-127.8693855235882
 30
0.0
 10
76.30230553647996
 20
-127.8693855235882
 30
0.0
 10
76.30230553647996
 20
-127.8693855235882
 30
0.0
 10
76.71642943168972
 20
-126.98260802381
 30
0.0
 10
76.71642943168972
 20
-126.98260802381
 30
0.0
 10
76.71642943168972
 20
-126.98260802381
 30
0.0
 10
84.8496150575282
 20
-135.1166405217762
 30
0.0
 10
84.8496150575282
 20
-135.1166405217762
 30
0.0
 10
84.8496150575282
 20
-135.1166405217762
 30
0.0
 10
87.68905276286588
 20
-127.7811910791658
 30
0.0
 10
87.68905276286588
 20
-127.7811910791658
 30
0.0
  0
HATCH
  5
42
330
1F
100
AcDbEntity
  8
_U+30EC_U+30A4_U+30E4_U+30FC 1
 62
   253
420
 11711154
100
AcDbHatch
 10
0.0
 20
0.0
 30
0.0
210
0.0
220
0.0
230
1.0
  2
SOLID
 70
     1
 71
     0
 91
        1
 92
        1
 93
        1
 72
     4
 94
        3
 73
     0
 74
     1
 95
       47
 96
       43
 40
0.0
 40
0.0
 40
0.0
 40
0.0
 40
1.0
 40
1.0
 40
1.0
 40
2.0
 40
2.0
 40
2.0
 40
3.0
 40
3.0
 40
3.0
 40
4.0
 40
4.0
 40
4.0
 40
5.0
 40
5.0
 40
5.0
 40
6.0
 40
6.0
 40
6.0
 40
7.0
 40
7.0
 40
7.0
 40
8.0
 40
8.0
 40
8.0
 40
9.0
 40
9.0
 40
9.0
 40
10.0
 40
10.0
 40
10.0
 40
11.0
 40
11.0
 40
11.0
 40
12.0
 40
12.0
 40
12.0
 40
13.0
 40
13.0
 40
13.0
 40
14.0
 40
14.0
 40
14.0
 40
14.0
 10
87.68905276286588
 20
-127.7811910791658
 10
87.68905276286588
 20
-127.7811910791658
 10
78.78691942474758
 20
-118.9079833036063
 10
78.78691942474758
 20
-118.9079833036063
 10
78.78691942474758
 20
-118.9079833036063
 10
78.1654288391671
 20
-117.9612688593984
 10
78.78691942474758
 20
-117.1034544151685
 10
78.78691942474758
 20
-117.1034544151685
 10
88.6949985705354
 20
-127.0418746904618
 10
88.6949985705354
 20
-127.0418746904618
 10
88.6949985705354
 20
-127.0418746904618
 10
102.6848596025132
 20
-127.1004358015583
 10
102.6848596025132
 20
-127.1004358015583
 10
102.6848596025132
 20
-127.1004358015583
 10
102.6255929373586
 20
-128.195281634618
 10
101.0580954773487
 20
-128.1360149679659
 10
101.0580954773487
 20
-128.1360149679659
 10
88.75426523569006
 20
-128.1360149679659
 10
88.75426523569006
 20
-128.1360149679659
 10
88.75426523569006
 20
-128.1360149679659
 10
85.91482753035237
 20
-135.4714996883542
 10
85.91482753035237
 20
-135.4714996883542
 10
85.91482753035237
 20
-135.4714996883542
 10
97.27190807394244
 20
-135.4418663550287
 10
97.27190807394244
 20
-135.4418663550287
 10
97.27190807394244
 20
-135.4418663550287
 10
96.85781752895122
 20
-136.3589474659103
 10
96.85781752895122
 20
-136.3589474659103
 10
96.85781752895122
 20
-136.3589474659103
 10
84.8496150575282
 20
-136.4767752436589
 10
84.8496150575282
 20
-136.4767752436589
 10
84.8496150575282
 20
-136.4767752436589
 10
76.30230553647996
 20
-127.8693855235882
 10
76.30230553647996
 20
-127.8693855235882
 10
76.30230553647996
 20
-127.8693855235882
 10
76.71642943168972
 20
-126.98260802381
 10
76.71642943168972
 20
-126.98260802381
 10
76.71642943168972
 20
-126.98260802381
 10
84.8496150575282
 20
-135.1166405217762
 10
84.8496150575282
 20
-135.1166405217762
 10
84.8496150575282
 20
-135.1166405217762
 10
87.68905276286588
 20
-127.7811910791658
 10
87.68905276286588
 20
-127.7811910791658
 97
        0
 97
        0
 75
     2
 76
     1
 98
        0
  0
SPLINE
  5
43
330
1F
100
AcDbEntity
  8
_U+30EC_U+30A4_U+30E4_U+30FC 1
 62
     7
420
 16777215
370
     9
100
AcDbSpline
210
0.0
220
0.0
230
1.0
 70
    11
 71
     3
 72
    17
 73
    13
 74
     0
 42
0.0000000001
 43
0.0000000001
 12
1.0
 22
0.0
 32
0.0
 13
1.0
 23
0.0
 33
0.0
 40
0.0
 40
0.0
 40
0.0
 40
0.0
 40
1.0
 40
1.0
 40
1.0
 40
2.0
 40
2.0
 40
2.0
 40
3.0
 40
3.0
 40
3.0
 40
4.0
 40
4.0
 40
4.0
 40
4.0
 10
86.08984058144297
 20
-124.2478746911602
 30
0.0
 10
86.08984058144297
 20
-124.192770802285
 30
0.0
 10
86.0450378048082
 20
-124.1479680245186
 30
0.0
 10
85.98923053405818
 20
-124.1479680245186
 30
0.0
 10
85.93412447430451
 20
-124.1479680245186
 30
0.0
 10
85.88932169766974
 20
-124.192770802285
 30
0.0
 10
85.88932169766974
 20
-124.2478746911602
 30
0.0
 10
85.88932169766974
 20
-124.3036841355907
 30
0.0
 10
85.93412447430451
 20
-124.3484869133574
 30
0.0
 10
85.98923053405818
 20
-124.3484869133574
 30
0.0
 10
86.0450378048082
 20
-124.3484869133574
 30
0.0
 10
86.08984058144297
 20
-124.3036841355907
 30
0.0
 10
86.08984058144297
 20
-124.2478746911602
 30
0.0
  0
SPLINE
  5
44
330
1F
100
AcDbEntity
  8
_U+30EC_U+30A4_U+30E4_U+30FC 1
 62
     7
420
 16777215
370
     9
100
AcDbSpline
210
0.0
220
0.0
230
1.0
 70
    11
 71
     3
 72
    17
 73
    13
 74
     0
 42
0.0000000001
 43
0.0000000001
 12
1.0
 22
0.0
 32
0.0
 13
1.0
 23
0.0
 33
0.0
 40
0.0
 40
0.0
 40
0.0
 40
0.0
 40
1.0
 40
1.0
 40
1.0
 40
2.0
 40
2.0
 40
2.0
 40
3.0
 40
3.0
 40
3.0
 40
4.0
 40
4.0
 40
4.0
 40
4.0
 10
92.91799540724223
 20
-127.0763058015643
 30
0.0
 10
92.91799540724223
 20
-127.021201912689
 30
0.0
 10
92.87322790838434
 20
-126.9763991349226
 30
0.0
 10
92.81808874312439
 20
-126.9763991349226
 30
0.0
 10
92.76298485564132
 20
-126.9763991349226
 30
0.0
 10
92.71818207900655
 20
-127.021201912689
 30
0.0
 10
92.71818207900655
 20
-127.0763058015643
 30
0.0
 10
92.71818207900655
 20
-127.1321152459947
 30
0.0
 10
92.76298485564132
 20
-127.1769180237614
 30
0.0
 10
92.81808874312439
 20
-127.1769180237614
 30
0.0
 10
92.87322790838434
 20
-127.1769180237614
 30
0.0
 10
92.91799540724223
 20
-127.1321152459947
 30
0.0
 10
92.91799540724223
 20
-127.0763058015643
 30
0.0
  0
SPLINE
  5
45
330
1F
100
AcDbEntity
  8
_U+30EC_U+30A4_U+30E4_U+30FC 1
 62
     7
420
 16777215
370
     9
100
AcDbSpline
210
0.0
220
0.0
230
1.0
 70
     8
 71
     3
 72
    11
 73
     7
 74
     0
 42
0.0000000001
 43
0.0000000001
 12
1.0
 22
0.0
 32
0.0
 13
1.0
 23
0.0
 33
0.0
 40
0.0
 40
0.0
 40
0.0
 40
0.0
 40
1.0
 40
1.0
 40
1.0
 40
2.0
 40
2.0
 40
2.0
 40
2.0
 10
92.81808874312439
 20
-127.0763058015643
 30
0.0
 10
92.81808874312439
 20
-124.8673171910054
 30
0.0
 10
91.02735351103208
 20
-123.0765466358974
 30
0.0
 10
88.8176594007394
 20
-123.0765466358974
 30
0.0
 10
87.75724470557061
 20
-123.0765466358974
 30
0.0
 10
86.73958886720406
 20
-123.4982219135699
 30
0.0
 10
85.98923053405818
 20
-124.2478746911602
 30
0.0
  0
INSERT
  5
47
330
1F
100
AcDbEntity
  8
_U+30EC_U+30A4_U+30E4_U+30FC 1
100
AcDbBlockReference
  2
block 2
 10
0.0
 20
0.0
 30
0.0
  0
SPLINE
  5
53
330
1F
100
AcDbEntity
  8
_U+30EC_U+30A4_U+30E4_U+30FC 1
 62
     7
420
 16777215
370
     9
100
AcDbSpline
210
0.0
220
0.0
230
1.0
 70
    11
 71
     3
 72
    17
 73
    13
 74
     0
 42
0.0000000001
 43
0.0000000001
 12
1.0
 22
0.0
 32
0.0
 13
1.0
 23
0.0
 33
0.0
 40
0.0
 40
0.0
 40
0.0
 40
0.0
 40
1.0
 40
1.0
 40
1.0
 40
2.0
 40
2.0
 40
2.0
 40
3.0
 40
3.0
 40
3.0
 40
4.0
 40
4.0
 40
4.0
 40
4.0
 10
104.5879192761843
 20
-136.3148502436991
 30
0.0
 10
104.5879192761843
 20
-136.259711077046
 30
0.0
 10
104.5438220550871
 20
-136.2149435770575
 30
0.0
 10
104.4880126120665
 20
-136.2149435770575
 30
0.0
 10
104.4329087245834
 20
-136.2149435770575
 30
0.0
 10
104.3881059479487
 20
-136.259711077046
 30
0.0
 10
104.3881059479487
 20
-136.3148502436991
 30
0.0
 10
104.3881059479487
 20
-136.369954132574
 30
0.0
 10
104.4329087245834
 20
-136.4147569103408
 30
0.0
 10
104.4880126120665
 20
-136.4147569103408
 30
0.0
 10
104.5438220550871
 20
-136.4147569103408
 30
0.0
 10
104.5879192761843
 20
-136.369954132574
 30
0.0
 10
104.5879192761843
 20
-136.3148502436991
 30
0.0
  0
SPLINE
  5
54
330
1F
100
AcDbEntity
  8
_U+30EC_U+30A4_U+30E4_U+30FC 1
 62
     7
420
 16777215
370
     9
100
AcDbSpline
210
0.0
220
0.0
230
1.0
 70
    11
 71
     3
 72
    17
 73
    13
 74
     0
 42
0.0000000001
 43
0.0000000001
 12
1.0
 22
0.0
 32
0.0
 13
1.0
 23
0.0
 33
0.0
 40
0.0
 40
0.0
 40
0.0
 40
0.0
 40
1.0
 40
1.0
 40
1.0
 40
2.0
 40
2.0
 40
2.0
 40
3.0
 40
3.0
 40
3.0
 40
4.0
 40
4.0
 40
4.0
 40
4.0
 10
104.5879192761843
 20
-135.213795521752
 30
0.0
 10
104.5879192761843
 20
-135.1586916328772
 30
0.0
 10
104.5438220550871
 20
-135.1138888551104
 30
0.0
 10
104.4880126120665
 20
-135.1138888551104
 30
0.0
 10
104.4329087245834
 20
-135.1138888551104
 30
0.0
 10
104.3881059479487
 20
-135.1586916328772
 30
0.0
 10
104.3881059479487
 20
-135.213795521752
 30
0.0
 10
104.3881059479487
 20
-135.2696049661825
 30
0.0
 10
104.4329087245834
 20
-135.3144077439492
 30
0.0
 10
104.4880126120665
 20
-135.3144077439492
 30
0.0
 10
104.5438220550871
 20
-135.3144077439492
 30
0.0
 10
104.5879192761843
 20
-135.2696049661825
 30
0.0
 10
104.5879192761843
 20
-135.213795521752
 30
0.0
  0
POLYLINE
  5
55
330
1F
100
AcDbEntity
  8
_U+30EC_U+30A4_U+30E4_U+30FC 1
 62
     7
420
 16777215
370
     9
100
AcDb2dPolyline
 66
     1
 10
0.0
 20
0.0
 30
0.0
  0
VERTEX
  5
56
330
55
100
AcDbEntity
  8
_U+30EC_U+30A4_U+30E4_U+30FC 1
 62
     7
420
 16777215
370
     9
100
AcDbVertex
100
AcDb2dVertex
 10
104.4880126120665
 20
-135.1021766328912
 30
0.0
  0
VERTEX
  5
57
330
55
100
AcDbEntity
  8
_U+30EC_U+30A4_U+30E4_U+30FC 1
 62
     7
420
 16777215
370
     9
100
AcDbVertex
100
AcDb2dVertex
 10
104.4880126120665
 20
-128.1015838568634
 30
0.0
  0
SEQEND
  5
58
330
55
100
AcDbEntity
  8
_U+30EC_U+30A4_U+30E4_U+30FC 1
 62
     7
420
 16777215
370
     9
  0
POLYLINE
  5
59
330
1F
100
AcDbEntity
  8
_U+30EC_U+30A4_U+30E4_U+30FC 1
 62
     7
420
 16777215
370
     9
100
AcDb2dPolyline
 66
     1
 10
0.0
 20
0.0
 30
0.0
  0
VERTEX
  5
5A
330
59
100
AcDbEntity
  8
_U+30EC_U+30A4_U+30E4_U+30FC 1
 62
     7
420
 16777215
370
     9
100
AcDbVertex
100
AcDb2dVertex
 10
104.4880126120665
 20
-139.3954469095953
 30
0.0
  0
VERTEX
  5
5B
330
59
100
AcDbEntity
  8
_U+30EC_U+30A4_U+30E4_U+30FC 1
 62
     7
420
 16777215
370
     9
100
AcDbVertex
100
AcDb2dVertex
 10
104.4880126120665
 20
-135.1021766328912
 30
0.0
  0
SEQEND
  5
5C
330
59
100
AcDbEntity
  8
_U+30EC_U+30A4_U+30E4_U+30FC 1
 62
     7
420
 16777215
370
     9
  0
POLYLINE
  5
5D
330
1F
100
AcDbEntity
  8
_U+30EC_U+30A4_U+30E4_U+30FC 1
 62
     7
420
 16777215
370
     9
100
AcDb2dPolyline
 66
     1
 10
0.0
 20
0.0
 30
0.0
  0
VERTEX
  5
5E
330
5D
100
AcDbEntity
  8
_U+30EC_U+30A4_U+30E4_U+30FC 1
 62
     7
420
 16777215
370
     9
100
AcDbVertex
100
AcDb2dVertex
 10
103.0280065382032
 20
-136.3148502436991
 30
0.0
  0
VERTEX
  5
5F
330
5D
100
AcDbEntity
  8
_U+30EC_U+30A4_U+30E4_U+30FC 1
 62
     7
420
 16777215
370
     9
100
AcDbVertex
100
AcDb2dVertex
 10
105.48849036432
 20
-136.3148502436991
 30
0.0
  0
SEQEND
  5
60
330
5D
100
AcDbEntity
  8
_U+30EC_U+30A4_U+30E4_U+30FC 1
 62
     7
420
 16777215
370
     9
  0
POLYLINE
  5
61
330
1F
100
AcDbEntity
  8
_U+30EC_U+30A4_U+30E4_U+30FC 1
 62
     7
420
 16777215
370
     9
100
AcDb2dPolyline
 66
     1
 10
0.0
 20
0.0
 30
0.0
  0
VERTEX
  5
62
330
61
100
AcDbEntity
  8
_U+30EC_U+30A4_U+30E4_U+30FC 1
 62
     7
420
 16777215
370
     9
100
AcDbVertex
100
AcDb2dVertex
 10
103.0280065382032
 20
-135.213795521752
 30
0.0
  0
VERTEX
  5
63
330
61
100
AcDbEntity
  8
_U+30EC_U+30A4_U+30E4_U+30FC 1
 62
     7
420
 16777215
370
     9
100
AcDbVertex
100
AcDb2dVertex
 10
105.48849036432
 20
-135.213795521752
 30
0.0
  0
SEQEND
  5
64
330
61
100
AcDbEntity
  8
_U+30EC_U+30A4_U+30E4_U+30FC 1
 62
     7
420
 16777215
370
     9
  0
SPLINE
  5
65
330
1F
100
AcDbEntity
  8
_U+30EC_U+30A4_U+30E4_U+30FC 1
 62
     7
420
 16777215
370
     9
100
AcDbSpline
210
0.0
220
0.0
230
1.0
 70
    11
 71
     3
 72
    17
 73
    13
 74
     0
 42
0.0000000001
 43
0.0000000001
 12
1.0
 22
0.0
 32
0.0
 13
1.0
 23
0.0
 33
0.0
 40
0.0
 40
0.0
 40
0.0
 40
0.0
 40
1.0
 40
1.0
 40
1.0
 40
2.0
 40
2.0
 40
2.0
 40
3.0
 40
3.0
 40
3.0
 40
4.0
 40
4.0
 40
4.0
 40
4.0
 10
104.5879192761843
 20
-128.1008783013082
 30
0.0
 10
104.5879192761843
 20
-128.045774412433
 30
0.0
 10
104.5438220550871
 20
-128.0009716346665
 30
0.0
 10
104.4880126120665
 20
-128.0009716346665
 30
0.0
 10
104.4329087245834
 20
-128.0009716346665
 30
0.0
 10
104.3881059479487
 20
-128.045774412433
 30
0.0
 10
104.3881059479487
 20
-128.1008783013082
 30
0.0
 10
104.3881059479487
 20
-128.1566877457386
 30
0.0
 10
104.4329087245834
 20
-128.2014905235054
 30
0.0
 10
104.4880126120665
 20
-128.2014905235054
 30
0.0
 10
104.5438220550871
 20
-128.2014905235054
 30
0.0
 10
104.5879192761843
 20
-128.1566877457386
 30
0.0
 10
104.5879192761843
 20
-128.1008783013082
 30
0.0
  0
POLYLINE
  5
66
330
1F
100
AcDbEntity
  8
_U+30EC_U+30A4_U+30E4_U+30FC 1
 62
     7
420
 16777215
370
     9
100
AcDb2dPolyline
 66
     1
 10
0.0
 20
0.0
 30
0.0
  0
VERTEX
  5
67
330
66
100
AcDbEntity
  8
_U+30EC_U+30A4_U+30E4_U+30FC 1
 62
     7
420
 16777215
370
     9
100
AcDbVertex
100
AcDb2dVertex
 10
103.0280065382032
 20
-128.1008783013082
 30
0.0
  0
VERTEX
  5
68
330
66
100
AcDbEntity
  8
_U+30EC_U+30A4_U+30E4_U+30FC 1
 62
     7
420
 16777215
370
     9
100
AcDbVertex
100
AcDb2dVertex
 10
105.48849036432
 20
-128.1008783013082
 30
0.0
  0
SEQEND
  5
69
330
66
100
AcDbEntity
  8
_U+30EC_U+30A4_U+30E4_U+30FC 1
 62
     7
420
 16777215
370
     9
  0
INSERT
  5
6B
330
1F
100
AcDbEntity
  8
_U+30EC_U+30A4_U+30E4_U+30FC 1
100
AcDbBlockReference
  2
block 3
 10
0.0
 20
0.0
 30
0.0
  0
INSERT
  5
71
330
1F
100
AcDbEntity
  8
_U+30EC_U+30A4_U+30E4_U+30FC 1
100
AcDbBlockReference
  2
block 4
 10
0.0
 20
0.0
 30
0.0
  0
POLYLINE
  5
76
330
1F
100
AcDbEntity
  8
_U+30EC_U+30A4_U+30E4_U+30FC 1
 62
     7
420
 16777215
370
    25
100
AcDb2dPolyline
 66
     1
 10
0.0
 20
0.0
 30
0.0
  0
VERTEX
  5
77
330
76
100
AcDbEntity
  8
_U+30EC_U+30A4_U+30E4_U+30FC 1
 62
     7
420
 16777215
370
    25
100
AcDbVertex
100
AcDb2dVertex
 10
85.93204308546872
 20
-135.4590819105794
 30
0.0
  0
VERTEX
  5
78
330
76
100
AcDbEntity
  8
_U+30EC_U+30A4_U+30E4_U+30FC 1
 62
     7
420
 16777215
370
    25
100
AcDbVertex
100
AcDb2dVertex
 10
97.30224696205731
 20
-135.4149846883682
 30
0.0
  0
VERTEX
  5
79
330
76
100
AcDbEntity
  8
_U+30EC_U+30A4_U+30E4_U+30FC 1
 62
     7
420
 16777215
370
    25
100
AcDbVertex
100
AcDb2dVertex
 10
96.86127475108523
 20
-136.3706596881296
 30
0.0
  0
VERTEX
  5
7A
330
76
100
AcDbEntity
  8
_U+30EC_U+30A4_U+30E4_U+30FC 1
 62
     7
420
 16777215
370
    25
100
AcDbVertex
100
AcDb2dVertex
 10
84.86132727945161
 20
-136.4147569103408
 30
0.0
  0
SEQEND
  5
7B
330
76
100
AcDbEntity
  8
_U+30EC_U+30A4_U+30E4_U+30FC 1
 62
     7
420
 16777215
370
    25
  0
POLYLINE
  5
7C
330
1F
100
AcDbEntity
  8
_U+30EC_U+30A4_U+30E4_U+30FC 1
 62
     7
420
 16777215
370
    25
100
AcDb2dPolyline
 66
     1
 10
0.0
 20
0.0
 30
0.0
  0
VERTEX
  5
7D
330
7C
100
AcDbEntity
  8
_U+30EC_U+30A4_U+30E4_U+30FC 1
 62
     7
420
 16777215
370
    25
100
AcDbVertex
100
AcDb2dVertex
 10
84.79310005897001
 20
-135.0684157995663
 30
0.0
  0
VERTEX
  5
7E
330
7C
100
AcDbEntity
  8
_U+30EC_U+30A4_U+30E4_U+30FC 1
 62
     7
420
 16777215
370
    25
100
AcDbVertex
100
AcDb2dVertex
 10
76.71159637625746
 20
-126.9095830238282
 30
0.0
  0
VERTEX
  5
7F
330
7C
100
AcDbEntity
  8
_U+30EC_U+30A4_U+30E4_U+30FC 1
 62
     7
420
 16777215
370
    25
100
AcDbVertex
100
AcDb2dVertex
 10
76.3471083142467
 20
-127.8976077458033
 30
0.0
  0
VERTEX
  5
80
330
7C
100
AcDbEntity
  8
_U+30EC_U+30A4_U+30E4_U+30FC 1
 62
     7
420
 16777215
370
    25
100
AcDbVertex
100
AcDb2dVertex
 10
84.80135505875941
 20
-136.4147569103408
 30
0.0
  0
SEQEND
  5
81
330
7C
100
AcDbEntity
  8
_U+30EC_U+30A4_U+30E4_U+30FC 1
 62
     7
420
 16777215
370
    25
  0
POLYLINE
  5
82
330
1F
100
AcDbEntity
  8
_U+30EC_U+30A4_U+30E4_U+30FC 1
 62
     7
420
 16777215
370
    25
100
AcDb2dPolyline
 66
     1
 10
0.0
 20
0.0
 30
0.0
  0
VERTEX
  5
83
330
82
100
AcDbEntity
  8
_U+30EC_U+30A4_U+30E4_U+30FC 1
 62
     7
420
 16777215
370
    25
100
AcDbVertex
100
AcDb2dVertex
 10
85.95409169601731
 20
-135.428072743921
 30
0.0
  0
VERTEX
  5
84
330
82
100
AcDbEntity
  8
_U+30EC_U+30A4_U+30E4_U+30FC 1
 62
     7
420
 16777215
370
    25
100
AcDbVertex
100
AcDb2dVertex
 10
88.76184995771877
 20
-128.1884024679529
 30
0.0
  0
SEQEND
  5
85
330
82
100
AcDbEntity
  8
_U+30EC_U+30A4_U+30E4_U+30FC 1
 62
     7
420
 16777215
370
    25
  0
POLYLINE
  5
86
330
1F
100
AcDbEntity
  8
_U+30EC_U+30A4_U+30E4_U+30FC 1
 62
     7
420
 16777215
370
    25
100
AcDb2dPolyline
 66
     1
 10
0.0
 20
0.0
 30
0.0
  0
VERTEX
  5
87
330
86
100
AcDbEntity
  8
_U+30EC_U+30A4_U+30E4_U+30FC 1
 62
     7
420
 16777215
370
    25
100
AcDbVertex
100
AcDb2dVertex
 10
84.88129450116443
 20
-135.097343577337
 30
0.0
  0
VERTEX
  5
88
330
86
100
AcDbEntity
  8
_U+30EC_U+30A4_U+30E4_U+30FC 1
 62
     7
420
 16777215
370
    25
100
AcDbVertex
100
AcDb2dVertex
 10
87.67388331880845
 20
-127.8066616347151
 30
0.0
  0
SEQEND
  5
89
330
86
100
AcDbEntity
  8
_U+30EC_U+30A4_U+30E4_U+30FC 1
 62
     7
420
 16777215
370
    25
  0
SPLINE
  5
8A
330
1F
100
AcDbEntity
  8
_U+30EC_U+30A4_U+30E4_U+30FC 1
 62
     7
420
 16777215
370
     9
100
AcDbSpline
210
0.0
220
0.0
230
1.0
 70
     8
 71
     3
 72
    17
 73
    13
 74
     0
 42
0.0000000001
 43
0.0000000001
 12
1.0
 22
0.0
 32
0.0
 13
1.0
 23
0.0
 33
0.0
 40
0.0
 40
0.0
 40
0.0
 40
0.0
 40
1.0
 40
1.0
 40
1.0
 40
2.0
 40
2.0
 40
2.0
 40
3.0
 40
3.0
 40
3.0
 40
4.0
 40
4.0
 40
4.0
 40
4.0
 10
97.28503140694096
 20
-140.3001455204804
 30
0.0
 10
97.24573196349914
 20
-140.2608460760458
 30
0.0
 10
97.18233779844978
 20
-140.2608460760458
 30
0.0
 10
97.14307363278483
 20
-140.3001455204804
 30
0.0
 10
97.10447974488055
 20
-140.3394096871374
 30
0.0
 10
97.10447974488055
 20
-140.4020982982329
 30
0.0
 10
97.14307363278483
 20
-140.4413977426674
 30
0.0
 10
97.18233779844978
 20
-140.4806619093245
 30
0.0
 10
97.24573196349914
 20
-140.4806619093245
 30
0.0
 10
97.28503140694096
 20
-140.4413977426674
 30
0.0
 10
97.30362279535555
 20
-140.4227710760056
 30
0.0
 10
97.31395918398073
 20
-140.3973005204562
 30
0.0
 10
97.31395918398073
 20
-140.3704188537965
 30
0.0
  0
SPLINE
  5
8B
330
1F
100
AcDbEntity
  8
_U+30EC_U+30A4_U+30E4_U+30FC 1
 62
     7
420
 16777215
370
     9
100
AcDbSpline
210
0.0
220
0.0
230
1.0
 70
    11
 71
     3
 72
    17
 73
    13
 74
     0
 42
0.0000000001
 43
0.0000000001
 12
1.0
 22
0.0
 32
0.0
 13
1.0
 23
0.0
 33
0.0
 40
0.0
 40
0.0
 40
0.0
 40
0.0
 40
1.0
 40
1.0
 40
1.0
 40
2.0
 40
2.0
 40
2.0
 40
3.0
 40
3.0
 40
3.0
 40
4.0
 40
4.0
 40
4.0
 40
4.0
 10
85.3140138675604
 20
-140.3704188537965
 30
0.0
 10
85.3140138675604
 20
-140.3152796871434
 30
0.0
 10
85.26921108979369
 20
-140.2705121871548
 30
0.0
 10
85.21410504822929
 20
-140.2705121871548
 30
0.0
 10
85.15896588296934
 20
-140.2705121871548
 30
0.0
 10
85.11419838411145
 20
-140.3152796871434
 30
0.0
 10
85.11419838411145
 20
-140.3704188537965
 30
0.0
 10
85.11419838411145
 20
-140.4262282982269
 30
0.0
 10
85.15896588296934
 20
-140.4709957982155
 30
0.0
 10
85.21410504822929
 20
-140.4709957982155
 30
0.0
 10
85.26921108979369
 20
-140.4709957982155
 30
0.0
 10
85.3140138675604
 20
-140.4262282982269
 30
0.0
 10
85.3140138675604
 20
-140.3704188537965
 30
0.0
  0
POLYLINE
  5
8C
330
1F
100
AcDbEntity
  8
_U+30EC_U+30A4_U+30E4_U+30FC 1
 62
     7
420
 16777215
370
     9
100
AcDb2dPolyline
 66
     1
 10
0.0
 20
0.0
 30
0.0
  0
VERTEX
  5
8D
330
8C
100
AcDbEntity
  8
_U+30EC_U+30A4_U+30E4_U+30FC 1
 62
     7
420
 16777215
370
     9
100
AcDbVertex
100
AcDb2dVertex
 10
85.21410504822929
 20
-140.3704188537965
 30
0.0
  0
VERTEX
  5
8E
330
8C
100
AcDbEntity
  8
_U+30EC_U+30A4_U+30E4_U+30FC 1
 62
     7
420
 16777215
370
     9
100
AcDbVertex
100
AcDb2dVertex
 10
97.2140525198629
 20
-140.3704188537965
 30
0.0
  0
SEQEND
  5
8F
330
8C
100
AcDbEntity
  8
_U+30EC_U+30A4_U+30E4_U+30FC 1
 62
     7
420
 16777215
370
     9
  0
POLYLINE
  5
90
330
1F
100
AcDbEntity
  8
_U+30EC_U+30A4_U+30E4_U+30FC 1
 62
     7
420
 16777215
370
     9
100
AcDb2dPolyline
 66
     1
 10
0.0
 20
0.0
 30
0.0
  0
VERTEX
  5
91
330
90
100
AcDbEntity
  8
_U+30EC_U+30A4_U+30E4_U+30FC 1
 62
     7
420
 16777215
370
     9
100
AcDbVertex
100
AcDb2dVertex
 10
85.21410504822929
 20
-138.9103774652721
 30
0.0
  0
VERTEX
  5
92
330
90
100
AcDbEntity
  8
_U+30EC_U+30A4_U+30E4_U+30FC 1
 62
     7
420
 16777215
370
     9
100
AcDbVertex
100
AcDb2dVertex
 10
85.21410504822929
 20
-141.3708613535464
 30
0.0
  0
SEQEND
  5
93
330
90
100
AcDbEntity
  8
_U+30EC_U+30A4_U+30E4_U+30FC 1
 62
     7
420
 16777215
370
     9
  0
POLYLINE
  5
94
330
1F
100
AcDbEntity
  8
_U+30EC_U+30A4_U+30E4_U+30FC 1
 62
     7
420
 16777215
370
     9
100
AcDb2dPolyline
 66
     1
 10
0.0
 20
0.0
 30
0.0
  0
VERTEX
  5
95
330
94
100
AcDbEntity
  8
_U+30EC_U+30A4_U+30E4_U+30FC 1
 62
     7
420
 16777215
370
     9
100
AcDbVertex
100
AcDb2dVertex
 10
97.2140525198629
 20
-138.9103774652721
 30
0.0
  0
VERTEX
  5
96
330
94
100
AcDbEntity
  8
_U+30EC_U+30A4_U+30E4_U+30FC 1
 62
     7
420
 16777215
370
     9
100
AcDbVertex
100
AcDb2dVertex
 10
97.2140525198629
 20
-141.3708613535464
 30
0.0
  0
SEQEND
  5
97
330
94
100
AcDbEntity
  8
_U+30EC_U+30A4_U+30E4_U+30FC 1
 62
     7
420
 16777215
370
     9
  0
INSERT
  5
99
330
1F
100
AcDbEntity
  8
_U+30EC_U+30A4_U+30E4_U+30FC 1
100
AcDbBlockReference
  2
block 5
 10
0.0
 20
0.0
 30
0.0
  0
SPLINE
  5
A0
330
1F
100
AcDbEntity
  8
_U+30EC_U+30A4_U+30E4_U+30FC 1
 62
     7
420
 16777215
370
     9
100
AcDbSpline
210
0.0
220
0.0
230
1.0
 70
     8
 71
     3
 72
    17
 73
    13
 74
     0
 42
0.0000000001
 43
0.0000000001
 12
1.0
 22
0.0
 32
0.0
 13
1.0
 23
0.0
 33
0.0
 40
0.0
 40
0.0
 40
0.0
 40
0.0
 40
1.0
 40
1.0
 40
1.0
 40
2.0
 40
2.0
 40
2.0
 40
3.0
 40
3.0
 40
3.0
 40
4.0
 40
4.0
 40
4.0
 40
4.0
 10
102.8143995992084
 20
-117.9516380260676
 30
0.0
 10
102.7751354335434
 20
-117.9123385816331
 30
0.0
 10
102.7124115462547
 20
-117.9123385816331
 30
0.0
 10
102.6731499743315
 20
-117.9516380260676
 30
0.0
 10
102.6338832149248
 20
-117.9909021927246
 30
0.0
 10
102.6338832149248
 20
-118.0535908038198
 30
0.0
 10
102.6731499743315
 20
-118.0928902482547
 30
0.0
 10
102.7124115462547
 20
-118.1321544149114
 30
0.0
 10
102.7751354335434
 20
-118.1321544149114
 30
0.0
 10
102.8143995992084
 20
-118.0928902482547
 30
0.0
 10
102.8329909876229
 20
-118.0742635815925
 30
0.0
 10
102.8440329317857
 20
-118.0487930260435
 30
0.0
 10
102.8440329317857
 20
-118.0219113593834
 30
0.0
  0
SPLINE
  5
A1
330
1F
100
AcDbEntity
  8
_U+30EC_U+30A4_U+30E4_U+30FC 1
 62
     7
420
 16777215
370
     9
100
AcDbSpline
210
0.0
220
0.0
230
1.0
 70
    11
 71
     3
 72
    17
 73
    13
 74
     0
 42
0.0000000001
 43
0.0000000001
 12
1.0
 22
0.0
 32
0.0
 13
1.0
 23
0.0
 33
0.0
 40
0.0
 40
0.0
 40
0.0
 40
0.0
 40
1.0
 40
1.0
 40
1.0
 40
2.0
 40
2.0
 40
2.0
 40
3.0
 40
3.0
 40
3.0
 40
4.0
 40
4.0
 40
4.0
 40
4.0
 10
88.90239662079979
 20
-118.0222641371611
 30
0.0
 10
88.90239662079979
 20
-117.9671249705084
 30
0.0
 10
88.85762912194191
 20
-117.9223574705195
 30
0.0
 10
88.80248995668195
 20
-117.9223574705195
 30
0.0
 10
88.74738606919888
 20
-117.9223574705195
 30
0.0
 10
88.70258329256413
 20
-117.9671249705084
 30
0.0
 10
88.70258329256413
 20
-118.0222641371611
 30
0.0
 10
88.70258329256413
 20
-118.0780735815916
 30
0.0
 10
88.74738606919888
 20
-118.1228410815805
 30
0.0
 10
88.80248995668195
 20
-118.1228410815805
 30
0.0
 10
88.85762912194191
 20
-118.1228410815805
 30
0.0
 10
88.90239662079979
 20
-118.0780735815916
 30
0.0
 10
88.90239662079979
 20
-118.0222641371611
 30
0.0
  0
POLYLINE
  5
A2
330
1F
100
AcDbEntity
  8
_U+30EC_U+30A4_U+30E4_U+30FC 1
 62
     7
420
 16777215
370
     9
100
AcDb2dPolyline
 66
     1
 10
0.0
 20
0.0
 30
0.0
  0
VERTEX
  5
A3
330
A2
100
AcDbEntity
  8
_U+30EC_U+30A4_U+30E4_U+30FC 1
 62
     7
420
 16777215
370
     9
100
AcDbVertex
100
AcDb2dVertex
 10
88.80248995668195
 20
-118.0222641371611
 30
0.0
  0
VERTEX
  5
A4
330
A2
100
AcDbEntity
  8
_U+30EC_U+30A4_U+30E4_U+30FC 1
 62
     7
420
 16777215
370
     9
100
AcDbVertex
100
AcDb2dVertex
 10
102.8026873772849
 20
-118.0222641371611
 30
0.0
  0
SEQEND
  5
A5
330
A2
100
AcDbEntity
  8
_U+30EC_U+30A4_U+30E4_U+30FC 1
 62
     7
420
 16777215
370
     9
  0
POLYLINE
  5
A6
330
1F
100
AcDbEntity
  8
_U+30EC_U+30A4_U+30E4_U+30FC 1
 62
     7
420
 16777215
370
     9
100
AcDb2dPolyline
 66
     1
 10
0.0
 20
0.0
 30
0.0
  0
VERTEX
  5
A7
330
A6
100
AcDbEntity
  8
_U+30EC_U+30A4_U+30E4_U+30FC 1
 62
     7
420
 16777215
370
     9
100
AcDbVertex
100
AcDb2dVertex
 10
88.80248995668195
 20
-116.5622227486371
 30
0.0
  0
VERTEX
  5
A8
330
A6
100
AcDbEntity
  8
_U+30EC_U+30A4_U+30E4_U+30FC 1
 62
     7
420
 16777215
370
     9
100
AcDbVertex
100
AcDb2dVertex
 10
88.80248995668195
 20
-119.022706636911
 30
0.0
  0
SEQEND
  5
A9
330
A6
100
AcDbEntity
  8
_U+30EC_U+30A4_U+30E4_U+30FC 1
 62
     7
420
 16777215
370
     9
  0
POLYLINE
  5
AA
330
1F
100
AcDbEntity
  8
_U+30EC_U+30A4_U+30E4_U+30FC 1
 62
     7
420
 16777215
370
     9
100
AcDb2dPolyline
 66
     1
 10
0.0
 20
0.0
 30
0.0
  0
VERTEX
  5
AB
330
AA
100
AcDbEntity
  8
_U+30EC_U+30A4_U+30E4_U+30FC 1
 62
     7
420
 16777215
370
     9
100
AcDbVertex
100
AcDb2dVertex
 10
102.7441262676679
 20
-116.8857199707786
 30
0.0
  0
VERTEX
  5
AC
330
AA
100
AcDbEntity
  8
_U+30EC_U+30A4_U+30E4_U+30FC 1
 62
     7
420
 16777215
370
     9
100
AcDbVertex
100
AcDb2dVertex
 10
102.7441262676679
 20
-119.3462038590525
 30
0.0
  0
SEQEND
  5
AD
330
AA
100
AcDbEntity
  8
_U+30EC_U+30A4_U+30E4_U+30FC 1
 62
     7
420
 16777215
370
     9
  0
INSERT
  5
AF
330
1F
100
AcDbEntity
  8
_U+30EC_U+30A4_U+30E4_U+30FC 1
100
AcDbBlockReference
  2
block 6
 10
0.0
 20
0.0
 30
0.0
  0
SPLINE
  5
C9
330
1F
100
AcDbEntity
  8
_U+30EC_U+30A4_U+30E4_U+30FC 1
 62
     7
420
 16777215
370
    25
100
AcDbSpline
210
0.0
220
0.0
230
1.0
 70
     8
 71
     3
 72
    14
 73
    10
 74
     0
 42
0.0000000001
 43
0.0000000001
 12
1.0
 22
0.0
 32
0.0
 13
1.0
 23
0.0
 33
0.0
 40
0.0
 40
0.0
 40
0.0
 40
0.0
 40
1.0
 40
1.0
 40
1.0
 40
2.0
 40
2.0
 40
2.0
 40
3.0
 40
3.0
 40
3.0
 40
3.0
 10
88.82041106733587
 20
-128.1298060790785
 30
0.0
 10
88.82041106733587
 20
-128.1298060790785
 30
0.0
 10
101.0070838119835
 20
-128.0905419124218
 30
0.0
 10
101.0070838119835
 20
-128.0905419124218
 30
0.0
 10
101.0070838119835
 20
-128.0905419124218
 30
0.0
 10
102.5174312734513
 20
-128.3744221901285
 30
0.0
 10
102.7392932122356
 20
-127.0907696904496
 30
0.0
 10
102.7392932122356
 20
-127.0907696904496
 30
0.0
 10
88.73909579163261
 20
-127.0907696904496
 30
0.0
 10
88.73909579163261
 20
-127.0907696904496
 30
0.0
  0
POLYLINE
  5
CA
330
1F
100
AcDbEntity
  8
_U+30EC_U+30A4_U+30E4_U+30FC 1
 62
     7
420
 16777215
370
    25
100
AcDb2dPolyline
 66
     1
 10
0.0
 20
0.0
 30
0.0
  0
VERTEX
  5
CB
330
CA
100
AcDbEntity
  8
_U+30EC_U+30A4_U+30E4_U+30FC 1
 62
     7
420
 16777215
370
    25
100
AcDbVertex
100
AcDb2dVertex
 10
78.65600160442933
 20
-119.1780699702054
 30
0.0
  0
VERTEX
  5
CE
330
CA
100
AcDbEntity
  8
0
100
AcDbVertex
100
AcDb2dVertex
 10
78.65600160442933
 20
-119.1780699702054
 30
0.0
  0
SEQEND
  5
CC
330
CA
100
AcDbEntity
  8
_U+30EC_U+30A4_U+30E4_U+30FC 1
 62
     7
420
 16777215
370
    25
  0
SPLINE
  5
CD
330
1F
100
AcDbEntity
  8
_U+30EC_U+30A4_U+30E4_U+30FC 1
 62
     7
420
 16777215
370
    25
100
AcDbSpline
210
0.0
220
0.0
230
1.0
 70
     8
 71
     3
 72
    14
 73
    10
 74
     0
 42
0.0000000001
 43
0.0000000001
 12
1.0
 22
0.0
 32
0.0
 13
1.0
 23
0.0
 33
0.0
 40
0.0
 40
0.0
 40
0.0
 40
0.0
 40
1.0
 40
1.0
 40
1.0
 40
2.0
 40
2.0
 40
2.0
 40
3.0
 40
3.0
 40
3.0
 40
3.0
 10
88.67986664449677
 20
-127.0280810793541
 30
0.0
 10
88.67986664449677
 20
-127.0280810793541
 30
0.0
 10
78.78003826793156
 20
-117.1286074707179
 30
0.0
 10
78.78003826793156
 20
-117.1286074707179
 30
0.0
 10
78.78003826793156
 20
-117.1286074707179
 30
0.0
 10
78.1172041181752
 20
-117.6756599705811
 30
0.0
 10
78.76486882387412
 20
-118.874928025837
 30
0.0
 10
78.76486882387412
 20
-118.874928025837
 30
0.0
 10
87.62632887557722
 20
-127.7363883013994
 30
0.0
 10
87.62632887557722
 20
-127.7363883013994
 30
0.0
  0
ENDSEC
  0
SECTION
  2
OBJECTS
  0
DICTIONARY
  5
C
330
0
100
AcDbDictionary
281
     1
  3
ACAD_GROUP
350
D
  3
ACAD_LAYOUT
350
1A
  3
ACAD_MATERIAL
350
3B
  3
ACAD_MLEADERSTYLE
350
D0
  3
ACAD_MLINESTYLE
350
17
  3
ACAD_PLOTSETTINGS
350
19
  3
ACAD_PLOTSTYLENAME
350
E
  3
ACAD_TABLESTYLE
350
CF
  3
ACAD_VISUALSTYLE
350
2A
  0
SUN
  5
3F
330
29
100
AcDbSun
 90
        1
290
     0
 63
     7
421
 16777215
 40
1.0
291
     1
 91
  2455826
 92
 54000000
292
     0
 70
     2
 71
   256
280
     1
  0
DICTIONARY
  5
D
102
{ACAD_REACTORS
330
C
102
}
330
C
100
AcDbDictionary
281
     1
  0
DICTIONARY
  5
1A
102
{ACAD_REACTORS
330
C
102
}
330
C
100
AcDbDictionary
281
     1
  3
Layout1
350
1E
  3
Layout2
350
26
  3
Model
350
22
  0
DICTIONARY
  5
3B
102
{ACAD_REACTORS
330
C
102
}
330
C
100
AcDbDictionary
281
     1
  3
ByBlock
350
3D
  3
ByLayer
350
3C
  3
Global
350
3E
  0
DICTIONARY
  5
D0
102
{ACAD_REACTORS
330
C
102
}
330
C
100
AcDbDictionary
281
     1
  0
DICTIONARY
  5
17
102
{ACAD_REACTORS
330
C
102
}
330
C
100
AcDbDictionary
281
     1
  3
Standard
350
18
  0
DICTIONARY
  5
19
102
{ACAD_REACTORS
330
C
102
}
330
C
100
AcDbDictionary
281
     1
  0
ACDBDICTIONARYWDFLT
  5
E
102
{ACAD_REACTORS
330
C
102
}
330
C
100
AcDbDictionary
281
     1
  3
Normal
350
F
100
AcDbDictionaryWithDefault
340
F
  0
DICTIONARY
  5
CF
102
{ACAD_REACTORS
330
C
102
}
330
C
100
AcDbDictionary
281
     1
  0
DICTIONARY
  5
2A
102
{ACAD_REACTORS
330
C
102
}
330
C
100
AcDbDictionary
281
     1
  3
2dWireframe
350
2F
  3
3D Hidden
350
31
  3
3dWireframe
350
30
  3
Basic
350
32
  3
Brighten
350
36
  3
ColorChange
350
3A
  3
Conceptual
350
34
  3
Dim
350
35
  3
Facepattern
350
39
  3
Flat
350
2B
  3
FlatWithEdges
350
2C
  3
Gouraud
350
2D
  3
GouraudWithEdges
350
2E
  3
Linepattern
350
38
  3
Realistic
350
33
  3
Thicken
350
37
  0
LAYOUT
  5
1E
102
{ACAD_REACTORS
330
1A
102
}
330
1A
100
AcDbPlotSettings
  1

  2
none_device
  4

  6

 40
0.0
 41
0.0
 42
0.0
 43
0.0
 44
0.0
 45
0.0
 46
0.0
 47
0.0
 48
0.0
 49
0.0
140
0.0
141
0.0
142
1.0
143
1.0
 70
   688
 72
     0
 73
     0
 74
     5
  7

 75
    16
 76
     0
 77
     2
 78
   300
147
1.0
148
0.0
149
0.0
100
AcDbLayout
  1
Layout1
 70
     1
 71
     1
 10
0.0
 20
0.0
 11
12.0
 21
9.0
 12
0.0
 22
0.0
 32
0.0
 14
1.000000000000000E+20
 24
1.000000000000000E+20
 34
1.000000000000000E+20
 15
-1.000000000000000E+20
 25
-1.000000000000000E+20
 35
-1.000000000000000E+20
146
0.0
 13
0.0
 23
0.0
 33
0.0
 16
1.0
 26
0.0
 36
0.0
 17
0.0
 27
1.0
 37
0.0
 76
     0
330
1B
  0
LAYOUT
  5
26
102
{ACAD_REACTORS
330
1A
102
}
330
1A
100
AcDbPlotSettings
  1

  2
none_device
  4

  6

 40
0.0
 41
0.0
 42
0.0
 43
0.0
 44
0.0
 45
0.0
 46
0.0
 47
0.0
 48
0.0
 49
0.0
140
0.0
141
0.0
142
1.0
143
1.0
 70
   688
 72
     0
 73
     0
 74
     5
  7

 75
    16
 76
     0
 77
     2
 78
   300
147
1.0
148
0.0
149
0.0
100
AcDbLayout
  1
Layout2
 70
     1
 71
     2
 10
0.0
 20
0.0
 11
0.0
 21
0.0
 12
0.0
 22
0.0
 32
0.0
 14
0.0
 24
0.0
 34
0.0
 15
0.0
 25
0.0
 35
0.0
146
0.0
 13
0.0
 23
0.0
 33
0.0
 16
1.0
 26
0.0
 36
0.0
 17
0.0
 27
1.0
 37
0.0
 76
     0
330
23
  0
LAYOUT
  5
22
102
{ACAD_REACTORS
330
1A
102
}
330
1A
100
AcDbPlotSettings
  1

  2
none_device
  4

  6

 40
0.0
 41
0.0
 42
0.0
 43
0.0
 44
0.0
 45
0.0
 46
0.0
 47
0.0
 48
0.0
 49
0.0
140
0.0
141
0.0
142
1.0
143
1.0
 70
  1712
 72
     0
 73
     0
 74
     0
  7

 75
     0
 76
     0
 77
     2
 78
   300
147
1.0
148
0.0
149
0.0
100
AcDbLayout
  1
Model
 70
     1
 71
     0
 10
0.0
 20
0.0
 11
12.0
 21
9.0
 12
0.0
 22
0.0
 32
0.0
 14
1.000000000000000E+20
 24
1.000000000000000E+20
 34
1.000000000000000E+20
 15
-1.000000000000000E+20
 25
-1.000000000000000E+20
 35
-1.000000000000000E+20
146
0.0
 13
0.0
 23
0.0
 33
0.0
 16
1.0
 26
0.0
 36
0.0
 17
0.0
 27
1.0
 37
0.0
 76
     0
330
1F
331
29
  0
MATERIAL
  5
3D
102
{ACAD_REACTORS
330
3B
102
}
330
3B
100
AcDbMaterial
  1
ByBlock
 72
     1
 94
      127
  0
MATERIAL
  5
3C
102
{ACAD_REACTORS
330
3B
102
}
330
3B
100
AcDbMaterial
  1
ByLayer
 72
     1
 94
      127
  0
MATERIAL
  5
3E
102
{ACAD_REACTORS
330
3B
102
}
330
3B
100
AcDbMaterial
  1
Global
 72
     1
 94
      127
  0
MLINESTYLE
  5
18
102
{ACAD_REACTORS
330
17
102
}
330
17
100
AcDbMlineStyle
  2
Standard
 70
     0
  3

 62
   256
 51
90.0
 52
90.0
 71
     2
 49
0.5
 62
   256
  6
BYLAYER
 49
-0.5
 62
   256
  6
BYLAYER
  0
ACDBPLACEHOLDER
  5
F
102
{ACAD_REACTORS
330
E
102
}
330
E
  0
VISUALSTYLE
  5
2F
102
{ACAD_REACTORS
330
2A
102
}
330
2A
100
AcDbVisualStyle
  2
2dWireframe
 70
     4
177
     2
291
     0
 71
     0
176
     1
 72
     2
176
     1
 73
     0
176
     1
 90
        0
176
     1
 40
-0.6
176
     1
 41
-30.0
176
     1
 62
     5
 63
     7
421
 16777215
176
     1
 74
     1
176
     1
 91
        4
176
     1
 64
     7
176
     1
 65
   257
176
     1
 75
     1
176
     1
175
     1
176
     1
 42
1.0
176
     1
 92
        0
176
     1
 66
   257
176
     1
 43
1.0
176
     1
 76
     1
176
     1
 77
     6
176
     1
 78
     2
176
     1
 67
     7
176
     1
 79
     5
176
     1
170
     0
176
     1
171
     0
176
     1
290
     0
176
     1
 93
        1
176
     1
 44
0.0
176
     1
173
     0
176
     1
  0
VISUALSTYLE
  5
31
102
{ACAD_REACTORS
330
2A
102
}
330
2A
100
AcDbVisualStyle
  2
3D Hidden
 70
     6
177
     2
291
     0
 71
     1
176
     1
 72
     2
176
     1
 73
     2
176
     1
 90
        0
176
     1
 40
-0.6
176
     1
 41
-30.0
176
     1
 62
     5
 63
     7
421
 16777215
176
     1
 74
     2
176
     1
 91
        2
176
     1
 64
     7
176
     1
 65
   257
176
     1
 75
     2
176
     1
175
     1
176
     1
 42
40.0
176
     1
 92
        0
176
     1
 66
   257
176
     1
 43
1.0
176
     1
 76
     1
176
     1
 77
     6
176
     1
 78
     2
176
     1
 67
     7
176
     1
 79
     3
176
     1
170
     0
176
     1
171
     0
176
     1
290
     0
176
     1
 93
        1
176
     1
 44
0.0
176
     1
173
     0
176
     1
  0
VISUALSTYLE
  5
30
102
{ACAD_REACTORS
330
2A
102
}
330
2A
100
AcDbVisualStyle
  2
3dWireframe
 70
     5
177
     2
291
     0
 71
     0
176
     1
 72
     2
176
     1
 73
     0
176
     1
 90
        0
176
     1
 40
-0.6
176
     1
 41
-30.0
176
     1
 62
     5
 63
     7
421
 16777215
176
     1
 74
     1
176
     1
 91
        4
176
     1
 64
     7
176
     1
 65
   257
176
     1
 75
     1
176
     1
175
     1
176
     1
 42
1.0
176
     1
 92
        0
176
     1
 66
   257
176
     1
 43
1.0
176
     1
 76
     1
176
     1
 77
     6
176
     1
 78
     2
176
     1
 67
     7
176
     1
 79
     5
176
     1
170
     0
176
     1
171
     0
176
     1
290
     0
176
     1
 93
        1
176
     1
 44
0.0
176
     1
173
     0
176
     1
  0
VISUALSTYLE
  5
32
102
{ACAD_REACTORS
330
2A
102
}
330
2A
100
AcDbVisualStyle
  2
Basic
 70
     7
177
     2
291
     1
 71
     1
176
     1
 72
     0
176
     1
 73
     1
176
     1
 90
        0
176
     1
 40
-0.6
176
     1
 41
-30.0
176
     1
 62
     5
 63
     7
421
 16777215
176
     1
 74
     0
176
     1
 91
        4
176
     1
 64
     7
176
     1
 65
   257
176
     1
 75
     1
176
     1
175
     1
176
     1
 42
1.0
176
     1
 92
        8
176
     1
 66
     7
176
     1
 43
1.0
176
     1
 76
     1
176
     1
 77
     6
176
     1
 78
     2
176
     1
 67
     7
176
     1
 79
     5
176
     1
170
     0
176
     1
171
     0
176
     1
290
     0
176
     1
 93
        1
176
     1
 44
0.0
176
     1
173
     0
176
     1
  0
VISUALSTYLE
  5
36
102
{ACAD_REACTORS
330
2A
102
}
330
2A
100
AcDbVisualStyle
  2
Brighten
 70
    12
177
     2
291
     1
 71
     2
176
     1
 72
     2
176
     1
 73
     0
176
     1
 90
        0
176
     1
 40
-0.6
176
     1
 41
-30.0
176
     1
 62
     5
 63
     7
421
 16777215
176
     1
 74
     1
176
     1
 91
        4
176
     1
 64
     7
176
     1
 65
   257
176
     1
 75
     1
176
     1
175
     1
176
     1
 42
1.0
176
     1
 92
        8
176
     1
 66
     7
176
     1
 43
1.0
176
     1
 76
     1
176
     1
 77
     6
176
     1
 78
     2
176
     1
 67
     7
176
     1
 79
     5
176
     1
170
     0
176
     1
171
     0
176
     1
290
     0
176
     1
 93
        1
176
     1
 44
50.0
176
     1
173
     0
176
     1
  0
VISUALSTYLE
  5
3A
102
{ACAD_REACTORS
330
2A
102
}
330
2A
100
AcDbVisualStyle
  2
ColorChange
 70
    16
177
     2
291
     1
 71
     2
176
     1
 72
     2
176
     1
 73
     3
176
     1
 90
        0
176
     1
 40
-0.6
176
     1
 41
-30.0
176
     1
 62
     5
 63
     8
421
  8421504
176
     1
 74
     1
176
     1
 91
        4
176
     1
 64
     7
176
     1
 65
   257
176
     1
 75
     1
176
     1
175
     1
176
     1
 42
1.0
176
     1
 92
        8
176
     1
 66
     8
424
  8421504
176
     1
 43
1.0
176
     1
 76
     1
176
     1
 77
     6
176
     1
 78
     2
176
     1
 67
     7
176
     1
 79
     5
176
     1
170
     0
176
     1
171
     0
176
     1
290
     0
176
     1
 93
        1
176
     1
 44
0.0
176
     1
173
     0
176
     1
  0
VISUALSTYLE
  5
34
102
{ACAD_REACTORS
330
2A
102
}
330
2A
100
AcDbVisualStyle
  2
Conceptual
 70
     9
177
     2
291
     0
 71
     3
176
     1
 72
     2
176
     1
 73
     0
176
     1
 90
        0
176
     1
 40
-0.6
176
     1
 41
-30.0
176
     1
 62
     5
 63
     7
421
 16777215
176
     1
 74
     2
176
     1
 91
        2
176
     1
 64
     7
176
     1
 65
   257
176
     1
 75
     1
176
     1
175
     1
176
     1
 42
40.0
176
     1
 92
        8
176
     1
 66
     7
176
     1
 43
1.0
176
     1
 76
     1
176
     1
 77
     6
176
     1
 78
     2
176
     1
 67
     7
176
     1
 79
     3
176
     1
170
     0
176
     1
171
     0
176
     1
290
     0
176
     1
 93
        1
176
     1
 44
0.0
176
     1
173
     0
176
     1
  0
VISUALSTYLE
  5
35
102
{ACAD_REACTORS
330
2A
102
}
330
2A
100
AcDbVisualStyle
  2
Dim
 70
    11
177
     2
291
     1
 71
     2
176
     1
 72
     2
176
     1
 73
     0
176
     1
 90
        0
176
     1
 40
-0.6
176
     1
 41
-30.0
176
     1
 62
     5
 63
     7
421
 16777215
176
     1
 74
     1
176
     1
 91
        4
176
     1
 64
     7
176
     1
 65
   257
176
     1
 75
     1
176
     1
175
     1
176
     1
 42
1.0
176
     1
 92
        8
176
     1
 66
     7
176
     1
 43
1.0
176
     1
 76
     1
176
     1
 77
     6
176
     1
 78
     2
176
     1
 67
     7
176
     1
 79
     5
176
     1
170
     0
176
     1
171
     0
176
     1
290
     0
176
     1
 93
        1
176
     1
 44
-50.0
176
     1
173
     0
176
     1
  0
VISUALSTYLE
  5
39
102
{ACAD_REACTORS
330
2A
102
}
330
2A
100
AcDbVisualStyle
  2
Facepattern
 70
    15
177
     2
291
     1
 71
     2
176
     1
 72
     2
176
     1
 73
     0
176
     1
 90
        0
176
     1
 40
-0.6
176
     1
 41
-30.0
176
     1
 62
     5
 63
     7
421
 16777215
176
     1
 74
     1
176
     1
 91
        4
176
     1
 64
     7
176
     1
 65
   257
176
     1
 75
     1
176
     1
175
     1
176
     1
 42
1.0
176
     1
 92
        8
176
     1
 66
     7
176
     1
 43
1.0
176
     1
 76
     1
176
     1
 77
     6
176
     1
 78
     2
176
     1
 67
     7
176
     1
 79
     5
176
     1
170
     0
176
     1
171
     0
176
     1
290
     0
176
     1
 93
        1
176
     1
 44
0.0
176
     1
173
     0
176
     1
  0
VISUALSTYLE
  5
2B
102
{ACAD_REACTORS
330
2A
102
}
330
2A
100
AcDbVisualStyle
  2
Flat
 70
     0
177
     2
291
     1
 71
     2
176
     1
 72
     1
176
     1
 73
     1
176
     1
 90
        2
176
     1
 40
-0.6
176
     1
 41
30.0
176
     1
 62
     5
 63
     7
421
 16777215
176
     1
 74
     0
176
     1
 91
        4
176
     1
 64
     7
176
     1
 65
   257
176
     1
 75
     1
176
     1
175
     1
176
     1
 42
1.0
176
     1
 92
        8
176
     1
 66
     7
176
     1
 43
1.0
176
     1
 76
     1
176
     1
 77
     6
176
     1
 78
     2
176
     1
 67
     7
176
     1
 79
     5
176
     1
170
     0
176
     1
171
     0
176
     1
290
     0
176
     1
 93
       13
176
     1
 44
0.0
176
     1
173
     0
176
     1
  0
VISUALSTYLE
  5
2C
102
{ACAD_REACTORS
330
2A
102
}
330
2A
100
AcDbVisualStyle
  2
FlatWithEdges
 70
     1
177
     2
291
     1
 71
     2
176
     1
 72
     1
176
     1
 73
     1
176
     1
 90
        2
176
     1
 40
-0.6
176
     1
 41
30.0
176
     1
 62
     5
 63
     7
421
 16777215
176
     1
 74
     1
176
     1
 91
        4
176
     1
 64
     7
176
     1
 65
   257
176
     1
 75
     1
176
     1
175
     1
176
     1
 42
1.0
176
     1
 92
        0
176
     1
 66
   257
176
     1
 43
1.0
176
     1
 76
     1
176
     1
 77
     6
176
     1
 78
     2
176
     1
 67
     7
176
     1
 79
     5
176
     1
170
     0
176
     1
171
     0
176
     1
290
     0
176
     1
 93
       13
176
     1
 44
0.0
176
     1
173
     0
176
     1
  0
VISUALSTYLE
  5
2D
102
{ACAD_REACTORS
330
2A
102
}
330
2A
100
AcDbVisualStyle
  2
Gouraud
 70
     2
177
     2
291
     1
 71
     2
176
     1
 72
     2
176
     1
 73
     1
176
     1
 90
        2
176
     1
 40
-0.6
176
     1
 41
30.0
176
     1
 62
     5
 63
     7
421
 16777215
176
     1
 74
     0
176
     1
 91
        4
176
     1
 64
     7
176
     1
 65
   257
176
     1
 75
     1
176
     1
175
     1
176
     1
 42
1.0
176
     1
 92
        0
176
     1
 66
     7
176
     1
 43
1.0
176
     1
 76
     1
176
     1
 77
     6
176
     1
 78
     2
176
     1
 67
     7
176
     1
 79
     5
176
     1
170
     0
176
     1
171
     0
176
     1
290
     0
176
     1
 93
       13
176
     1
 44
0.0
176
     1
173
     0
176
     1
  0
VISUALSTYLE
  5
2E
102
{ACAD_REACTORS
330
2A
102
}
330
2A
100
AcDbVisualStyle
  2
GouraudWithEdges
 70
     3
177
     2
291
     1
 71
     2
176
     1
 72
     2
176
     1
 73
     1
176
     1
 90
        2
176
     1
 40
-0.6
176
     1
 41
30.0
176
     1
 62
     5
 63
     7
421
 16777215
176
     1
 74
     1
176
     1
 91
        4
176
     1
 64
     7
176
     1
 65
   257
176
     1
 75
     1
176
     1
175
     1
176
     1
 42
1.0
176
     1
 92
        0
176
     1
 66
   257
176
     1
 43
1.0
176
     1
 76
     1
176
     1
 77
     6
176
     1
 78
     2
176
     1
 67
     7
176
     1
 79
     5
176
     1
170
     0
176
     1
171
     0
176
     1
290
     0
176
     1
 93
       13
176
     1
 44
0.0
176
     1
173
     0
176
     1
  0
VISUALSTYLE
  5
38
102
{ACAD_REACTORS
330
2A
102
}
330
2A
100
AcDbVisualStyle
  2
Linepattern
 70
    14
177
     2
291
     1
 71
     2
176
     1
 72
     2
176
     1
 73
     0
176
     1
 90
        0
176
     1
 40
-0.6
176
     1
 41
-30.0
176
     1
 62
     5
 63
     7
421
 16777215
176
     1
 74
     1
176
     1
 91
        4
176
     1
 64
     7
176
     1
 65
   257
176
     1
 75
     7
176
     1
175
     7
176
     1
 42
1.0
176
     1
 92
        8
176
     1
 66
     7
176
     1
 43
1.0
176
     1
 76
     1
176
     1
 77
     6
176
     1
 78
     2
176
     1
 67
     7
176
     1
 79
     5
176
     1
170
     0
176
     1
171
     0
176
     1
290
     0
176
     1
 93
        1
176
     1
 44
0.0
176
     1
173
     0
176
     1
  0
VISUALSTYLE
  5
33
102
{ACAD_REACTORS
330
2A
102
}
330
2A
100
AcDbVisualStyle
  2
Realistic
 70
     8
177
     2
291
     0
 71
     2
176
     1
 72
     2
176
     1
 73
     0
176
     1
 90
        0
176
     1
 40
-0.6
176
     1
 41
-30.0
176
     1
 62
     5
 63
     7
421
 16777215
176
     1
 74
     1
176
     1
 91
        0
176
     1
 64
     7
176
     1
 65
   257
176
     1
 75
     1
176
     1
175
     1
176
     1
 42
1.0
176
     1
 92
        8
176
     1
 66
     8
424
  7895160
176
     1
 43
1.0
176
     1
 76
     1
176
     1
 77
     6
176
     1
 78
     2
176
     1
 67
     7
176
     1
 79
     5
176
     1
170
     0
176
     1
171
     0
176
     1
290
     0
176
     1
 93
       13
176
     1
 44
0.0
176
     1
173
     0
176
     1
  0
VISUALSTYLE
  5
37
102
{ACAD_REACTORS
330
2A
102
}
330
2A
100
AcDbVisualStyle
  2
Thicken
 70
    13
177
     2
291
     1
 71
     2
176
     1
 72
     2
176
     1
 73
     0
176
     1
 90
        0
176
     1
 40
-0.6
176
     1
 41
-30.0
176
     1
 62
     5
 63
     7
421
 16777215
176
     1
 74
     1
176
     1
 91
        4
176
     1
 64
     7
176
     1
 65
   257
176
     1
 75
     1
176
     1
175
     1
176
     1
 42
1.0
176
     1
 92
       12
176
     1
 66
     7
176
     1
 43
1.0
176
     1
 76
     1
176
     1
 77
     6
176
     1
 78
     2
176
     1
 67
     7
176
     1
 79
     5
176
     1
170
     0
176
     1
171
     0
176
     1
290
     0
176
     1
 93
        1
176
     1
 44
0.0
176
     1
173
     0
176
     1
  0
ENDSEC
  0
EOF
