  0
SECTION
  2
HEADER
  9
$ACADVER
  1
AC1024
  9
$ACADMAINTVER
 70
     6
  9
$DWGCODEPAGE
  3
UNDEFINED
  9
$INSBASE
 10
0.0
 20
0.0
 30
0.0
  9
$EXTMIN
 10
1.000000000000000E+20
 20
1.000000000000000E+20
 30
1.000000000000000E+20
  9
$EXTMAX
 10
-1.000000000000000E+20
 20
-1.000000000000000E+20
 30
-1.000000000000000E+20
  9
$LIMMIN
 10
0.0
 20
0.0
  9
$LIMMAX
 10
12.0
 20
9.0
  9
$ORTHOMODE
 70
     0
  9
$REGENMODE
 70
     1
  9
$FILLMODE
 70
     1
  9
$QTEXTMODE
 70
     0
  9
$MIRRTEXT
 70
     1
  9
$LTSCALE
 40
1.0
  9
$ATTMODE
 70
     1
  9
$TEXTSIZE
 40
0.2
  9
$TRACEWID
 40
0.05
  9
$TEXTSTYLE
  7
Standard
  9
$CLAYER
  8
0
  9
$CELTYPE
  6
ByLayer
  9
$CECOLOR
 62
   256
  9
$CELTSCALE
 40
1.0
  9
$DISPSILH
 70
     0
  9
$DIMSCALE
 40
1.0
  9
$DIMASZ
 40
0.18
  9
$DIMEXO
 40
0.0625
  9
$DIMDLI
 40
0.38
  9
$DIMRND
 40
0.0
  9
$DIMDLE
 40
0.0
  9
$DIMEXE
 40
0.18
  9
$DIMTP
 40
0.0
  9
$DIMTM
 40
0.0
  9
$DIMTXT
 40
0.18
  9
$DIMCEN
 40
0.09
  9
$DIMTSZ
 40
0.0
  9
$DIMTOL
 70
     0
  9
$DIMLIM
 70
     0
  9
$DIMTIH
 70
     1
  9
$DIMTOH
 70
     1
  9
$DIMSE1
 70
     0
  9
$DIMSE2
 70
     0
  9
$DIMTAD
 70
     0
  9
$DIMZIN
 70
     0
  9
$DIMBLK
  1

  9
$DIMASO
 70
     1
  9
$DIMSHO
 70
     1
  9
$DIMPOST
  1

  9
$DIMAPOST
  1

  9
$DIMALT
 70
     0
  9
$DIMALTD
 70
     2
  9
$DIMALTF
 40
25.4
  9
$DIMLFAC
 40
1.0
  9
$DIMTOFL
 70
     0
  9
$DIMTVP
 40
0.0
  9
$DIMTIX
 70
     0
  9
$DIMSOXD
 70
     0
  9
$DIMSAH
 70
     0
  9
$DIMBLK1
  1

  9
$DIMBLK2
  1

  9
$DIMSTYLE
  2
Standard
  9
$DIMCLRD
 70
     0
  9
$DIMCLRE
 70
     0
  9
$DIMCLRT
 70
     0
  9
$DIMTFAC
 40
1.0
  9
$DIMGAP
 40
0.09
  9
$DIMJUST
 70
     0
  9
$DIMSD1
 70
     0
  9
$DIMSD2
 70
     0
  9
$DIMTOLJ
 70
     1
  9
$DIMTZIN
 70
     0
  9
$DIMALTZ
 70
     0
  9
$DIMALTTZ
 70
     0
  9
$DIMUPT
 70
     0
  9
$DIMDEC
 70
     4
  9
$DIMTDEC
 70
     4
  9
$DIMALTU
 70
     2
  9
$DIMALTTD
 70
     2
  9
$DIMTXSTY
  7
Standard
  9
$DIMAUNIT
 70
     0
  9
$DIMADEC
 70
     0
  9
$DIMALTRND
 40
0.0
  9
$DIMAZIN
 70
     0
  9
$DIMDSEP
 70
    46
  9
$DIMATFIT
 70
     3
  9
$DIMFRAC
 70
     0
  9
$DIMLDRBLK
  1

  9
$DIMLUNIT
 70
     2
  9
$DIMLWD
 70
    -2
  9
$DIMLWE
 70
    -2
  9
$DIMTMOVE
 70
     0
  9
$DIMFXL
 40
1.0
  9
$DIMFXLON
 70
     0
  9
$DIMJOGANG
 40
0.7853981633974483
  9
$DIMTFILL
 70
     0
  9
$DIMTFILLCLR
 70
     0
  9
$DIMARCSYM
 70
     0
  9
$DIMLTYPE
  6

  9
$DIMLTEX1
  6

  9
$DIMLTEX2
  6

  9
$DIMTXTDIRECTION
 70
     0
  9
$LUNITS
 70
     2
  9
$LUPREC
 70
     4
  9
$SKETCHINC
 40
0.1
  9
$FILLETRAD
 40
0.5
  9
$AUNITS
 70
     0
  9
$AUPREC
 70
     0
  9
$MENU
  1
.
  9
$ELEVATION
 40
0.0
  9
$PELEVATION
 40
0.0
  9
$THICKNESS
 40
0.0
  9
$LIMCHECK
 70
     0
  9
$CHAMFERA
 40
0.5
  9
$CHAMFERB
 40
0.5
  9
$CHAMFERC
 40
1.0
  9
$CHAMFERD
 40
0.0
  9
$SKPOLY
 70
     0
  9
$TDCREATE
 40
2457917.61935184
  9
$TDUCREATE
 40
2457917.244351852
  9
$TDUPDATE
 40
2457917.61935184
  9
$TDUUPDATE
 40
2457917.244351852
  9
$TDINDWG
 40
0.0000000116
  9
$TDUSRTIMER
 40
0.0000000116
  9
$USRTIMER
 70
     1
  9
$ANGBASE
 50
0.0
  9
$ANGDIR
 70
     0
  9
$PDMODE
 70
     0
  9
$PDSIZE
 40
0.0
  9
$PLINEWID
 40
0.0
  9
$SPLFRAME
 70
     0
  9
$SPLINETYPE
 70
     6
  9
$SPLINESEGS
 70
     8
  9
$HANDSEED
  5
AC
  9
$SURFTAB1
 70
     6
  9
$SURFTAB2
 70
     6
  9
$SURFTYPE
 70
     6
  9
$SURFU
 70
     6
  9
$SURFV
 70
     6
  9
$UCSBASE
  2

  9
$UCSNAME
  2

  9
$UCSORG
 10
0.0
 20
0.0
 30
0.0
  9
$UCSXDIR
 10
1.0
 20
0.0
 30
0.0
  9
$UCSYDIR
 10
0.0
 20
1.0
 30
0.0
  9
$UCSORTHOREF
  2

  9
$UCSORTHOVIEW
 70
     0
  9
$UCSORGTOP
 10
0.0
 20
0.0
 30
0.0
  9
$UCSORGBOTTOM
 10
0.0
 20
0.0
 30
0.0
  9
$UCSORGLEFT
 10
0.0
 20
0.0
 30
0.0
  9
$UCSORGRIGHT
 10
0.0
 20
0.0
 30
0.0
  9
$UCSORGFRONT
 10
0.0
 20
0.0
 30
0.0
  9
$UCSORGBACK
 10
0.0
 20
0.0
 30
0.0
  9
$PUCSBASE
  2

  9
$PUCSNAME
  2

  9
$PUCSORG
 10
0.0
 20
0.0
 30
0.0
  9
$PUCSXDIR
 10
1.0
 20
0.0
 30
0.0
  9
$PUCSYDIR
 10
0.0
 20
1.0
 30
0.0
  9
$PUCSORTHOREF
  2

  9
$PUCSORTHOVIEW
 70
     0
  9
$PUCSORGTOP
 10
0.0
 20
0.0
 30
0.0
  9
$PUCSORGBOTTOM
 10
0.0
 20
0.0
 30
0.0
  9
$PUCSORGLEFT
 10
0.0
 20
0.0
 30
0.0
  9
$PUCSORGRIGHT
 10
0.0
 20
0.0
 30
0.0
  9
$PUCSORGFRONT
 10
0.0
 20
0.0
 30
0.0
  9
$PUCSORGBACK
 10
0.0
 20
0.0
 30
0.0
  9
$USERI1
 70
     0
  9
$USERI2
 70
     0
  9
$USERI3
 70
     0
  9
$USERI4
 70
     0
  9
$USERI5
 70
     0
  9
$USERR1
 40
0.0
  9
$USERR2
 40
0.0
  9
$USERR3
 40
0.0
  9
$USERR4
 40
0.0
  9
$USERR5
 40
0.0
  9
$WORLDVIEW
 70
     1
  9
$SHADEDGE
 70
     3
  9
$SHADEDIF
 70
    70
  9
$TILEMODE
 70
     1
  9
$MAXACTVP
 70
    64
  9
$PINSBASE
 10
0.0
 20
0.0
 30
0.0
  9
$PLIMCHECK
 70
     0
  9
$PEXTMIN
 10
1.000000000000000E+20
 20
1.000000000000000E+20
 30
1.000000000000000E+20
  9
$PEXTMAX
 10
-1.000000000000000E+20
 20
-1.000000000000000E+20
 30
-1.000000000000000E+20
  9
$PLIMMIN
 10
0.0
 20
0.0
  9
$PLIMMAX
 10
12.0
 20
9.0
  9
$UNITMODE
 70
     0
  9
$VISRETAIN
 70
     1
  9
$PLINEGEN
 70
     0
  9
$PSLTSCALE
 70
     1
  9
$TREEDEPTH
 70
  3020
  9
$CMLSTYLE
  2
Standard
  9
$CMLJUST
 70
     0
  9
$CMLSCALE
 40
1.0
  9
$PROXYGRAPHICS
 70
     1
  9
$MEASUREMENT
 70
     0
  9
$CELWEIGHT
370
    -1
  9
$ENDCAPS
280
     0
  9
$JOINSTYLE
280
     0
  9
$LWDISPLAY
290
     1
  9
$INSUNITS
 70
     1
  9
$HYPERLINKBASE
  1

  9
$STYLESHEET
  1

  9
$XEDIT
290
     1
  9
$CEPSNTYPE
380
     0
  9
$PSTYLEMODE
290
     1
  9
$FINGERPRINTGUID
  2
{53640911-5DE3-76DB-3610-F86281390876}
  9
$VERSIONGUID
  2
{FAEB1C32-E019-11D5-929B-00C0DF256EC4}
  9
$EXTNAMES
290
     1
  9
$PSVPSCALE
 40
0.0
  9
$OLESTARTUP
290
     0
  9
$SORTENTS
280
   127
  9
$INDEXCTL
280
     0
  9
$HIDETEXT
280
     1
  9
$XCLIPFRAME
280
     2
  9
$HALOGAP
280
     0
  9
$OBSCOLOR
 70
   257
  9
$OBSLTYPE
280
     0
  9
$INTERSECTIONDISPLAY
280
     0
  9
$INTERSECTIONCOLOR
 70
   257
  9
$DIMASSOC
280
     2
  9
$PROJECTNAME
  1

  9
$CAMERADISPLAY
290
     0
  9
$LENSLENGTH
 40
50.0
  9
$CAMERAHEIGHT
 40
0.0
  9
$STEPSPERSEC
 40
2.0
  9
$STEPSIZE
 40
6.0
  9
$3DDWFPREC
 40
2.0
  9
$PSOLWIDTH
 40
0.25
  9
$PSOLHEIGHT
 40
4.0
  9
$LOFTANG1
 40
1.570796326794897
  9
$LOFTANG2
 40
1.570796326794897
  9
$LOFTMAG1
 40
0.0
  9
$LOFTMAG2
 40
0.0
  9
$LOFTPARAM
 70
     7
  9
$LOFTNORMALS
280
     1
  9
$LATITUDE
 40
37.795
  9
$LONGITUDE
 40
-122.394
  9
$NORTHDIRECTION
 40
0.0
  9
$TIMEZONE
 70
 -8000
  9
$LIGHTGLYPHDISPLAY
280
     1
  9
$TILEMODELIGHTSYNCH
280
     1
  9
$CMATERIAL
347
3C
  9
$SOLIDHIST
280
     1
  9
$SHOWHIST
280
     1
  9
$DWFFRAME
280
     2
  9
$DGNFRAME
280
     2
  9
$REALWORLDSCALE
290
     1
  9
$INTERFERECOLOR
 62
   256
  9
$CSHADOW
280
     0
  9
$SHADOWPLANELOCATION
 40
0.0
  0
ENDSEC
  0
SECTION
  2
CLASSES
  0
CLASS
  1
ACDBDICTIONARYWDFLT
  2
AcDbDictionaryWithDefault
  3
ObjectDBX Classes
 90
        0
 91
        4
280
     0
281
     0
  0
CLASS
  1
VISUALSTYLE
  2
AcDbVisualStyle
  3
ObjectDBX Classes
 90
     4095
 91
        4
280
     0
281
     0
  0
CLASS
  1
MATERIAL
  2
AcDbMaterial
  3
ObjectDBX Classes
 90
     1153
 91
        4
280
     0
281
     0
  0
CLASS
  1
SUN
  2
AcDbSun
  3
SCENEOE
 90
     1024
 91
        4
280
     0
281
     0
  0
ENDSEC
  0
SECTION
  2
TABLES
  0
TABLE
  2
VPORT
  5
8
330
0
100
AcDbSymbolTable
 70
     1
  0
VPORT
  5
29
330
8
100
AcDbSymbolTableRecord
100
AcDbViewportTableRecord
  2
*Active
 70
     0
 10
0.0
 20
0.0
 11
1.0
 21
1.0
 12
0.0
 22
0.0
 13
0.0
 23
0.0
 14
0.5
 24
0.5
 15
0.5
 25
0.5
 16
0.0
 26
0.0
 36
1.0
 17
91.00082462281999
 27
-128.4993055234307
 37
0.0
 40
256.9986110468615
 41
0.7081814508812795
 42
50.0
 43
0.0
 44
0.0
 50
0.0
 51
0.0
 71
     0
 72
   100
 73
     1
 74
     3
 75
     0
 76
     0
 77
     0
 78
     0
281
     0
 65
     1
110
0.0
120
0.0
130
0.0
111
1.0
121
0.0
131
0.0
112
0.0
122
1.0
132
0.0
 79
     0
146
0.0
 60
     3
 61
     5
292
     1
282
     1
141
0.0
142
0.0
 63
   250
361
3F
  0
ENDTAB
  0
TABLE
  2
LTYPE
  5
5
330
0
100
AcDbSymbolTable
 70
     1
  0
LTYPE
  5
14
330
5
100
AcDbSymbolTableRecord
100
AcDbLinetypeTableRecord
  2
ByBlock
 70
     0
  3

 72
    65
 73
     0
 40
0.0
  0
LTYPE
  5
15
330
5
100
AcDbSymbolTableRecord
100
AcDbLinetypeTableRecord
  2
ByLayer
 70
     0
  3

 72
    65
 73
     0
 40
0.0
  0
LTYPE
  5
16
330
5
100
AcDbSymbolTableRecord
100
AcDbLinetypeTableRecord
  2
Continuous
 70
     0
  3
Solid line
 72
    65
 73
     0
 40
0.0
  0
ENDTAB
  0
TABLE
  2
LAYER
  5
2
330
0
100
AcDbSymbolTable
 70
     2
  0
LAYER
  5
10
330
2
100
AcDbSymbolTableRecord
100
AcDbLayerTableRecord
  2
0
 70
     0
 62
     7
  6
Continuous
370
    -3
390
F
347
3E
  0
LAYER
  5
40
330
2
100
AcDbSymbolTableRecord
100
AcDbLayerTableRecord
  2
_U+30EC_U+30A4_U+30E4_U+30FC 1
 70
     0
 62
     7
  6
Continuous
370
    -3
390
F
347
3E
  0
ENDTAB
  0
TABLE
  2
STYLE
  5
3
330
0
100
AcDbSymbolTable
 70
     1
  0
STYLE
  5
11
330
3
100
AcDbSymbolTableRecord
100
AcDbTextStyleTableRecord
  2
Standard
 70
     0
 40
0.0
 41
1.0
 50
0.0
 71
     0
 42
0.2
  3
txt
  4

  0
ENDTAB
  0
TABLE
  2
VIEW
  5
6
330
0
100
AcDbSymbolTable
 70
     0
  0
ENDTAB
  0
TABLE
  2
UCS
  5
7
330
0
100
AcDbSymbolTable
 70
     0
  0
ENDTAB
  0
TABLE
  2
APPID
  5
9
330
0
100
AcDbSymbolTable
 70
     1
  0
APPID
  5
12
330
9
100
AcDbSymbolTableRecord
100
AcDbRegAppTableRecord
  2
ACAD
 70
     0
  0
ENDTAB
  0
TABLE
  2
DIMSTYLE
  5
A
330
0
100
AcDbSymbolTable
 70
     1
100
AcDbDimStyleTable
  0
DIMSTYLE
105
27
330
A
100
AcDbSymbolTableRecord
100
AcDbDimStyleTableRecord
  2
Standard
 70
     0
178
     0
340
11
  0
ENDTAB
  0
TABLE
  2
BLOCK_RECORD
  5
1
330
0
100
AcDbSymbolTable
 70
     6
  0
BLOCK_RECORD
  5
1F
330
1
100
AcDbSymbolTableRecord
100
AcDbBlockTableRecord
  2
*Model_Space
340
22
 70
     0
280
     1
281
     0
  0
BLOCK_RECORD
  5
1B
330
1
100
AcDbSymbolTableRecord
100
AcDbBlockTableRecord
  2
*Paper_Space
340
1E
 70
     0
280
     1
281
     0
  0
BLOCK_RECORD
  5
23
330
1
100
AcDbSymbolTableRecord
100
AcDbBlockTableRecord
  2
*Paper_Space0
340
26
 70
     0
280
     1
281
     0
  0
BLOCK_RECORD
  5
57
330
1
100
AcDbSymbolTableRecord
100
AcDbBlockTableRecord
  2
block 2
340
0
102
{BLKREFS
331
58
102
}
 70
     0
280
     1
281
     0
  0
BLOCK_RECORD
  5
6B
330
1
100
AcDbSymbolTableRecord
100
AcDbBlockTableRecord
  2
block 3
340
0
102
{BLKREFS
331
6C
102
}
 70
     0
280
     1
281
     0
  0
BLOCK_RECORD
  5
80
330
1
100
AcDbSymbolTableRecord
100
AcDbBlockTableRecord
  2
block 4
340
0
102
{BLKREFS
331
81
102
}
 70
     0
280
     1
281
     0
  0
BLOCK_RECORD
  5
90
330
1
100
AcDbSymbolTableRecord
100
AcDbBlockTableRecord
  2
block 5
340
0
102
{BLKREFS
331
91
102
}
 70
     0
280
     1
281
     0
  0
BLOCK_RECORD
  5
A4
330
1
100
AcDbSymbolTableRecord
100
AcDbBlockTableRecord
  2
block 6
340
0
102
{BLKREFS
331
A5
102
}
 70
     0
280
     1
281
     0
  0
ENDTAB
  0
ENDSEC
  0
SECTION
  2
BLOCKS
  0
BLOCK
  5
20
330
1F
100
AcDbEntity
  8
0
100
AcDbBlockBegin
  2
*Model_Space
 70
     0
 10
0.0
 20
0.0
 30
0.0
  3
*Model_Space
  1

  0
ENDBLK
  5
21
330
1F
100
AcDbEntity
  8
0
100
AcDbBlockEnd
  0
BLOCK
  5
1C
330
1B
100
AcDbEntity
 67
     1
  8
0
100
AcDbBlockBegin
  2
*Paper_Space
 70
     0
 10
0.0
 20
0.0
 30
0.0
  3
*Paper_Space
  1

  0
ENDBLK
  5
1D
330
1B
100
AcDbEntity
 67
     1
  8
0
100
AcDbBlockEnd
  0
BLOCK
  5
24
330
23
100
AcDbEntity
  8
0
100
AcDbBlockBegin
  2
*Paper_Space0
 70
     0
 10
0.0
 20
0.0
 30
0.0
  3
*Paper_Space0
  1

  0
ENDBLK
  5
25
330
23
100
AcDbEntity
  8
0
100
AcDbBlockEnd
  0
BLOCK
  5
59
330
57
100
AcDbEntity
  8
0
100
AcDbBlockBegin
  2
block 2
 70
     0
 10
0.0
 20
0.0
 30
0.0
  3
block 2
  1

  0
SPLINE
  5
5B
330
57
100
AcDbEntity
  8
_U+30EC_U+30A4_U+30E4_U+30FC 1
370
     0
100
AcDbSpline
210
0.0
220
0.0
230
1.0
 70
    11
 71
     3
 72
    26
 73
    22
 74
     0
 42
0.0000000001
 43
0.0000000001
 12
1.0
 22
0.0
 32
0.0
 13
1.0
 23
0.0
 33
0.0
 40
0.0
 40
0.0
 40
0.0
 40
0.0
 40
1.0
 40
1.0
 40
1.0
 40
2.0
 40
2.0
 40
2.0
 40
3.0
 40
3.0
 40
3.0
 40
4.0
 40
4.0
 40
4.0
 40
5.0
 40
5.0
 40
5.0
 40
6.0
 40
6.0
 40
6.0
 40
7.0
 40
7.0
 40
7.0
 40
7.0
 10
101.2606580693029
 20
-121.8123751865608
 30
0.0
 10
101.2606580693029
 20
-121.8123751865608
 30
0.0
 10
101.2606580693029
 20
-120.7082220835382
 30
0.0
 10
101.2606580693029
 20
-120.7082220835382
 30
0.0
 10
101.2606580693029
 20
-120.7082220835382
 30
0.0
 10
100.9082248011618
 20
-120.7082220835382
 30
0.0
 10
100.9082248011618
 20
-120.7082220835382
 30
0.0
 10
100.9082248011618
 20
-120.7082220835382
 30
0.0
 10
100.9082248011618
 20
-120.5600829776725
 30
0.0
 10
100.9082248011618
 20
-120.5600829776725
 30
0.0
 10
101.2630696361426
 20
-120.5452690670859
 30
0.0
 10
101.3126790111302
 20
-120.3823160506336
 30
0.0
 10
101.3443738895945
 20
-120.2679388805233
 30
0.0
 10
101.3443738895945
 20
-120.2679388805233
 30
0.0
 10
101.5004367150763
 20
-120.2679388805233
 30
0.0
 10
101.5004367150763
 20
-120.2679388805233
 30
0.0
 10
101.5004367150763
 20
-120.2679388805233
 30
0.0
 10
101.5004367150763
 20
-121.8123751865608
 30
0.0
 10
101.5004367150763
 20
-121.8123751865608
 30
0.0
 10
101.5004367150763
 20
-121.8123751865608
 30
0.0
 10
101.2606580693029
 20
-121.8123751865608
 30
0.0
 10
101.2606580693029
 20
-121.8123751865608
 30
0.0
  0
HATCH
  5
5C
330
57
100
AcDbEntity
  8
_U+30EC_U+30A4_U+30E4_U+30FC 1
 62
   179
420
  2234388
100
AcDbHatch
 10
0.0
 20
0.0
 30
0.0
210
0.0
220
0.0
230
1.0
  2
SOLID
 70
     1
 71
     0
 91
        1
 92
        1
 93
        1
 72
     4
 94
        3
 73
     0
 74
     1
 95
       26
 96
       22
 40
0.0
 40
0.0
 40
0.0
 40
0.0
 40
1.0
 40
1.0
 40
1.0
 40
2.0
 40
2.0
 40
2.0
 40
3.0
 40
3.0
 40
3.0
 40
4.0
 40
4.0
 40
4.0
 40
5.0
 40
5.0
 40
5.0
 40
6.0
 40
6.0
 40
6.0
 40
7.0
 40
7.0
 40
7.0
 40
7.0
 10
101.2606580693029
 20
-121.8123751865608
 10
101.2606580693029
 20
-121.8123751865608
 10
101.2606580693029
 20
-120.7082220835382
 10
101.2606580693029
 20
-120.7082220835382
 10
101.2606580693029
 20
-120.7082220835382
 10
100.9082248011618
 20
-120.7082220835382
 10
100.9082248011618
 20
-120.7082220835382
 10
100.9082248011618
 20
-120.7082220835382
 10
100.9082248011618
 20
-120.5600829776725
 10
100.9082248011618
 20
-120.5600829776725
 10
101.2630696361426
 20
-120.5452690670859
 10
101.3126790111302
 20
-120.3823160506336
 10
101.3443738895945
 20
-120.2679388805233
 10
101.3443738895945
 20
-120.2679388805233
 10
101.5004367150763
 20
-120.2679388805233
 10
101.5004367150763
 20
-120.2679388805233
 10
101.5004367150763
 20
-120.2679388805233
 10
101.5004367150763
 20
-121.8123751865608
 10
101.5004367150763
 20
-121.8123751865608
 10
101.5004367150763
 20
-121.8123751865608
 10
101.2606580693029
 20
-121.8123751865608
 10
101.2606580693029
 20
-121.8123751865608
 97
        0
 97
        0
 75
     2
 76
     1
 98
        0
  0
SPLINE
  5
5D
330
57
100
AcDbEntity
  8
_U+30EC_U+30A4_U+30E4_U+30FC 1
370
     0
100
AcDbSpline
210
0.0
220
0.0
230
1.0
 70
    11
 71
     3
 72
    53
 73
    49
 74
     0
 42
0.0000000001
 43
0.0000000001
 12
1.0
 22
0.0
 32
0.0
 13
1.0
 23
0.0
 33
0.0
 40
0.0
 40
0.0
 40
0.0
 40
0.0
 40
1.0
 40
1.0
 40
1.0
 40
2.0
 40
2.0
 40
2.0
 40
3.0
 40
3.0
 40
3.0
 40
4.0
 40
4.0
 40
4.0
 40
5.0
 40
5.0
 40
5.0
 40
6.0
 40
6.0
 40
6.0
 40
7.0
 40
7.0
 40
7.0
 40
8.0
 40
8.0
 40
8.0
 40
9.0
 40
9.0
 40
9.0
 40
10.0
 40
10.0
 40
10.0
 40
11.0
 40
11.0
 40
11.0
 40
12.0
 40
12.0
 40
12.0
 40
13.0
 40
13.0
 40
13.0
 40
14.0
 40
14.0
 40
14.0
 40
15.0
 40
15.0
 40
15.0
 40
16.0
 40
16.0
 40
16.0
 40
16.0
 10
102.5501573094319
 20
-121.863018090194
 30
0.0
 10
102.4667859986889
 20
-121.863018090194
 30
0.0
 10
102.357920981355
 20
-121.8461371223163
 30
0.0
 10
102.2497449831181
 20
-121.7827473653876
 30
0.0
 10
102.0640543364632
 20
-121.6728488194082
 30
0.0
 10
102.041661215809
 20
-121.5415906814202
 30
0.0
 10
102.0213351524461
 20
-121.4337591927318
 30
0.0
 10
102.0213351524461
 20
-121.4337591927318
 30
0.0
 10
102.2587022313798
 20
-121.4337591927318
 30
0.0
 10
102.2587022313798
 20
-121.4337591927318
 30
0.0
 10
102.317268854629
 20
-121.6325412022308
 30
0.0
 10
102.4530056167479
 20
-121.6621690234039
 30
0.0
 10
102.5525688762716
 20
-121.6621690234039
 30
0.0
 10
102.7017415107829
 20
-121.6621690234039
 30
0.0
 10
102.8643500176867
 20
-121.5626057638802
 30
0.0
 10
102.8643500176867
 20
-121.3300618186258
 30
0.0
 10
102.8643500176867
 20
-121.0740912240718
 30
0.0
 10
102.6724581991583
 20
-121.0041557857212
 30
0.0
 10
102.5436116280099
 20
-121.0041557857212
 30
0.0
 10
102.509505182706
 20
-121.0041557857212
 30
0.0
 10
102.357920981355
 20
-121.0041557857212
 30
0.0
 10
102.2631808555106
 20
-121.1333468664181
 30
0.0
 10
102.2631808555106
 20
-121.1333468664181
 30
0.0
 10
102.0754231515645
 20
-121.1143988412492
 30
0.0
 10
102.0754231515645
 20
-121.1143988412492
 30
0.0
 10
102.0754231515645
 20
-121.1143988412492
 30
0.0
 10
102.2042697227128
 20
-120.2679388805233
 30
0.0
 10
102.2042697227128
 20
-120.2679388805233
 30
0.0
 10
102.2042697227128
 20
-120.2679388805233
 30
0.0
 10
103.0362602824007
 20
-120.2679388805233
 30
0.0
 10
103.0362602824007
 20
-120.2679388805233
 30
0.0
 10
103.0362602824007
 20
-120.2679388805233
 30
0.0
 10
103.0362602824007
 20
-120.4625867754399
 30
0.0
 10
103.0362602824007
 20
-120.4625867754399
 30
0.0
 10
103.0362602824007
 20
-120.4625867754399
 30
0.0
 10
102.3785915542665
 20
-120.4625867754399
 30
0.0
 10
102.3785915542665
 20
-120.4625867754399
 30
0.0
 10
102.3785915542665
 20
-120.4625867754399
 30
0.0
 10
102.3083116063674
 20
-120.8856445010286
 30
0.0
 10
102.3083116063674
 20
-120.8856445010286
 30
0.0
 10
102.3737684205871
 20
-120.8518825652731
 30
0.0
 10
102.4619628650095
 20
-120.8115749480957
 30
0.0
 10
102.5887423788667
 20
-120.8115749480957
 30
0.0
 10
102.8598713935559
 20
-120.8115749480957
 30
0.0
 10
103.1130859117217
 20
-120.9979546138477
 30
0.0
 10
103.1130859117217
 20
-121.311113793457
 30
0.0
 10
103.1130859117217
 20
-121.6284070876485
 30
0.0
 10
102.8736517754969
 20
-121.863018090194
 30
0.0
 10
102.5501573094319
 20
-121.863018090194
 30
0.0
  0
HATCH
  5
5E
330
57
100
AcDbEntity
  8
_U+30EC_U+30A4_U+30E4_U+30FC 1
 62
   179
420
  2234388
100
AcDbHatch
 10
0.0
 20
0.0
 30
0.0
210
0.0
220
0.0
230
1.0
  2
SOLID
 70
     1
 71
     0
 91
        1
 92
        1
 93
        1
 72
     4
 94
        3
 73
     0
 74
     1
 95
       53
 96
       49
 40
0.0
 40
0.0
 40
0.0
 40
0.0
 40
1.0
 40
1.0
 40
1.0
 40
2.0
 40
2.0
 40
2.0
 40
3.0
 40
3.0
 40
3.0
 40
4.0
 40
4.0
 40
4.0
 40
5.0
 40
5.0
 40
5.0
 40
6.0
 40
6.0
 40
6.0
 40
7.0
 40
7.0
 40
7.0
 40
8.0
 40
8.0
 40
8.0
 40
9.0
 40
9.0
 40
9.0
 40
10.0
 40
10.0
 40
10.0
 40
11.0
 40
11.0
 40
11.0
 40
12.0
 40
12.0
 40
12.0
 40
13.0
 40
13.0
 40
13.0
 40
14.0
 40
14.0
 40
14.0
 40
15.0
 40
15.0
 40
15.0
 40
16.0
 40
16.0
 40
16.0
 40
16.0
 10
102.5501573094319
 20
-121.863018090194
 10
102.4667859986889
 20
-121.863018090194
 10
102.357920981355
 20
-121.8461371223163
 10
102.2497449831181
 20
-121.7827473653876
 10
102.0640543364632
 20
-121.6728488194082
 10
102.041661215809
 20
-121.5415906814202
 10
102.0213351524461
 20
-121.4337591927318
 10
102.0213351524461
 20
-121.4337591927318
 10
102.2587022313798
 20
-121.4337591927318
 10
102.2587022313798
 20
-121.4337591927318
 10
102.317268854629
 20
-121.6325412022308
 10
102.4530056167479
 20
-121.6621690234039
 10
102.5525688762716
 20
-121.6621690234039
 10
102.7017415107829
 20
-121.6621690234039
 10
102.8643500176867
 20
-121.5626057638802
 10
102.8643500176867
 20
-121.3300618186258
 10
102.8643500176867
 20
-121.0740912240718
 10
102.6724581991583
 20
-121.0041557857212
 10
102.5436116280099
 20
-121.0041557857212
 10
102.509505182706
 20
-121.0041557857212
 10
102.357920981355
 20
-121.0041557857212
 10
102.2631808555106
 20
-121.1333468664181
 10
102.2631808555106
 20
-121.1333468664181
 10
102.0754231515645
 20
-121.1143988412492
 10
102.0754231515645
 20
-121.1143988412492
 10
102.0754231515645
 20
-121.1143988412492
 10
102.2042697227128
 20
-120.2679388805233
 10
102.2042697227128
 20
-120.2679388805233
 10
102.2042697227128
 20
-120.2679388805233
 10
103.0362602824007
 20
-120.2679388805233
 10
103.0362602824007
 20
-120.2679388805233
 10
103.0362602824007
 20
-120.2679388805233
 10
103.0362602824007
 20
-120.4625867754399
 10
103.0362602824007
 20
-120.4625867754399
 10
103.0362602824007
 20
-120.4625867754399
 10
102.3785915542665
 20
-120.4625867754399
 10
102.3785915542665
 20
-120.4625867754399
 10
102.3785915542665
 20
-120.4625867754399
 10
102.3083116063674
 20
-120.8856445010286
 10
102.3083116063674
 20
-120.8856445010286
 10
102.3737684205871
 20
-120.8518825652731
 10
102.4619628650095
 20
-120.8115749480957
 10
102.5887423788667
 20
-120.8115749480957
 10
102.8598713935559
 20
-120.8115749480957
 10
103.1130859117217
 20
-120.9979546138477
 10
103.1130859117217
 20
-121.311113793457
 10
103.1130859117217
 20
-121.6284070876485
 10
102.8736517754969
 20
-121.863018090194
 10
102.5501573094319
 20
-121.863018090194
 97
        0
 97
        0
 75
     2
 76
     1
 98
        0
  0
ENDBLK
  5
5A
330
57
100
AcDbEntity
  8
0
100
AcDbBlockEnd
  0
BLOCK
  5
6D
330
6B
100
AcDbEntity
  8
0
100
AcDbBlockBegin
  2
block 3
 70
     0
 10
0.0
 20
0.0
 30
0.0
  3
block 3
  1

  0
SPLINE
  5
6F
330
6B
100
AcDbEntity
  8
_U+30EC_U+30A4_U+30E4_U+30FC 1
370
     0
100
AcDbSpline
210
0.0
220
0.0
230
1.0
 70
    11
 71
     3
 72
    26
 73
    22
 74
     0
 42
0.0000000001
 43
0.0000000001
 12
1.0
 22
0.0
 32
0.0
 13
1.0
 23
0.0
 33
0.0
 40
0.0
 40
0.0
 40
0.0
 40
0.0
 40
1.0
 40
1.0
 40
1.0
 40
2.0
 40
2.0
 40
2.0
 40
3.0
 40
3.0
 40
3.0
 40
4.0
 40
4.0
 40
4.0
 40
5.0
 40
5.0
 40
5.0
 40
6.0
 40
6.0
 40
6.0
 40
7.0
 40
7.0
 40
7.0
 40
7.0
 10
74.8402207929219
 20
-132.5848442593885
 30
0.0
 10
74.8402207929219
 20
-132.5848442593885
 30
0.0
 10
73.73589543512506
 20
-132.5848442593885
 30
0.0
 10
73.73589543512506
 20
-132.5848442593885
 30
0.0
 10
73.73589543512506
 20
-132.5848442593885
 30
0.0
 10
73.73589543512506
 20
-132.9372775275296
 30
0.0
 10
73.73589543512506
 20
-132.9372775275296
 30
0.0
 10
73.73589543512506
 20
-132.9372775275296
 30
0.0
 10
73.58775632925932
 20
-132.9372775275296
 30
0.0
 10
73.58775632925932
 20
-132.9372775275296
 30
0.0
 10
73.57311467344701
 20
-132.5824326925488
 30
0.0
 10
73.41016165699469
 20
-132.5328233175613
 30
0.0
 10
73.29595674165866
 20
-132.501128439097
 30
0.0
 10
73.29595674165866
 20
-132.501128439097
 30
0.0
 10
73.29595674165866
 20
-132.3450656136151
 30
0.0
 10
73.29595674165866
 20
-132.3450656136151
 30
0.0
 10
73.29595674165866
 20
-132.3450656136151
 30
0.0
 10
74.8402207929219
 20
-132.3450656136151
 30
0.0
 10
74.8402207929219
 20
-132.3450656136151
 30
0.0
 10
74.8402207929219
 20
-132.3450656136151
 30
0.0
 10
74.8402207929219
 20
-132.5848442593885
 30
0.0
 10
74.8402207929219
 20
-132.5848442593885
 30
0.0
  0
HATCH
  5
70
330
6B
100
AcDbEntity
  8
_U+30EC_U+30A4_U+30E4_U+30FC 1
 62
   179
420
  2234388
100
AcDbHatch
 10
0.0
 20
0.0
 30
0.0
210
0.0
220
0.0
230
1.0
  2
SOLID
 70
     1
 71
     0
 91
        1
 92
        1
 93
        1
 72
     4
 94
        3
 73
     0
 74
     1
 95
       26
 96
       22
 40
0.0
 40
0.0
 40
0.0
 40
0.0
 40
1.0
 40
1.0
 40
1.0
 40
2.0
 40
2.0
 40
2.0
 40
3.0
 40
3.0
 40
3.0
 40
4.0
 40
4.0
 40
4.0
 40
5.0
 40
5.0
 40
5.0
 40
6.0
 40
6.0
 40
6.0
 40
7.0
 40
7.0
 40
7.0
 40
7.0
 10
74.8402207929219
 20
-132.5848442593885
 10
74.8402207929219
 20
-132.5848442593885
 10
73.73589543512506
 20
-132.5848442593885
 10
73.73589543512506
 20
-132.5848442593885
 10
73.73589543512506
 20
-132.5848442593885
 10
73.73589543512506
 20
-132.9372775275296
 10
73.73589543512506
 20
-132.9372775275296
 10
73.73589543512506
 20
-132.9372775275296
 10
73.58775632925932
 20
-132.9372775275296
 10
73.58775632925932
 20
-132.9372775275296
 10
73.57311467344701
 20
-132.5824326925488
 10
73.41016165699469
 20
-132.5328233175613
 10
73.29595674165866
 20
-132.501128439097
 10
73.29595674165866
 20
-132.501128439097
 10
73.29595674165866
 20
-132.3450656136151
 10
73.29595674165866
 20
-132.3450656136151
 10
73.29595674165866
 20
-132.3450656136151
 10
74.8402207929219
 20
-132.3450656136151
 10
74.8402207929219
 20
-132.3450656136151
 10
74.8402207929219
 20
-132.3450656136151
 10
74.8402207929219
 20
-132.5848442593885
 10
74.8402207929219
 20
-132.5848442593885
 97
        0
 97
        0
 75
     2
 76
     1
 98
        0
  0
SPLINE
  5
71
330
6B
100
AcDbEntity
  8
_U+30EC_U+30A4_U+30E4_U+30FC 1
370
     0
100
AcDbSpline
210
0.0
220
0.0
230
1.0
 70
    11
 71
     3
 72
    32
 73
    28
 74
     0
 42
0.0000000001
 43
0.0000000001
 12
1.0
 22
0.0
 32
0.0
 13
1.0
 23
0.0
 33
0.0
 40
0.0
 40
0.0
 40
0.0
 40
0.0
 40
1.0
 40
1.0
 40
1.0
 40
2.0
 40
2.0
 40
2.0
 40
3.0
 40
3.0
 40
3.0
 40
4.0
 40
4.0
 40
4.0
 40
5.0
 40
5.0
 40
5.0
 40
6.0
 40
6.0
 40
6.0
 40
7.0
 40
7.0
 40
7.0
 40
8.0
 40
8.0
 40
8.0
 40
9.0
 40
9.0
 40
9.0
 40
9.0
 10
74.89103595132933
 20
-131.3201497067533
 30
0.0
 10
74.89103595132933
 20
-131.5054958438597
 30
0.0
 10
74.82110051297876
 20
-131.7676676102872
 30
0.0
 10
74.48899330820068
 20
-131.8083197370132
 30
0.0
 10
74.48899330820068
 20
-131.8083197370132
 30
0.0
 10
74.48899330820068
 20
-131.5802544158897
 30
0.0
 10
74.48899330820068
 20
-131.5802544158897
 30
0.0
 10
74.54824895054696
 20
-131.5688856007883
 30
0.0
 10
74.69638805641272
 20
-131.5347791554844
 30
0.0
 10
74.69638805641272
 20
-131.3177381399136
 30
0.0
 10
74.69638805641272
 20
-131.0059569984985
 30
0.0
 10
74.36634790892577
 20
-130.9653048717726
 30
0.0
 10
74.16119247277915
 20
-130.9515244898316
 30
0.0
 10
74.24146319758547
 20
-131.0486761825156
 30
0.0
 10
74.29865178264062
 20
-131.1210231877059
 30
0.0
 10
74.29865178264062
 20
-131.3156710826225
 30
0.0
 10
74.29865178264062
 20
-131.5079074106994
 30
0.0
 10
74.19288735124344
 20
-131.8310573672159
 30
0.0
 10
73.78671059353249
 20
-131.8310573672159
 30
0.0
 10
73.46717798727558
 20
-131.8310573672159
 30
0.0
 10
73.24720864054237
 20
-131.6184949757759
 30
0.0
 10
73.24720864054237
 20
-131.2794975800274
 30
0.0
 10
73.24720864054237
 20
-130.73000485013
 30
0.0
 10
73.80152450411907
 20
-130.7186360350287
 30
0.0
 10
74.01512042420455
 20
-130.7186360350287
 30
0.0
 10
74.24576956694203
 20
-130.7186360350287
 30
0.0
 10
74.89103595132933
 20
-130.7389620983917
 30
0.0
 10
74.89103595132933
 20
-131.3201497067533
 30
0.0
  0
SPLINE
  5
72
330
6B
100
AcDbEntity
  8
_U+30EC_U+30A4_U+30E4_U+30FC 1
370
     0
100
AcDbSpline
210
0.0
220
0.0
230
1.0
 70
    11
 71
     3
 72
    17
 73
    13
 74
     0
 42
0.0000000001
 43
0.0000000001
 12
1.0
 22
0.0
 32
0.0
 13
1.0
 23
0.0
 33
0.0
 40
0.0
 40
0.0
 40
0.0
 40
0.0
 40
1.0
 40
1.0
 40
1.0
 40
2.0
 40
2.0
 40
2.0
 40
3.0
 40
3.0
 40
3.0
 40
4.0
 40
4.0
 40
4.0
 40
4.0
 10
73.43978947816784
 20
-131.2770860131877
 30
0.0
 10
73.43978947816784
 20
-131.4038655270449
 30
0.0
 10
73.49680580844871
 20
-131.5912787214425
 30
0.0
 10
73.78240422417593
 20
-131.5912787214425
 30
0.0
 10
74.00874699755684
 20
-131.5912787214425
 30
0.0
 10
74.104003887724
 20
-131.4421060869311
 30
0.0
 10
74.104003887724
 20
-131.2974120765506
 30
0.0
 10
74.104003887724
 20
-131.0169813040513
 30
0.0
 10
73.89454208222081
 20
-130.9763291773254
 30
0.0
 10
73.77827010959363
 20
-130.9763291773254
 30
0.0
 10
73.60257023984589
 20
-130.9763291773254
 30
0.0
 10
73.43978947816784
 20
-131.0783040036888
 30
0.0
 10
73.43978947816784
 20
-131.2770860131877
 30
0.0
  0
HATCH
  5
73
330
6B
100
AcDbEntity
  8
_U+30EC_U+30A4_U+30E4_U+30FC 1
 62
   179
420
  2234388
100
AcDbHatch
 10
0.0
 20
0.0
 30
0.0
210
0.0
220
0.0
230
1.0
  2
SOLID
 70
     1
 71
     0
 91
        2
 92
        1
 93
        1
 72
     4
 94
        3
 73
     0
 74
     1
 95
       32
 96
       28
 40
0.0
 40
0.0
 40
0.0
 40
0.0
 40
1.0
 40
1.0
 40
1.0
 40
2.0
 40
2.0
 40
2.0
 40
3.0
 40
3.0
 40
3.0
 40
4.0
 40
4.0
 40
4.0
 40
5.0
 40
5.0
 40
5.0
 40
6.0
 40
6.0
 40
6.0
 40
7.0
 40
7.0
 40
7.0
 40
8.0
 40
8.0
 40
8.0
 40
9.0
 40
9.0
 40
9.0
 40
9.0
 10
74.89103595132933
 20
-131.3201497067533
 10
74.89103595132933
 20
-131.5054958438597
 10
74.82110051297876
 20
-131.7676676102872
 10
74.48899330820068
 20
-131.8083197370132
 10
74.48899330820068
 20
-131.8083197370132
 10
74.48899330820068
 20
-131.5802544158897
 10
74.48899330820068
 20
-131.5802544158897
 10
74.54824895054696
 20
-131.5688856007883
 10
74.69638805641272
 20
-131.5347791554844
 10
74.69638805641272
 20
-131.3177381399136
 10
74.69638805641272
 20
-131.0059569984985
 10
74.36634790892577
 20
-130.9653048717726
 10
74.16119247277915
 20
-130.9515244898316
 10
74.24146319758547
 20
-131.0486761825156
 10
74.29865178264062
 20
-131.1210231877059
 10
74.29865178264062
 20
-131.3156710826225
 10
74.29865178264062
 20
-131.5079074106994
 10
74.19288735124344
 20
-131.8310573672159
 10
73.78671059353249
 20
-131.8310573672159
 10
73.46717798727558
 20
-131.8310573672159
 10
73.24720864054237
 20
-131.6184949757759
 10
73.24720864054237
 20
-131.2794975800274
 10
73.24720864054237
 20
-130.73000485013
 10
73.80152450411907
 20
-130.7186360350287
 10
74.01512042420455
 20
-130.7186360350287
 10
74.24576956694203
 20
-130.7186360350287
 10
74.89103595132933
 20
-130.7389620983917
 10
74.89103595132933
 20
-131.3201497067533
 97
        0
 97
        0
 92
        1
 93
        1
 72
     4
 94
        3
 73
     0
 74
     1
 95
       17
 96
       13
 40
0.0
 40
0.0
 40
0.0
 40
0.0
 40
1.0
 40
1.0
 40
1.0
 40
2.0
 40
2.0
 40
2.0
 40
3.0
 40
3.0
 40
3.0
 40
4.0
 40
4.0
 40
4.0
 40
4.0
 10
73.43978947816784
 20
-131.2770860131877
 10
73.43978947816784
 20
-131.4038655270449
 10
73.49680580844871
 20
-131.5912787214425
 10
73.78240422417593
 20
-131.5912787214425
 10
74.00874699755684
 20
-131.5912787214425
 10
74.104003887724
 20
-131.4421060869311
 10
74.104003887724
 20
-131.2974120765506
 10
74.104003887724
 20
-131.0169813040513
 10
73.89454208222081
 20
-130.9763291773254
 10
73.77827010959363
 20
-130.9763291773254
 10
73.60257023984589
 20
-130.9763291773254
 10
73.43978947816784
 20
-131.0783040036888
 10
73.43978947816784
 20
-131.2770860131877
 97
        0
 97
        0
 75
     2
 76
     1
 98
        0
  0
ENDBLK
  5
6E
330
6B
100
AcDbEntity
  8
0
100
AcDbBlockEnd
  0
BLOCK
  5
82
330
80
100
AcDbEntity
  8
0
100
AcDbBlockBegin
  2
block 4
 70
     0
 10
0.0
 20
0.0
 30
0.0
  3
block 4
  1

  0
SPLINE
  5
84
330
80
100
AcDbEntity
  8
_U+30EC_U+30A4_U+30E4_U+30FC 1
370
     0
100
AcDbSpline
210
0.0
220
0.0
230
1.0
 70
    11
 71
     3
 72
    26
 73
    22
 74
     0
 42
0.0000000001
 43
0.0000000001
 12
1.0
 22
0.0
 32
0.0
 13
1.0
 23
0.0
 33
0.0
 40
0.0
 40
0.0
 40
0.0
 40
0.0
 40
1.0
 40
1.0
 40
1.0
 40
2.0
 40
2.0
 40
2.0
 40
3.0
 40
3.0
 40
3.0
 40
4.0
 40
4.0
 40
4.0
 40
5.0
 40
5.0
 40
5.0
 40
6.0
 40
6.0
 40
6.0
 40
7.0
 40
7.0
 40
7.0
 40
7.0
 10
86.26054007175084
 20
-117.8129638377343
 30
0.0
 10
86.26054007175084
 20
-117.8129638377343
 30
0.0
 10
86.26054007175084
 20
-116.7086384799374
 30
0.0
 10
86.26054007175084
 20
-116.7086384799374
 30
0.0
 10
86.26054007175084
 20
-116.7086384799374
 30
0.0
 10
85.90810680360978
 20
-116.7086384799374
 30
0.0
 10
85.90810680360978
 20
-116.7086384799374
 30
0.0
 10
85.90810680360978
 20
-116.7086384799374
 30
0.0
 10
85.90810680360978
 20
-116.560671628846
 30
0.0
 10
85.90810680360978
 20
-116.560671628846
 30
0.0
 10
86.26295163859052
 20
-116.5458577182594
 30
0.0
 10
86.31256101357812
 20
-116.3829047018071
 30
0.0
 10
86.34425589204241
 20
-116.268699786471
 30
0.0
 10
86.34425589204241
 20
-116.268699786471
 30
0.0
 10
86.50031871752422
 20
-116.268699786471
 30
0.0
 10
86.50031871752422
 20
-116.268699786471
 30
0.0
 10
86.50031871752422
 20
-116.268699786471
 30
0.0
 10
86.50031871752422
 20
-117.8129638377343
 30
0.0
 10
86.50031871752422
 20
-117.8129638377343
 30
0.0
 10
86.50031871752422
 20
-117.8129638377343
 30
0.0
 10
86.26054007175084
 20
-117.8129638377343
 30
0.0
 10
86.26054007175084
 20
-117.8129638377343
 30
0.0
  0
HATCH
  5
85
330
80
100
AcDbEntity
  8
_U+30EC_U+30A4_U+30E4_U+30FC 1
 62
   179
420
  2234388
100
AcDbHatch
 10
0.0
 20
0.0
 30
0.0
210
0.0
220
0.0
230
1.0
  2
SOLID
 70
     1
 71
     0
 91
        1
 92
        1
 93
        1
 72
     4
 94
        3
 73
     0
 74
     1
 95
       26
 96
       22
 40
0.0
 40
0.0
 40
0.0
 40
0.0
 40
1.0
 40
1.0
 40
1.0
 40
2.0
 40
2.0
 40
2.0
 40
3.0
 40
3.0
 40
3.0
 40
4.0
 40
4.0
 40
4.0
 40
5.0
 40
5.0
 40
5.0
 40
6.0
 40
6.0
 40
6.0
 40
7.0
 40
7.0
 40
7.0
 40
7.0
 10
86.26054007175084
 20
-117.8129638377343
 10
86.26054007175084
 20
-117.8129638377343
 10
86.26054007175084
 20
-116.7086384799374
 10
86.26054007175084
 20
-116.7086384799374
 10
86.26054007175084
 20
-116.7086384799374
 10
85.90810680360978
 20
-116.7086384799374
 10
85.90810680360978
 20
-116.7086384799374
 10
85.90810680360978
 20
-116.7086384799374
 10
85.90810680360978
 20
-116.560671628846
 10
85.90810680360978
 20
-116.560671628846
 10
86.26295163859052
 20
-116.5458577182594
 10
86.31256101357812
 20
-116.3829047018071
 10
86.34425589204241
 20
-116.268699786471
 10
86.34425589204241
 20
-116.268699786471
 10
86.50031871752422
 20
-116.268699786471
 10
86.50031871752422
 20
-116.268699786471
 10
86.50031871752422
 20
-116.268699786471
 10
86.50031871752422
 20
-117.8129638377343
 10
86.50031871752422
 20
-117.8129638377343
 10
86.50031871752422
 20
-117.8129638377343
 10
86.26054007175084
 20
-117.8129638377343
 10
86.26054007175084
 20
-117.8129638377343
 97
        0
 97
        0
 75
     2
 76
     1
 98
        0
  0
SPLINE
  5
86
330
80
100
AcDbEntity
  8
_U+30EC_U+30A4_U+30E4_U+30FC 1
370
     0
100
AcDbSpline
210
0.0
220
0.0
230
1.0
 70
    11
 71
     3
 72
    62
 73
    58
 74
     0
 42
0.0000000001
 43
0.0000000001
 12
1.0
 22
0.0
 32
0.0
 13
1.0
 23
0.0
 33
0.0
 40
0.0
 40
0.0
 40
0.0
 40
0.0
 40
1.0
 40
1.0
 40
1.0
 40
2.0
 40
2.0
 40
2.0
 40
3.0
 40
3.0
 40
3.0
 40
4.0
 40
4.0
 40
4.0
 40
5.0
 40
5.0
 40
5.0
 40
6.0
 40
6.0
 40
6.0
 40
7.0
 40
7.0
 40
7.0
 40
8.0
 40
8.0
 40
8.0
 40
9.0
 40
9.0
 40
9.0
 40
10.0
 40
10.0
 40
10.0
 40
11.0
 40
11.0
 40
11.0
 40
12.0
 40
12.0
 40
12.0
 40
13.0
 40
13.0
 40
13.0
 40
14.0
 40
14.0
 40
14.0
 40
15.0
 40
15.0
 40
15.0
 40
16.0
 40
16.0
 40
16.0
 40
17.0
 40
17.0
 40
17.0
 40
18.0
 40
18.0
 40
18.0
 40
19.0
 40
19.0
 40
19.0
 40
19.0
 10
87.56140812698118
 20
-117.8637789961417
 30
0.0
 10
87.45977781016632
 20
-117.8637789961417
 30
0.0
 10
87.22688935536343
 20
-117.8425916589074
 30
0.0
 10
87.09356416008426
 20
-117.6563842479297
 30
0.0
 10
87.01432696392351
 20
-117.5442463898848
 30
0.0
 10
87.00984833979268
 20
-117.4448553851353
 30
0.0
 10
87.00536971566186
 20
-117.3602782909724
 30
0.0
 10
87.00536971566186
 20
-117.3602782909724
 30
0.0
 10
87.24032522775589
 20
-117.3602782909724
 30
0.0
 10
87.24032522775589
 20
-117.3602782909724
 30
0.0
 10
87.24273679459557
 20
-117.4343478439053
 30
0.0
 10
87.2541056096969
 20
-117.6691311012251
 30
0.0
 10
87.55692950285035
 20
-117.6691311012251
 30
0.0
 10
87.70403508007053
 20
-117.6691311012251
 30
0.0
 10
87.86664358697432
 20
-117.5993679176488
 30
0.0
 10
87.86664358697432
 20
-117.3707858322024
 30
0.0
 10
87.86664358697432
 20
-117.2545138595753
 30
0.0
 10
87.82599146024836
 20
-117.205765758459
 30
0.0
 10
87.7918850149444
 20
-117.1740708799947
 30
0.0
 10
87.71299232833218
 20
-117.1000013270618
 30
0.0
 10
87.58862438131466
 20
-117.0874267285406
 30
0.0
 10
87.52971324851688
 20
-117.0874267285406
 30
0.0
 10
87.50938718515391
 20
-117.0874267285406
 30
0.0
 10
87.47114662526764
 20
-117.0894937858318
 30
0.0
 10
87.44151880409449
 20
-117.0936279004141
 30
0.0
 10
87.44151880409449
 20
-117.0936279004141
 30
0.0
 10
87.44151880409449
 20
-116.8989800054975
 30
0.0
 10
87.44151880409449
 20
-116.8989800054975
 30
0.0
 10
87.48217093082043
 20
-116.9053534321452
 30
0.0
 10
87.52764619122573
 20
-116.9075927442106
 30
0.0
 10
87.53419187264771
 20
-116.9075927442106
 30
0.0
 10
87.6044718205468
 20
-116.9075927442106
 30
0.0
 10
87.81703421198672
 20
-116.8864054069763
 30
0.0
 10
87.81703421198672
 20
-116.6493828375911
 30
0.0
 10
87.81703421198672
 20
-116.4717881653265
 30
0.0
 10
87.67681882573704
 20
-116.4166666375625
 30
0.0
 10
87.55934106969003
 20
-116.4166666375625
 30
0.0
 10
87.27649873035102
 20
-116.4166666375625
 30
0.0
 10
87.26754148208937
 20
-116.6493828375911
 30
0.0
 10
87.26306285795854
 20
-116.7213853332329
 30
0.0
 10
87.26306285795854
 20
-116.7213853332329
 30
0.0
 10
87.0460218423878
 20
-116.7213853332329
 30
0.0
 10
87.0460218423878
 20
-116.7213853332329
 30
0.0
 10
87.05497909064945
 20
-116.5965006218925
 30
0.0
 10
87.08426240227408
 20
-116.2199516853547
 30
0.0
 10
87.5727769420825
 20
-116.2199516853547
 30
0.0
 10
87.8125555878559
 20
-116.2199516853547
 30
0.0
 10
88.07024873015258
 20
-116.3469034539862
 30
0.0
 10
88.07024873015258
 20
-116.6430094109434
 30
0.0
 10
88.07024873015258
 20
-116.8292168219212
 30
0.0
 10
87.96827390378918
 20
-116.9117268587929
 30
0.0
 10
87.8621649628435
 20
-116.9730495584304
 30
0.0
 10
87.92762177706324
 20
-117.0006103223124
 30
0.0
 10
88.12226967197985
 20
-117.0810533018929
 30
0.0
 10
88.12226967197985
 20
-117.3582112336813
 30
0.0
 10
88.12226967197985
 20
-117.6966918651071
 30
0.0
 10
87.85768633871267
 20
-117.8637789961417
 30
0.0
 10
87.56140812698118
 20
-117.8637789961417
 30
0.0
  0
HATCH
  5
87
330
80
100
AcDbEntity
  8
_U+30EC_U+30A4_U+30E4_U+30FC 1
 62
   179
420
  2234388
100
AcDbHatch
 10
0.0
 20
0.0
 30
0.0
210
0.0
220
0.0
230
1.0
  2
SOLID
 70
     1
 71
     0
 91
        1
 92
        1
 93
        1
 72
     4
 94
        3
 73
     0
 74
     1
 95
       62
 96
       58
 40
0.0
 40
0.0
 40
0.0
 40
0.0
 40
1.0
 40
1.0
 40
1.0
 40
2.0
 40
2.0
 40
2.0
 40
3.0
 40
3.0
 40
3.0
 40
4.0
 40
4.0
 40
4.0
 40
5.0
 40
5.0
 40
5.0
 40
6.0
 40
6.0
 40
6.0
 40
7.0
 40
7.0
 40
7.0
 40
8.0
 40
8.0
 40
8.0
 40
9.0
 40
9.0
 40
9.0
 40
10.0
 40
10.0
 40
10.0
 40
11.0
 40
11.0
 40
11.0
 40
12.0
 40
12.0
 40
12.0
 40
13.0
 40
13.0
 40
13.0
 40
14.0
 40
14.0
 40
14.0
 40
15.0
 40
15.0
 40
15.0
 40
16.0
 40
16.0
 40
16.0
 40
17.0
 40
17.0
 40
17.0
 40
18.0
 40
18.0
 40
18.0
 40
19.0
 40
19.0
 40
19.0
 40
19.0
 10
87.56140812698118
 20
-117.8637789961417
 10
87.45977781016632
 20
-117.8637789961417
 10
87.22688935536343
 20
-117.8425916589074
 10
87.09356416008426
 20
-117.6563842479297
 10
87.01432696392351
 20
-117.5442463898848
 10
87.00984833979268
 20
-117.4448553851353
 10
87.00536971566186
 20
-117.3602782909724
 10
87.00536971566186
 20
-117.3602782909724
 10
87.24032522775589
 20
-117.3602782909724
 10
87.24032522775589
 20
-117.3602782909724
 10
87.24273679459557
 20
-117.4343478439053
 10
87.2541056096969
 20
-117.6691311012251
 10
87.55692950285035
 20
-117.6691311012251
 10
87.70403508007053
 20
-117.6691311012251
 10
87.86664358697432
 20
-117.5993679176488
 10
87.86664358697432
 20
-117.3707858322024
 10
87.86664358697432
 20
-117.2545138595753
 10
87.82599146024836
 20
-117.205765758459
 10
87.7918850149444
 20
-117.1740708799947
 10
87.71299232833218
 20
-117.1000013270618
 10
87.58862438131466
 20
-117.0874267285406
 10
87.52971324851688
 20
-117.0874267285406
 10
87.50938718515391
 20
-117.0874267285406
 10
87.47114662526764
 20
-117.0894937858318
 10
87.44151880409449
 20
-117.0936279004141
 10
87.44151880409449
 20
-117.0936279004141
 10
87.44151880409449
 20
-116.8989800054975
 10
87.44151880409449
 20
-116.8989800054975
 10
87.48217093082043
 20
-116.9053534321452
 10
87.52764619122573
 20
-116.9075927442106
 10
87.53419187264771
 20
-116.9075927442106
 10
87.6044718205468
 20
-116.9075927442106
 10
87.81703421198672
 20
-116.8864054069763
 10
87.81703421198672
 20
-116.6493828375911
 10
87.81703421198672
 20
-116.4717881653265
 10
87.67681882573704
 20
-116.4166666375625
 10
87.55934106969003
 20
-116.4166666375625
 10
87.27649873035102
 20
-116.4166666375625
 10
87.26754148208937
 20
-116.6493828375911
 10
87.26306285795854
 20
-116.7213853332329
 10
87.26306285795854
 20
-116.7213853332329
 10
87.0460218423878
 20
-116.7213853332329
 10
87.0460218423878
 20
-116.7213853332329
 10
87.05497909064945
 20
-116.5965006218925
 10
87.08426240227408
 20
-116.2199516853547
 10
87.5727769420825
 20
-116.2199516853547
 10
87.8125555878559
 20
-116.2199516853547
 10
88.07024873015258
 20
-116.3469034539862
 10
88.07024873015258
 20
-116.6430094109434
 10
88.07024873015258
 20
-116.8292168219212
 10
87.96827390378918
 20
-116.9117268587929
 10
87.8621649628435
 20
-116.9730495584304
 10
87.92762177706324
 20
-117.0006103223124
 10
88.12226967197985
 20
-117.0810533018929
 10
88.12226967197985
 20
-117.3582112336813
 10
88.12226967197985
 20
-117.6966918651071
 10
87.85768633871267
 20
-117.8637789961417
 10
87.56140812698118
 20
-117.8637789961417
 97
        0
 97
        0
 75
     2
 76
     1
 98
        0
  0
ENDBLK
  5
83
330
80
100
AcDbEntity
  8
0
100
AcDbBlockEnd
  0
BLOCK
  5
92
330
90
100
AcDbEntity
  8
0
100
AcDbBlockBegin
  2
block 5
 70
     0
 10
0.0
 20
0.0
 30
0.0
  3
block 5
  1

  0
SPLINE
  5
94
330
90
100
AcDbEntity
  8
_U+30EC_U+30A4_U+30E4_U+30FC 1
370
     0
100
AcDbSpline
210
0.0
220
0.0
230
1.0
 70
    11
 71
     3
 72
    44
 73
    40
 74
     0
 42
0.0000000001
 43
0.0000000001
 12
1.0
 22
0.0
 32
0.0
 13
1.0
 23
0.0
 33
0.0
 40
0.0
 40
0.0
 40
0.0
 40
0.0
 40
1.0
 40
1.0
 40
1.0
 40
2.0
 40
2.0
 40
2.0
 40
3.0
 40
3.0
 40
3.0
 40
4.0
 40
4.0
 40
4.0
 40
5.0
 40
5.0
 40
5.0
 40
6.0
 40
6.0
 40
6.0
 40
7.0
 40
7.0
 40
7.0
 40
8.0
 40
8.0
 40
8.0
 40
9.0
 40
9.0
 40
9.0
 40
10.0
 40
10.0
 40
10.0
 40
11.0
 40
11.0
 40
11.0
 40
12.0
 40
12.0
 40
12.0
 40
13.0
 40
13.0
 40
13.0
 40
13.0
 10
72.88151175478309
 20
-144.2303005281785
 30
0.0
 10
72.64862329998022
 20
-144.3891194300486
 30
0.0
 10
72.54923229523075
 20
-144.4631889829814
 30
0.0
 10
72.49721135340347
 20
-144.6068494647164
 30
0.0
 10
72.49721135340347
 20
-144.6068494647164
 30
0.0
 10
73.32920191309131
 20
-144.6068494647164
 30
0.0
 10
73.32920191309131
 20
-144.6068494647164
 30
0.0
 10
73.32920191309131
 20
-144.6068494647164
 30
0.0
 10
73.32920191309131
 20
-144.8121771556372
 30
0.0
 10
73.32920191309131
 20
-144.8121771556372
 30
0.0
 10
73.32920191309131
 20
-144.8121771556372
 30
0.0
 10
72.23038870807088
 20
-144.8121771556372
 30
0.0
 10
72.23038870807088
 20
-144.8121771556372
 30
0.0
 10
72.26432289860058
 20
-144.4545762442683
 30
0.0
 10
72.33443059172542
 20
-144.3763725767531
 30
0.0
 10
72.74594724743852
 20
-144.0780273077305
 30
0.0
 10
73.01948782896736
 20
-143.8792452982316
 30
0.0
 10
73.08959552209218
 20
-143.8113769171722
 30
0.0
 10
73.08959552209218
 20
-143.6739176073107
 30
0.0
 10
73.08959552209218
 20
-143.5554063226181
 30
0.0
 10
73.01276989277112
 20
-143.4244926941786
 30
0.0
 10
72.80244681339661
 20
-143.4244926941786
 30
0.0
 10
72.52425535296268
 20
-143.4244926941786
 30
0.0
 10
72.51529810470105
 20
-143.6549695821418
 30
0.0
 10
72.51081948057022
 20
-143.7714138095433
 30
0.0
 10
72.51081948057022
 20
-143.7714138095433
 30
0.0
 10
72.27104083479682
 20
-143.7714138095433
 30
0.0
 10
72.27104083479682
 20
-143.7714138095433
 30
0.0
 10
72.28017033783274
 20
-143.6442897861375
 30
0.0
 10
72.29153915293406
 20
-143.5323241828669
 30
0.0
 10
72.37732203051678
 20
-143.4138128981743
 30
0.0
 10
72.49497204133806
 20
-143.2529269390132
 30
0.0
 10
72.69392630561124
 20
-143.2191650032577
 30
0.0
 10
72.81829425262876
 20
-143.2191650032577
 30
0.0
 10
73.11440020958598
 20
-143.2191650032577
 30
0.0
 10
73.33591984928755
 20
-143.40313310217
 30
0.0
 10
73.33591984928755
 20
-143.6759846646019
 30
0.0
 10
73.33591984928755
 20
-143.9047390048224
 30
0.0
 10
73.21155190227003
 20
-144.0039577547976
 30
0.0
 10
72.88151175478309
 20
-144.2303005281785
 30
0.0
  0
HATCH
  5
95
330
90
100
AcDbEntity
  8
_U+30EC_U+30A4_U+30E4_U+30FC 1
 62
   179
420
  2234388
100
AcDbHatch
 10
0.0
 20
0.0
 30
0.0
210
0.0
220
0.0
230
1.0
  2
SOLID
 70
     1
 71
     0
 91
        1
 92
        1
 93
        1
 72
     4
 94
        3
 73
     0
 74
     1
 95
       44
 96
       40
 40
0.0
 40
0.0
 40
0.0
 40
0.0
 40
1.0
 40
1.0
 40
1.0
 40
2.0
 40
2.0
 40
2.0
 40
3.0
 40
3.0
 40
3.0
 40
4.0
 40
4.0
 40
4.0
 40
5.0
 40
5.0
 40
5.0
 40
6.0
 40
6.0
 40
6.0
 40
7.0
 40
7.0
 40
7.0
 40
8.0
 40
8.0
 40
8.0
 40
9.0
 40
9.0
 40
9.0
 40
10.0
 40
10.0
 40
10.0
 40
11.0
 40
11.0
 40
11.0
 40
12.0
 40
12.0
 40
12.0
 40
13.0
 40
13.0
 40
13.0
 40
13.0
 10
72.88151175478309
 20
-144.2303005281785
 10
72.64862329998022
 20
-144.3891194300486
 10
72.54923229523075
 20
-144.4631889829814
 10
72.49721135340347
 20
-144.6068494647164
 10
72.49721135340347
 20
-144.6068494647164
 10
73.32920191309131
 20
-144.6068494647164
 10
73.32920191309131
 20
-144.6068494647164
 10
73.32920191309131
 20
-144.6068494647164
 10
73.32920191309131
 20
-144.8121771556372
 10
73.32920191309131
 20
-144.8121771556372
 10
73.32920191309131
 20
-144.8121771556372
 10
72.23038870807088
 20
-144.8121771556372
 10
72.23038870807088
 20
-144.8121771556372
 10
72.26432289860058
 20
-144.4545762442683
 10
72.33443059172542
 20
-144.3763725767531
 10
72.74594724743852
 20
-144.0780273077305
 10
73.01948782896736
 20
-143.8792452982316
 10
73.08959552209218
 20
-143.8113769171722
 10
73.08959552209218
 20
-143.6739176073107
 10
73.08959552209218
 20
-143.5554063226181
 10
73.01276989277112
 20
-143.4244926941786
 10
72.80244681339661
 20
-143.4244926941786
 10
72.52425535296268
 20
-143.4244926941786
 10
72.51529810470105
 20
-143.6549695821418
 10
72.51081948057022
 20
-143.7714138095433
 10
72.51081948057022
 20
-143.7714138095433
 10
72.27104083479682
 20
-143.7714138095433
 10
72.27104083479682
 20
-143.7714138095433
 10
72.28017033783274
 20
-143.6442897861375
 10
72.29153915293406
 20
-143.5323241828669
 10
72.37732203051678
 20
-143.4138128981743
 10
72.49497204133806
 20
-143.2529269390132
 10
72.69392630561124
 20
-143.2191650032577
 10
72.81829425262876
 20
-143.2191650032577
 10
73.11440020958598
 20
-143.2191650032577
 10
73.33591984928755
 20
-143.40313310217
 10
73.33591984928755
 20
-143.6759846646019
 10
73.33591984928755
 20
-143.9047390048224
 10
73.21155190227003
 20
-144.0039577547976
 10
72.88151175478309
 20
-144.2303005281785
 97
        0
 97
        0
 75
     2
 76
     1
 98
        0
  0
SPLINE
  5
96
330
90
100
AcDbEntity
  8
_U+30EC_U+30A4_U+30E4_U+30FC 1
370
     0
100
AcDbSpline
210
0.0
220
0.0
230
1.0
 70
    11
 71
     3
 72
    44
 73
    40
 74
     0
 42
0.0000000001
 43
0.0000000001
 12
1.0
 22
0.0
 32
0.0
 13
1.0
 23
0.0
 33
0.0
 40
0.0
 40
0.0
 40
0.0
 40
0.0
 40
1.0
 40
1.0
 40
1.0
 40
2.0
 40
2.0
 40
2.0
 40
3.0
 40
3.0
 40
3.0
 40
4.0
 40
4.0
 40
4.0
 40
5.0
 40
5.0
 40
5.0
 40
6.0
 40
6.0
 40
6.0
 40
7.0
 40
7.0
 40
7.0
 40
8.0
 40
8.0
 40
8.0
 40
9.0
 40
9.0
 40
9.0
 40
10.0
 40
10.0
 40
10.0
 40
11.0
 40
11.0
 40
11.0
 40
12.0
 40
12.0
 40
12.0
 40
13.0
 40
13.0
 40
13.0
 40
13.0
 10
74.58924558682145
 20
-144.8121771556372
 30
0.0
 10
74.56444089932765
 20
-144.7677354238775
 30
0.0
 10
74.541703269125
 20
-144.7150254629532
 30
0.0
 10
74.53946395705958
 20
-144.4842040654414
 30
0.0
 10
74.53498533292876
 20
-144.2409803241828
 30
0.0
 10
74.47176783077443
 20
-144.1710448858323
 30
0.0
 10
74.2817708147629
 20
-144.1710448858323
 30
0.0
 10
74.2817708147629
 20
-144.1710448858323
 30
0.0
 10
73.84544947155601
 20
-144.1710448858323
 30
0.0
 10
73.84544947155601
 20
-144.1710448858323
 30
0.0
 10
73.84544947155601
 20
-144.1710448858323
 30
0.0
 10
73.84544947155601
 20
-144.8121771556372
 30
0.0
 10
73.84544947155601
 20
-144.8121771556372
 30
0.0
 10
73.84544947155601
 20
-144.8121771556372
 30
0.0
 10
73.59447426545555
 20
-144.8121771556372
 30
0.0
 10
73.59447426545555
 20
-144.8121771556372
 30
0.0
 10
73.59447426545555
 20
-144.8121771556372
 30
0.0
 10
73.59447426545555
 20
-143.2677408495997
 30
0.0
 10
73.59447426545555
 20
-143.2677408495997
 30
0.0
 10
73.59447426545555
 20
-143.2677408495997
 30
0.0
 10
74.3157050052926
 20
-143.2677408495997
 30
0.0
 10
74.3157050052926
 20
-143.2677408495997
 30
0.0
 10
74.64350584071413
 20
-143.2677408495997
 30
0.0
 10
74.82213404162434
 20
-143.4393066047652
 30
0.0
 10
74.82213404162434
 20
-143.6952771993192
 30
0.0
 10
74.82213404162434
 20
-143.7459201029524
 30
0.0
 10
74.81317679336269
 20
-143.8286023945984
 30
0.0
 10
74.76563447566623
 20
-143.9088731194047
 30
0.0
 10
74.70224471873763
 20
-144.0125704935108
 30
0.0
 10
74.63230928038706
 20
-144.0315185186796
 30
0.0
 10
74.56668021139305
 20
-144.0483994865573
 30
0.0
 10
74.71361353383897
 20
-144.0907741610259
 30
0.0
 10
74.7859605390292
 20
-144.1393500073679
 30
0.0
 10
74.79043916316003
 20
-144.4545762442683
 30
0.0
 10
74.79491778729086
 20
-144.7253607494089
 30
0.0
 10
74.83350285672566
 20
-144.7570556278733
 30
0.0
 10
74.9058498619159
 20
-144.8121771556372
 30
0.0
 10
74.9058498619159
 20
-144.8121771556372
 30
0.0
 10
74.58924558682145
 20
-144.8121771556372
 30
0.0
 10
74.58924558682145
 20
-144.8121771556372
 30
0.0
  0
SPLINE
  5
97
330
90
100
AcDbEntity
  8
_U+30EC_U+30A4_U+30E4_U+30FC 1
370
     0
100
AcDbSpline
210
0.0
220
0.0
230
1.0
 70
    11
 71
     3
 72
    20
 73
    16
 74
     0
 42
0.0000000001
 43
0.0000000001
 12
1.0
 22
0.0
 32
0.0
 13
1.0
 23
0.0
 33
0.0
 40
0.0
 40
0.0
 40
0.0
 40
0.0
 40
1.0
 40
1.0
 40
1.0
 40
2.0
 40
2.0
 40
2.0
 40
3.0
 40
3.0
 40
3.0
 40
4.0
 40
4.0
 40
4.0
 40
5.0
 40
5.0
 40
5.0
 40
5.0
 10
74.32018362942343
 20
-143.4792697123941
 30
0.0
 10
74.32018362942343
 20
-143.4792697123941
 30
0.0
 10
73.84544947155601
 20
-143.4792697123941
 30
0.0
 10
73.84544947155601
 20
-143.4792697123941
 30
0.0
 10
73.84544947155601
 20
-143.4792697123941
 30
0.0
 10
73.84544947155601
 20
-143.9595160230379
 30
0.0
 10
73.84544947155601
 20
-143.9595160230379
 30
0.0
 10
73.84544947155601
 20
-143.9595160230379
 30
0.0
 10
74.31794431735801
 20
-143.9595160230379
 30
0.0
 10
74.31794431735801
 20
-143.9595160230379
 30
0.0
 10
74.42422551307797
 20
-143.9595160230379
 30
0.0
 10
74.56891952345846
 20
-143.8833794128139
 30
0.0
 10
74.56891952345846
 20
-143.712158167197
 30
0.0
 10
74.56891952345846
 20
-143.6339544996818
 30
0.0
 10
74.53274602086334
 20
-143.4792697123941
 30
0.0
 10
74.32018362942343
 20
-143.4792697123941
 30
0.0
  0
HATCH
  5
98
330
90
100
AcDbEntity
  8
_U+30EC_U+30A4_U+30E4_U+30FC 1
 62
   179
420
  2234388
100
AcDbHatch
 10
0.0
 20
0.0
 30
0.0
210
0.0
220
0.0
230
1.0
  2
SOLID
 70
     1
 71
     0
 91
        2
 92
        1
 93
        1
 72
     4
 94
        3
 73
     0
 74
     1
 95
       44
 96
       40
 40
0.0
 40
0.0
 40
0.0
 40
0.0
 40
1.0
 40
1.0
 40
1.0
 40
2.0
 40
2.0
 40
2.0
 40
3.0
 40
3.0
 40
3.0
 40
4.0
 40
4.0
 40
4.0
 40
5.0
 40
5.0
 40
5.0
 40
6.0
 40
6.0
 40
6.0
 40
7.0
 40
7.0
 40
7.0
 40
8.0
 40
8.0
 40
8.0
 40
9.0
 40
9.0
 40
9.0
 40
10.0
 40
10.0
 40
10.0
 40
11.0
 40
11.0
 40
11.0
 40
12.0
 40
12.0
 40
12.0
 40
13.0
 40
13.0
 40
13.0
 40
13.0
 10
74.58924558682145
 20
-144.8121771556372
 10
74.56444089932765
 20
-144.7677354238775
 10
74.541703269125
 20
-144.7150254629532
 10
74.53946395705958
 20
-144.4842040654414
 10
74.53498533292876
 20
-144.2409803241828
 10
74.47176783077443
 20
-144.1710448858323
 10
74.2817708147629
 20
-144.1710448858323
 10
74.2817708147629
 20
-144.1710448858323
 10
73.84544947155601
 20
-144.1710448858323
 10
73.84544947155601
 20
-144.1710448858323
 10
73.84544947155601
 20
-144.1710448858323
 10
73.84544947155601
 20
-144.8121771556372
 10
73.84544947155601
 20
-144.8121771556372
 10
73.84544947155601
 20
-144.8121771556372
 10
73.59447426545555
 20
-144.8121771556372
 10
73.59447426545555
 20
-144.8121771556372
 10
73.59447426545555
 20
-144.8121771556372
 10
73.59447426545555
 20
-143.2677408495997
 10
73.59447426545555
 20
-143.2677408495997
 10
73.59447426545555
 20
-143.2677408495997
 10
74.3157050052926
 20
-143.2677408495997
 10
74.3157050052926
 20
-143.2677408495997
 10
74.64350584071413
 20
-143.2677408495997
 10
74.82213404162434
 20
-143.4393066047652
 10
74.82213404162434
 20
-143.6952771993192
 10
74.82213404162434
 20
-143.7459201029524
 10
74.81317679336269
 20
-143.8286023945984
 10
74.76563447566623
 20
-143.9088731194047
 10
74.70224471873763
 20
-144.0125704935108
 10
74.63230928038706
 20
-144.0315185186796
 10
74.56668021139305
 20
-144.0483994865573
 10
74.71361353383897
 20
-144.0907741610259
 10
74.7859605390292
 20
-144.1393500073679
 10
74.79043916316003
 20
-144.4545762442683
 10
74.79491778729086
 20
-144.7253607494089
 10
74.83350285672566
 20
-144.7570556278733
 10
74.9058498619159
 20
-144.8121771556372
 10
74.9058498619159
 20
-144.8121771556372
 10
74.58924558682145
 20
-144.8121771556372
 10
74.58924558682145
 20
-144.8121771556372
 97
        0
 97
        0
 92
        1
 93
        1
 72
     4
 94
        3
 73
     0
 74
     1
 95
       20
 96
       16
 40
0.0
 40
0.0
 40
0.0
 40
0.0
 40
1.0
 40
1.0
 40
1.0
 40
2.0
 40
2.0
 40
2.0
 40
3.0
 40
3.0
 40
3.0
 40
4.0
 40
4.0
 40
4.0
 40
5.0
 40
5.0
 40
5.0
 40
5.0
 10
74.32018362942343
 20
-143.4792697123941
 10
74.32018362942343
 20
-143.4792697123941
 10
73.84544947155601
 20
-143.4792697123941
 10
73.84544947155601
 20
-143.4792697123941
 10
73.84544947155601
 20
-143.4792697123941
 10
73.84544947155601
 20
-143.9595160230379
 10
73.84544947155601
 20
-143.9595160230379
 10
73.84544947155601
 20
-143.9595160230379
 10
74.31794431735801
 20
-143.9595160230379
 10
74.31794431735801
 20
-143.9595160230379
 10
74.42422551307797
 20
-143.9595160230379
 10
74.56891952345846
 20
-143.8833794128139
 10
74.56891952345846
 20
-143.712158167197
 10
74.56891952345846
 20
-143.6339544996818
 10
74.53274602086334
 20
-143.4792697123941
 10
74.32018362942343
 20
-143.4792697123941
 97
        0
 97
        0
 75
     2
 76
     1
 98
        0
  0
ENDBLK
  5
93
330
90
100
AcDbEntity
  8
0
100
AcDbBlockEnd
  0
BLOCK
  5
A6
330
A4
100
AcDbEntity
  8
0
100
AcDbBlockBegin
  2
block 6
 70
     0
 10
0.0
 20
0.0
 30
0.0
  3
block 6
  1

  0
SPLINE
  5
A8
330
A4
100
AcDbEntity
  8
_U+30EC_U+30A4_U+30E4_U+30FC 1
370
     0
100
AcDbSpline
210
0.0
220
0.0
230
1.0
 70
    11
 71
     3
 72
    26
 73
    22
 74
     0
 42
0.0000000001
 43
0.0000000001
 12
1.0
 22
0.0
 32
0.0
 13
1.0
 23
0.0
 33
0.0
 40
0.0
 40
0.0
 40
0.0
 40
0.0
 40
1.0
 40
1.0
 40
1.0
 40
2.0
 40
2.0
 40
2.0
 40
3.0
 40
3.0
 40
3.0
 40
4.0
 40
4.0
 40
4.0
 40
5.0
 40
5.0
 40
5.0
 40
6.0
 40
6.0
 40
6.0
 40
7.0
 40
7.0
 40
7.0
 40
7.0
 10
78.31683890186177
 20
-117.8081407040549
 30
0.0
 10
78.31683890186177
 20
-117.8081407040549
 30
0.0
 10
78.31683890186177
 20
-116.7039876010323
 30
0.0
 10
78.31683890186177
 20
-116.7039876010323
 30
0.0
 10
78.31683890186177
 20
-116.7039876010323
 30
0.0
 10
77.9644056337207
 20
-116.7039876010323
 30
0.0
 10
77.9644056337207
 20
-116.7039876010323
 30
0.0
 10
77.9644056337207
 20
-116.7039876010323
 30
0.0
 10
77.9644056337207
 20
-116.5558484951666
 30
0.0
 10
77.9644056337207
 20
-116.5558484951666
 30
0.0
 10
78.31925046870144
 20
-116.54103458458
 30
0.0
 10
78.36885984368904
 20
-116.3780815681277
 30
0.0
 10
78.40055472215333
 20
-116.2637043980174
 30
0.0
 10
78.40055472215333
 20
-116.2637043980174
 30
0.0
 10
78.55661754763516
 20
-116.2637043980174
 30
0.0
 10
78.55661754763516
 20
-116.2637043980174
 30
0.0
 10
78.55661754763516
 20
-116.2637043980174
 30
0.0
 10
78.55661754763516
 20
-117.8081407040549
 30
0.0
 10
78.55661754763516
 20
-117.8081407040549
 30
0.0
 10
78.55661754763516
 20
-117.8081407040549
 30
0.0
 10
78.31683890186177
 20
-117.8081407040549
 30
0.0
 10
78.31683890186177
 20
-117.8081407040549
 30
0.0
  0
HATCH
  5
A9
330
A4
100
AcDbEntity
  8
_U+30EC_U+30A4_U+30E4_U+30FC 1
 62
   179
420
  2234388
100
AcDbHatch
 10
0.0
 20
0.0
 30
0.0
210
0.0
220
0.0
230
1.0
  2
SOLID
 70
     1
 71
     0
 91
        1
 92
        1
 93
        1
 72
     4
 94
        3
 73
     0
 74
     1
 95
       26
 96
       22
 40
0.0
 40
0.0
 40
0.0
 40
0.0
 40
1.0
 40
1.0
 40
1.0
 40
2.0
 40
2.0
 40
2.0
 40
3.0
 40
3.0
 40
3.0
 40
4.0
 40
4.0
 40
4.0
 40
5.0
 40
5.0
 40
5.0
 40
6.0
 40
6.0
 40
6.0
 40
7.0
 40
7.0
 40
7.0
 40
7.0
 10
78.31683890186177
 20
-117.8081407040549
 10
78.31683890186177
 20
-117.8081407040549
 10
78.31683890186177
 20
-116.7039876010323
 10
78.31683890186177
 20
-116.7039876010323
 10
78.31683890186177
 20
-116.7039876010323
 10
77.9644056337207
 20
-116.7039876010323
 10
77.9644056337207
 20
-116.7039876010323
 10
77.9644056337207
 20
-116.7039876010323
 10
77.9644056337207
 20
-116.5558484951666
 10
77.9644056337207
 20
-116.5558484951666
 10
78.31925046870144
 20
-116.54103458458
 10
78.36885984368904
 20
-116.3780815681277
 10
78.40055472215333
 20
-116.2637043980174
 10
78.40055472215333
 20
-116.2637043980174
 10
78.55661754763516
 20
-116.2637043980174
 10
78.55661754763516
 20
-116.2637043980174
 10
78.55661754763516
 20
-116.2637043980174
 10
78.55661754763516
 20
-117.8081407040549
 10
78.55661754763516
 20
-117.8081407040549
 10
78.55661754763516
 20
-117.8081407040549
 10
78.31683890186177
 20
-117.8081407040549
 10
78.31683890186177
 20
-117.8081407040549
 97
        0
 97
        0
 75
     2
 76
     1
 98
        0
  0
ENDBLK
  5
A7
330
A4
100
AcDbEntity
  8
0
100
AcDbBlockEnd
  0
ENDSEC
  0
SECTION
  2
ENTITIES
  0
POLYLINE
  5
41
330
1F
100
AcDbEntity
  8
_U+30EC_U+30A4_U+30E4_U+30FC 1
 62
   179
420
  2234388
370
     9
100
AcDb2dPolyline
 66
     1
 10
0.0
 20
0.0
 30
0.0
  0
VERTEX
  5
42
330
41
100
AcDbEntity
  8
_U+30EC_U+30A4_U+30E4_U+30FC 1
 62
   179
420
  2234388
370
     9
100
AcDbVertex
100
AcDb2dVertex
 10
79.52277658231606
 20
-141.6898782979111
 30
0.0
  0
VERTEX
  5
43
330
41
100
AcDbEntity
  8
_U+30EC_U+30A4_U+30E4_U+30FC 1
 62
   179
420
  2234388
370
     9
100
AcDbVertex
100
AcDb2dVertex
 10
80.02234720221665
 20
-140.823773575905
 30
0.0
  0
SEQEND
  5
44
330
41
100
AcDbEntity
  8
_U+30EC_U+30A4_U+30E4_U+30FC 1
 62
   179
420
  2234388
370
     9
  0
POLYLINE
  5
45
330
1F
100
AcDbEntity
  8
_U+30EC_U+30A4_U+30E4_U+30FC 1
 62
   179
420
  2234388
370
     9
100
AcDb2dPolyline
 66
     1
 10
0.0
 20
0.0
 30
0.0
  0
VERTEX
  5
46
330
45
100
AcDbEntity
  8
_U+30EC_U+30A4_U+30E4_U+30FC 1
 62
   179
420
  2234388
370
     9
100
AcDbVertex
100
AcDb2dVertex
 10
79.15691075831674
 20
-141.3233421868914
 30
0.0
  0
VERTEX
  5
47
330
45
100
AcDbEntity
  8
_U+30EC_U+30A4_U+30E4_U+30FC 1
 62
   179
420
  2234388
370
     9
100
AcDbVertex
100
AcDb2dVertex
 10
80.02234720221665
 20
-140.823773575905
 30
0.0
  0
SEQEND
  5
48
330
45
100
AcDbEntity
  8
_U+30EC_U+30A4_U+30E4_U+30FC 1
 62
   179
420
  2234388
370
     9
  0
SPLINE
  5
49
330
1F
100
AcDbEntity
  8
_U+30EC_U+30A4_U+30E4_U+30FC 1
 62
   179
420
  2234388
370
     9
100
AcDbSpline
210
0.0
220
0.0
230
1.0
 70
    11
 71
     3
 72
    17
 73
    13
 74
     0
 42
0.0000000001
 43
0.0000000001
 12
1.0
 22
0.0
 32
0.0
 13
1.0
 23
0.0
 33
0.0
 40
0.0
 40
0.0
 40
0.0
 40
0.0
 40
1.0
 40
1.0
 40
1.0
 40
2.0
 40
2.0
 40
2.0
 40
3.0
 40
3.0
 40
3.0
 40
4.0
 40
4.0
 40
4.0
 40
4.0
 10
94.53650453261729
 20
-122.4090558027312
 30
0.0
 10
94.53650453261729
 20
-122.353951913856
 30
0.0
 10
94.49173703375939
 20
-122.3091491360893
 30
0.0
 10
94.43659786849945
 20
-122.3091491360893
 30
0.0
 10
94.38149398101638
 20
-122.3091491360893
 30
0.0
 10
94.33669120438161
 20
-122.353951913856
 30
0.0
 10
94.33669120438161
 20
-122.4090558027312
 30
0.0
 10
94.33669120438161
 20
-122.464194969384
 30
0.0
 10
94.38149398101638
 20
-122.5089624693729
 30
0.0
 10
94.43659786849945
 20
-122.5089624693729
 30
0.0
 10
94.49173703375939
 20
-122.5089624693729
 30
0.0
 10
94.53650453261729
 20
-122.464194969384
 30
0.0
 10
94.53650453261729
 20
-122.4090558027312
 30
0.0
  0
SPLINE
  5
4A
330
1F
100
AcDbEntity
  8
_U+30EC_U+30A4_U+30E4_U+30FC 1
 62
   179
420
  2234388
370
     9
100
AcDbSpline
210
0.0
220
0.0
230
1.0
 70
    11
 71
     3
 72
    17
 73
    13
 74
     0
 42
0.0000000001
 43
0.0000000001
 12
1.0
 22
0.0
 32
0.0
 13
1.0
 23
0.0
 33
0.0
 40
0.0
 40
0.0
 40
0.0
 40
0.0
 40
1.0
 40
1.0
 40
1.0
 40
2.0
 40
2.0
 40
2.0
 40
3.0
 40
3.0
 40
3.0
 40
4.0
 40
4.0
 40
4.0
 40
4.0
 10
93.53676761367825
 20
-118.4092966370644
 30
0.0
 10
93.53676761367825
 20
-118.3541927481891
 30
0.0
 10
93.49196483704348
 20
-118.3093899704227
 30
0.0
 10
93.43686094956041
 20
-118.3093899704227
 30
0.0
 10
93.38172178430047
 20
-118.3093899704227
 30
0.0
 10
93.3369190076657
 20
-118.3541927481891
 30
0.0
 10
93.3369190076657
 20
-118.4092966370644
 30
0.0
 10
93.3369190076657
 20
-118.4644358037171
 30
0.0
 10
93.38172178430047
 20
-118.509203303706
 30
0.0
 10
93.43686094956041
 20
-118.509203303706
 30
0.0
 10
93.49196483704348
 20
-118.509203303706
 30
0.0
 10
93.53676761367825
 20
-118.4644358037171
 30
0.0
 10
93.53676761367825
 20
-118.4092966370644
 30
0.0
  0
SPLINE
  5
4B
330
1F
100
AcDbEntity
  8
_U+30EC_U+30A4_U+30E4_U+30FC 1
 62
   179
420
  2234388
370
     9
100
AcDbSpline
210
0.0
220
0.0
230
1.0
 70
    11
 71
     3
 72
    17
 73
    13
 74
     0
 42
0.0000000001
 43
0.0000000001
 12
1.0
 22
0.0
 32
0.0
 13
1.0
 23
0.0
 33
0.0
 40
0.0
 40
0.0
 40
0.0
 40
0.0
 40
1.0
 40
1.0
 40
1.0
 40
2.0
 40
2.0
 40
2.0
 40
3.0
 40
3.0
 40
3.0
 40
4.0
 40
4.0
 40
4.0
 40
4.0
 10
80.53701266755185
 20
-118.4092966370644
 30
0.0
 10
80.53701266755185
 20
-118.3541927481891
 30
0.0
 10
80.49224720209929
 20
-118.3093899704227
 30
0.0
 10
80.43710600343402
 20
-118.3093899704227
 30
0.0
 10
80.38129656041339
 20
-118.3093899704227
 30
0.0
 10
80.33652906155551
 20
-118.3541927481891
 30
0.0
 10
80.33652906155551
 20
-118.4092966370644
 30
0.0
 10
80.33652906155551
 20
-118.4644358037171
 30
0.0
 10
80.38129656041339
 20
-118.509203303706
 30
0.0
 10
80.43710600343402
 20
-118.509203303706
 30
0.0
 10
80.49224720209929
 20
-118.509203303706
 30
0.0
 10
80.53701266755185
 20
-118.4644358037171
 30
0.0
 10
80.53701266755185
 20
-118.4092966370644
 30
0.0
  0
SPLINE
  5
4C
330
1F
100
AcDbEntity
  8
_U+30EC_U+30A4_U+30E4_U+30FC 1
 62
   179
420
  2234388
370
     9
100
AcDbSpline
210
0.0
220
0.0
230
1.0
 70
    11
 71
     3
 72
    17
 73
    13
 74
     0
 42
0.0000000001
 43
0.0000000001
 12
1.0
 22
0.0
 32
0.0
 13
1.0
 23
0.0
 33
0.0
 40
0.0
 40
0.0
 40
0.0
 40
0.0
 40
1.0
 40
1.0
 40
1.0
 40
2.0
 40
2.0
 40
2.0
 40
3.0
 40
3.0
 40
3.0
 40
4.0
 40
4.0
 40
4.0
 40
4.0
 10
75.53681112845095
 20
-122.4090558027312
 30
0.0
 10
75.53681112845095
 20
-122.353951913856
 30
0.0
 10
75.49204362959307
 20
-122.3091491360893
 30
0.0
 10
75.43690446433313
 20
-122.3091491360893
 30
0.0
 10
75.38180057685005
 20
-122.3091491360893
 30
0.0
 10
75.33699780021529
 20
-122.353951913856
 30
0.0
 10
75.33699780021529
 20
-122.4090558027312
 30
0.0
 10
75.33699780021529
 20
-122.464194969384
 30
0.0
 10
75.38180057685005
 20
-122.5089624693729
 30
0.0
 10
75.43690446433313
 20
-122.5089624693729
 30
0.0
 10
75.49204362959307
 20
-122.5089624693729
 30
0.0
 10
75.53681112845095
 20
-122.464194969384
 30
0.0
 10
75.53681112845095
 20
-122.4090558027312
 30
0.0
  0
SPLINE
  5
4D
330
1F
100
AcDbEntity
  8
_U+30EC_U+30A4_U+30E4_U+30FC 1
 62
   179
420
  2234388
370
     9
100
AcDbSpline
210
0.0
220
0.0
230
1.0
 70
    11
 71
     3
 72
    17
 73
    13
 74
     0
 42
0.0000000001
 43
0.0000000001
 12
1.0
 22
0.0
 32
0.0
 13
1.0
 23
0.0
 33
0.0
 40
0.0
 40
0.0
 40
0.0
 40
0.0
 40
1.0
 40
1.0
 40
1.0
 40
2.0
 40
2.0
 40
2.0
 40
3.0
 40
3.0
 40
3.0
 40
4.0
 40
4.0
 40
4.0
 40
4.0
 10
75.53681112845095
 20
-141.4094552424254
 30
0.0
 10
75.53681112845095
 20
-141.3543513535504
 30
0.0
 10
75.49204362959307
 20
-141.3095485757837
 30
0.0
 10
75.43690446433313
 20
-141.3095485757837
 30
0.0
 10
75.38180057685005
 20
-141.3095485757837
 30
0.0
 10
75.33699780021529
 20
-141.3543513535504
 30
0.0
 10
75.33699780021529
 20
-141.4094552424254
 30
0.0
 10
75.33699780021529
 20
-141.4645944090784
 30
0.0
 10
75.38180057685005
 20
-141.509361909067
 30
0.0
 10
75.43690446433313
 20
-141.509361909067
 30
0.0
 10
75.49204362959307
 20
-141.509361909067
 30
0.0
 10
75.53681112845095
 20
-141.4645944090784
 30
0.0
 10
75.53681112845095
 20
-141.4094552424254
 30
0.0
  0
SPLINE
  5
4E
330
1F
100
AcDbEntity
  8
_U+30EC_U+30A4_U+30E4_U+30FC 1
 62
   179
420
  2234388
370
     9
100
AcDbSpline
210
0.0
220
0.0
230
1.0
 70
    11
 71
     3
 72
    17
 73
    13
 74
     0
 42
0.0000000001
 43
0.0000000001
 12
1.0
 22
0.0
 32
0.0
 13
1.0
 23
0.0
 33
0.0
 40
0.0
 40
0.0
 40
0.0
 40
0.0
 40
1.0
 40
1.0
 40
1.0
 40
2.0
 40
2.0
 40
2.0
 40
3.0
 40
3.0
 40
3.0
 40
4.0
 40
4.0
 40
4.0
 40
4.0
 10
109.5364741499362
 20
-122.4090558027312
 30
0.0
 10
109.5364741499362
 20
-122.353951913856
 30
0.0
 10
109.4916713733014
 20
-122.3091491360893
 30
0.0
 10
109.4365674858183
 20
-122.3091491360893
 30
0.0
 10
109.3814283205584
 20
-122.3091491360893
 30
0.0
 10
109.3366608217005
 20
-122.353951913856
 30
0.0
 10
109.3366608217005
 20
-122.4090558027312
 30
0.0
 10
109.3366608217005
 20
-122.464194969384
 30
0.0
 10
109.3814283205584
 20
-122.5089624693729
 30
0.0
 10
109.4365674858183
 20
-122.5089624693729
 30
0.0
 10
109.4916713733014
 20
-122.5089624693729
 30
0.0
 10
109.5364741499362
 20
-122.464194969384
 30
0.0
 10
109.5364741499362
 20
-122.4090558027312
 30
0.0
  0
POLYLINE
  5
4F
330
1F
100
AcDbEntity
  8
_U+30EC_U+30A4_U+30E4_U+30FC 1
 62
   179
420
  2234388
370
     9
100
AcDb2dPolyline
 66
     1
 10
0.0
 20
0.0
 30
0.0
  0
VERTEX
  5
50
330
4F
100
AcDbEntity
  8
_U+30EC_U+30A4_U+30E4_U+30FC 1
 62
   179
420
  2234388
370
     9
100
AcDbVertex
100
AcDb2dVertex
 10
94.43659786849945
 20
-122.4090558027312
 30
0.0
  0
VERTEX
  5
51
330
4F
100
AcDbEntity
  8
_U+30EC_U+30A4_U+30E4_U+30FC 1
 62
   179
420
  2234388
370
     9
100
AcDbVertex
100
AcDb2dVertex
 10
109.4365674858183
 20
-122.4090558027312
 30
0.0
  0
SEQEND
  5
52
330
4F
100
AcDbEntity
  8
_U+30EC_U+30A4_U+30E4_U+30FC 1
 62
   179
420
  2234388
370
     9
  0
POLYLINE
  5
53
330
1F
100
AcDbEntity
  8
_U+30EC_U+30A4_U+30E4_U+30FC 1
 62
   179
420
  2234388
370
     9
100
AcDb2dPolyline
 66
     1
 10
0.0
 20
0.0
 30
0.0
  0
VERTEX
  5
54
330
53
100
AcDbEntity
  8
_U+30EC_U+30A4_U+30E4_U+30FC 1
 62
   179
420
  2234388
370
     9
100
AcDbVertex
100
AcDb2dVertex
 10
109.4365674858183
 20
-123.869097191255
 30
0.0
  0
VERTEX
  5
55
330
53
100
AcDbEntity
  8
_U+30EC_U+30A4_U+30E4_U+30FC 1
 62
   179
420
  2234388
370
     9
100
AcDbVertex
100
AcDb2dVertex
 10
109.4365674858183
 20
-121.4092835807587
 30
0.0
  0
SEQEND
  5
56
330
53
100
AcDbEntity
  8
_U+30EC_U+30A4_U+30E4_U+30FC 1
 62
   179
420
  2234388
370
     9
  0
INSERT
  5
58
330
1F
100
AcDbEntity
  8
_U+30EC_U+30A4_U+30E4_U+30FC 1
100
AcDbBlockReference
  2
block 2
 10
0.0
 20
0.0
 30
0.0
  0
POLYLINE
  5
5F
330
1F
100
AcDbEntity
  8
_U+30EC_U+30A4_U+30E4_U+30FC 1
 62
   179
420
  2234388
370
     9
100
AcDb2dPolyline
 66
     1
 10
0.0
 20
0.0
 30
0.0
  0
VERTEX
  5
60
330
5F
100
AcDbEntity
  8
_U+30EC_U+30A4_U+30E4_U+30FC 1
 62
   179
420
  2234388
370
     9
100
AcDbVertex
100
AcDb2dVertex
 10
75.43690446433313
 20
-141.4094552424254
 30
0.0
  0
VERTEX
  5
61
330
5F
100
AcDbEntity
  8
_U+30EC_U+30A4_U+30E4_U+30FC 1
 62
   179
420
  2234388
370
     9
100
AcDbVertex
100
AcDb2dVertex
 10
75.43690446433313
 20
-122.4090558027312
 30
0.0
  0
SEQEND
  5
62
330
5F
100
AcDbEntity
  8
_U+30EC_U+30A4_U+30E4_U+30FC 1
 62
   179
420
  2234388
370
     9
  0
POLYLINE
  5
63
330
1F
100
AcDbEntity
  8
_U+30EC_U+30A4_U+30E4_U+30FC 1
 62
   179
420
  2234388
370
     9
100
AcDb2dPolyline
 66
     1
 10
0.0
 20
0.0
 30
0.0
  0
VERTEX
  5
64
330
63
100
AcDbEntity
  8
_U+30EC_U+30A4_U+30E4_U+30FC 1
 62
   179
420
  2234388
370
     9
100
AcDbVertex
100
AcDb2dVertex
 10
78.67459299284391
 20
-141.4094552424254
 30
0.0
  0
VERTEX
  5
65
330
63
100
AcDbEntity
  8
_U+30EC_U+30A4_U+30E4_U+30FC 1
 62
   179
420
  2234388
370
     9
100
AcDbVertex
100
AcDb2dVertex
 10
74.43713226761722
 20
-141.4094552424254
 30
0.0
  0
SEQEND
  5
66
330
63
100
AcDbEntity
  8
_U+30EC_U+30A4_U+30E4_U+30FC 1
 62
   179
420
  2234388
370
     9
  0
POLYLINE
  5
67
330
1F
100
AcDbEntity
  8
_U+30EC_U+30A4_U+30E4_U+30FC 1
 62
   179
420
  2234388
370
     9
100
AcDb2dPolyline
 66
     1
 10
0.0
 20
0.0
 30
0.0
  0
VERTEX
  5
68
330
67
100
AcDbEntity
  8
_U+30EC_U+30A4_U+30E4_U+30FC 1
 62
   179
420
  2234388
370
     9
100
AcDbVertex
100
AcDb2dVertex
 10
76.89694581597325
 20
-122.4090558027312
 30
0.0
  0
VERTEX
  5
69
330
67
100
AcDbEntity
  8
_U+30EC_U+30A4_U+30E4_U+30FC 1
 62
   179
420
  2234388
370
     9
100
AcDbVertex
100
AcDb2dVertex
 10
74.43713226761722
 20
-122.4090558027312
 30
0.0
  0
SEQEND
  5
6A
330
67
100
AcDbEntity
  8
_U+30EC_U+30A4_U+30E4_U+30FC 1
 62
   179
420
  2234388
370
     9
  0
INSERT
  5
6C
330
1F
100
AcDbEntity
  8
_U+30EC_U+30A4_U+30E4_U+30FC 1
100
AcDbBlockReference
  2
block 3
 10
0.0
 20
0.0
 30
0.0
  0
POLYLINE
  5
74
330
1F
100
AcDbEntity
  8
_U+30EC_U+30A4_U+30E4_U+30FC 1
 62
   179
420
  2234388
370
     9
100
AcDb2dPolyline
 66
     1
 10
0.0
 20
0.0
 30
0.0
  0
VERTEX
  5
75
330
74
100
AcDbEntity
  8
_U+30EC_U+30A4_U+30E4_U+30FC 1
 62
   179
420
  2234388
370
     9
100
AcDbVertex
100
AcDb2dVertex
 10
80.43710600343402
 20
-118.4092966370644
 30
0.0
  0
VERTEX
  5
76
330
74
100
AcDbEntity
  8
_U+30EC_U+30A4_U+30E4_U+30FC 1
 62
   179
420
  2234388
370
     9
100
AcDbVertex
100
AcDb2dVertex
 10
93.43686094956041
 20
-118.4092966370644
 30
0.0
  0
SEQEND
  5
77
330
74
100
AcDbEntity
  8
_U+30EC_U+30A4_U+30E4_U+30FC 1
 62
   179
420
  2234388
370
     9
  0
POLYLINE
  5
78
330
1F
100
AcDbEntity
  8
_U+30EC_U+30A4_U+30E4_U+30FC 1
 62
   179
420
  2234388
370
     9
100
AcDb2dPolyline
 66
     1
 10
0.0
 20
0.0
 30
0.0
  0
VERTEX
  5
79
330
78
100
AcDbEntity
  8
_U+30EC_U+30A4_U+30E4_U+30FC 1
 62
   179
420
  2234388
370
     9
100
AcDbVertex
100
AcDb2dVertex
 10
80.43710600343402
 20
-119.8610830255904
 30
0.0
  0
VERTEX
  5
7A
330
78
100
AcDbEntity
  8
_U+30EC_U+30A4_U+30E4_U+30FC 1
 62
   179
420
  2234388
370
     9
100
AcDbVertex
100
AcDb2dVertex
 10
80.43710600343402
 20
-117.4093833039811
 30
0.0
  0
SEQEND
  5
7B
330
78
100
AcDbEntity
  8
_U+30EC_U+30A4_U+30E4_U+30FC 1
 62
   179
420
  2234388
370
     9
  0
POLYLINE
  5
7C
330
1F
100
AcDbEntity
  8
_U+30EC_U+30A4_U+30E4_U+30FC 1
 62
   179
420
  2234388
370
     9
100
AcDb2dPolyline
 66
     1
 10
0.0
 20
0.0
 30
0.0
  0
VERTEX
  5
7D
330
7C
100
AcDbEntity
  8
_U+30EC_U+30A4_U+30E4_U+30FC 1
 62
   179
420
  2234388
370
     9
100
AcDbVertex
100
AcDb2dVertex
 10
93.43686094956041
 20
-120.8691102475606
 30
0.0
  0
VERTEX
  5
7E
330
7C
100
AcDbEntity
  8
_U+30EC_U+30A4_U+30E4_U+30FC 1
 62
   179
420
  2234388
370
     9
100
AcDbVertex
100
AcDb2dVertex
 10
93.43686094956041
 20
-117.4093833039811
 30
0.0
  0
SEQEND
  5
7F
330
7C
100
AcDbEntity
  8
_U+30EC_U+30A4_U+30E4_U+30FC 1
 62
   179
420
  2234388
370
     9
  0
INSERT
  5
81
330
1F
100
AcDbEntity
  8
_U+30EC_U+30A4_U+30E4_U+30FC 1
100
AcDbBlockReference
  2
block 4
 10
0.0
 20
0.0
 30
0.0
  0
POLYLINE
  5
88
330
1F
100
AcDbEntity
  8
_U+30EC_U+30A4_U+30E4_U+30FC 1
 62
   179
420
  2234388
370
     9
100
AcDb2dPolyline
 66
     1
 10
0.0
 20
0.0
 30
0.0
  0
VERTEX
  5
89
330
88
100
AcDbEntity
  8
_U+30EC_U+30A4_U+30E4_U+30FC 1
 62
   179
420
  2234388
370
     9
100
AcDbVertex
100
AcDb2dVertex
 10
80.02234720221665
 20
-140.823773575905
 30
0.0
  0
VERTEX
  5
8A
330
88
100
AcDbEntity
  8
_U+30EC_U+30A4_U+30E4_U+30FC 1
 62
   179
420
  2234388
370
     9
100
AcDbVertex
100
AcDb2dVertex
 10
75.43690446433313
 20
-145.4092144080923
 30
0.0
  0
SEQEND
  5
8B
330
88
100
AcDbEntity
  8
_U+30EC_U+30A4_U+30E4_U+30FC 1
 62
   179
420
  2234388
370
     9
  0
POLYLINE
  5
8C
330
1F
100
AcDbEntity
  8
_U+30EC_U+30A4_U+30E4_U+30FC 1
 62
   179
420
  2234388
370
     9
100
AcDb2dPolyline
 66
     1
 10
0.0
 20
0.0
 30
0.0
  0
VERTEX
  5
8D
330
8C
100
AcDbEntity
  8
_U+30EC_U+30A4_U+30E4_U+30FC 1
 62
   179
420
  2234388
370
     9
100
AcDbVertex
100
AcDb2dVertex
 10
75.43690446433313
 20
-145.4092144080923
 30
0.0
  0
VERTEX
  5
8E
330
8C
100
AcDbEntity
  8
_U+30EC_U+30A4_U+30E4_U+30FC 1
 62
   179
420
  2234388
370
     9
100
AcDbVertex
100
AcDb2dVertex
 10
71.92292220424157
 20
-145.4092144080923
 30
0.0
  0
SEQEND
  5
8F
330
8C
100
AcDbEntity
  8
_U+30EC_U+30A4_U+30E4_U+30FC 1
 62
   179
420
  2234388
370
     9
  0
INSERT
  5
91
330
1F
100
AcDbEntity
  8
_U+30EC_U+30A4_U+30E4_U+30FC 1
100
AcDbBlockReference
  2
block 5
 10
0.0
 20
0.0
 30
0.0
  0
SPLINE
  5
99
330
1F
100
AcDbEntity
  8
_U+30EC_U+30A4_U+30E4_U+30FC 1
 62
   179
420
  2234388
370
    25
100
AcDbSpline
210
0.0
220
0.0
230
1.0
 70
    11
 71
     3
 72
    74
 73
    70
 74
     0
 42
0.0000000001
 43
0.0000000001
 12
1.0
 22
0.0
 32
0.0
 13
1.0
 23
0.0
 33
0.0
 40
0.0
 40
0.0
 40
0.0
 40
0.0
 40
1.0
 40
1.0
 40
1.0
 40
2.0
 40
2.0
 40
2.0
 40
3.0
 40
3.0
 40
3.0
 40
4.0
 40
4.0
 40
4.0
 40
5.0
 40
5.0
 40
5.0
 40
6.0
 40
6.0
 40
6.0
 40
7.0
 40
7.0
 40
7.0
 40
8.0
 40
8.0
 40
8.0
 40
9.0
 40
9.0
 40
9.0
 40
10.0
 40
10.0
 40
10.0
 40
11.0
 40
11.0
 40
11.0
 40
12.0
 40
12.0
 40
12.0
 40
13.0
 40
13.0
 40
13.0
 40
14.0
 40
14.0
 40
14.0
 40
15.0
 40
15.0
 40
15.0
 40
16.0
 40
16.0
 40
16.0
 40
17.0
 40
17.0
 40
17.0
 40
18.0
 40
18.0
 40
18.0
 40
19.0
 40
19.0
 40
19.0
 40
20.0
 40
20.0
 40
20.0
 40
21.0
 40
21.0
 40
21.0
 40
22.0
 40
22.0
 40
22.0
 40
23.0
 40
23.0
 40
23.0
 40
23.0
 10
97.43658473640785
 20
-141.4094552424254
 30
0.0
 10
97.98917583342119
 20
-141.4094552424254
 30
0.0
 10
98.43706248866131
 20
-140.9616038536483
 30
0.0
 10
98.43706248866131
 20
-140.4096830204528
 30
0.0
 10
98.43706248866131
 20
-140.4096830204528
 30
0.0
 10
81.86821957803438
 20
-140.4096830204528
 30
0.0
 10
81.86821957803438
 20
-140.4096830204528
 30
0.0
 10
81.78828013562936
 20
-140.4096830204528
 30
0.0
 10
81.7125055351275
 20
-140.3780035760164
 30
0.0
 10
81.65598847233774
 20
-140.3214885760304
 30
0.0
 10
81.53886625310355
 20
-140.204366353838
 30
0.0
 10
81.53886625310355
 20
-140.0148894094405
 30
0.0
 10
81.65598847233774
 20
-139.8977319094699
 30
0.0
 10
81.65598847233774
 20
-139.8977319094699
 30
0.0
 10
94.14379232041398
 20
-127.4092927459256
 30
0.0
 10
94.14379232041398
 20
-127.4092927459256
 30
0.0
 10
94.14379232041398
 20
-127.4092927459256
 30
0.0
 10
97.43658473640785
 20
-127.4092927459256
 30
0.0
 10
97.43658473640785
 20
-127.4092927459256
 30
0.0
 10
97.79419556061777
 20
-127.4092927459256
 30
0.0
 10
98.12425444108615
 20
-127.2184046904176
 30
0.0
 10
98.3026894365339
 20
-126.9090538571615
 30
0.0
 10
98.3026894365339
 20
-126.9090538571615
 30
0.0
 10
108.9370341652292
 20
-126.9090538571615
 30
0.0
 10
108.9370341652292
 20
-126.9090538571615
 30
0.0
 10
109.2126241581983
 20
-126.9090538571615
 30
0.0
 10
109.4365674858183
 20
-126.6851105238842
 30
0.0
 10
109.4365674858183
 20
-126.4095205239533
 30
0.0
 10
109.4365674858183
 20
-126.4095205239533
 30
0.0
 10
94.43659786849945
 20
-126.4095205239533
 30
0.0
 10
94.43659786849945
 20
-126.4095205239533
 30
0.0
 10
94.43659786849945
 20
-126.4095205239533
 30
0.0
 10
94.43659786849945
 20
-111.4094094165921
 30
0.0
 10
94.43659786849945
 20
-111.4094094165921
 30
0.0
 10
94.16030231999278
 20
-111.4094094165921
 30
0.0
 10
93.93706454791027
 20
-111.6326471943142
 30
0.0
 10
93.93706454791027
 20
-111.9089427498006
 30
0.0
 10
93.93706454791027
 20
-111.9089427498006
 30
0.0
 10
93.93706454791027
 20
-122.5434288582529
 30
0.0
 10
93.93706454791027
 20
-122.5434288582529
 30
0.0
 10
93.62700816693157
 20
-122.7218638582083
 30
0.0
 10
93.43686094956041
 20
-123.0519227470149
 30
0.0
 10
93.43686094956041
 20
-123.4095335802587
 30
0.0
 10
93.43686094956041
 20
-123.4095335802587
 30
0.0
 10
93.43686094956041
 20
-126.7023613572132
 30
0.0
 10
93.43686094956041
 20
-126.7023613572132
 30
0.0
 10
93.43686094956041
 20
-126.7023613572132
 30
0.0
 10
80.94905710148417
 20
-139.1901302429805
 30
0.0
 10
80.94905710148417
 20
-139.1901302429805
 30
0.0
 10
80.89257738070286
 20
-139.2466099651883
 30
0.0
 10
80.81609720201821
 20
-139.2783246874029
 30
0.0
 10
80.7368612735644
 20
-139.2783246874029
 30
0.0
 10
80.57077350002388
 20
-139.2783246874029
 30
0.0
 10
80.43643572567333
 20
-139.1439516318809
 30
0.0
 10
80.43643572567333
 20
-138.9778991319224
 30
0.0
 10
80.43643572567333
 20
-138.9778991319224
 30
0.0
 10
80.43643572567333
 20
-122.4090558027312
 30
0.0
 10
80.43643572567333
 20
-122.4090558027312
 30
0.0
 10
79.88384462866
 20
-122.4090558027312
 30
0.0
 10
79.43666352895742
 20
-122.8569424692858
 30
0.0
 10
79.43666352895742
 20
-123.4095335802587
 30
0.0
 10
79.43666352895742
 20
-123.4095335802587
 30
0.0
 10
79.43666352895742
 20
-139.4092405207036
 30
0.0
 10
79.43666352895742
 20
-139.4092405207036
 30
0.0
 10
79.43666352895742
 20
-140.5137171870938
 30
0.0
 10
80.3324015616608
 20
-141.4094552424254
 30
0.0
 10
81.43687820014992
 20
-141.4094552424254
 30
0.0
 10
81.43687820014992
 20
-141.4094552424254
 30
0.0
 10
97.43658473640785
 20
-141.4094552424254
 30
0.0
 10
97.43658473640785
 20
-141.4094552424254
 30
0.0
  0
HATCH
  5
9A
330
1F
100
AcDbEntity
  8
_U+30EC_U+30A4_U+30E4_U+30FC 1
 62
   253
420
 11711154
100
AcDbHatch
 10
0.0
 20
0.0
 30
0.0
210
0.0
220
0.0
230
1.0
  2
SOLID
 70
     1
 71
     0
 91
        1
 92
        1
 93
        1
 72
     4
 94
        3
 73
     0
 74
     1
 95
       74
 96
       70
 40
0.0
 40
0.0
 40
0.0
 40
0.0
 40
1.0
 40
1.0
 40
1.0
 40
2.0
 40
2.0
 40
2.0
 40
3.0
 40
3.0
 40
3.0
 40
4.0
 40
4.0
 40
4.0
 40
5.0
 40
5.0
 40
5.0
 40
6.0
 40
6.0
 40
6.0
 40
7.0
 40
7.0
 40
7.0
 40
8.0
 40
8.0
 40
8.0
 40
9.0
 40
9.0
 40
9.0
 40
10.0
 40
10.0
 40
10.0
 40
11.0
 40
11.0
 40
11.0
 40
12.0
 40
12.0
 40
12.0
 40
13.0
 40
13.0
 40
13.0
 40
14.0
 40
14.0
 40
14.0
 40
15.0
 40
15.0
 40
15.0
 40
16.0
 40
16.0
 40
16.0
 40
17.0
 40
17.0
 40
17.0
 40
18.0
 40
18.0
 40
18.0
 40
19.0
 40
19.0
 40
19.0
 40
20.0
 40
20.0
 40
20.0
 40
21.0
 40
21.0
 40
21.0
 40
22.0
 40
22.0
 40
22.0
 40
23.0
 40
23.0
 40
23.0
 40
23.0
 10
97.43658473640785
 20
-141.4094552424254
 10
97.98917583342119
 20
-141.4094552424254
 10
98.43706248866131
 20
-140.9616038536483
 10
98.43706248866131
 20
-140.4096830204528
 10
98.43706248866131
 20
-140.4096830204528
 10
81.86821957803438
 20
-140.4096830204528
 10
81.86821957803438
 20
-140.4096830204528
 10
81.78828013562936
 20
-140.4096830204528
 10
81.7125055351275
 20
-140.3780035760164
 10
81.65598847233774
 20
-140.3214885760304
 10
81.53886625310355
 20
-140.204366353838
 10
81.53886625310355
 20
-140.0148894094405
 10
81.65598847233774
 20
-139.8977319094699
 10
81.65598847233774
 20
-139.8977319094699
 10
94.14379232041398
 20
-127.4092927459256
 10
94.14379232041398
 20
-127.4092927459256
 10
94.14379232041398
 20
-127.4092927459256
 10
97.43658473640785
 20
-127.4092927459256
 10
97.43658473640785
 20
-127.4092927459256
 10
97.79419556061777
 20
-127.4092927459256
 10
98.12425444108615
 20
-127.2184046904176
 10
98.3026894365339
 20
-126.9090538571615
 10
98.3026894365339
 20
-126.9090538571615
 10
108.9370341652292
 20
-126.9090538571615
 10
108.9370341652292
 20
-126.9090538571615
 10
109.2126241581983
 20
-126.9090538571615
 10
109.4365674858183
 20
-126.6851105238842
 10
109.4365674858183
 20
-126.4095205239533
 10
109.4365674858183
 20
-126.4095205239533
 10
94.43659786849945
 20
-126.4095205239533
 10
94.43659786849945
 20
-126.4095205239533
 10
94.43659786849945
 20
-126.4095205239533
 10
94.43659786849945
 20
-111.4094094165921
 10
94.43659786849945
 20
-111.4094094165921
 10
94.16030231999278
 20
-111.4094094165921
 10
93.93706454791027
 20
-111.6326471943142
 10
93.93706454791027
 20
-111.9089427498006
 10
93.93706454791027
 20
-111.9089427498006
 10
93.93706454791027
 20
-122.5434288582529
 10
93.93706454791027
 20
-122.5434288582529
 10
93.62700816693157
 20
-122.7218638582083
 10
93.43686094956041
 20
-123.0519227470149
 10
93.43686094956041
 20
-123.4095335802587
 10
93.43686094956041
 20
-123.4095335802587
 10
93.43686094956041
 20
-126.7023613572132
 10
93.43686094956041
 20
-126.7023613572132
 10
93.43686094956041
 20
-126.7023613572132
 10
80.94905710148417
 20
-139.1901302429805
 10
80.94905710148417
 20
-139.1901302429805
 10
80.89257738070286
 20
-139.2466099651883
 10
80.81609720201821
 20
-139.2783246874029
 10
80.7368612735644
 20
-139.2783246874029
 10
80.57077350002388
 20
-139.2783246874029
 10
80.43643572567333
 20
-139.1439516318809
 10
80.43643572567333
 20
-138.9778991319224
 10
80.43643572567333
 20
-138.9778991319224
 10
80.43643572567333
 20
-122.4090558027312
 10
80.43643572567333
 20
-122.4090558027312
 10
79.88384462866
 20
-122.4090558027312
 10
79.43666352895742
 20
-122.8569424692858
 10
79.43666352895742
 20
-123.4095335802587
 10
79.43666352895742
 20
-123.4095335802587
 10
79.43666352895742
 20
-139.4092405207036
 10
79.43666352895742
 20
-139.4092405207036
 10
79.43666352895742
 20
-140.5137171870938
 10
80.3324015616608
 20
-141.4094552424254
 10
81.43687820014992
 20
-141.4094552424254
 10
81.43687820014992
 20
-141.4094552424254
 10
97.43658473640785
 20
-141.4094552424254
 10
97.43658473640785
 20
-141.4094552424254
 97
        0
 97
        0
 75
     2
 76
     1
 98
        0
  0
POLYLINE
  5
9B
330
1F
100
AcDbEntity
  8
_U+30EC_U+30A4_U+30E4_U+30FC 1
 62
   179
420
  2234388
370
     9
100
AcDb2dPolyline
 66
     1
 10
0.0
 20
0.0
 30
0.0
  0
VERTEX
  5
9C
330
9B
100
AcDbEntity
  8
_U+30EC_U+30A4_U+30E4_U+30FC 1
 62
   179
420
  2234388
370
     9
100
AcDbVertex
100
AcDb2dVertex
 10
77.89463662385337
 20
-118.4044988592877
 30
0.0
  0
VERTEX
  5
9D
330
9B
100
AcDbEntity
  8
_U+30EC_U+30A4_U+30E4_U+30FC 1
 62
   179
420
  2234388
370
     9
100
AcDbVertex
100
AcDb2dVertex
 10
83.93458008087269
 20
-118.4044988592877
 30
0.0
  0
SEQEND
  5
9E
330
9B
100
AcDbEntity
  8
_U+30EC_U+30A4_U+30E4_U+30FC 1
 62
   179
420
  2234388
370
     9
  0
SPLINE
  5
9F
330
1F
100
AcDbEntity
  8
_U+30EC_U+30A4_U+30E4_U+30FC 1
 62
   179
420
  2234388
370
     9
100
AcDbSpline
210
0.0
220
0.0
230
1.0
 70
    11
 71
     3
 72
    17
 73
    13
 74
     0
 42
0.0000000001
 43
0.0000000001
 12
1.0
 22
0.0
 32
0.0
 13
1.0
 23
0.0
 33
0.0
 40
0.0
 40
0.0
 40
0.0
 40
0.0
 40
1.0
 40
1.0
 40
1.0
 40
2.0
 40
2.0
 40
2.0
 40
3.0
 40
3.0
 40
3.0
 40
4.0
 40
4.0
 40
4.0
 40
4.0
 10
79.53448880423947
 20
-118.4010416370664
 30
0.0
 10
79.53448880423947
 20
-118.3459377481912
 30
0.0
 10
79.4897213053816
 20
-118.3011349704248
 30
0.0
 10
79.43458214012165
 20
-118.3011349704248
 30
0.0
 10
79.37947825263858
 20
-118.3011349704248
 30
0.0
 10
79.33467547600381
 20
-118.3459377481912
 30
0.0
 10
79.33467547600381
 20
-118.4010416370664
 30
0.0
 10
79.33467547600381
 20
-118.4561808037192
 30
0.0
 10
79.37947825263858
 20
-118.500948303708
 30
0.0
 10
79.43458214012165
 20
-118.500948303708
 30
0.0
 10
79.4897213053816
 20
-118.500948303708
 30
0.0
 10
79.53448880423947
 20
-118.4561808037192
 30
0.0
 10
79.53448880423947
 20
-118.4010416370664
 30
0.0
  0
POLYLINE
  5
A0
330
1F
100
AcDbEntity
  8
_U+30EC_U+30A4_U+30E4_U+30FC 1
 62
   179
420
  2234388
370
     9
100
AcDb2dPolyline
 66
     1
 10
0.0
 20
0.0
 30
0.0
  0
VERTEX
  5
A1
330
A0
100
AcDbEntity
  8
_U+30EC_U+30A4_U+30E4_U+30FC 1
 62
   179
420
  2234388
370
     9
100
AcDbVertex
100
AcDb2dVertex
 10
79.43458214012165
 20
-119.8610830255904
 30
0.0
  0
VERTEX
  5
A2
330
A0
100
AcDbEntity
  8
_U+30EC_U+30A4_U+30E4_U+30FC 1
 62
   179
420
  2234388
370
     9
100
AcDbVertex
100
AcDb2dVertex
 10
79.43458214012165
 20
-117.4010930262053
 30
0.0
  0
SEQEND
  5
A3
330
A0
100
AcDbEntity
  8
_U+30EC_U+30A4_U+30E4_U+30FC 1
 62
   179
420
  2234388
370
     9
  0
INSERT
  5
A5
330
1F
100
AcDbEntity
  8
_U+30EC_U+30A4_U+30E4_U+30FC 1
100
AcDbBlockReference
  2
block 6
 10
0.0
 20
0.0
 30
0.0
  0
ENDSEC
  0
SECTION
  2
OBJECTS
  0
DICTIONARY
  5
C
330
0
100
AcDbDictionary
281
     1
  3
ACAD_GROUP
350
D
  3
ACAD_LAYOUT
350
1A
  3
ACAD_MATERIAL
350
3B
  3
ACAD_MLEADERSTYLE
350
AB
  3
ACAD_MLINESTYLE
350
17
  3
ACAD_PLOTSETTINGS
350
19
  3
ACAD_PLOTSTYLENAME
350
E
  3
ACAD_TABLESTYLE
350
AA
  3
ACAD_VISUALSTYLE
350
2A
  0
SUN
  5
3F
330
29
100
AcDbSun
 90
        1
290
     0
 63
     7
421
 16777215
 40
1.0
291
     1
 91
  2455826
 92
 54000000
292
     0
 70
     2
 71
   256
280
     1
  0
DICTIONARY
  5
D
102
{ACAD_REACTORS
330
C
102
}
330
C
100
AcDbDictionary
281
     1
  0
DICTIONARY
  5
1A
102
{ACAD_REACTORS
330
C
102
}
330
C
100
AcDbDictionary
281
     1
  3
Layout1
350
1E
  3
Layout2
350
26
  3
Model
350
22
  0
DICTIONARY
  5
3B
102
{ACAD_REACTORS
330
C
102
}
330
C
100
AcDbDictionary
281
     1
  3
ByBlock
350
3D
  3
ByLayer
350
3C
  3
Global
350
3E
  0
DICTIONARY
  5
AB
102
{ACAD_REACTORS
330
C
102
}
330
C
100
AcDbDictionary
281
     1
  0
DICTIONARY
  5
17
102
{ACAD_REACTORS
330
C
102
}
330
C
100
AcDbDictionary
281
     1
  3
Standard
350
18
  0
DICTIONARY
  5
19
102
{ACAD_REACTORS
330
C
102
}
330
C
100
AcDbDictionary
281
     1
  0
ACDBDICTIONARYWDFLT
  5
E
102
{ACAD_REACTORS
330
C
102
}
330
C
100
AcDbDictionary
281
     1
  3
Normal
350
F
100
AcDbDictionaryWithDefault
340
F
  0
DICTIONARY
  5
AA
102
{ACAD_REACTORS
330
C
102
}
330
C
100
AcDbDictionary
281
     1
  0
DICTIONARY
  5
2A
102
{ACAD_REACTORS
330
C
102
}
330
C
100
AcDbDictionary
281
     1
  3
2dWireframe
350
2F
  3
3D Hidden
350
31
  3
3dWireframe
350
30
  3
Basic
350
32
  3
Brighten
350
36
  3
ColorChange
350
3A
  3
Conceptual
350
34
  3
Dim
350
35
  3
Facepattern
350
39
  3
Flat
350
2B
  3
FlatWithEdges
350
2C
  3
Gouraud
350
2D
  3
GouraudWithEdges
350
2E
  3
Linepattern
350
38
  3
Realistic
350
33
  3
Thicken
350
37
  0
LAYOUT
  5
1E
102
{ACAD_REACTORS
330
1A
102
}
330
1A
100
AcDbPlotSettings
  1

  2
none_device
  4

  6

 40
0.0
 41
0.0
 42
0.0
 43
0.0
 44
0.0
 45
0.0
 46
0.0
 47
0.0
 48
0.0
 49
0.0
140
0.0
141
0.0
142
1.0
143
1.0
 70
   688
 72
     0
 73
     0
 74
     5
  7

 75
    16
 76
     0
 77
     2
 78
   300
147
1.0
148
0.0
149
0.0
100
AcDbLayout
  1
Layout1
 70
     1
 71
     1
 10
0.0
 20
0.0
 11
12.0
 21
9.0
 12
0.0
 22
0.0
 32
0.0
 14
1.000000000000000E+20
 24
1.000000000000000E+20
 34
1.000000000000000E+20
 15
-1.000000000000000E+20
 25
-1.000000000000000E+20
 35
-1.000000000000000E+20
146
0.0
 13
0.0
 23
0.0
 33
0.0
 16
1.0
 26
0.0
 36
0.0
 17
0.0
 27
1.0
 37
0.0
 76
     0
330
1B
  0
LAYOUT
  5
26
102
{ACAD_REACTORS
330
1A
102
}
330
1A
100
AcDbPlotSettings
  1

  2
none_device
  4

  6

 40
0.0
 41
0.0
 42
0.0
 43
0.0
 44
0.0
 45
0.0
 46
0.0
 47
0.0
 48
0.0
 49
0.0
140
0.0
141
0.0
142
1.0
143
1.0
 70
   688
 72
     0
 73
     0
 74
     5
  7

 75
    16
 76
     0
 77
     2
 78
   300
147
1.0
148
0.0
149
0.0
100
AcDbLayout
  1
Layout2
 70
     1
 71
     2
 10
0.0
 20
0.0
 11
0.0
 21
0.0
 12
0.0
 22
0.0
 32
0.0
 14
0.0
 24
0.0
 34
0.0
 15
0.0
 25
0.0
 35
0.0
146
0.0
 13
0.0
 23
0.0
 33
0.0
 16
1.0
 26
0.0
 36
0.0
 17
0.0
 27
1.0
 37
0.0
 76
     0
330
23
  0
LAYOUT
  5
22
102
{ACAD_REACTORS
330
1A
102
}
330
1A
100
AcDbPlotSettings
  1

  2
none_device
  4

  6

 40
0.0
 41
0.0
 42
0.0
 43
0.0
 44
0.0
 45
0.0
 46
0.0
 47
0.0
 48
0.0
 49
0.0
140
0.0
141
0.0
142
1.0
143
1.0
 70
  1712
 72
     0
 73
     0
 74
     0
  7

 75
     0
 76
     0
 77
     2
 78
   300
147
1.0
148
0.0
149
0.0
100
AcDbLayout
  1
Model
 70
     1
 71
     0
 10
0.0
 20
0.0
 11
12.0
 21
9.0
 12
0.0
 22
0.0
 32
0.0
 14
1.000000000000000E+20
 24
1.000000000000000E+20
 34
1.000000000000000E+20
 15
-1.000000000000000E+20
 25
-1.000000000000000E+20
 35
-1.000000000000000E+20
146
0.0
 13
0.0
 23
0.0
 33
0.0
 16
1.0
 26
0.0
 36
0.0
 17
0.0
 27
1.0
 37
0.0
 76
     0
330
1F
331
29
  0
MATERIAL
  5
3D
102
{ACAD_REACTORS
330
3B
102
}
330
3B
100
AcDbMaterial
  1
ByBlock
 72
     1
 94
      127
  0
MATERIAL
  5
3C
102
{ACAD_REACTORS
330
3B
102
}
330
3B
100
AcDbMaterial
  1
ByLayer
 72
     1
 94
      127
  0
MATERIAL
  5
3E
102
{ACAD_REACTORS
330
3B
102
}
330
3B
100
AcDbMaterial
  1
Global
 72
     1
 94
      127
  0
MLINESTYLE
  5
18
102
{ACAD_REACTORS
330
17
102
}
330
17
100
AcDbMlineStyle
  2
Standard
 70
     0
  3

 62
   256
 51
90.0
 52
90.0
 71
     2
 49
0.5
 62
   256
  6
BYLAYER
 49
-0.5
 62
   256
  6
BYLAYER
  0
ACDBPLACEHOLDER
  5
F
102
{ACAD_REACTORS
330
E
102
}
330
E
  0
VISUALSTYLE
  5
2F
102
{ACAD_REACTORS
330
2A
102
}
330
2A
100
AcDbVisualStyle
  2
2dWireframe
 70
     4
177
     2
291
     0
 71
     0
176
     1
 72
     2
176
     1
 73
     0
176
     1
 90
        0
176
     1
 40
-0.6
176
     1
 41
-30.0
176
     1
 62
     5
 63
     7
421
 16777215
176
     1
 74
     1
176
     1
 91
        4
176
     1
 64
     7
176
     1
 65
   257
176
     1
 75
     1
176
     1
175
     1
176
     1
 42
1.0
176
     1
 92
        0
176
     1
 66
   257
176
     1
 43
1.0
176
     1
 76
     1
176
     1
 77
     6
176
     1
 78
     2
176
     1
 67
     7
176
     1
 79
     5
176
     1
170
     0
176
     1
171
     0
176
     1
290
     0
176
     1
 93
        1
176
     1
 44
0.0
176
     1
173
     0
176
     1
  0
VISUALSTYLE
  5
31
102
{ACAD_REACTORS
330
2A
102
}
330
2A
100
AcDbVisualStyle
  2
3D Hidden
 70
     6
177
     2
291
     0
 71
     1
176
     1
 72
     2
176
     1
 73
     2
176
     1
 90
        0
176
     1
 40
-0.6
176
     1
 41
-30.0
176
     1
 62
     5
 63
     7
421
 16777215
176
     1
 74
     2
176
     1
 91
        2
176
     1
 64
     7
176
     1
 65
   257
176
     1
 75
     2
176
     1
175
     1
176
     1
 42
40.0
176
     1
 92
        0
176
     1
 66
   257
176
     1
 43
1.0
176
     1
 76
     1
176
     1
 77
     6
176
     1
 78
     2
176
     1
 67
     7
176
     1
 79
     3
176
     1
170
     0
176
     1
171
     0
176
     1
290
     0
176
     1
 93
        1
176
     1
 44
0.0
176
     1
173
     0
176
     1
  0
VISUALSTYLE
  5
30
102
{ACAD_REACTORS
330
2A
102
}
330
2A
100
AcDbVisualStyle
  2
3dWireframe
 70
     5
177
     2
291
     0
 71
     0
176
     1
 72
     2
176
     1
 73
     0
176
     1
 90
        0
176
     1
 40
-0.6
176
     1
 41
-30.0
176
     1
 62
     5
 63
     7
421
 16777215
176
     1
 74
     1
176
     1
 91
        4
176
     1
 64
     7
176
     1
 65
   257
176
     1
 75
     1
176
     1
175
     1
176
     1
 42
1.0
176
     1
 92
        0
176
     1
 66
   257
176
     1
 43
1.0
176
     1
 76
     1
176
     1
 77
     6
176
     1
 78
     2
176
     1
 67
     7
176
     1
 79
     5
176
     1
170
     0
176
     1
171
     0
176
     1
290
     0
176
     1
 93
        1
176
     1
 44
0.0
176
     1
173
     0
176
     1
  0
VISUALSTYLE
  5
32
102
{ACAD_REACTORS
330
2A
102
}
330
2A
100
AcDbVisualStyle
  2
Basic
 70
     7
177
     2
291
     1
 71
     1
176
     1
 72
     0
176
     1
 73
     1
176
     1
 90
        0
176
     1
 40
-0.6
176
     1
 41
-30.0
176
     1
 62
     5
 63
     7
421
 16777215
176
     1
 74
     0
176
     1
 91
        4
176
     1
 64
     7
176
     1
 65
   257
176
     1
 75
     1
176
     1
175
     1
176
     1
 42
1.0
176
     1
 92
        8
176
     1
 66
     7
176
     1
 43
1.0
176
     1
 76
     1
176
     1
 77
     6
176
     1
 78
     2
176
     1
 67
     7
176
     1
 79
     5
176
     1
170
     0
176
     1
171
     0
176
     1
290
     0
176
     1
 93
        1
176
     1
 44
0.0
176
     1
173
     0
176
     1
  0
VISUALSTYLE
  5
36
102
{ACAD_REACTORS
330
2A
102
}
330
2A
100
AcDbVisualStyle
  2
Brighten
 70
    12
177
     2
291
     1
 71
     2
176
     1
 72
     2
176
     1
 73
     0
176
     1
 90
        0
176
     1
 40
-0.6
176
     1
 41
-30.0
176
     1
 62
     5
 63
     7
421
 16777215
176
     1
 74
     1
176
     1
 91
        4
176
     1
 64
     7
176
     1
 65
   257
176
     1
 75
     1
176
     1
175
     1
176
     1
 42
1.0
176
     1
 92
        8
176
     1
 66
     7
176
     1
 43
1.0
176
     1
 76
     1
176
     1
 77
     6
176
     1
 78
     2
176
     1
 67
     7
176
     1
 79
     5
176
     1
170
     0
176
     1
171
     0
176
     1
290
     0
176
     1
 93
        1
176
     1
 44
50.0
176
     1
173
     0
176
     1
  0
VISUALSTYLE
  5
3A
102
{ACAD_REACTORS
330
2A
102
}
330
2A
100
AcDbVisualStyle
  2
ColorChange
 70
    16
177
     2
291
     1
 71
     2
176
     1
 72
     2
176
     1
 73
     3
176
     1
 90
        0
176
     1
 40
-0.6
176
     1
 41
-30.0
176
     1
 62
     5
 63
     8
421
  8421504
176
     1
 74
     1
176
     1
 91
        4
176
     1
 64
     7
176
     1
 65
   257
176
     1
 75
     1
176
     1
175
     1
176
     1
 42
1.0
176
     1
 92
        8
176
     1
 66
     8
424
  8421504
176
     1
 43
1.0
176
     1
 76
     1
176
     1
 77
     6
176
     1
 78
     2
176
     1
 67
     7
176
     1
 79
     5
176
     1
170
     0
176
     1
171
     0
176
     1
290
     0
176
     1
 93
        1
176
     1
 44
0.0
176
     1
173
     0
176
     1
  0
VISUALSTYLE
  5
34
102
{ACAD_REACTORS
330
2A
102
}
330
2A
100
AcDbVisualStyle
  2
Conceptual
 70
     9
177
     2
291
     0
 71
     3
176
     1
 72
     2
176
     1
 73
     0
176
     1
 90
        0
176
     1
 40
-0.6
176
     1
 41
-30.0
176
     1
 62
     5
 63
     7
421
 16777215
176
     1
 74
     2
176
     1
 91
        2
176
     1
 64
     7
176
     1
 65
   257
176
     1
 75
     1
176
     1
175
     1
176
     1
 42
40.0
176
     1
 92
        8
176
     1
 66
     7
176
     1
 43
1.0
176
     1
 76
     1
176
     1
 77
     6
176
     1
 78
     2
176
     1
 67
     7
176
     1
 79
     3
176
     1
170
     0
176
     1
171
     0
176
     1
290
     0
176
     1
 93
        1
176
     1
 44
0.0
176
     1
173
     0
176
     1
  0
VISUALSTYLE
  5
35
102
{ACAD_REACTORS
330
2A
102
}
330
2A
100
AcDbVisualStyle
  2
Dim
 70
    11
177
     2
291
     1
 71
     2
176
     1
 72
     2
176
     1
 73
     0
176
     1
 90
        0
176
     1
 40
-0.6
176
     1
 41
-30.0
176
     1
 62
     5
 63
     7
421
 16777215
176
     1
 74
     1
176
     1
 91
        4
176
     1
 64
     7
176
     1
 65
   257
176
     1
 75
     1
176
     1
175
     1
176
     1
 42
1.0
176
     1
 92
        8
176
     1
 66
     7
176
     1
 43
1.0
176
     1
 76
     1
176
     1
 77
     6
176
     1
 78
     2
176
     1
 67
     7
176
     1
 79
     5
176
     1
170
     0
176
     1
171
     0
176
     1
290
     0
176
     1
 93
        1
176
     1
 44
-50.0
176
     1
173
     0
176
     1
  0
VISUALSTYLE
  5
39
102
{ACAD_REACTORS
330
2A
102
}
330
2A
100
AcDbVisualStyle
  2
Facepattern
 70
    15
177
     2
291
     1
 71
     2
176
     1
 72
     2
176
     1
 73
     0
176
     1
 90
        0
176
     1
 40
-0.6
176
     1
 41
-30.0
176
     1
 62
     5
 63
     7
421
 16777215
176
     1
 74
     1
176
     1
 91
        4
176
     1
 64
     7
176
     1
 65
   257
176
     1
 75
     1
176
     1
175
     1
176
     1
 42
1.0
176
     1
 92
        8
176
     1
 66
     7
176
     1
 43
1.0
176
     1
 76
     1
176
     1
 77
     6
176
     1
 78
     2
176
     1
 67
     7
176
     1
 79
     5
176
     1
170
     0
176
     1
171
     0
176
     1
290
     0
176
     1
 93
        1
176
     1
 44
0.0
176
     1
173
     0
176
     1
  0
VISUALSTYLE
  5
2B
102
{ACAD_REACTORS
330
2A
102
}
330
2A
100
AcDbVisualStyle
  2
Flat
 70
     0
177
     2
291
     1
 71
     2
176
     1
 72
     1
176
     1
 73
     1
176
     1
 90
        2
176
     1
 40
-0.6
176
     1
 41
30.0
176
     1
 62
     5
 63
     7
421
 16777215
176
     1
 74
     0
176
     1
 91
        4
176
     1
 64
     7
176
     1
 65
   257
176
     1
 75
     1
176
     1
175
     1
176
     1
 42
1.0
176
     1
 92
        8
176
     1
 66
     7
176
     1
 43
1.0
176
     1
 76
     1
176
     1
 77
     6
176
     1
 78
     2
176
     1
 67
     7
176
     1
 79
     5
176
     1
170
     0
176
     1
171
     0
176
     1
290
     0
176
     1
 93
       13
176
     1
 44
0.0
176
     1
173
     0
176
     1
  0
VISUALSTYLE
  5
2C
102
{ACAD_REACTORS
330
2A
102
}
330
2A
100
AcDbVisualStyle
  2
FlatWithEdges
 70
     1
177
     2
291
     1
 71
     2
176
     1
 72
     1
176
     1
 73
     1
176
     1
 90
        2
176
     1
 40
-0.6
176
     1
 41
30.0
176
     1
 62
     5
 63
     7
421
 16777215
176
     1
 74
     1
176
     1
 91
        4
176
     1
 64
     7
176
     1
 65
   257
176
     1
 75
     1
176
     1
175
     1
176
     1
 42
1.0
176
     1
 92
        0
176
     1
 66
   257
176
     1
 43
1.0
176
     1
 76
     1
176
     1
 77
     6
176
     1
 78
     2
176
     1
 67
     7
176
     1
 79
     5
176
     1
170
     0
176
     1
171
     0
176
     1
290
     0
176
     1
 93
       13
176
     1
 44
0.0
176
     1
173
     0
176
     1
  0
VISUALSTYLE
  5
2D
102
{ACAD_REACTORS
330
2A
102
}
330
2A
100
AcDbVisualStyle
  2
Gouraud
 70
     2
177
     2
291
     1
 71
     2
176
     1
 72
     2
176
     1
 73
     1
176
     1
 90
        2
176
     1
 40
-0.6
176
     1
 41
30.0
176
     1
 62
     5
 63
     7
421
 16777215
176
     1
 74
     0
176
     1
 91
        4
176
     1
 64
     7
176
     1
 65
   257
176
     1
 75
     1
176
     1
175
     1
176
     1
 42
1.0
176
     1
 92
        0
176
     1
 66
     7
176
     1
 43
1.0
176
     1
 76
     1
176
     1
 77
     6
176
     1
 78
     2
176
     1
 67
     7
176
     1
 79
     5
176
     1
170
     0
176
     1
171
     0
176
     1
290
     0
176
     1
 93
       13
176
     1
 44
0.0
176
     1
173
     0
176
     1
  0
VISUALSTYLE
  5
2E
102
{ACAD_REACTORS
330
2A
102
}
330
2A
100
AcDbVisualStyle
  2
GouraudWithEdges
 70
     3
177
     2
291
     1
 71
     2
176
     1
 72
     2
176
     1
 73
     1
176
     1
 90
        2
176
     1
 40
-0.6
176
     1
 41
30.0
176
     1
 62
     5
 63
     7
421
 16777215
176
     1
 74
     1
176
     1
 91
        4
176
     1
 64
     7
176
     1
 65
   257
176
     1
 75
     1
176
     1
175
     1
176
     1
 42
1.0
176
     1
 92
        0
176
     1
 66
   257
176
     1
 43
1.0
176
     1
 76
     1
176
     1
 77
     6
176
     1
 78
     2
176
     1
 67
     7
176
     1
 79
     5
176
     1
170
     0
176
     1
171
     0
176
     1
290
     0
176
     1
 93
       13
176
     1
 44
0.0
176
     1
173
     0
176
     1
  0
VISUALSTYLE
  5
38
102
{ACAD_REACTORS
330
2A
102
}
330
2A
100
AcDbVisualStyle
  2
Linepattern
 70
    14
177
     2
291
     1
 71
     2
176
     1
 72
     2
176
     1
 73
     0
176
     1
 90
        0
176
     1
 40
-0.6
176
     1
 41
-30.0
176
     1
 62
     5
 63
     7
421
 16777215
176
     1
 74
     1
176
     1
 91
        4
176
     1
 64
     7
176
     1
 65
   257
176
     1
 75
     7
176
     1
175
     7
176
     1
 42
1.0
176
     1
 92
        8
176
     1
 66
     7
176
     1
 43
1.0
176
     1
 76
     1
176
     1
 77
     6
176
     1
 78
     2
176
     1
 67
     7
176
     1
 79
     5
176
     1
170
     0
176
     1
171
     0
176
     1
290
     0
176
     1
 93
        1
176
     1
 44
0.0
176
     1
173
     0
176
     1
  0
VISUALSTYLE
  5
33
102
{ACAD_REACTORS
330
2A
102
}
330
2A
100
AcDbVisualStyle
  2
Realistic
 70
     8
177
     2
291
     0
 71
     2
176
     1
 72
     2
176
     1
 73
     0
176
     1
 90
        0
176
     1
 40
-0.6
176
     1
 41
-30.0
176
     1
 62
     5
 63
     7
421
 16777215
176
     1
 74
     1
176
     1
 91
        0
176
     1
 64
     7
176
     1
 65
   257
176
     1
 75
     1
176
     1
175
     1
176
     1
 42
1.0
176
     1
 92
        8
176
     1
 66
     8
424
  7895160
176
     1
 43
1.0
176
     1
 76
     1
176
     1
 77
     6
176
     1
 78
     2
176
     1
 67
     7
176
     1
 79
     5
176
     1
170
     0
176
     1
171
     0
176
     1
290
     0
176
     1
 93
       13
176
     1
 44
0.0
176
     1
173
     0
176
     1
  0
VISUALSTYLE
  5
37
102
{ACAD_REACTORS
330
2A
102
}
330
2A
100
AcDbVisualStyle
  2
Thicken
 70
    13
177
     2
291
     1
 71
     2
176
     1
 72
     2
176
     1
 73
     0
176
     1
 90
        0
176
     1
 40
-0.6
176
     1
 41
-30.0
176
     1
 62
     5
 63
     7
421
 16777215
176
     1
 74
     1
176
     1
 91
        4
176
     1
 64
     7
176
     1
 65
   257
176
     1
 75
     1
176
     1
175
     1
176
     1
 42
1.0
176
     1
 92
       12
176
     1
 66
     7
176
     1
 43
1.0
176
     1
 76
     1
176
     1
 77
     6
176
     1
 78
     2
176
     1
 67
     7
176
     1
 79
     5
176
     1
170
     0
176
     1
171
     0
176
     1
290
     0
176
     1
 93
        1
176
     1
 44
0.0
176
     1
173
     0
176
     1
  0
ENDSEC
  0
EOF
