  0
SECTION
  2
HEADER
  9
$ACADVER
  1
AC1024
  9
$ACADMAINTVER
 70
     6
  9
$DWGCODEPAGE
  3
UNDEFINED
  9
$INSBASE
 10
0.0
 20
0.0
 30
0.0
  9
$EXTMIN
 10
1.000000000000000E+20
 20
1.000000000000000E+20
 30
1.000000000000000E+20
  9
$EXTMAX
 10
-1.000000000000000E+20
 20
-1.000000000000000E+20
 30
-1.000000000000000E+20
  9
$LIMMIN
 10
0.0
 20
0.0
  9
$LIMMAX
 10
12.0
 20
9.0
  9
$ORTHOMODE
 70
     0
  9
$REGENMODE
 70
     1
  9
$FILLMODE
 70
     1
  9
$QTEXTMODE
 70
     0
  9
$MIRRTEXT
 70
     1
  9
$LTSCALE
 40
1.0
  9
$ATTMODE
 70
     1
  9
$TEXTSIZE
 40
0.2
  9
$TRACEWID
 40
0.05
  9
$TEXTSTYLE
  7
Standard
  9
$CLAYER
  8
0
  9
$CELTYPE
  6
ByLayer
  9
$CECOLOR
 62
   256
  9
$CELTSCALE
 40
1.0
  9
$DISPSILH
 70
     0
  9
$DIMSCALE
 40
1.0
  9
$DIMASZ
 40
0.18
  9
$DIMEXO
 40
0.0625
  9
$DIMDLI
 40
0.38
  9
$DIMRND
 40
0.0
  9
$DIMDLE
 40
0.0
  9
$DIMEXE
 40
0.18
  9
$DIMTP
 40
0.0
  9
$DIMTM
 40
0.0
  9
$DIMTXT
 40
0.18
  9
$DIMCEN
 40
0.09
  9
$DIMTSZ
 40
0.0
  9
$DIMTOL
 70
     0
  9
$DIMLIM
 70
     0
  9
$DIMTIH
 70
     1
  9
$DIMTOH
 70
     1
  9
$DIMSE1
 70
     0
  9
$DIMSE2
 70
     0
  9
$DIMTAD
 70
     0
  9
$DIMZIN
 70
     0
  9
$DIMBLK
  1

  9
$DIMASO
 70
     1
  9
$DIMSHO
 70
     1
  9
$DIMPOST
  1

  9
$DIMAPOST
  1

  9
$DIMALT
 70
     0
  9
$DIMALTD
 70
     2
  9
$DIMALTF
 40
25.4
  9
$DIMLFAC
 40
1.0
  9
$DIMTOFL
 70
     0
  9
$DIMTVP
 40
0.0
  9
$DIMTIX
 70
     0
  9
$DIMSOXD
 70
     0
  9
$DIMSAH
 70
     0
  9
$DIMBLK1
  1

  9
$DIMBLK2
  1

  9
$DIMSTYLE
  2
Standard
  9
$DIMCLRD
 70
     0
  9
$DIMCLRE
 70
     0
  9
$DIMCLRT
 70
     0
  9
$DIMTFAC
 40
1.0
  9
$DIMGAP
 40
0.09
  9
$DIMJUST
 70
     0
  9
$DIMSD1
 70
     0
  9
$DIMSD2
 70
     0
  9
$DIMTOLJ
 70
     1
  9
$DIMTZIN
 70
     0
  9
$DIMALTZ
 70
     0
  9
$DIMALTTZ
 70
     0
  9
$DIMUPT
 70
     0
  9
$DIMDEC
 70
     4
  9
$DIMTDEC
 70
     4
  9
$DIMALTU
 70
     2
  9
$DIMALTTD
 70
     2
  9
$DIMTXSTY
  7
Standard
  9
$DIMAUNIT
 70
     0
  9
$DIMADEC
 70
     0
  9
$DIMALTRND
 40
0.0
  9
$DIMAZIN
 70
     0
  9
$DIMDSEP
 70
    46
  9
$DIMATFIT
 70
     3
  9
$DIMFRAC
 70
     0
  9
$DIMLDRBLK
  1

  9
$DIMLUNIT
 70
     2
  9
$DIMLWD
 70
    -2
  9
$DIMLWE
 70
    -2
  9
$DIMTMOVE
 70
     0
  9
$DIMFXL
 40
1.0
  9
$DIMFXLON
 70
     0
  9
$DIMJOGANG
 40
0.7853981633974483
  9
$DIMTFILL
 70
     0
  9
$DIMTFILLCLR
 70
     0
  9
$DIMARCSYM
 70
     0
  9
$DIMLTYPE
  6

  9
$DIMLTEX1
  6

  9
$DIMLTEX2
  6

  9
$DIMTXTDIRECTION
 70
     0
  9
$LUNITS
 70
     2
  9
$LUPREC
 70
     4
  9
$SKETCHINC
 40
0.1
  9
$FILLETRAD
 40
0.5
  9
$AUNITS
 70
     0
  9
$AUPREC
 70
     0
  9
$MENU
  1
.
  9
$ELEVATION
 40
0.0
  9
$PELEVATION
 40
0.0
  9
$THICKNESS
 40
0.0
  9
$LIMCHECK
 70
     0
  9
$CHAMFERA
 40
0.5
  9
$CHAMFERB
 40
0.5
  9
$CHAMFERC
 40
1.0
  9
$CHAMFERD
 40
0.0
  9
$SKPOLY
 70
     0
  9
$TDCREATE
 40
2457917.619201377
  9
$TDUCREATE
 40
2457917.244201389
  9
$TDUPDATE
 40
2457917.619201377
  9
$TDUUPDATE
 40
2457917.244201389
  9
$TDINDWG
 40
0.0000000116
  9
$TDUSRTIMER
 40
0.0000000116
  9
$USRTIMER
 70
     1
  9
$ANGBASE
 50
0.0
  9
$ANGDIR
 70
     0
  9
$PDMODE
 70
     0
  9
$PDSIZE
 40
0.0
  9
$PLINEWID
 40
0.0
  9
$SPLFRAME
 70
     0
  9
$SPLINETYPE
 70
     6
  9
$SPLINESEGS
 70
     8
  9
$HANDSEED
  5
119
  9
$SURFTAB1
 70
     6
  9
$SURFTAB2
 70
     6
  9
$SURFTYPE
 70
     6
  9
$SURFU
 70
     6
  9
$SURFV
 70
     6
  9
$UCSBASE
  2

  9
$UCSNAME
  2

  9
$UCSORG
 10
0.0
 20
0.0
 30
0.0
  9
$UCSXDIR
 10
1.0
 20
0.0
 30
0.0
  9
$UCSYDIR
 10
0.0
 20
1.0
 30
0.0
  9
$UCSORTHOREF
  2

  9
$UCSORTHOVIEW
 70
     0
  9
$UCSORGTOP
 10
0.0
 20
0.0
 30
0.0
  9
$UCSORGBOTTOM
 10
0.0
 20
0.0
 30
0.0
  9
$UCSORGLEFT
 10
0.0
 20
0.0
 30
0.0
  9
$UCSORGRIGHT
 10
0.0
 20
0.0
 30
0.0
  9
$UCSORGFRONT
 10
0.0
 20
0.0
 30
0.0
  9
$UCSORGBACK
 10
0.0
 20
0.0
 30
0.0
  9
$PUCSBASE
  2

  9
$PUCSNAME
  2

  9
$PUCSORG
 10
0.0
 20
0.0
 30
0.0
  9
$PUCSXDIR
 10
1.0
 20
0.0
 30
0.0
  9
$PUCSYDIR
 10
0.0
 20
1.0
 30
0.0
  9
$PUCSORTHOREF
  2

  9
$PUCSORTHOVIEW
 70
     0
  9
$PUCSORGTOP
 10
0.0
 20
0.0
 30
0.0
  9
$PUCSORGBOTTOM
 10
0.0
 20
0.0
 30
0.0
  9
$PUCSORGLEFT
 10
0.0
 20
0.0
 30
0.0
  9
$PUCSORGRIGHT
 10
0.0
 20
0.0
 30
0.0
  9
$PUCSORGFRONT
 10
0.0
 20
0.0
 30
0.0
  9
$PUCSORGBACK
 10
0.0
 20
0.0
 30
0.0
  9
$USERI1
 70
     0
  9
$USERI2
 70
     0
  9
$USERI3
 70
     0
  9
$USERI4
 70
     0
  9
$USERI5
 70
     0
  9
$USERR1
 40
0.0
  9
$USERR2
 40
0.0
  9
$USERR3
 40
0.0
  9
$USERR4
 40
0.0
  9
$USERR5
 40
0.0
  9
$WORLDVIEW
 70
     1
  9
$SHADEDGE
 70
     3
  9
$SHADEDIF
 70
    70
  9
$TILEMODE
 70
     1
  9
$MAXACTVP
 70
    64
  9
$PINSBASE
 10
0.0
 20
0.0
 30
0.0
  9
$PLIMCHECK
 70
     0
  9
$PEXTMIN
 10
1.000000000000000E+20
 20
1.000000000000000E+20
 30
1.000000000000000E+20
  9
$PEXTMAX
 10
-1.000000000000000E+20
 20
-1.000000000000000E+20
 30
-1.000000000000000E+20
  9
$PLIMMIN
 10
0.0
 20
0.0
  9
$PLIMMAX
 10
12.0
 20
9.0
  9
$UNITMODE
 70
     0
  9
$VISRETAIN
 70
     1
  9
$PLINEGEN
 70
     0
  9
$PSLTSCALE
 70
     1
  9
$TREEDEPTH
 70
  3020
  9
$CMLSTYLE
  2
Standard
  9
$CMLJUST
 70
     0
  9
$CMLSCALE
 40
1.0
  9
$PROXYGRAPHICS
 70
     1
  9
$MEASUREMENT
 70
     0
  9
$CELWEIGHT
370
    -1
  9
$ENDCAPS
280
     0
  9
$JOINSTYLE
280
     0
  9
$LWDISPLAY
290
     1
  9
$INSUNITS
 70
     1
  9
$HYPERLINKBASE
  1

  9
$STYLESHEET
  1

  9
$XEDIT
290
     1
  9
$CEPSNTYPE
380
     0
  9
$PSTYLEMODE
290
     1
  9
$FINGERPRINTGUID
  2
{4BECB9DF-A744-C5F1-E875-63B088F3E308}
  9
$VERSIONGUID
  2
{FAEB1C32-E019-11D5-929B-00C0DF256EC4}
  9
$EXTNAMES
290
     1
  9
$PSVPSCALE
 40
0.0
  9
$OLESTARTUP
290
     0
  9
$SORTENTS
280
   127
  9
$INDEXCTL
280
     0
  9
$HIDETEXT
280
     1
  9
$XCLIPFRAME
280
     2
  9
$HALOGAP
280
     0
  9
$OBSCOLOR
 70
   257
  9
$OBSLTYPE
280
     0
  9
$INTERSECTIONDISPLAY
280
     0
  9
$INTERSECTIONCOLOR
 70
   257
  9
$DIMASSOC
280
     2
  9
$PROJECTNAME
  1

  9
$CAMERADISPLAY
290
     0
  9
$LENSLENGTH
 40
50.0
  9
$CAMERAHEIGHT
 40
0.0
  9
$STEPSPERSEC
 40
2.0
  9
$STEPSIZE
 40
6.0
  9
$3DDWFPREC
 40
2.0
  9
$PSOLWIDTH
 40
0.25
  9
$PSOLHEIGHT
 40
4.0
  9
$LOFTANG1
 40
1.570796326794897
  9
$LOFTANG2
 40
1.570796326794897
  9
$LOFTMAG1
 40
0.0
  9
$LOFTMAG2
 40
0.0
  9
$LOFTPARAM
 70
     7
  9
$LOFTNORMALS
280
     1
  9
$LATITUDE
 40
37.795
  9
$LONGITUDE
 40
-122.394
  9
$NORTHDIRECTION
 40
0.0
  9
$TIMEZONE
 70
 -8000
  9
$LIGHTGLYPHDISPLAY
280
     1
  9
$TILEMODELIGHTSYNCH
280
     1
  9
$CMATERIAL
347
3C
  9
$SOLIDHIST
280
     1
  9
$SHOWHIST
280
     1
  9
$DWFFRAME
280
     2
  9
$DGNFRAME
280
     2
  9
$REALWORLDSCALE
290
     1
  9
$INTERFERECOLOR
 62
   256
  9
$CSHADOW
280
     0
  9
$SHADOWPLANELOCATION
 40
0.0
  0
ENDSEC
  0
SECTION
  2
CLASSES
  0
CLASS
  1
ACDBDICTIONARYWDFLT
  2
AcDbDictionaryWithDefault
  3
ObjectDBX Classes
 90
        0
 91
        4
280
     0
281
     0
  0
CLASS
  1
VISUALSTYLE
  2
AcDbVisualStyle
  3
ObjectDBX Classes
 90
     4095
 91
        4
280
     0
281
     0
  0
CLASS
  1
MATERIAL
  2
AcDbMaterial
  3
ObjectDBX Classes
 90
     1153
 91
        4
280
     0
281
     0
  0
CLASS
  1
SUN
  2
AcDbSun
  3
SCENEOE
 90
     1024
 91
        4
280
     0
281
     0
  0
ENDSEC
  0
SECTION
  2
TABLES
  0
TABLE
  2
VPORT
  5
8
330
0
100
AcDbSymbolTable
 70
     1
  0
VPORT
  5
29
330
8
100
AcDbSymbolTableRecord
100
AcDbViewportTableRecord
  2
*Active
 70
     0
 10
0.0
 20
0.0
 11
1.0
 21
1.0
 12
0.0
 22
0.0
 13
0.0
 23
0.0
 14
0.5
 24
0.5
 15
0.5
 25
0.5
 16
0.0
 26
0.0
 36
1.0
 17
91.00082462281999
 27
-128.4993055234307
 37
0.0
 40
256.9986110468615
 41
0.7081814508812795
 42
50.0
 43
0.0
 44
0.0
 50
0.0
 51
0.0
 71
     0
 72
   100
 73
     1
 74
     3
 75
     0
 76
     0
 77
     0
 78
     0
281
     0
 65
     1
110
0.0
120
0.0
130
0.0
111
1.0
121
0.0
131
0.0
112
0.0
122
1.0
132
0.0
 79
     0
146
0.0
 60
     3
 61
     5
292
     1
282
     1
141
0.0
142
0.0
 63
   250
361
3F
  0
ENDTAB
  0
TABLE
  2
LTYPE
  5
5
330
0
100
AcDbSymbolTable
 70
     2
  0
LTYPE
  5
14
330
5
100
AcDbSymbolTableRecord
100
AcDbLinetypeTableRecord
  2
ByBlock
 70
     0
  3

 72
    65
 73
     0
 40
0.0
  0
LTYPE
  5
15
330
5
100
AcDbSymbolTableRecord
100
AcDbLinetypeTableRecord
  2
ByLayer
 70
     0
  3

 72
    65
 73
     0
 40
0.0
  0
LTYPE
  5
16
330
5
100
AcDbSymbolTableRecord
100
AcDbLinetypeTableRecord
  2
Continuous
 70
     0
  3
Solid line
 72
    65
 73
     0
 40
0.0
  0
LTYPE
  5
47
330
5
100
AcDbSymbolTableRecord
100
AcDbLinetypeTableRecord
  2
AI-Linetype-1
 70
     0
  3
Adobe Illustrator Linetype No. 1
 72
    65
 73
     2
 40
1.411111110758333
 49
0.7055555553791667
 74
     0
 49
-0.7055555553791667
 74
     0
  0
ENDTAB
  0
TABLE
  2
LAYER
  5
2
330
0
100
AcDbSymbolTable
 70
     2
  0
LAYER
  5
10
330
2
100
AcDbSymbolTableRecord
100
AcDbLayerTableRecord
  2
0
 70
     0
 62
     7
  6
Continuous
370
    -3
390
F
347
3E
  0
LAYER
  5
40
330
2
100
AcDbSymbolTableRecord
100
AcDbLayerTableRecord
  2
_U+30EC_U+30A4_U+30E4_U+30FC 1
 70
     0
 62
     7
  6
Continuous
370
    -3
390
F
347
3E
  0
ENDTAB
  0
TABLE
  2
STYLE
  5
3
330
0
100
AcDbSymbolTable
 70
     1
  0
STYLE
  5
11
330
3
100
AcDbSymbolTableRecord
100
AcDbTextStyleTableRecord
  2
Standard
 70
     0
 40
0.0
 41
1.0
 50
0.0
 71
     0
 42
0.2
  3
txt
  4

  0
ENDTAB
  0
TABLE
  2
VIEW
  5
6
330
0
100
AcDbSymbolTable
 70
     0
  0
ENDTAB
  0
TABLE
  2
UCS
  5
7
330
0
100
AcDbSymbolTable
 70
     0
  0
ENDTAB
  0
TABLE
  2
APPID
  5
9
330
0
100
AcDbSymbolTable
 70
     1
  0
APPID
  5
12
330
9
100
AcDbSymbolTableRecord
100
AcDbRegAppTableRecord
  2
ACAD
 70
     0
  0
ENDTAB
  0
TABLE
  2
DIMSTYLE
  5
A
330
0
100
AcDbSymbolTable
 70
     1
100
AcDbDimStyleTable
  0
DIMSTYLE
105
27
330
A
100
AcDbSymbolTableRecord
100
AcDbDimStyleTableRecord
  2
Standard
 70
     0
178
     0
340
11
  0
ENDTAB
  0
TABLE
  2
BLOCK_RECORD
  5
1
330
0
100
AcDbSymbolTable
 70
     6
  0
BLOCK_RECORD
  5
1F
330
1
100
AcDbSymbolTableRecord
100
AcDbBlockTableRecord
  2
*Model_Space
340
22
 70
     0
280
     1
281
     0
  0
BLOCK_RECORD
  5
1B
330
1
100
AcDbSymbolTableRecord
100
AcDbBlockTableRecord
  2
*Paper_Space
340
1E
 70
     0
280
     1
281
     0
  0
BLOCK_RECORD
  5
23
330
1
100
AcDbSymbolTableRecord
100
AcDbBlockTableRecord
  2
*Paper_Space0
340
26
 70
     0
280
     1
281
     0
  0
BLOCK_RECORD
  5
91
330
1
100
AcDbSymbolTableRecord
100
AcDbBlockTableRecord
  2
block 2
340
0
102
{BLKREFS
331
92
102
}
 70
     0
280
     1
281
     0
  0
BLOCK_RECORD
  5
A5
330
1
100
AcDbSymbolTableRecord
100
AcDbBlockTableRecord
  2
block 3
340
0
102
{BLKREFS
331
A6
102
}
 70
     0
280
     1
281
     0
  0
BLOCK_RECORD
  5
C4
330
1
100
AcDbSymbolTableRecord
100
AcDbBlockTableRecord
  2
block 4
340
0
102
{BLKREFS
331
C5
102
}
 70
     0
280
     1
281
     0
  0
BLOCK_RECORD
  5
EF
330
1
100
AcDbSymbolTableRecord
100
AcDbBlockTableRecord
  2
block 5
340
0
102
{BLKREFS
331
F0
102
}
 70
     0
280
     1
281
     0
  0
BLOCK_RECORD
  5
111
330
1
100
AcDbSymbolTableRecord
100
AcDbBlockTableRecord
  2
block 6
340
0
102
{BLKREFS
331
112
102
}
 70
     0
280
     1
281
     0
  0
ENDTAB
  0
ENDSEC
  0
SECTION
  2
BLOCKS
  0
BLOCK
  5
20
330
1F
100
AcDbEntity
  8
0
100
AcDbBlockBegin
  2
*Model_Space
 70
     0
 10
0.0
 20
0.0
 30
0.0
  3
*Model_Space
  1

  0
ENDBLK
  5
21
330
1F
100
AcDbEntity
  8
0
100
AcDbBlockEnd
  0
BLOCK
  5
1C
330
1B
100
AcDbEntity
 67
     1
  8
0
100
AcDbBlockBegin
  2
*Paper_Space
 70
     0
 10
0.0
 20
0.0
 30
0.0
  3
*Paper_Space
  1

  0
ENDBLK
  5
1D
330
1B
100
AcDbEntity
 67
     1
  8
0
100
AcDbBlockEnd
  0
BLOCK
  5
24
330
23
100
AcDbEntity
  8
0
100
AcDbBlockBegin
  2
*Paper_Space0
 70
     0
 10
0.0
 20
0.0
 30
0.0
  3
*Paper_Space0
  1

  0
ENDBLK
  5
25
330
23
100
AcDbEntity
  8
0
100
AcDbBlockEnd
  0
BLOCK
  5
93
330
91
100
AcDbEntity
  8
0
100
AcDbBlockBegin
  2
block 2
 70
     0
 10
0.0
 20
0.0
 30
0.0
  3
block 2
  1

  0
SPLINE
  5
95
330
91
100
AcDbEntity
  8
_U+30EC_U+30A4_U+30E4_U+30FC 1
370
     0
100
AcDbSpline
210
0.0
220
0.0
230
1.0
 70
    11
 71
     3
 72
    26
 73
    22
 74
     0
 42
0.0000000001
 43
0.0000000001
 12
1.0
 22
0.0
 32
0.0
 13
1.0
 23
0.0
 33
0.0
 40
0.0
 40
0.0
 40
0.0
 40
0.0
 40
1.0
 40
1.0
 40
1.0
 40
2.0
 40
2.0
 40
2.0
 40
3.0
 40
3.0
 40
3.0
 40
4.0
 40
4.0
 40
4.0
 40
5.0
 40
5.0
 40
5.0
 40
6.0
 40
6.0
 40
6.0
 40
7.0
 40
7.0
 40
7.0
 40
7.0
 10
97.26538083505866
 20
-125.9675048513206
 30
0.0
 10
97.26538083505866
 20
-125.9675048513206
 30
0.0
 10
97.26538083505866
 20
-124.8633517482981
 30
0.0
 10
97.26538083505866
 20
-124.8633517482981
 30
0.0
 10
97.26538083505866
 20
-124.8633517482981
 30
0.0
 10
96.9129475669176
 20
-124.8633517482981
 30
0.0
 10
96.9129475669176
 20
-124.8633517482981
 30
0.0
 10
96.9129475669176
 20
-124.8633517482981
 30
0.0
 10
96.9129475669176
 20
-124.7152126424323
 30
0.0
 10
96.9129475669176
 20
-124.7152126424323
 30
0.0
 10
97.26779240189833
 20
-124.7003987318457
 30
0.0
 10
97.31740177688593
 20
-124.5374457153934
 30
0.0
 10
97.34909665535022
 20
-124.4230685452831
 30
0.0
 10
97.34909665535022
 20
-124.4230685452831
 30
0.0
 10
97.50515948083205
 20
-124.4230685452831
 30
0.0
 10
97.50515948083205
 20
-124.4230685452831
 30
0.0
 10
97.50515948083205
 20
-124.4230685452831
 30
0.0
 10
97.50515948083205
 20
-125.9675048513206
 30
0.0
 10
97.50515948083205
 20
-125.9675048513206
 30
0.0
 10
97.50515948083205
 20
-125.9675048513206
 30
0.0
 10
97.26538083505866
 20
-125.9675048513206
 30
0.0
 10
97.26538083505866
 20
-125.9675048513206
 30
0.0
  0
HATCH
  5
96
330
91
100
AcDbEntity
  8
_U+30EC_U+30A4_U+30E4_U+30FC 1
 62
   179
420
  2234388
100
AcDbHatch
 10
0.0
 20
0.0
 30
0.0
210
0.0
220
0.0
230
1.0
  2
SOLID
 70
     1
 71
     0
 91
        1
 92
        1
 93
        1
 72
     4
 94
        3
 73
     0
 74
     1
 95
       26
 96
       22
 40
0.0
 40
0.0
 40
0.0
 40
0.0
 40
1.0
 40
1.0
 40
1.0
 40
2.0
 40
2.0
 40
2.0
 40
3.0
 40
3.0
 40
3.0
 40
4.0
 40
4.0
 40
4.0
 40
5.0
 40
5.0
 40
5.0
 40
6.0
 40
6.0
 40
6.0
 40
7.0
 40
7.0
 40
7.0
 40
7.0
 10
97.26538083505866
 20
-125.9675048513206
 10
97.26538083505866
 20
-125.9675048513206
 10
97.26538083505866
 20
-124.8633517482981
 10
97.26538083505866
 20
-124.8633517482981
 10
97.26538083505866
 20
-124.8633517482981
 10
96.9129475669176
 20
-124.8633517482981
 10
96.9129475669176
 20
-124.8633517482981
 10
96.9129475669176
 20
-124.8633517482981
 10
96.9129475669176
 20
-124.7152126424323
 10
96.9129475669176
 20
-124.7152126424323
 10
97.26779240189833
 20
-124.7003987318457
 10
97.31740177688593
 20
-124.5374457153934
 10
97.34909665535022
 20
-124.4230685452831
 10
97.34909665535022
 20
-124.4230685452831
 10
97.50515948083205
 20
-124.4230685452831
 10
97.50515948083205
 20
-124.4230685452831
 10
97.50515948083205
 20
-124.4230685452831
 10
97.50515948083205
 20
-125.9675048513206
 10
97.50515948083205
 20
-125.9675048513206
 10
97.50515948083205
 20
-125.9675048513206
 10
97.26538083505866
 20
-125.9675048513206
 10
97.26538083505866
 20
-125.9675048513206
 97
        0
 97
        0
 75
     2
 76
     1
 98
        0
  0
SPLINE
  5
97
330
91
100
AcDbEntity
  8
_U+30EC_U+30A4_U+30E4_U+30FC 1
370
     0
100
AcDbSpline
210
0.0
220
0.0
230
1.0
 70
    11
 71
     3
 72
    53
 73
    49
 74
     0
 42
0.0000000001
 43
0.0000000001
 12
1.0
 22
0.0
 32
0.0
 13
1.0
 23
0.0
 33
0.0
 40
0.0
 40
0.0
 40
0.0
 40
0.0
 40
1.0
 40
1.0
 40
1.0
 40
2.0
 40
2.0
 40
2.0
 40
3.0
 40
3.0
 40
3.0
 40
4.0
 40
4.0
 40
4.0
 40
5.0
 40
5.0
 40
5.0
 40
6.0
 40
6.0
 40
6.0
 40
7.0
 40
7.0
 40
7.0
 40
8.0
 40
8.0
 40
8.0
 40
9.0
 40
9.0
 40
9.0
 40
10.0
 40
10.0
 40
10.0
 40
11.0
 40
11.0
 40
11.0
 40
12.0
 40
12.0
 40
12.0
 40
13.0
 40
13.0
 40
13.0
 40
14.0
 40
14.0
 40
14.0
 40
15.0
 40
15.0
 40
15.0
 40
16.0
 40
16.0
 40
16.0
 40
16.0
 10
98.55488007518767
 20
-126.0181477549538
 30
0.0
 10
98.47150876444462
 20
-126.0181477549538
 30
0.0
 10
98.36264374711074
 20
-126.0012667870761
 30
0.0
 10
98.25446774887389
 20
-125.9378770301475
 30
0.0
 10
98.06877710221892
 20
-125.827978484168
 30
0.0
 10
98.0463839815648
 20
-125.69672034618
 30
0.0
 10
98.02605791820183
 20
-125.5888888574917
 30
0.0
 10
98.02605791820183
 20
-125.5888888574917
 30
0.0
 10
98.26342499713553
 20
-125.5888888574917
 30
0.0
 10
98.26342499713553
 20
-125.5888888574917
 30
0.0
 10
98.32199162038478
 20
-125.7876708669906
 30
0.0
 10
98.45772838250363
 20
-125.8172986881637
 30
0.0
 10
98.55729164202735
 20
-125.8172986881637
 30
0.0
 10
98.70646427653867
 20
-125.8172986881637
 30
0.0
 10
98.86907278344246
 20
-125.71773542864
 30
0.0
 10
98.86907278344246
 20
-125.4851914833856
 30
0.0
 10
98.86907278344246
 20
-125.2292208888316
 30
0.0
 10
98.67718096491404
 20
-125.159285450481
 30
0.0
 10
98.5483343937657
 20
-125.159285450481
 30
0.0
 10
98.51422794846172
 20
-125.159285450481
 30
0.0
 10
98.36264374711074
 20
-125.159285450481
 30
0.0
 10
98.26790362126636
 20
-125.2884765311779
 30
0.0
 10
98.26790362126636
 20
-125.2884765311779
 30
0.0
 10
98.08014591732025
 20
-125.269528506009
 30
0.0
 10
98.08014591732025
 20
-125.269528506009
 30
0.0
 10
98.08014591732025
 20
-125.269528506009
 30
0.0
 10
98.2089924884686
 20
-124.4230685452831
 30
0.0
 10
98.2089924884686
 20
-124.4230685452831
 30
0.0
 10
98.2089924884686
 20
-124.4230685452831
 30
0.0
 10
99.04098304815642
 20
-124.4230685452831
 30
0.0
 10
99.04098304815642
 20
-124.4230685452831
 30
0.0
 10
99.04098304815642
 20
-124.4230685452831
 30
0.0
 10
99.04098304815642
 20
-124.6177164401997
 30
0.0
 10
99.04098304815642
 20
-124.6177164401997
 30
0.0
 10
99.04098304815642
 20
-124.6177164401997
 30
0.0
 10
98.38331432002224
 20
-124.6177164401997
 30
0.0
 10
98.38331432002224
 20
-124.6177164401997
 30
0.0
 10
98.38331432002224
 20
-124.6177164401997
 30
0.0
 10
98.31303437212314
 20
-125.0407741657884
 30
0.0
 10
98.31303437212314
 20
-125.0407741657884
 30
0.0
 10
98.37849118634288
 20
-125.007012230033
 30
0.0
 10
98.46668563076528
 20
-124.9667046128556
 30
0.0
 10
98.59346514462247
 20
-124.9667046128556
 30
0.0
 10
98.86459415931164
 20
-124.9667046128556
 30
0.0
 10
99.1178086774775
 20
-125.1530842786076
 30
0.0
 10
99.1178086774775
 20
-125.4662434582168
 30
0.0
 10
99.1178086774775
 20
-125.7835367524083
 30
0.0
 10
98.87837454125264
 20
-126.0181477549538
 30
0.0
 10
98.55488007518767
 20
-126.0181477549538
 30
0.0
  0
HATCH
  5
98
330
91
100
AcDbEntity
  8
_U+30EC_U+30A4_U+30E4_U+30FC 1
 62
   179
420
  2234388
100
AcDbHatch
 10
0.0
 20
0.0
 30
0.0
210
0.0
220
0.0
230
1.0
  2
SOLID
 70
     1
 71
     0
 91
        1
 92
        1
 93
        1
 72
     4
 94
        3
 73
     0
 74
     1
 95
       53
 96
       49
 40
0.0
 40
0.0
 40
0.0
 40
0.0
 40
1.0
 40
1.0
 40
1.0
 40
2.0
 40
2.0
 40
2.0
 40
3.0
 40
3.0
 40
3.0
 40
4.0
 40
4.0
 40
4.0
 40
5.0
 40
5.0
 40
5.0
 40
6.0
 40
6.0
 40
6.0
 40
7.0
 40
7.0
 40
7.0
 40
8.0
 40
8.0
 40
8.0
 40
9.0
 40
9.0
 40
9.0
 40
10.0
 40
10.0
 40
10.0
 40
11.0
 40
11.0
 40
11.0
 40
12.0
 40
12.0
 40
12.0
 40
13.0
 40
13.0
 40
13.0
 40
14.0
 40
14.0
 40
14.0
 40
15.0
 40
15.0
 40
15.0
 40
16.0
 40
16.0
 40
16.0
 40
16.0
 10
98.55488007518767
 20
-126.0181477549538
 10
98.47150876444462
 20
-126.0181477549538
 10
98.36264374711074
 20
-126.0012667870761
 10
98.25446774887389
 20
-125.9378770301475
 10
98.06877710221892
 20
-125.827978484168
 10
98.0463839815648
 20
-125.69672034618
 10
98.02605791820183
 20
-125.5888888574917
 10
98.02605791820183
 20
-125.5888888574917
 10
98.26342499713553
 20
-125.5888888574917
 10
98.26342499713553
 20
-125.5888888574917
 10
98.32199162038478
 20
-125.7876708669906
 10
98.45772838250363
 20
-125.8172986881637
 10
98.55729164202735
 20
-125.8172986881637
 10
98.70646427653867
 20
-125.8172986881637
 10
98.86907278344246
 20
-125.71773542864
 10
98.86907278344246
 20
-125.4851914833856
 10
98.86907278344246
 20
-125.2292208888316
 10
98.67718096491404
 20
-125.159285450481
 10
98.5483343937657
 20
-125.159285450481
 10
98.51422794846172
 20
-125.159285450481
 10
98.36264374711074
 20
-125.159285450481
 10
98.26790362126636
 20
-125.2884765311779
 10
98.26790362126636
 20
-125.2884765311779
 10
98.08014591732025
 20
-125.269528506009
 10
98.08014591732025
 20
-125.269528506009
 10
98.08014591732025
 20
-125.269528506009
 10
98.2089924884686
 20
-124.4230685452831
 10
98.2089924884686
 20
-124.4230685452831
 10
98.2089924884686
 20
-124.4230685452831
 10
99.04098304815642
 20
-124.4230685452831
 10
99.04098304815642
 20
-124.4230685452831
 10
99.04098304815642
 20
-124.4230685452831
 10
99.04098304815642
 20
-124.6177164401997
 10
99.04098304815642
 20
-124.6177164401997
 10
99.04098304815642
 20
-124.6177164401997
 10
98.38331432002224
 20
-124.6177164401997
 10
98.38331432002224
 20
-124.6177164401997
 10
98.38331432002224
 20
-124.6177164401997
 10
98.31303437212314
 20
-125.0407741657884
 10
98.31303437212314
 20
-125.0407741657884
 10
98.37849118634288
 20
-125.007012230033
 10
98.46668563076528
 20
-124.9667046128556
 10
98.59346514462247
 20
-124.9667046128556
 10
98.86459415931164
 20
-124.9667046128556
 10
99.1178086774775
 20
-125.1530842786076
 10
99.1178086774775
 20
-125.4662434582168
 10
99.1178086774775
 20
-125.7835367524083
 10
98.87837454125264
 20
-126.0181477549538
 10
98.55488007518767
 20
-126.0181477549538
 97
        0
 97
        0
 75
     2
 76
     1
 98
        0
  0
ENDBLK
  5
94
330
91
100
AcDbEntity
  8
0
100
AcDbBlockEnd
  0
BLOCK
  5
A7
330
A5
100
AcDbEntity
  8
0
100
AcDbBlockBegin
  2
block 3
 70
     0
 10
0.0
 20
0.0
 30
0.0
  3
block 3
  1

  0
SPLINE
  5
A9
330
A5
100
AcDbEntity
  8
_U+30EC_U+30A4_U+30E4_U+30FC 1
370
     0
100
AcDbSpline
210
0.0
220
0.0
230
1.0
 70
    11
 71
     3
 72
    26
 73
    22
 74
     0
 42
0.0000000001
 43
0.0000000001
 12
1.0
 22
0.0
 32
0.0
 13
1.0
 23
0.0
 33
0.0
 40
0.0
 40
0.0
 40
0.0
 40
0.0
 40
1.0
 40
1.0
 40
1.0
 40
2.0
 40
2.0
 40
2.0
 40
3.0
 40
3.0
 40
3.0
 40
4.0
 40
4.0
 40
4.0
 40
5.0
 40
5.0
 40
5.0
 40
6.0
 40
6.0
 40
6.0
 40
7.0
 40
7.0
 40
7.0
 40
7.0
 10
79.34485539466031
 20
-133.1577636385856
 30
0.0
 10
79.34485539466031
 20
-133.1577636385856
 30
0.0
 10
78.24053003686348
 20
-133.1577636385856
 30
0.0
 10
78.24053003686348
 20
-133.1577636385856
 30
0.0
 10
78.24053003686348
 20
-133.1577636385856
 30
0.0
 10
78.24053003686348
 20
-133.5101969067266
 30
0.0
 10
78.24053003686348
 20
-133.5101969067266
 30
0.0
 10
78.24053003686348
 20
-133.5101969067266
 30
0.0
 10
78.09239093099774
 20
-133.5101969067266
 30
0.0
 10
78.09239093099774
 20
-133.5101969067266
 30
0.0
 10
78.07774927518543
 20
-133.1553520717459
 30
0.0
 10
77.9147962587331
 20
-133.1057426967583
 30
0.0
 10
77.80059134339707
 20
-133.074047818294
 30
0.0
 10
77.80059134339707
 20
-133.074047818294
 30
0.0
 10
77.80059134339707
 20
-132.9179849928122
 30
0.0
 10
77.80059134339707
 20
-132.9179849928122
 30
0.0
 10
77.80059134339707
 20
-132.9179849928122
 30
0.0
 10
79.34485539466031
 20
-132.9179849928122
 30
0.0
 10
79.34485539466031
 20
-132.9179849928122
 30
0.0
 10
79.34485539466031
 20
-132.9179849928122
 30
0.0
 10
79.34485539466031
 20
-133.1577636385856
 30
0.0
 10
79.34485539466031
 20
-133.1577636385856
 30
0.0
  0
HATCH
  5
AA
330
A5
100
AcDbEntity
  8
_U+30EC_U+30A4_U+30E4_U+30FC 1
 62
   179
420
  2234388
100
AcDbHatch
 10
0.0
 20
0.0
 30
0.0
210
0.0
220
0.0
230
1.0
  2
SOLID
 70
     1
 71
     0
 91
        1
 92
        1
 93
        1
 72
     4
 94
        3
 73
     0
 74
     1
 95
       26
 96
       22
 40
0.0
 40
0.0
 40
0.0
 40
0.0
 40
1.0
 40
1.0
 40
1.0
 40
2.0
 40
2.0
 40
2.0
 40
3.0
 40
3.0
 40
3.0
 40
4.0
 40
4.0
 40
4.0
 40
5.0
 40
5.0
 40
5.0
 40
6.0
 40
6.0
 40
6.0
 40
7.0
 40
7.0
 40
7.0
 40
7.0
 10
79.34485539466031
 20
-133.1577636385856
 10
79.34485539466031
 20
-133.1577636385856
 10
78.24053003686348
 20
-133.1577636385856
 10
78.24053003686348
 20
-133.1577636385856
 10
78.24053003686348
 20
-133.1577636385856
 10
78.24053003686348
 20
-133.5101969067266
 10
78.24053003686348
 20
-133.5101969067266
 10
78.24053003686348
 20
-133.5101969067266
 10
78.09239093099774
 20
-133.5101969067266
 10
78.09239093099774
 20
-133.5101969067266
 10
78.07774927518543
 20
-133.1553520717459
 10
77.9147962587331
 20
-133.1057426967583
 10
77.80059134339707
 20
-133.074047818294
 10
77.80059134339707
 20
-133.074047818294
 10
77.80059134339707
 20
-132.9179849928122
 10
77.80059134339707
 20
-132.9179849928122
 10
77.80059134339707
 20
-132.9179849928122
 10
79.34485539466031
 20
-132.9179849928122
 10
79.34485539466031
 20
-132.9179849928122
 10
79.34485539466031
 20
-132.9179849928122
 10
79.34485539466031
 20
-133.1577636385856
 10
79.34485539466031
 20
-133.1577636385856
 97
        0
 97
        0
 75
     2
 76
     1
 98
        0
  0
SPLINE
  5
AB
330
A5
100
AcDbEntity
  8
_U+30EC_U+30A4_U+30E4_U+30FC 1
370
     0
100
AcDbSpline
210
0.0
220
0.0
230
1.0
 70
    11
 71
     3
 72
    29
 73
    25
 74
     0
 42
0.0000000001
 43
0.0000000001
 12
1.0
 22
0.0
 32
0.0
 13
1.0
 23
0.0
 33
0.0
 40
0.0
 40
0.0
 40
0.0
 40
0.0
 40
1.0
 40
1.0
 40
1.0
 40
2.0
 40
2.0
 40
2.0
 40
3.0
 40
3.0
 40
3.0
 40
4.0
 40
4.0
 40
4.0
 40
5.0
 40
5.0
 40
5.0
 40
6.0
 40
6.0
 40
6.0
 40
7.0
 40
7.0
 40
7.0
 40
8.0
 40
8.0
 40
8.0
 40
8.0
 10
79.16708846762143
 20
-131.4228135522137
 30
0.0
 10
79.37655027312462
 20
-131.5382242509696
 30
0.0
 10
79.39567055306776
 20
-131.7235703880761
 30
0.0
 10
79.39567055306776
 20
-131.8479383350936
 30
0.0
 10
79.39567055306776
 20
-132.019504090259
 30
0.0
 10
79.34916176401688
 20
-132.17108829161
 30
0.0
 10
79.16708846762143
 20
-132.2727186084249
 30
0.0
 10
78.97261282747907
 20
-132.3836506830499
 30
0.0
 10
78.73559025809388
 20
-132.4039767464129
 30
0.0
 10
78.57263724164157
 20
-132.4039767464129
 30
0.0
 10
78.42880450513239
 20
-132.4039767464129
 30
0.0
 10
78.17714027993489
 20
-132.3857177403411
 30
0.0
 10
77.9781860156617
 20
-132.2727186084249
 30
0.0
 10
77.77509763680622
 20
-132.1576524192175
 30
0.0
 10
77.7518432422808
 20
-131.9857421545036
 30
0.0
 10
77.7518432422808
 20
-131.8479383350936
 30
0.0
 10
77.7518432422808
 20
-131.6780951276708
 30
0.0
 10
77.79628497404052
 20
-131.5244438690286
 30
0.0
 10
77.9781860156617
 20
-131.4228135522137
 30
0.0
 10
78.17076685328718
 20
-131.3163601017195
 30
0.0
 10
78.39917668395924
 20
-131.2915554142257
 30
0.0
 10
78.57263724164157
 20
-131.2915554142257
 30
0.0
 10
78.74403074203275
 20
-131.2915554142257
 30
0.0
 10
78.97467988477023
 20
-131.3142930444284
 30
0.0
 10
79.16708846762143
 20
-131.4228135522137
 30
0.0
  0
SPLINE
  5
AC
330
A5
100
AcDbEntity
  8
_U+30EC_U+30A4_U+30E4_U+30FC 1
370
     0
100
AcDbSpline
210
0.0
220
0.0
230
1.0
 70
    11
 71
     3
 72
    17
 73
    13
 74
     0
 42
0.0000000001
 43
0.0000000001
 12
1.0
 22
0.0
 32
0.0
 13
1.0
 23
0.0
 33
0.0
 40
0.0
 40
0.0
 40
0.0
 40
0.0
 40
1.0
 40
1.0
 40
1.0
 40
2.0
 40
2.0
 40
2.0
 40
3.0
 40
3.0
 40
3.0
 40
4.0
 40
4.0
 40
4.0
 40
4.0
 10
77.94442407990626
 20
-131.8479383350936
 30
0.0
 10
77.94442407990626
 20
-132.1145887256519
 30
0.0
 10
78.22778318356806
 20
-132.1641981006395
 30
0.0
 10
78.57263724164157
 20
-132.1641981006395
 30
0.0
 10
78.89216984789849
 20
-132.1641981006395
 30
0.0
 10
79.20102265815113
 20
-132.1259575407532
 30
0.0
 10
79.20102265815113
 20
-131.8479383350936
 30
0.0
 10
79.20102265815113
 20
-131.5833550018264
 30
0.0
 10
78.91955835700622
 20
-131.5313340599991
 30
0.0
 10
78.57263724164157
 20
-131.5313340599991
 30
0.0
 10
78.2532768901589
 20
-131.5313340599991
 30
0.0
 10
77.94442407990626
 20
-131.5719861867251
 30
0.0
 10
77.94442407990626
 20
-131.8479383350936
 30
0.0
  0
HATCH
  5
AD
330
A5
100
AcDbEntity
  8
_U+30EC_U+30A4_U+30E4_U+30FC 1
 62
   179
420
  2234388
100
AcDbHatch
 10
0.0
 20
0.0
 30
0.0
210
0.0
220
0.0
230
1.0
  2
SOLID
 70
     1
 71
     0
 91
        2
 92
        1
 93
        1
 72
     4
 94
        3
 73
     0
 74
     1
 95
       29
 96
       25
 40
0.0
 40
0.0
 40
0.0
 40
0.0
 40
1.0
 40
1.0
 40
1.0
 40
2.0
 40
2.0
 40
2.0
 40
3.0
 40
3.0
 40
3.0
 40
4.0
 40
4.0
 40
4.0
 40
5.0
 40
5.0
 40
5.0
 40
6.0
 40
6.0
 40
6.0
 40
7.0
 40
7.0
 40
7.0
 40
8.0
 40
8.0
 40
8.0
 40
8.0
 10
79.16708846762143
 20
-131.4228135522137
 10
79.37655027312462
 20
-131.5382242509696
 10
79.39567055306776
 20
-131.7235703880761
 10
79.39567055306776
 20
-131.8479383350936
 10
79.39567055306776
 20
-132.019504090259
 10
79.34916176401688
 20
-132.17108829161
 10
79.16708846762143
 20
-132.2727186084249
 10
78.97261282747907
 20
-132.3836506830499
 10
78.73559025809388
 20
-132.4039767464129
 10
78.57263724164157
 20
-132.4039767464129
 10
78.42880450513239
 20
-132.4039767464129
 10
78.17714027993489
 20
-132.3857177403411
 10
77.9781860156617
 20
-132.2727186084249
 10
77.77509763680622
 20
-132.1576524192175
 10
77.7518432422808
 20
-131.9857421545036
 10
77.7518432422808
 20
-131.8479383350936
 10
77.7518432422808
 20
-131.6780951276708
 10
77.79628497404052
 20
-131.5244438690286
 10
77.9781860156617
 20
-131.4228135522137
 10
78.17076685328718
 20
-131.3163601017195
 10
78.39917668395924
 20
-131.2915554142257
 10
78.57263724164157
 20
-131.2915554142257
 10
78.74403074203275
 20
-131.2915554142257
 10
78.97467988477023
 20
-131.3142930444284
 10
79.16708846762143
 20
-131.4228135522137
 97
        0
 97
        0
 92
        1
 93
        1
 72
     4
 94
        3
 73
     0
 74
     1
 95
       17
 96
       13
 40
0.0
 40
0.0
 40
0.0
 40
0.0
 40
1.0
 40
1.0
 40
1.0
 40
2.0
 40
2.0
 40
2.0
 40
3.0
 40
3.0
 40
3.0
 40
4.0
 40
4.0
 40
4.0
 40
4.0
 10
77.94442407990626
 20
-131.8479383350936
 10
77.94442407990626
 20
-132.1145887256519
 10
78.22778318356806
 20
-132.1641981006395
 10
78.57263724164157
 20
-132.1641981006395
 10
78.89216984789849
 20
-132.1641981006395
 10
79.20102265815113
 20
-132.1259575407532
 10
79.20102265815113
 20
-131.8479383350936
 10
79.20102265815113
 20
-131.5833550018264
 10
78.91955835700622
 20
-131.5313340599991
 10
78.57263724164157
 20
-131.5313340599991
 10
78.2532768901589
 20
-131.5313340599991
 10
77.94442407990626
 20
-131.5719861867251
 10
77.94442407990626
 20
-131.8479383350936
 97
        0
 97
        0
 75
     2
 76
     1
 98
        0
  0
POLYLINE
  5
AE
330
A5
100
AcDbEntity
  8
_U+30EC_U+30A4_U+30E4_U+30FC 1
370
     0
100
AcDb2dPolyline
 66
     1
 10
0.0
 20
0.0
 30
0.0
  0
VERTEX
  5
AF
330
AE
100
AcDbEntity
  8
_U+30EC_U+30A4_U+30E4_U+30FC 1
370
     0
100
AcDbVertex
100
AcDb2dVertex
 10
79.34485539466031
 20
-131.0603895071655
 30
0.0
  0
VERTEX
  5
B0
330
AE
100
AcDbEntity
  8
_U+30EC_U+30A4_U+30E4_U+30FC 1
370
     0
100
AcDbVertex
100
AcDb2dVertex
 10
79.09319116946281
 20
-131.0603895071655
 30
0.0
  0
VERTEX
  5
B1
330
AE
100
AcDbEntity
  8
_U+30EC_U+30A4_U+30E4_U+30FC 1
370
     0
100
AcDbVertex
100
AcDb2dVertex
 10
79.09319116946281
 20
-130.7913275497675
 30
0.0
  0
VERTEX
  5
B2
330
AE
100
AcDbEntity
  8
_U+30EC_U+30A4_U+30E4_U+30FC 1
370
     0
100
AcDbVertex
100
AcDb2dVertex
 10
79.34485539466031
 20
-130.7913275497675
 30
0.0
  0
VERTEX
  5
B3
330
AE
100
AcDbEntity
  8
_U+30EC_U+30A4_U+30E4_U+30FC 1
370
     0
100
AcDbVertex
100
AcDb2dVertex
 10
79.34485539466031
 20
-131.0603895071655
 30
0.0
  0
SEQEND
  5
B4
330
AE
100
AcDbEntity
  8
_U+30EC_U+30A4_U+30E4_U+30FC 1
370
     0
  0
HATCH
  5
B5
330
A5
100
AcDbEntity
  8
_U+30EC_U+30A4_U+30E4_U+30FC 1
 62
   179
420
  2234388
100
AcDbHatch
 10
0.0
 20
0.0
 30
0.0
210
0.0
220
0.0
230
1.0
  2
SOLID
 70
     1
 71
     0
 91
        1
 92
        1
 93
        4
 72
     1
 10
79.34485539466031
 20
-131.0603895071655
 11
79.09319116946281
 21
-131.0603895071655
 72
     1
 10
79.09319116946281
 20
-131.0603895071655
 11
79.09319116946281
 21
-130.7913275497675
 72
     1
 10
79.09319116946281
 20
-130.7913275497675
 11
79.34485539466031
 21
-130.7913275497675
 72
     1
 10
79.34485539466031
 20
-130.7913275497675
 11
79.34485539466031
 21
-131.0603895071655
 97
        0
 75
     2
 76
     1
 98
        0
  0
SPLINE
  5
B6
330
A5
100
AcDbEntity
  8
_U+30EC_U+30A4_U+30E4_U+30FC 1
370
     0
100
AcDbSpline
210
0.0
220
0.0
230
1.0
 70
    11
 71
     3
 72
    53
 73
    49
 74
     0
 42
0.0000000001
 43
0.0000000001
 12
1.0
 22
0.0
 32
0.0
 13
1.0
 23
0.0
 33
0.0
 40
0.0
 40
0.0
 40
0.0
 40
0.0
 40
1.0
 40
1.0
 40
1.0
 40
2.0
 40
2.0
 40
2.0
 40
3.0
 40
3.0
 40
3.0
 40
4.0
 40
4.0
 40
4.0
 40
5.0
 40
5.0
 40
5.0
 40
6.0
 40
6.0
 40
6.0
 40
7.0
 40
7.0
 40
7.0
 40
8.0
 40
8.0
 40
8.0
 40
9.0
 40
9.0
 40
9.0
 40
10.0
 40
10.0
 40
10.0
 40
11.0
 40
11.0
 40
11.0
 40
12.0
 40
12.0
 40
12.0
 40
13.0
 40
13.0
 40
13.0
 40
14.0
 40
14.0
 40
14.0
 40
15.0
 40
15.0
 40
15.0
 40
16.0
 40
16.0
 40
16.0
 40
16.0
 10
79.39567055306776
 20
-130.0244492947508
 30
0.0
 10
79.39567055306776
 20
-130.1078206054939
 30
0.0
 10
79.37878958519003
 20
-130.2166856228278
 30
0.0
 10
79.31522757348716
 20
-130.3248616210646
 30
0.0
 10
79.20515677273343
 20
-130.5105522677196
 30
0.0
 10
79.07407088951967
 20
-130.5329453883737
 30
0.0
 10
78.96623940083136
 20
-130.5532714517367
 30
0.0
 10
78.96623940083136
 20
-130.5532714517367
 30
0.0
 10
78.96623940083136
 20
-130.315904372803
 30
0.0
 10
78.96623940083136
 20
-130.315904372803
 30
0.0
 10
79.16502141033028
 20
-130.2573377495537
 30
0.0
 10
79.19464923150342
 20
-130.1216009874349
 30
0.0
 10
79.19464923150342
 20
-130.0220377279112
 30
0.0
 10
79.19464923150342
 20
-129.8728650933998
 30
0.0
 10
79.09525822675397
 20
-129.7102565864961
 30
0.0
 10
78.86254202672534
 20
-129.7102565864961
 30
0.0
 10
78.60657143217128
 20
-129.7102565864961
 30
0.0
 10
78.53680824859497
 20
-129.9021484050245
 30
0.0
 10
78.53680824859497
 20
-130.0309949761728
 30
0.0
 10
78.53680824859497
 20
-130.0651014214768
 30
0.0
 10
78.53680824859497
 20
-130.2166856228278
 30
0.0
 10
78.66582707451758
 20
-130.3114257486721
 30
0.0
 10
78.66582707451758
 20
-130.3114257486721
 30
0.0
 10
78.64670679457444
 20
-130.4991834526183
 30
0.0
 10
78.64670679457444
 20
-130.4991834526183
 30
0.0
 10
78.64670679457444
 20
-130.4991834526183
 30
0.0
 10
77.80059134339707
 20
-130.3703368814699
 30
0.0
 10
77.80059134339707
 20
-130.3703368814699
 30
0.0
 10
77.80059134339707
 20
-130.3703368814699
 30
0.0
 10
77.80059134339707
 20
-129.5383463217821
 30
0.0
 10
77.80059134339707
 20
-129.5383463217821
 30
0.0
 10
77.80059134339707
 20
-129.5383463217821
 30
0.0
 10
77.99523923831369
 20
-129.5383463217821
 30
0.0
 10
77.99523923831369
 20
-129.5383463217821
 30
0.0
 10
77.99523923831369
 20
-129.5383463217821
 30
0.0
 10
77.99523923831369
 20
-130.1960150499163
 30
0.0
 10
77.99523923831369
 20
-130.1960150499163
 30
0.0
 10
77.99523923831369
 20
-130.1960150499163
 30
0.0
 10
78.41829696390238
 20
-130.2662949978154
 30
0.0
 10
78.41829696390238
 20
-130.2662949978154
 30
0.0
 10
78.38436277337266
 20
-130.2008381835956
 30
0.0
 10
78.34422741096951
 20
-130.1126437391732
 30
0.0
 10
78.34422741096951
 20
-129.985864225316
 30
0.0
 10
78.34422741096951
 20
-129.7147352106269
 30
0.0
 10
78.53043482194725
 20
-129.461520692461
 30
0.0
 10
78.8434217467822
 20
-129.461520692461
 30
0.0
 10
79.16088729574798
 20
-129.461520692461
 30
0.0
 10
79.39567055306776
 20
-129.7009548286859
 30
0.0
 10
79.39567055306776
 20
-130.0244492947508
 30
0.0
  0
HATCH
  5
B7
330
A5
100
AcDbEntity
  8
_U+30EC_U+30A4_U+30E4_U+30FC 1
 62
   179
420
  2234388
100
AcDbHatch
 10
0.0
 20
0.0
 30
0.0
210
0.0
220
0.0
230
1.0
  2
SOLID
 70
     1
 71
     0
 91
        1
 92
        1
 93
        1
 72
     4
 94
        3
 73
     0
 74
     1
 95
       53
 96
       49
 40
0.0
 40
0.0
 40
0.0
 40
0.0
 40
1.0
 40
1.0
 40
1.0
 40
2.0
 40
2.0
 40
2.0
 40
3.0
 40
3.0
 40
3.0
 40
4.0
 40
4.0
 40
4.0
 40
5.0
 40
5.0
 40
5.0
 40
6.0
 40
6.0
 40
6.0
 40
7.0
 40
7.0
 40
7.0
 40
8.0
 40
8.0
 40
8.0
 40
9.0
 40
9.0
 40
9.0
 40
10.0
 40
10.0
 40
10.0
 40
11.0
 40
11.0
 40
11.0
 40
12.0
 40
12.0
 40
12.0
 40
13.0
 40
13.0
 40
13.0
 40
14.0
 40
14.0
 40
14.0
 40
15.0
 40
15.0
 40
15.0
 40
16.0
 40
16.0
 40
16.0
 40
16.0
 10
79.39567055306776
 20
-130.0244492947508
 10
79.39567055306776
 20
-130.1078206054939
 10
79.37878958519003
 20
-130.2166856228278
 10
79.31522757348716
 20
-130.3248616210646
 10
79.20515677273343
 20
-130.5105522677196
 10
79.07407088951967
 20
-130.5329453883737
 10
78.96623940083136
 20
-130.5532714517367
 10
78.96623940083136
 20
-130.5532714517367
 10
78.96623940083136
 20
-130.315904372803
 10
78.96623940083136
 20
-130.315904372803
 10
79.16502141033028
 20
-130.2573377495537
 10
79.19464923150342
 20
-130.1216009874349
 10
79.19464923150342
 20
-130.0220377279112
 10
79.19464923150342
 20
-129.8728650933998
 10
79.09525822675397
 20
-129.7102565864961
 10
78.86254202672534
 20
-129.7102565864961
 10
78.60657143217128
 20
-129.7102565864961
 10
78.53680824859497
 20
-129.9021484050245
 10
78.53680824859497
 20
-130.0309949761728
 10
78.53680824859497
 20
-130.0651014214768
 10
78.53680824859497
 20
-130.2166856228278
 10
78.66582707451758
 20
-130.3114257486721
 10
78.66582707451758
 20
-130.3114257486721
 10
78.64670679457444
 20
-130.4991834526183
 10
78.64670679457444
 20
-130.4991834526183
 10
78.64670679457444
 20
-130.4991834526183
 10
77.80059134339707
 20
-130.3703368814699
 10
77.80059134339707
 20
-130.3703368814699
 10
77.80059134339707
 20
-130.3703368814699
 10
77.80059134339707
 20
-129.5383463217821
 10
77.80059134339707
 20
-129.5383463217821
 10
77.80059134339707
 20
-129.5383463217821
 10
77.99523923831369
 20
-129.5383463217821
 10
77.99523923831369
 20
-129.5383463217821
 10
77.99523923831369
 20
-129.5383463217821
 10
77.99523923831369
 20
-130.1960150499163
 10
77.99523923831369
 20
-130.1960150499163
 10
77.99523923831369
 20
-130.1960150499163
 10
78.41829696390238
 20
-130.2662949978154
 10
78.41829696390238
 20
-130.2662949978154
 10
78.38436277337266
 20
-130.2008381835956
 10
78.34422741096951
 20
-130.1126437391732
 10
78.34422741096951
 20
-129.985864225316
 10
78.34422741096951
 20
-129.7147352106269
 10
78.53043482194725
 20
-129.461520692461
 10
78.8434217467822
 20
-129.461520692461
 10
79.16088729574798
 20
-129.461520692461
 10
79.39567055306776
 20
-129.7009548286859
 10
79.39567055306776
 20
-130.0244492947508
 97
        0
 97
        0
 75
     2
 76
     1
 98
        0
  0
ENDBLK
  5
A8
330
A5
100
AcDbEntity
  8
0
100
AcDbBlockEnd
  0
BLOCK
  5
C6
330
C4
100
AcDbEntity
  8
0
100
AcDbBlockBegin
  2
block 4
 70
     0
 10
0.0
 20
0.0
 30
0.0
  3
block 4
  1

  0
POLYLINE
  5
C8
330
C4
100
AcDbEntity
  8
_U+30EC_U+30A4_U+30E4_U+30FC 1
370
     0
100
AcDb2dPolyline
 66
     1
 10
0.0
 20
0.0
 30
0.0
  0
VERTEX
  5
C9
330
C8
100
AcDbEntity
  8
_U+30EC_U+30A4_U+30E4_U+30FC 1
370
     0
100
AcDbVertex
100
AcDb2dVertex
 10
86.31790091158025
 20
-121.6201388584839
 30
0.0
  0
VERTEX
  5
CA
330
C8
100
AcDbEntity
  8
_U+30EC_U+30A4_U+30E4_U+30FC 1
370
     0
100
AcDbVertex
100
AcDb2dVertex
 10
86.31790091158025
 20
-121.9670599738485
 30
0.0
  0
VERTEX
  5
CB
330
C8
100
AcDbEntity
  8
_U+30EC_U+30A4_U+30E4_U+30FC 1
370
     0
100
AcDbVertex
100
AcDb2dVertex
 10
86.08501245677736
 20
-121.9670599738485
 30
0.0
  0
VERTEX
  5
CC
330
C8
100
AcDbEntity
  8
_U+30EC_U+30A4_U+30E4_U+30FC 1
370
     0
100
AcDbVertex
100
AcDb2dVertex
 10
86.08501245677736
 20
-121.6201388584839
 30
0.0
  0
VERTEX
  5
CD
330
C8
100
AcDbEntity
  8
_U+30EC_U+30A4_U+30E4_U+30FC 1
370
     0
100
AcDbVertex
100
AcDb2dVertex
 10
85.38428003507755
 20
-121.6201388584839
 30
0.0
  0
VERTEX
  5
CE
330
C8
100
AcDbEntity
  8
_U+30EC_U+30A4_U+30E4_U+30FC 1
370
     0
100
AcDbVertex
100
AcDb2dVertex
 10
85.38428003507755
 20
-121.3958631423941
 30
0.0
  0
VERTEX
  5
CF
330
C8
100
AcDbEntity
  8
_U+30EC_U+30A4_U+30E4_U+30FC 1
370
     0
100
AcDbVertex
100
AcDb2dVertex
 10
86.10981714427116
 20
-120.422623667811
 30
0.0
  0
VERTEX
  5
D0
330
C8
100
AcDbEntity
  8
_U+30EC_U+30A4_U+30E4_U+30FC 1
370
     0
100
AcDbVertex
100
AcDb2dVertex
 10
86.31790091158025
 20
-120.422623667811
 30
0.0
  0
VERTEX
  5
D1
330
C8
100
AcDbEntity
  8
_U+30EC_U+30A4_U+30E4_U+30FC 1
370
     0
100
AcDbVertex
100
AcDb2dVertex
 10
86.31790091158025
 20
-121.4213568489849
 30
0.0
  0
VERTEX
  5
D2
330
C8
100
AcDbEntity
  8
_U+30EC_U+30A4_U+30E4_U+30FC 1
370
     0
100
AcDbVertex
100
AcDb2dVertex
 10
86.53942055128182
 20
-121.4213568489849
 30
0.0
  0
VERTEX
  5
D3
330
C8
100
AcDbEntity
  8
_U+30EC_U+30A4_U+30E4_U+30FC 1
370
     0
100
AcDbVertex
100
AcDb2dVertex
 10
86.53942055128182
 20
-121.6201388584839
 30
0.0
  0
VERTEX
  5
D4
330
C8
100
AcDbEntity
  8
_U+30EC_U+30A4_U+30E4_U+30FC 1
370
     0
100
AcDbVertex
100
AcDb2dVertex
 10
86.31790091158025
 20
-121.6201388584839
 30
0.0
  0
SEQEND
  5
D5
330
C8
100
AcDbEntity
  8
_U+30EC_U+30A4_U+30E4_U+30FC 1
370
     0
  0
POLYLINE
  5
D6
330
C4
100
AcDbEntity
  8
_U+30EC_U+30A4_U+30E4_U+30FC 1
370
     0
100
AcDb2dPolyline
 66
     1
 10
0.0
 20
0.0
 30
0.0
  0
VERTEX
  5
D7
330
D6
100
AcDbEntity
  8
_U+30EC_U+30A4_U+30E4_U+30FC 1
370
     0
100
AcDbVertex
100
AcDb2dVertex
 10
86.08501245677736
 20
-120.7654106685934
 30
0.0
  0
VERTEX
  5
D8
330
D6
100
AcDbEntity
  8
_U+30EC_U+30A4_U+30E4_U+30FC 1
370
     0
100
AcDbVertex
100
AcDb2dVertex
 10
85.59684242651745
 20
-121.4213568489849
 30
0.0
  0
VERTEX
  5
D9
330
D6
100
AcDbEntity
  8
_U+30EC_U+30A4_U+30E4_U+30FC 1
370
     0
100
AcDbVertex
100
AcDb2dVertex
 10
86.08501245677736
 20
-121.4213568489849
 30
0.0
  0
VERTEX
  5
DA
330
D6
100
AcDbEntity
  8
_U+30EC_U+30A4_U+30E4_U+30FC 1
370
     0
100
AcDbVertex
100
AcDb2dVertex
 10
86.08501245677736
 20
-120.7654106685934
 30
0.0
  0
SEQEND
  5
DB
330
D6
100
AcDbEntity
  8
_U+30EC_U+30A4_U+30E4_U+30FC 1
370
     0
  0
HATCH
  5
DC
330
C4
100
AcDbEntity
  8
_U+30EC_U+30A4_U+30E4_U+30FC 1
 62
   179
420
  2234388
100
AcDbHatch
 10
0.0
 20
0.0
 30
0.0
210
0.0
220
0.0
230
1.0
  2
SOLID
 70
     1
 71
     0
 91
        2
 92
        1
 93
       11
 72
     1
 10
86.31790091158025
 20
-121.6201388584839
 11
86.31790091158025
 21
-121.9670599738485
 72
     1
 10
86.31790091158025
 20
-121.9670599738485
 11
86.08501245677736
 21
-121.9670599738485
 72
     1
 10
86.08501245677736
 20
-121.9670599738485
 11
86.08501245677736
 21
-121.6201388584839
 72
     1
 10
86.08501245677736
 20
-121.6201388584839
 11
85.38428003507755
 21
-121.6201388584839
 72
     1
 10
85.38428003507755
 20
-121.6201388584839
 11
85.38428003507755
 21
-121.3958631423941
 72
     1
 10
85.38428003507755
 20
-121.3958631423941
 11
86.10981714427116
 21
-120.422623667811
 72
     1
 10
86.10981714427116
 20
-120.422623667811
 11
86.31790091158025
 21
-120.422623667811
 72
     1
 10
86.31790091158025
 20
-120.422623667811
 11
86.31790091158025
 21
-121.4213568489849
 72
     1
 10
86.31790091158025
 20
-121.4213568489849
 11
86.53942055128182
 21
-121.4213568489849
 72
     1
 10
86.53942055128182
 20
-121.4213568489849
 11
86.53942055128182
 21
-121.6201388584839
 72
     1
 10
86.53942055128182
 20
-121.6201388584839
 11
86.31790091158025
 21
-121.6201388584839
 97
        0
 92
        1
 93
        3
 72
     1
 10
86.08501245677736
 20
-120.7654106685934
 11
85.59684242651745
 21
-121.4213568489849
 72
     1
 10
85.59684242651745
 20
-121.4213568489849
 11
86.08501245677736
 21
-121.4213568489849
 72
     1
 10
86.08501245677736
 20
-121.4213568489849
 11
86.08501245677736
 21
-120.7654106685934
 97
        0
 75
     2
 76
     1
 98
        0
  0
POLYLINE
  5
DD
330
C4
100
AcDbEntity
  8
_U+30EC_U+30A4_U+30E4_U+30FC 1
370
     0
100
AcDb2dPolyline
 66
     1
 10
0.0
 20
0.0
 30
0.0
  0
VERTEX
  5
DE
330
DD
100
AcDbEntity
  8
_U+30EC_U+30A4_U+30E4_U+30FC 1
370
     0
100
AcDbVertex
100
AcDb2dVertex
 10
86.75060490452763
 20
-121.9670599738485
 30
0.0
  0
VERTEX
  5
DF
330
DD
100
AcDbEntity
  8
_U+30EC_U+30A4_U+30E4_U+30FC 1
370
     0
100
AcDbVertex
100
AcDb2dVertex
 10
86.75060490452763
 20
-121.7152234938767
 30
0.0
  0
VERTEX
  5
E0
330
DD
100
AcDbEntity
  8
_U+30EC_U+30A4_U+30E4_U+30FC 1
370
     0
100
AcDbVertex
100
AcDb2dVertex
 10
87.01966686192564
 20
-121.7152234938767
 30
0.0
  0
VERTEX
  5
E1
330
DD
100
AcDbEntity
  8
_U+30EC_U+30A4_U+30E4_U+30FC 1
370
     0
100
AcDbVertex
100
AcDb2dVertex
 10
87.01966686192564
 20
-121.9670599738485
 30
0.0
  0
VERTEX
  5
E2
330
DD
100
AcDbEntity
  8
_U+30EC_U+30A4_U+30E4_U+30FC 1
370
     0
100
AcDbVertex
100
AcDb2dVertex
 10
86.75060490452763
 20
-121.9670599738485
 30
0.0
  0
SEQEND
  5
E3
330
DD
100
AcDbEntity
  8
_U+30EC_U+30A4_U+30E4_U+30FC 1
370
     0
  0
HATCH
  5
E4
330
C4
100
AcDbEntity
  8
_U+30EC_U+30A4_U+30E4_U+30FC 1
 62
   179
420
  2234388
100
AcDbHatch
 10
0.0
 20
0.0
 30
0.0
210
0.0
220
0.0
230
1.0
  2
SOLID
 70
     1
 71
     0
 91
        1
 92
        1
 93
        4
 72
     1
 10
86.75060490452763
 20
-121.9670599738485
 11
86.75060490452763
 21
-121.7152234938767
 72
     1
 10
86.75060490452763
 20
-121.7152234938767
 11
87.01966686192564
 21
-121.7152234938767
 72
     1
 10
87.01966686192564
 20
-121.7152234938767
 11
87.01966686192564
 21
-121.9670599738485
 72
     1
 10
87.01966686192564
 20
-121.9670599738485
 11
86.75060490452763
 21
-121.9670599738485
 97
        0
 75
     2
 76
     1
 98
        0
  0
SPLINE
  5
E5
330
C4
100
AcDbEntity
  8
_U+30EC_U+30A4_U+30E4_U+30FC 1
370
     0
100
AcDbSpline
210
0.0
220
0.0
230
1.0
 70
    11
 71
     3
 72
    53
 73
    49
 74
     0
 42
0.0000000001
 43
0.0000000001
 12
1.0
 22
0.0
 32
0.0
 13
1.0
 23
0.0
 33
0.0
 40
0.0
 40
0.0
 40
0.0
 40
0.0
 40
1.0
 40
1.0
 40
1.0
 40
2.0
 40
2.0
 40
2.0
 40
3.0
 40
3.0
 40
3.0
 40
4.0
 40
4.0
 40
4.0
 40
5.0
 40
5.0
 40
5.0
 40
6.0
 40
6.0
 40
6.0
 40
7.0
 40
7.0
 40
7.0
 40
8.0
 40
8.0
 40
8.0
 40
9.0
 40
9.0
 40
9.0
 40
10.0
 40
10.0
 40
10.0
 40
11.0
 40
11.0
 40
11.0
 40
12.0
 40
12.0
 40
12.0
 40
13.0
 40
13.0
 40
13.0
 40
14.0
 40
14.0
 40
14.0
 40
15.0
 40
15.0
 40
15.0
 40
16.0
 40
16.0
 40
16.0
 40
16.0
 10
87.78620060739374
 20
-122.0177028774817
 30
0.0
 10
87.70248478710216
 20
-122.0177028774817
 30
0.0
 10
87.59430878886532
 20
-122.000821909604
 30
0.0
 10
87.48544377153142
 20
-121.9374321526754
 30
0.0
 10
87.30009763442499
 20
-121.8275336066959
 30
0.0
 10
87.27770451377086
 20
-121.6962754687079
 30
0.0
 10
87.25737845040788
 20
-121.5884439800196
 30
0.0
 10
87.25737845040788
 20
-121.5884439800196
 30
0.0
 10
87.4947455293416
 20
-121.5884439800196
 30
0.0
 10
87.4947455293416
 20
-121.5884439800196
 30
0.0
 10
87.55331215259085
 20
-121.7872259895185
 30
0.0
 10
87.68904891470969
 20
-121.8168538106916
 30
0.0
 10
87.7886121742334
 20
-121.8168538106916
 30
0.0
 10
87.93778480874472
 20
-121.8168538106916
 30
0.0
 10
88.10073782519704
 20
-121.7172905511679
 30
0.0
 10
88.10073782519704
 20
-121.4847466059135
 30
0.0
 10
88.10073782519704
 20
-121.2287760113595
 30
0.0
 10
87.9085014971201
 20
-121.1588405730089
 30
0.0
 10
87.77965492597176
 20
-121.1588405730089
 30
0.0
 10
87.74554848066778
 20
-121.1588405730089
 30
0.0
 10
87.59430878886532
 20
-121.1588405730089
 30
0.0
 10
87.49922415347243
 20
-121.2880316537058
 30
0.0
 10
87.49922415347243
 20
-121.2880316537058
 30
0.0
 10
87.3114664495263
 20
-121.2690836285369
 30
0.0
 10
87.3114664495263
 20
-121.2690836285369
 30
0.0
 10
87.3114664495263
 20
-121.2690836285369
 30
0.0
 10
87.44031302067465
 20
-120.422623667811
 30
0.0
 10
87.44031302067465
 20
-120.422623667811
 30
0.0
 10
87.44031302067465
 20
-120.422623667811
 30
0.0
 10
88.27230358036249
 20
-120.422623667811
 30
0.0
 10
88.27230358036249
 20
-120.422623667811
 30
0.0
 10
88.27230358036249
 20
-120.422623667811
 30
0.0
 10
88.27230358036249
 20
-120.6172715627276
 30
0.0
 10
88.27230358036249
 20
-120.6172715627276
 30
0.0
 10
88.27230358036249
 20
-120.6172715627276
 30
0.0
 10
87.61463485222829
 20
-120.6172715627276
 30
0.0
 10
87.61463485222829
 20
-120.6172715627276
 30
0.0
 10
87.61463485222829
 20
-120.6172715627276
 30
0.0
 10
87.5443549043292
 20
-121.0403292883163
 30
0.0
 10
87.5443549043292
 20
-121.0403292883163
 30
0.0
 10
87.60981171854894
 20
-121.0065673525609
 30
0.0
 10
87.69800616297134
 20
-120.9662597353834
 30
0.0
 10
87.82478567682853
 20
-120.9662597353834
 30
0.0
 10
88.09591469151769
 20
-120.9662597353834
 30
0.0
 10
88.34912920968355
 20
-121.1526394011355
 30
0.0
 10
88.34912920968355
 20
-121.4657985807447
 30
0.0
 10
88.34912920968355
 20
-121.7830918749362
 30
0.0
 10
88.1096950734587
 20
-122.0177028774817
 30
0.0
 10
87.78620060739374
 20
-122.0177028774817
 30
0.0
  0
HATCH
  5
E6
330
C4
100
AcDbEntity
  8
_U+30EC_U+30A4_U+30E4_U+30FC 1
 62
   179
420
  2234388
100
AcDbHatch
 10
0.0
 20
0.0
 30
0.0
210
0.0
220
0.0
230
1.0
  2
SOLID
 70
     1
 71
     0
 91
        1
 92
        1
 93
        1
 72
     4
 94
        3
 73
     0
 74
     1
 95
       53
 96
       49
 40
0.0
 40
0.0
 40
0.0
 40
0.0
 40
1.0
 40
1.0
 40
1.0
 40
2.0
 40
2.0
 40
2.0
 40
3.0
 40
3.0
 40
3.0
 40
4.0
 40
4.0
 40
4.0
 40
5.0
 40
5.0
 40
5.0
 40
6.0
 40
6.0
 40
6.0
 40
7.0
 40
7.0
 40
7.0
 40
8.0
 40
8.0
 40
8.0
 40
9.0
 40
9.0
 40
9.0
 40
10.0
 40
10.0
 40
10.0
 40
11.0
 40
11.0
 40
11.0
 40
12.0
 40
12.0
 40
12.0
 40
13.0
 40
13.0
 40
13.0
 40
14.0
 40
14.0
 40
14.0
 40
15.0
 40
15.0
 40
15.0
 40
16.0
 40
16.0
 40
16.0
 40
16.0
 10
87.78620060739374
 20
-122.0177028774817
 10
87.70248478710216
 20
-122.0177028774817
 10
87.59430878886532
 20
-122.000821909604
 10
87.48544377153142
 20
-121.9374321526754
 10
87.30009763442499
 20
-121.8275336066959
 10
87.27770451377086
 20
-121.6962754687079
 10
87.25737845040788
 20
-121.5884439800196
 10
87.25737845040788
 20
-121.5884439800196
 10
87.4947455293416
 20
-121.5884439800196
 10
87.4947455293416
 20
-121.5884439800196
 10
87.55331215259085
 20
-121.7872259895185
 10
87.68904891470969
 20
-121.8168538106916
 10
87.7886121742334
 20
-121.8168538106916
 10
87.93778480874472
 20
-121.8168538106916
 10
88.10073782519704
 20
-121.7172905511679
 10
88.10073782519704
 20
-121.4847466059135
 10
88.10073782519704
 20
-121.2287760113595
 10
87.9085014971201
 20
-121.1588405730089
 10
87.77965492597176
 20
-121.1588405730089
 10
87.74554848066778
 20
-121.1588405730089
 10
87.59430878886532
 20
-121.1588405730089
 10
87.49922415347243
 20
-121.2880316537058
 10
87.49922415347243
 20
-121.2880316537058
 10
87.3114664495263
 20
-121.2690836285369
 10
87.3114664495263
 20
-121.2690836285369
 10
87.3114664495263
 20
-121.2690836285369
 10
87.44031302067465
 20
-120.422623667811
 10
87.44031302067465
 20
-120.422623667811
 10
87.44031302067465
 20
-120.422623667811
 10
88.27230358036249
 20
-120.422623667811
 10
88.27230358036249
 20
-120.422623667811
 10
88.27230358036249
 20
-120.422623667811
 10
88.27230358036249
 20
-120.6172715627276
 10
88.27230358036249
 20
-120.6172715627276
 10
88.27230358036249
 20
-120.6172715627276
 10
87.61463485222829
 20
-120.6172715627276
 10
87.61463485222829
 20
-120.6172715627276
 10
87.61463485222829
 20
-120.6172715627276
 10
87.5443549043292
 20
-121.0403292883163
 10
87.5443549043292
 20
-121.0403292883163
 10
87.60981171854894
 20
-121.0065673525609
 10
87.69800616297134
 20
-120.9662597353834
 10
87.82478567682853
 20
-120.9662597353834
 10
88.09591469151769
 20
-120.9662597353834
 10
88.34912920968355
 20
-121.1526394011355
 10
88.34912920968355
 20
-121.4657985807447
 10
88.34912920968355
 20
-121.7830918749362
 10
88.1096950734587
 20
-122.0177028774817
 10
87.78620060739374
 20
-122.0177028774817
 97
        0
 97
        0
 75
     2
 76
     1
 98
        0
  0
ENDBLK
  5
C7
330
C4
100
AcDbEntity
  8
0
100
AcDbBlockEnd
  0
BLOCK
  5
F1
330
EF
100
AcDbEntity
  8
0
100
AcDbBlockBegin
  2
block 5
 70
     0
 10
0.0
 20
0.0
 30
0.0
  3
block 5
  1

  0
SPLINE
  5
F3
330
EF
100
AcDbEntity
  8
_U+30EC_U+30A4_U+30E4_U+30FC 1
370
     0
100
AcDbSpline
210
0.0
220
0.0
230
1.0
 70
    11
 71
     3
 72
    44
 73
    40
 74
     0
 42
0.0000000001
 43
0.0000000001
 12
1.0
 22
0.0
 32
0.0
 13
1.0
 23
0.0
 33
0.0
 40
0.0
 40
0.0
 40
0.0
 40
0.0
 40
1.0
 40
1.0
 40
1.0
 40
2.0
 40
2.0
 40
2.0
 40
3.0
 40
3.0
 40
3.0
 40
4.0
 40
4.0
 40
4.0
 40
5.0
 40
5.0
 40
5.0
 40
6.0
 40
6.0
 40
6.0
 40
7.0
 40
7.0
 40
7.0
 40
8.0
 40
8.0
 40
8.0
 40
9.0
 40
9.0
 40
9.0
 40
10.0
 40
10.0
 40
10.0
 40
11.0
 40
11.0
 40
11.0
 40
12.0
 40
12.0
 40
12.0
 40
13.0
 40
13.0
 40
13.0
 40
13.0
 10
77.38649086607005
 20
-139.8853461021814
 30
0.0
 10
77.15360241126716
 20
-140.0441650040515
 30
0.0
 10
77.0542114065177
 20
-140.1182345569843
 30
0.0
 10
77.00219046469043
 20
-140.2618950387192
 30
0.0
 10
77.00219046469043
 20
-140.2618950387192
 30
0.0
 10
77.83418102437827
 20
-140.2618950387192
 30
0.0
 10
77.83418102437827
 20
-140.2618950387192
 30
0.0
 10
77.83418102437827
 20
-140.2618950387192
 30
0.0
 10
77.83418102437827
 20
-140.4672227296402
 30
0.0
 10
77.83418102437827
 20
-140.4672227296402
 30
0.0
 10
77.83418102437827
 20
-140.4672227296402
 30
0.0
 10
76.73536781935783
 20
-140.4672227296402
 30
0.0
 10
76.73536781935783
 20
-140.4672227296402
 30
0.0
 10
76.76930200988754
 20
-140.1096218182712
 30
0.0
 10
76.83940970301238
 20
-140.0314181507561
 30
0.0
 10
77.25092635872547
 20
-139.7330728817334
 30
0.0
 10
77.5244669402543
 20
-139.5342908722345
 30
0.0
 10
77.59457463337914
 20
-139.4664224911751
 30
0.0
 10
77.59457463337914
 20
-139.3289631813136
 30
0.0
 10
77.59457463337914
 20
-139.210451896621
 30
0.0
 10
77.51774900405806
 20
-139.0795382681815
 30
0.0
 10
77.30742592468356
 20
-139.0795382681815
 30
0.0
 10
77.02923446424964
 20
-139.0795382681815
 30
0.0
 10
77.02027721598799
 20
-139.3100151561447
 30
0.0
 10
77.01579859185716
 20
-139.4264593835462
 30
0.0
 10
77.01579859185716
 20
-139.4264593835462
 30
0.0
 10
76.77601994608378
 20
-139.4264593835462
 30
0.0
 10
76.77601994608378
 20
-139.4264593835462
 30
0.0
 10
76.78514944911969
 20
-139.2993353601404
 30
0.0
 10
76.796518264221
 20
-139.1873697568698
 30
0.0
 10
76.88230114180374
 20
-139.0688584721772
 30
0.0
 10
76.99995115262502
 20
-138.9079725130161
 30
0.0
 10
77.1989054168982
 20
-138.8742105772606
 30
0.0
 10
77.32327336391572
 20
-138.8742105772606
 30
0.0
 10
77.61937932087294
 20
-138.8742105772606
 30
0.0
 10
77.8408989605745
 20
-139.058178676173
 30
0.0
 10
77.8408989605745
 20
-139.3310302386047
 30
0.0
 10
77.8408989605745
 20
-139.5597845788253
 30
0.0
 10
77.71653101355699
 20
-139.6590033288005
 30
0.0
 10
77.38649086607005
 20
-139.8853461021814
 30
0.0
  0
HATCH
  5
F4
330
EF
100
AcDbEntity
  8
_U+30EC_U+30A4_U+30E4_U+30FC 1
 62
   179
420
  2234388
100
AcDbHatch
 10
0.0
 20
0.0
 30
0.0
210
0.0
220
0.0
230
1.0
  2
SOLID
 70
     1
 71
     0
 91
        1
 92
        1
 93
        1
 72
     4
 94
        3
 73
     0
 74
     1
 95
       44
 96
       40
 40
0.0
 40
0.0
 40
0.0
 40
0.0
 40
1.0
 40
1.0
 40
1.0
 40
2.0
 40
2.0
 40
2.0
 40
3.0
 40
3.0
 40
3.0
 40
4.0
 40
4.0
 40
4.0
 40
5.0
 40
5.0
 40
5.0
 40
6.0
 40
6.0
 40
6.0
 40
7.0
 40
7.0
 40
7.0
 40
8.0
 40
8.0
 40
8.0
 40
9.0
 40
9.0
 40
9.0
 40
10.0
 40
10.0
 40
10.0
 40
11.0
 40
11.0
 40
11.0
 40
12.0
 40
12.0
 40
12.0
 40
13.0
 40
13.0
 40
13.0
 40
13.0
 10
77.38649086607005
 20
-139.8853461021814
 10
77.15360241126716
 20
-140.0441650040515
 10
77.0542114065177
 20
-140.1182345569843
 10
77.00219046469043
 20
-140.2618950387192
 10
77.00219046469043
 20
-140.2618950387192
 10
77.83418102437827
 20
-140.2618950387192
 10
77.83418102437827
 20
-140.2618950387192
 10
77.83418102437827
 20
-140.2618950387192
 10
77.83418102437827
 20
-140.4672227296402
 10
77.83418102437827
 20
-140.4672227296402
 10
77.83418102437827
 20
-140.4672227296402
 10
76.73536781935783
 20
-140.4672227296402
 10
76.73536781935783
 20
-140.4672227296402
 10
76.76930200988754
 20
-140.1096218182712
 10
76.83940970301238
 20
-140.0314181507561
 10
77.25092635872547
 20
-139.7330728817334
 10
77.5244669402543
 20
-139.5342908722345
 10
77.59457463337914
 20
-139.4664224911751
 10
77.59457463337914
 20
-139.3289631813136
 10
77.59457463337914
 20
-139.210451896621
 10
77.51774900405806
 20
-139.0795382681815
 10
77.30742592468356
 20
-139.0795382681815
 10
77.02923446424964
 20
-139.0795382681815
 10
77.02027721598799
 20
-139.3100151561447
 10
77.01579859185716
 20
-139.4264593835462
 10
77.01579859185716
 20
-139.4264593835462
 10
76.77601994608378
 20
-139.4264593835462
 10
76.77601994608378
 20
-139.4264593835462
 10
76.78514944911969
 20
-139.2993353601404
 10
76.796518264221
 20
-139.1873697568698
 10
76.88230114180374
 20
-139.0688584721772
 10
76.99995115262502
 20
-138.9079725130161
 10
77.1989054168982
 20
-138.8742105772606
 10
77.32327336391572
 20
-138.8742105772606
 10
77.61937932087294
 20
-138.8742105772606
 10
77.8408989605745
 20
-139.058178676173
 10
77.8408989605745
 20
-139.3310302386047
 10
77.8408989605745
 20
-139.5597845788253
 10
77.71653101355699
 20
-139.6590033288005
 10
77.38649086607005
 20
-139.8853461021814
 97
        0
 97
        0
 75
     2
 76
     1
 98
        0
  0
SPLINE
  5
F5
330
EF
100
AcDbEntity
  8
_U+30EC_U+30A4_U+30E4_U+30FC 1
370
     0
100
AcDbSpline
210
0.0
220
0.0
230
1.0
 70
    11
 71
     3
 72
    44
 73
    40
 74
     0
 42
0.0000000001
 43
0.0000000001
 12
1.0
 22
0.0
 32
0.0
 13
1.0
 23
0.0
 33
0.0
 40
0.0
 40
0.0
 40
0.0
 40
0.0
 40
1.0
 40
1.0
 40
1.0
 40
2.0
 40
2.0
 40
2.0
 40
3.0
 40
3.0
 40
3.0
 40
4.0
 40
4.0
 40
4.0
 40
5.0
 40
5.0
 40
5.0
 40
6.0
 40
6.0
 40
6.0
 40
7.0
 40
7.0
 40
7.0
 40
8.0
 40
8.0
 40
8.0
 40
9.0
 40
9.0
 40
9.0
 40
10.0
 40
10.0
 40
10.0
 40
11.0
 40
11.0
 40
11.0
 40
12.0
 40
12.0
 40
12.0
 40
13.0
 40
13.0
 40
13.0
 40
13.0
 10
79.09422469810839
 20
-140.4672227296402
 30
0.0
 10
79.06942001061459
 20
-140.4227809978804
 30
0.0
 10
79.04668238041194
 20
-140.3700710369561
 30
0.0
 10
79.04444306834654
 20
-140.1392496394444
 30
0.0
 10
79.03996444421571
 20
-139.8960258981857
 30
0.0
 10
78.97674694206137
 20
-139.8260904598351
 30
0.0
 10
78.78674992604985
 20
-139.8260904598351
 30
0.0
 10
78.78674992604985
 20
-139.8260904598351
 30
0.0
 10
78.35042858284295
 20
-139.8260904598351
 30
0.0
 10
78.35042858284295
 20
-139.8260904598351
 30
0.0
 10
78.35042858284295
 20
-139.8260904598351
 30
0.0
 10
78.35042858284295
 20
-140.4672227296402
 30
0.0
 10
78.35042858284295
 20
-140.4672227296402
 30
0.0
 10
78.35042858284295
 20
-140.4672227296402
 30
0.0
 10
78.0994533767425
 20
-140.4672227296402
 30
0.0
 10
78.0994533767425
 20
-140.4672227296402
 30
0.0
 10
78.0994533767425
 20
-140.4672227296402
 30
0.0
 10
78.0994533767425
 20
-138.9227864236026
 30
0.0
 10
78.0994533767425
 20
-138.9227864236026
 30
0.0
 10
78.0994533767425
 20
-138.9227864236026
 30
0.0
 10
78.82068411657956
 20
-138.9227864236026
 30
0.0
 10
78.82068411657956
 20
-138.9227864236026
 30
0.0
 10
79.14848495200107
 20
-138.9227864236026
 30
0.0
 10
79.32711315291128
 20
-139.0943521787681
 30
0.0
 10
79.32711315291128
 20
-139.3503227733221
 30
0.0
 10
79.32711315291128
 20
-139.4009656769553
 30
0.0
 10
79.31815590464963
 20
-139.4836479686013
 30
0.0
 10
79.27061358695319
 20
-139.5639186934076
 30
0.0
 10
79.20722383002459
 20
-139.6676160675136
 30
0.0
 10
79.13728839167402
 20
-139.6865640926825
 30
0.0
 10
79.07165932268
 20
-139.7034450605603
 30
0.0
 10
79.21859264512591
 20
-139.7458197350288
 30
0.0
 10
79.29093965031616
 20
-139.7943955813708
 30
0.0
 10
79.29541827444699
 20
-140.1096218182712
 30
0.0
 10
79.29989689857781
 20
-140.3804063234118
 30
0.0
 10
79.3384819680126
 20
-140.4121012018761
 30
0.0
 10
79.41082897320285
 20
-140.4672227296402
 30
0.0
 10
79.41082897320285
 20
-140.4672227296402
 30
0.0
 10
79.09422469810839
 20
-140.4672227296402
 30
0.0
 10
79.09422469810839
 20
-140.4672227296402
 30
0.0
  0
SPLINE
  5
F6
330
EF
100
AcDbEntity
  8
_U+30EC_U+30A4_U+30E4_U+30FC 1
370
     0
100
AcDbSpline
210
0.0
220
0.0
230
1.0
 70
    11
 71
     3
 72
    20
 73
    16
 74
     0
 42
0.0000000001
 43
0.0000000001
 12
1.0
 22
0.0
 32
0.0
 13
1.0
 23
0.0
 33
0.0
 40
0.0
 40
0.0
 40
0.0
 40
0.0
 40
1.0
 40
1.0
 40
1.0
 40
2.0
 40
2.0
 40
2.0
 40
3.0
 40
3.0
 40
3.0
 40
4.0
 40
4.0
 40
4.0
 40
5.0
 40
5.0
 40
5.0
 40
5.0
 10
78.82516274071038
 20
-139.134315286397
 30
0.0
 10
78.82516274071038
 20
-139.134315286397
 30
0.0
 10
78.35042858284295
 20
-139.134315286397
 30
0.0
 10
78.35042858284295
 20
-139.134315286397
 30
0.0
 10
78.35042858284295
 20
-139.134315286397
 30
0.0
 10
78.35042858284295
 20
-139.6145615970408
 30
0.0
 10
78.35042858284295
 20
-139.6145615970408
 30
0.0
 10
78.35042858284295
 20
-139.6145615970408
 30
0.0
 10
78.82292342864497
 20
-139.6145615970408
 30
0.0
 10
78.82292342864497
 20
-139.6145615970408
 30
0.0
 10
78.92920462436493
 20
-139.6145615970408
 30
0.0
 10
79.07389863474542
 20
-139.5384249868168
 30
0.0
 10
79.07389863474542
 20
-139.3672037411999
 30
0.0
 10
79.07389863474542
 20
-139.2890000736847
 30
0.0
 10
79.0377251321503
 20
-139.134315286397
 30
0.0
 10
78.82516274071038
 20
-139.134315286397
 30
0.0
  0
HATCH
  5
F7
330
EF
100
AcDbEntity
  8
_U+30EC_U+30A4_U+30E4_U+30FC 1
 62
   179
420
  2234388
100
AcDbHatch
 10
0.0
 20
0.0
 30
0.0
210
0.0
220
0.0
230
1.0
  2
SOLID
 70
     1
 71
     0
 91
        2
 92
        1
 93
        1
 72
     4
 94
        3
 73
     0
 74
     1
 95
       44
 96
       40
 40
0.0
 40
0.0
 40
0.0
 40
0.0
 40
1.0
 40
1.0
 40
1.0
 40
2.0
 40
2.0
 40
2.0
 40
3.0
 40
3.0
 40
3.0
 40
4.0
 40
4.0
 40
4.0
 40
5.0
 40
5.0
 40
5.0
 40
6.0
 40
6.0
 40
6.0
 40
7.0
 40
7.0
 40
7.0
 40
8.0
 40
8.0
 40
8.0
 40
9.0
 40
9.0
 40
9.0
 40
10.0
 40
10.0
 40
10.0
 40
11.0
 40
11.0
 40
11.0
 40
12.0
 40
12.0
 40
12.0
 40
13.0
 40
13.0
 40
13.0
 40
13.0
 10
79.09422469810839
 20
-140.4672227296402
 10
79.06942001061459
 20
-140.4227809978804
 10
79.04668238041194
 20
-140.3700710369561
 10
79.04444306834654
 20
-140.1392496394444
 10
79.03996444421571
 20
-139.8960258981857
 10
78.97674694206137
 20
-139.8260904598351
 10
78.78674992604985
 20
-139.8260904598351
 10
78.78674992604985
 20
-139.8260904598351
 10
78.35042858284295
 20
-139.8260904598351
 10
78.35042858284295
 20
-139.8260904598351
 10
78.35042858284295
 20
-139.8260904598351
 10
78.35042858284295
 20
-140.4672227296402
 10
78.35042858284295
 20
-140.4672227296402
 10
78.35042858284295
 20
-140.4672227296402
 10
78.0994533767425
 20
-140.4672227296402
 10
78.0994533767425
 20
-140.4672227296402
 10
78.0994533767425
 20
-140.4672227296402
 10
78.0994533767425
 20
-138.9227864236026
 10
78.0994533767425
 20
-138.9227864236026
 10
78.0994533767425
 20
-138.9227864236026
 10
78.82068411657956
 20
-138.9227864236026
 10
78.82068411657956
 20
-138.9227864236026
 10
79.14848495200107
 20
-138.9227864236026
 10
79.32711315291128
 20
-139.0943521787681
 10
79.32711315291128
 20
-139.3503227733221
 10
79.32711315291128
 20
-139.4009656769553
 10
79.31815590464963
 20
-139.4836479686013
 10
79.27061358695319
 20
-139.5639186934076
 10
79.20722383002459
 20
-139.6676160675136
 10
79.13728839167402
 20
-139.6865640926825
 10
79.07165932268
 20
-139.7034450605603
 10
79.21859264512591
 20
-139.7458197350288
 10
79.29093965031616
 20
-139.7943955813708
 10
79.29541827444699
 20
-140.1096218182712
 10
79.29989689857781
 20
-140.3804063234118
 10
79.3384819680126
 20
-140.4121012018761
 10
79.41082897320285
 20
-140.4672227296402
 10
79.41082897320285
 20
-140.4672227296402
 10
79.09422469810839
 20
-140.4672227296402
 10
79.09422469810839
 20
-140.4672227296402
 97
        0
 97
        0
 92
        1
 93
        1
 72
     4
 94
        3
 73
     0
 74
     1
 95
       20
 96
       16
 40
0.0
 40
0.0
 40
0.0
 40
0.0
 40
1.0
 40
1.0
 40
1.0
 40
2.0
 40
2.0
 40
2.0
 40
3.0
 40
3.0
 40
3.0
 40
4.0
 40
4.0
 40
4.0
 40
5.0
 40
5.0
 40
5.0
 40
5.0
 10
78.82516274071038
 20
-139.134315286397
 10
78.82516274071038
 20
-139.134315286397
 10
78.35042858284295
 20
-139.134315286397
 10
78.35042858284295
 20
-139.134315286397
 10
78.35042858284295
 20
-139.134315286397
 10
78.35042858284295
 20
-139.6145615970408
 10
78.35042858284295
 20
-139.6145615970408
 10
78.35042858284295
 20
-139.6145615970408
 10
78.82292342864497
 20
-139.6145615970408
 10
78.82292342864497
 20
-139.6145615970408
 10
78.92920462436493
 20
-139.6145615970408
 10
79.07389863474542
 20
-139.5384249868168
 10
79.07389863474542
 20
-139.3672037411999
 10
79.07389863474542
 20
-139.2890000736847
 10
79.0377251321503
 20
-139.134315286397
 10
78.82516274071038
 20
-139.134315286397
 97
        0
 97
        0
 75
     2
 76
     1
 98
        0
  0
ENDBLK
  5
F2
330
EF
100
AcDbEntity
  8
0
100
AcDbBlockEnd
  0
BLOCK
  5
113
330
111
100
AcDbEntity
  8
0
100
AcDbBlockBegin
  2
block 6
 70
     0
 10
0.0
 20
0.0
 30
0.0
  3
block 6
  1

  0
SPLINE
  5
115
330
111
100
AcDbEntity
  8
_U+30EC_U+30A4_U+30E4_U+30FC 1
370
     0
100
AcDbSpline
210
0.0
220
0.0
230
1.0
 70
    11
 71
     3
 72
    26
 73
    22
 74
     0
 42
0.0000000001
 43
0.0000000001
 12
1.0
 22
0.0
 32
0.0
 13
1.0
 23
0.0
 33
0.0
 40
0.0
 40
0.0
 40
0.0
 40
0.0
 40
1.0
 40
1.0
 40
1.0
 40
2.0
 40
2.0
 40
2.0
 40
3.0
 40
3.0
 40
3.0
 40
4.0
 40
4.0
 40
4.0
 40
5.0
 40
5.0
 40
5.0
 40
6.0
 40
6.0
 40
6.0
 40
7.0
 40
7.0
 40
7.0
 40
7.0
 10
82.81286076488706
 20
-121.9660264452029
 30
0.0
 10
82.81286076488706
 20
-121.9660264452029
 30
0.0
 10
82.81286076488706
 20
-120.8618733421804
 30
0.0
 10
82.81286076488706
 20
-120.8618733421804
 30
0.0
 10
82.81286076488706
 20
-120.8618733421804
 30
0.0
 10
82.46042749674601
 20
-120.8618733421804
 30
0.0
 10
82.46042749674601
 20
-120.8618733421804
 30
0.0
 10
82.46042749674601
 20
-120.8618733421804
 30
0.0
 10
82.46042749674601
 20
-120.7137342363146
 30
0.0
 10
82.46042749674601
 20
-120.7137342363146
 30
0.0
 10
82.81527233172675
 20
-120.6989203257281
 30
0.0
 10
82.86488170671434
 20
-120.5359673092757
 30
0.0
 10
82.89657658517864
 20
-120.4215901391654
 30
0.0
 10
82.89657658517864
 20
-120.4215901391654
 30
0.0
 10
83.05263941066046
 20
-120.4215901391654
 30
0.0
 10
83.05263941066046
 20
-120.4215901391654
 30
0.0
 10
83.05263941066046
 20
-120.4215901391654
 30
0.0
 10
83.05263941066046
 20
-121.9660264452029
 30
0.0
 10
83.05263941066046
 20
-121.9660264452029
 30
0.0
 10
83.05263941066046
 20
-121.9660264452029
 30
0.0
 10
82.81286076488706
 20
-121.9660264452029
 30
0.0
 10
82.81286076488706
 20
-121.9660264452029
 30
0.0
  0
HATCH
  5
116
330
111
100
AcDbEntity
  8
_U+30EC_U+30A4_U+30E4_U+30FC 1
 62
   179
420
  2234388
100
AcDbHatch
 10
0.0
 20
0.0
 30
0.0
210
0.0
220
0.0
230
1.0
  2
SOLID
 70
     1
 71
     0
 91
        1
 92
        1
 93
        1
 72
     4
 94
        3
 73
     0
 74
     1
 95
       26
 96
       22
 40
0.0
 40
0.0
 40
0.0
 40
0.0
 40
1.0
 40
1.0
 40
1.0
 40
2.0
 40
2.0
 40
2.0
 40
3.0
 40
3.0
 40
3.0
 40
4.0
 40
4.0
 40
4.0
 40
5.0
 40
5.0
 40
5.0
 40
6.0
 40
6.0
 40
6.0
 40
7.0
 40
7.0
 40
7.0
 40
7.0
 10
82.81286076488706
 20
-121.9660264452029
 10
82.81286076488706
 20
-121.9660264452029
 10
82.81286076488706
 20
-120.8618733421804
 10
82.81286076488706
 20
-120.8618733421804
 10
82.81286076488706
 20
-120.8618733421804
 10
82.46042749674601
 20
-120.8618733421804
 10
82.46042749674601
 20
-120.8618733421804
 10
82.46042749674601
 20
-120.8618733421804
 10
82.46042749674601
 20
-120.7137342363146
 10
82.46042749674601
 20
-120.7137342363146
 10
82.81527233172675
 20
-120.6989203257281
 10
82.86488170671434
 20
-120.5359673092757
 10
82.89657658517864
 20
-120.4215901391654
 10
82.89657658517864
 20
-120.4215901391654
 10
83.05263941066046
 20
-120.4215901391654
 10
83.05263941066046
 20
-120.4215901391654
 10
83.05263941066046
 20
-120.4215901391654
 10
83.05263941066046
 20
-121.9660264452029
 10
83.05263941066046
 20
-121.9660264452029
 10
83.05263941066046
 20
-121.9660264452029
 10
82.81286076488706
 20
-121.9660264452029
 10
82.81286076488706
 20
-121.9660264452029
 97
        0
 97
        0
 75
     2
 76
     1
 98
        0
  0
ENDBLK
  5
114
330
111
100
AcDbEntity
  8
0
100
AcDbBlockEnd
  0
ENDSEC
  0
SECTION
  2
ENTITIES
  0
POLYLINE
  5
41
330
1F
100
AcDbEntity
  8
_U+30EC_U+30A4_U+30E4_U+30FC 1
  6
AI-Linetype-1
 62
   251
420
  5855577
370
    25
100
AcDb2dPolyline
 66
     1
 10
0.0
 20
0.0
 30
0.0
  0
VERTEX
  5
42
330
41
100
AcDbEntity
  8
_U+30EC_U+30A4_U+30E4_U+30FC 1
  6
AI-Linetype-1
 62
   251
420
  5855577
370
    25
100
AcDbVertex
100
AcDb2dVertex
 10
85.02392255308125
 20
-125.8384791352072
 30
0.0
  0
VERTEX
  5
43
330
41
100
AcDbEntity
  8
_U+30EC_U+30A4_U+30E4_U+30FC 1
  6
AI-Linetype-1
 62
   251
420
  5855577
370
    25
100
AcDbVertex
100
AcDb2dVertex
 10
83.17183926699849
 20
-125.8384791352072
 30
0.0
  0
VERTEX
  5
44
330
41
100
AcDbEntity
  8
_U+30EC_U+30A4_U+30E4_U+30FC 1
  6
AI-Linetype-1
 62
   251
420
  5855577
370
    25
100
AcDbVertex
100
AcDb2dVertex
 10
83.17183926699849
 20
-137.8627332988675
 30
0.0
  0
VERTEX
  5
45
330
41
100
AcDbEntity
  8
_U+30EC_U+30A4_U+30E4_U+30FC 1
  6
AI-Linetype-1
 62
   251
420
  5855577
370
    25
100
AcDbVertex
100
AcDb2dVertex
 10
95.24036673688248
 20
-137.8627332988675
 30
0.0
  0
VERTEX
  5
46
330
41
100
AcDbEntity
  8
_U+30EC_U+30A4_U+30E4_U+30FC 1
  6
AI-Linetype-1
 62
   251
420
  5855577
370
    25
100
AcDbVertex
100
AcDb2dVertex
 10
95.24036673688248
 20
-136.3076182992563
 30
0.0
  0
SEQEND
  5
48
330
41
100
AcDbEntity
  8
_U+30EC_U+30A4_U+30E4_U+30FC 1
  6
AI-Linetype-1
 62
   251
420
  5855577
370
    25
  0
SPLINE
  5
49
330
1F
100
AcDbEntity
  8
_U+30EC_U+30A4_U+30E4_U+30FC 1
370
     0
100
AcDbSpline
210
0.0
220
0.0
230
1.0
 70
     8
 71
     3
 72
    71
 73
    67
 74
     0
 42
0.0000000001
 43
0.0000000001
 12
1.0
 22
0.0
 32
0.0
 13
1.0
 23
0.0
 33
0.0
 40
0.0
 40
0.0
 40
0.0
 40
0.0
 40
1.0
 40
1.0
 40
1.0
 40
2.0
 40
2.0
 40
2.0
 40
3.0
 40
3.0
 40
3.0
 40
4.0
 40
4.0
 40
4.0
 40
5.0
 40
5.0
 40
5.0
 40
6.0
 40
6.0
 40
6.0
 40
7.0
 40
7.0
 40
7.0
 40
8.0
 40
8.0
 40
8.0
 40
9.0
 40
9.0
 40
9.0
 40
10.0
 40
10.0
 40
10.0
 40
11.0
 40
11.0
 40
11.0
 40
12.0
 40
12.0
 40
12.0
 40
13.0
 40
13.0
 40
13.0
 40
14.0
 40
14.0
 40
14.0
 40
15.0
 40
15.0
 40
15.0
 40
16.0
 40
16.0
 40
16.0
 40
17.0
 40
17.0
 40
17.0
 40
18.0
 40
18.0
 40
18.0
 40
19.0
 40
19.0
 40
19.0
 40
20.0
 40
20.0
 40
20.0
 40
21.0
 40
21.0
 40
21.0
 40
22.0
 40
22.0
 40
22.0
 40
22.0
 10
93.44098844945512
 20
-136.0637077437618
 30
0.0
 10
93.44098844945512
 20
-136.0637077437618
 30
0.0
 10
86.37234720062915
 20
-136.0637077437618
 30
0.0
 10
86.37234720062915
 20
-136.0637077437618
 30
0.0
 10
86.29275835404388
 20
-136.0637077437618
 30
0.0
 10
86.21662891154166
 20
-136.0319930215479
 30
0.0
 10
86.16011391298348
 20
-135.9755132993394
 30
0.0
 10
86.04299169374929
 20
-135.8583910771464
 30
0.0
 10
86.04299169374929
 20
-135.6688788549719
 30
0.0
 10
86.16011391298348
 20
-135.5514038550011
 30
0.0
 10
86.16011391298348
 20
-135.5514038550011
 30
0.0
 10
90.14816075568437
 20
-131.5637096893312
 30
0.0
 10
90.14816075568437
 20
-131.5637096893312
 30
0.0
 10
90.14816075568437
 20
-131.5637096893312
 30
0.0
 10
93.44098844945512
 20
-131.5637096893312
 30
0.0
 10
93.44098844945512
 20
-131.5637096893312
 30
0.0
 10
93.79824649589627
 20
-131.5637096893312
 30
0.0
 10
94.12827009858776
 20
-131.3728569116014
 30
0.0
 10
94.30705787180429
 20
-131.063506078345
 30
0.0
 10
94.30705787180429
 20
-131.063506078345
 30
0.0
 10
104.942425656029
 20
-131.063506078345
 30
0.0
 10
104.942425656029
 20
-131.063506078345
 30
0.0
 10
105.2187212045357
 20
-131.063506078345
 30
0.0
 10
105.4426645321557
 20
-130.8395627450678
 30
0.0
 10
105.4426645321557
 20
-130.5636199673591
 30
0.0
 10
105.4426645321557
 20
-130.5636199673591
 30
0.0
 10
90.44100158154671
 20
-130.5636199673591
 30
0.0
 10
90.44100158154671
 20
-130.5636199673591
 30
0.0
 10
90.44100158154671
 20
-130.5636199673591
 30
0.0
 10
90.44100158154671
 20
-115.5636499711092
 30
0.0
 10
90.44100158154671
 20
-115.5636499711092
 30
0.0
 10
90.16470831079218
 20
-115.5636499711092
 30
0.0
 10
89.94111548318875
 20
-115.7874169154976
 30
0.0
 10
89.94111548318875
 20
-116.0635360820952
 30
0.0
 10
89.94111548318875
 20
-116.0635360820952
 30
0.0
 10
89.94111548318875
 20
-126.697528301659
 30
0.0
 10
89.94111548318875
 20
-126.697528301659
 30
0.0
 10
89.63137660220197
 20
-126.8763160793921
 30
0.0
 10
89.44087660706202
 20
-127.2063749681984
 30
0.0
 10
89.44087660706202
 20
-127.5636330236647
 30
0.0
 10
89.44087660706202
 20
-127.5636330236647
 30
0.0
 10
89.44087660706202
 20
-130.8564255228414
 30
0.0
 10
89.44087660706202
 20
-130.8564255228414
 30
0.0
 10
89.44087660706202
 20
-130.8564255228414
 30
0.0
 10
85.45318254212991
 20
-134.8441549662888
 30
0.0
 10
85.45318254212991
 20
-134.8441549662888
 30
0.0
 10
85.39666754357172
 20
-134.9006346884973
 30
0.0
 10
85.3205381010695
 20
-134.9323494107112
 30
0.0
 10
85.24095143643326
 20
-134.9323494107112
 30
0.0
 10
85.0752517184384
 20
-134.9323494107112
 30
0.0
 10
84.94087866631098
 20
-134.7979763551892
 30
0.0
 10
84.94087866631098
 20
-134.6322766330085
 30
0.0
 10
84.94087866631098
 20
-134.6322766330085
 30
0.0
 10
84.94087866631098
 20
-126.5375083016991
 30
0.0
 10
84.94087866631098
 20
-126.5375083016991
 30
0.0
 10
84.38828756929765
 20
-126.5375083016991
 30
0.0
 10
83.94078896960318
 20
-126.9853596904758
 30
0.0
 10
83.94078896960318
 20
-127.5375980236712
 30
0.0
 10
83.94078896960318
 20
-127.5375980236712
 30
0.0
 10
83.94078896960318
 20
-134.6060652441261
 30
0.0
 10
83.94078896960318
 20
-134.6060652441261
 30
0.0
 10
83.94078896960318
 20
-134.6060652441261
 30
0.0
 10
83.94078896960318
 20
-135.0635827440122
 30
0.0
 10
83.94078896960318
 20
-135.0635827440122
 30
0.0
 10
83.94078896960318
 20
-136.1684474659576
 30
0.0
 10
84.83649172452967
 20
-137.0634799657344
 30
0.0
 10
85.94100364079567
 20
-137.0634799657344
 30
0.0
  0
HATCH
  5
4A
330
1F
100
AcDbEntity
  8
_U+30EC_U+30A4_U+30E4_U+30FC 1
 62
   253
420
 11711154
100
AcDbHatch
 10
0.0
 20
0.0
 30
0.0
210
0.0
220
0.0
230
1.0
  2
SOLID
 70
     1
 71
     0
 91
        1
 92
        1
 93
        2
 72
     4
 94
        3
 73
     0
 74
     0
 95
       71
 96
       67
 40
0.0
 40
0.0
 40
0.0
 40
0.0
 40
0.3527777776895833
 40
0.3527777776895833
 40
0.3527777776895833
 40
0.7055555553791667
 40
0.7055555553791667
 40
0.7055555553791667
 40
1.05833333306875
 40
1.05833333306875
 40
1.05833333306875
 40
1.411111110758333
 40
1.411111110758333
 40
1.411111110758333
 40
1.763888888447917
 40
1.763888888447917
 40
1.763888888447917
 40
2.1166666661375
 40
2.1166666661375
 40
2.1166666661375
 40
2.469444443827083
 40
2.469444443827083
 40
2.469444443827083
 40
2.822222221516667
 40
2.822222221516667
 40
2.822222221516667
 40
3.17499999920625
 40
3.17499999920625
 40
3.17499999920625
 40
3.527777776895833
 40
3.527777776895833
 40
3.527777776895833
 40
3.880555554585417
 40
3.880555554585417
 40
3.880555554585417
 40
4.233333332275
 40
4.233333332275
 40
4.233333332275
 40
4.586111109964584
 40
4.586111109964584
 40
4.586111109964584
 40
4.938888887654167
 40
4.938888887654167
 40
4.938888887654167
 40
5.29166666534375
 40
5.29166666534375
 40
5.29166666534375
 40
5.644444443033334
 40
5.644444443033334
 40
5.644444443033334
 40
5.997222220722917
 40
5.997222220722917
 40
5.997222220722917
 40
6.349999998412501
 40
6.349999998412501
 40
6.349999998412501
 40
6.702777776102083
 40
6.702777776102083
 40
6.702777776102083
 40
7.055555553791667
 40
7.055555553791667
 40
7.055555553791667
 40
7.40833333148125
 40
7.40833333148125
 40
7.40833333148125
 40
7.761111109170834
 40
7.761111109170834
 40
7.761111109170834
 40
7.761111109170834
 10
93.44098844945512
 20
-136.0637077437618
 10
93.44098844945512
 20
-136.0637077437618
 10
86.37234720062915
 20
-136.0637077437618
 10
86.37234720062915
 20
-136.0637077437618
 10
86.29275835404388
 20
-136.0637077437618
 10
86.21662891154166
 20
-136.0319930215479
 10
86.16011391298348
 20
-135.9755132993394
 10
86.04299169374929
 20
-135.8583910771464
 10
86.04299169374929
 20
-135.6688788549719
 10
86.16011391298348
 20
-135.5514038550011
 10
86.16011391298348
 20
-135.5514038550011
 10
90.14816075568437
 20
-131.5637096893312
 10
90.14816075568437
 20
-131.5637096893312
 10
90.14816075568437
 20
-131.5637096893312
 10
93.44098844945512
 20
-131.5637096893312
 10
93.44098844945512
 20
-131.5637096893312
 10
93.79824649589627
 20
-131.5637096893312
 10
94.12827009858776
 20
-131.3728569116014
 10
94.30705787180429
 20
-131.063506078345
 10
94.30705787180429
 20
-131.063506078345
 10
104.942425656029
 20
-131.063506078345
 10
104.942425656029
 20
-131.063506078345
 10
105.2187212045357
 20
-131.063506078345
 10
105.4426645321557
 20
-130.8395627450678
 10
105.4426645321557
 20
-130.5636199673591
 10
105.4426645321557
 20
-130.5636199673591
 10
90.44100158154671
 20
-130.5636199673591
 10
90.44100158154671
 20
-130.5636199673591
 10
90.44100158154671
 20
-130.5636199673591
 10
90.44100158154671
 20
-115.5636499711092
 10
90.44100158154671
 20
-115.5636499711092
 10
90.16470831079218
 20
-115.5636499711092
 10
89.94111548318875
 20
-115.7874169154976
 10
89.94111548318875
 20
-116.0635360820952
 10
89.94111548318875
 20
-116.0635360820952
 10
89.94111548318875
 20
-126.697528301659
 10
89.94111548318875
 20
-126.697528301659
 10
89.63137660220197
 20
-126.8763160793921
 10
89.44087660706202
 20
-127.2063749681984
 10
89.44087660706202
 20
-127.5636330236647
 10
89.44087660706202
 20
-127.5636330236647
 10
89.44087660706202
 20
-130.8564255228414
 10
89.44087660706202
 20
-130.8564255228414
 10
89.44087660706202
 20
-130.8564255228414
 10
85.45318254212991
 20
-134.8441549662888
 10
85.45318254212991
 20
-134.8441549662888
 10
85.39666754357172
 20
-134.9006346884973
 10
85.3205381010695
 20
-134.9323494107112
 10
85.24095143643326
 20
-134.9323494107112
 10
85.0752517184384
 20
-134.9323494107112
 10
84.94087866631098
 20
-134.7979763551892
 10
84.94087866631098
 20
-134.6322766330085
 10
84.94087866631098
 20
-134.6322766330085
 10
84.94087866631098
 20
-126.5375083016991
 10
84.94087866631098
 20
-126.5375083016991
 10
84.38828756929765
 20
-126.5375083016991
 10
83.94078896960318
 20
-126.9853596904758
 10
83.94078896960318
 20
-127.5375980236712
 10
83.94078896960318
 20
-127.5375980236712
 10
83.94078896960318
 20
-134.6060652441261
 10
83.94078896960318
 20
-134.6060652441261
 10
83.94078896960318
 20
-134.6060652441261
 10
83.94078896960318
 20
-135.0635827440122
 10
83.94078896960318
 20
-135.0635827440122
 10
83.94078896960318
 20
-136.1684474659576
 10
84.83649172452967
 20
-137.0634799657344
 10
85.94100364079567
 20
-137.0634799657344
 97
        0
 72
     1
 10
85.94100364079567
 20
-137.0634799657344
 11
93.44098844945512
 21
-136.0637077437618
 97
        0
 75
     2
 76
     1
 98
        0
  0
POLYLINE
  5
4B
330
1F
100
AcDbEntity
  8
_U+30EC_U+30A4_U+30E4_U+30FC 1
 62
   179
420
  2234388
370
    25
100
AcDb2dPolyline
 66
     1
 10
0.0
 20
0.0
 30
0.0
  0
VERTEX
  5
4C
330
4B
100
AcDbEntity
  8
_U+30EC_U+30A4_U+30E4_U+30FC 1
 62
   179
420
  2234388
370
    25
100
AcDbVertex
100
AcDb2dVertex
 10
90.14816075568437
 20
-131.5637096893312
 30
0.0
  0
VERTEX
  5
4D
330
4B
100
AcDbEntity
  8
_U+30EC_U+30A4_U+30E4_U+30FC 1
 62
   179
420
  2234388
370
    25
100
AcDbVertex
100
AcDb2dVertex
 10
93.44098844945512
 20
-131.5637096893312
 30
0.0
  0
SEQEND
  5
4E
330
4B
100
AcDbEntity
  8
_U+30EC_U+30A4_U+30E4_U+30FC 1
 62
   179
420
  2234388
370
    25
  0
POLYLINE
  5
4F
330
1F
100
AcDbEntity
  8
_U+30EC_U+30A4_U+30E4_U+30FC 1
 62
   179
420
  2234388
370
    25
100
AcDb2dPolyline
 66
     1
 10
0.0
 20
0.0
 30
0.0
  0
VERTEX
  5
50
330
4F
100
AcDbEntity
  8
_U+30EC_U+30A4_U+30E4_U+30FC 1
 62
   179
420
  2234388
370
    25
100
AcDbVertex
100
AcDb2dVertex
 10
89.44087660706202
 20
-127.5636330236647
 30
0.0
  0
VERTEX
  5
51
330
4F
100
AcDbEntity
  8
_U+30EC_U+30A4_U+30E4_U+30FC 1
 62
   179
420
  2234388
370
    25
100
AcDbVertex
100
AcDb2dVertex
 10
89.44087660706202
 20
-130.8564255228414
 30
0.0
  0
SEQEND
  5
52
330
4F
100
AcDbEntity
  8
_U+30EC_U+30A4_U+30E4_U+30FC 1
 62
   179
420
  2234388
370
    25
  0
POLYLINE
  5
53
330
1F
100
AcDbEntity
  8
_U+30EC_U+30A4_U+30E4_U+30FC 1
 62
   179
420
  2234388
370
    25
100
AcDb2dPolyline
 66
     1
 10
0.0
 20
0.0
 30
0.0
  0
VERTEX
  5
54
330
53
100
AcDbEntity
  8
_U+30EC_U+30A4_U+30E4_U+30FC 1
 62
   179
420
  2234388
370
    25
100
AcDbVertex
100
AcDb2dVertex
 10
86.16011391298348
 20
-135.5514038550011
 30
0.0
  0
VERTEX
  5
55
330
53
100
AcDbEntity
  8
_U+30EC_U+30A4_U+30E4_U+30FC 1
 62
   179
420
  2234388
370
    25
100
AcDbVertex
100
AcDb2dVertex
 10
90.14816075568437
 20
-131.5637096893312
 30
0.0
  0
SEQEND
  5
56
330
53
100
AcDbEntity
  8
_U+30EC_U+30A4_U+30E4_U+30FC 1
 62
   179
420
  2234388
370
    25
  0
POLYLINE
  5
57
330
1F
100
AcDbEntity
  8
_U+30EC_U+30A4_U+30E4_U+30FC 1
 62
   179
420
  2234388
370
    25
100
AcDb2dPolyline
 66
     1
 10
0.0
 20
0.0
 30
0.0
  0
VERTEX
  5
58
330
57
100
AcDbEntity
  8
_U+30EC_U+30A4_U+30E4_U+30FC 1
 62
   179
420
  2234388
370
    25
100
AcDbVertex
100
AcDb2dVertex
 10
85.45318254212991
 20
-134.8441549662888
 30
0.0
  0
VERTEX
  5
59
330
57
100
AcDbEntity
  8
_U+30EC_U+30A4_U+30E4_U+30FC 1
 62
   179
420
  2234388
370
    25
100
AcDbVertex
100
AcDb2dVertex
 10
89.44087660706202
 20
-130.8564255228414
 30
0.0
  0
SEQEND
  5
5A
330
57
100
AcDbEntity
  8
_U+30EC_U+30A4_U+30E4_U+30FC 1
 62
   179
420
  2234388
370
    25
  0
POLYLINE
  5
5B
330
1F
100
AcDbEntity
  8
_U+30EC_U+30A4_U+30E4_U+30FC 1
 62
   179
420
  2234388
370
    25
100
AcDb2dPolyline
 66
     1
 10
0.0
 20
0.0
 30
0.0
  0
VERTEX
  5
5C
330
5B
100
AcDbEntity
  8
_U+30EC_U+30A4_U+30E4_U+30FC 1
 62
   179
420
  2234388
370
    25
100
AcDbVertex
100
AcDb2dVertex
 10
90.44100158154671
 20
-115.5636499711092
 30
0.0
  0
VERTEX
  5
5D
330
5B
100
AcDbEntity
  8
_U+30EC_U+30A4_U+30E4_U+30FC 1
 62
   179
420
  2234388
370
    25
100
AcDbVertex
100
AcDb2dVertex
 10
90.44100158154671
 20
-130.5636199673591
 30
0.0
  0
SEQEND
  5
5E
330
5B
100
AcDbEntity
  8
_U+30EC_U+30A4_U+30E4_U+30FC 1
 62
   179
420
  2234388
370
    25
  0
POLYLINE
  5
5F
330
1F
100
AcDbEntity
  8
_U+30EC_U+30A4_U+30E4_U+30FC 1
 62
   179
420
  2234388
370
    25
100
AcDb2dPolyline
 66
     1
 10
0.0
 20
0.0
 30
0.0
  0
VERTEX
  5
60
330
5F
100
AcDbEntity
  8
_U+30EC_U+30A4_U+30E4_U+30FC 1
 62
   179
420
  2234388
370
    25
100
AcDbVertex
100
AcDb2dVertex
 10
90.44100158154671
 20
-130.5636199673591
 30
0.0
  0
VERTEX
  5
61
330
5F
100
AcDbEntity
  8
_U+30EC_U+30A4_U+30E4_U+30FC 1
 62
   179
420
  2234388
370
    25
100
AcDbVertex
100
AcDb2dVertex
 10
105.4426645321557
 20
-130.5636199673591
 30
0.0
  0
SEQEND
  5
62
330
5F
100
AcDbEntity
  8
_U+30EC_U+30A4_U+30E4_U+30FC 1
 62
   179
420
  2234388
370
    25
  0
POLYLINE
  5
63
330
1F
100
AcDbEntity
  8
_U+30EC_U+30A4_U+30E4_U+30FC 1
 62
   179
420
  2234388
370
    25
100
AcDb2dPolyline
 66
     1
 10
0.0
 20
0.0
 30
0.0
  0
VERTEX
  5
64
330
63
100
AcDbEntity
  8
_U+30EC_U+30A4_U+30E4_U+30FC 1
 62
   179
420
  2234388
370
    25
100
AcDbVertex
100
AcDb2dVertex
 10
89.94111548318875
 20
-116.0635360820952
 30
0.0
  0
VERTEX
  5
65
330
63
100
AcDbEntity
  8
_U+30EC_U+30A4_U+30E4_U+30FC 1
 62
   179
420
  2234388
370
    25
100
AcDbVertex
100
AcDb2dVertex
 10
89.94111548318875
 20
-126.697528301659
 30
0.0
  0
SEQEND
  5
66
330
63
100
AcDbEntity
  8
_U+30EC_U+30A4_U+30E4_U+30FC 1
 62
   179
420
  2234388
370
    25
  0
POLYLINE
  5
67
330
1F
100
AcDbEntity
  8
_U+30EC_U+30A4_U+30E4_U+30FC 1
 62
   179
420
  2234388
370
    25
100
AcDb2dPolyline
 66
     1
 10
0.0
 20
0.0
 30
0.0
  0
VERTEX
  5
68
330
67
100
AcDbEntity
  8
_U+30EC_U+30A4_U+30E4_U+30FC 1
 62
   179
420
  2234388
370
    25
100
AcDbVertex
100
AcDb2dVertex
 10
94.30705787180429
 20
-131.063506078345
 30
0.0
  0
VERTEX
  5
69
330
67
100
AcDbEntity
  8
_U+30EC_U+30A4_U+30E4_U+30FC 1
 62
   179
420
  2234388
370
    25
100
AcDbVertex
100
AcDb2dVertex
 10
104.942425656029
 20
-131.063506078345
 30
0.0
  0
SEQEND
  5
6A
330
67
100
AcDbEntity
  8
_U+30EC_U+30A4_U+30E4_U+30FC 1
 62
   179
420
  2234388
370
    25
  0
POLYLINE
  5
6B
330
1F
100
AcDbEntity
  8
_U+30EC_U+30A4_U+30E4_U+30FC 1
 62
   179
420
  2234388
370
    25
100
AcDb2dPolyline
 66
     1
 10
0.0
 20
0.0
 30
0.0
  0
VERTEX
  5
6C
330
6B
100
AcDbEntity
  8
_U+30EC_U+30A4_U+30E4_U+30FC 1
 62
   179
420
  2234388
370
    25
100
AcDbVertex
100
AcDb2dVertex
 10
83.94078896960318
 20
-127.5636330236647
 30
0.0
  0
VERTEX
  5
6D
330
6B
100
AcDbEntity
  8
_U+30EC_U+30A4_U+30E4_U+30FC 1
 62
   179
420
  2234388
370
    25
100
AcDbVertex
100
AcDb2dVertex
 10
83.94078896960318
 20
-135.0918402440048
 30
0.0
  0
SEQEND
  5
6E
330
6B
100
AcDbEntity
  8
_U+30EC_U+30A4_U+30E4_U+30FC 1
 62
   179
420
  2234388
370
    25
  0
POLYLINE
  5
6F
330
1F
100
AcDbEntity
  8
_U+30EC_U+30A4_U+30E4_U+30FC 1
 62
   179
420
  2234388
370
    25
100
AcDb2dPolyline
 66
     1
 10
0.0
 20
0.0
 30
0.0
  0
VERTEX
  5
70
330
6F
100
AcDbEntity
  8
_U+30EC_U+30A4_U+30E4_U+30FC 1
 62
   179
420
  2234388
370
    25
100
AcDbVertex
100
AcDb2dVertex
 10
84.94087866631098
 20
-126.5635080239148
 30
0.0
  0
VERTEX
  5
71
330
6F
100
AcDbEntity
  8
_U+30EC_U+30A4_U+30E4_U+30FC 1
 62
   179
420
  2234388
370
    25
100
AcDbVertex
100
AcDb2dVertex
 10
84.94087866631098
 20
-134.6322766330085
 30
0.0
  0
SEQEND
  5
72
330
6F
100
AcDbEntity
  8
_U+30EC_U+30A4_U+30E4_U+30FC 1
 62
   179
420
  2234388
370
    25
  0
POLYLINE
  5
73
330
1F
100
AcDbEntity
  8
_U+30EC_U+30A4_U+30E4_U+30FC 1
 62
   179
420
  2234388
370
     9
100
AcDb2dPolyline
 66
     1
 10
0.0
 20
0.0
 30
0.0
  0
VERTEX
  5
74
330
73
100
AcDbEntity
  8
_U+30EC_U+30A4_U+30E4_U+30FC 1
 62
   179
420
  2234388
370
     9
100
AcDbVertex
100
AcDb2dVertex
 10
84.0269020229618
 20
-137.3439030212195
 30
0.0
  0
VERTEX
  5
75
330
73
100
AcDbEntity
  8
_U+30EC_U+30A4_U+30E4_U+30FC 1
 62
   179
420
  2234388
370
     9
100
AcDbVertex
100
AcDb2dVertex
 10
84.52678812131975
 20
-136.477798299214
 30
0.0
  0
SEQEND
  5
76
330
73
100
AcDbEntity
  8
_U+30EC_U+30A4_U+30E4_U+30FC 1
 62
   179
420
  2234388
370
     9
  0
POLYLINE
  5
77
330
1F
100
AcDbEntity
  8
_U+30EC_U+30A4_U+30E4_U+30FC 1
 62
   179
420
  2234388
370
     9
100
AcDb2dPolyline
 66
     1
 10
0.0
 20
0.0
 30
0.0
  0
VERTEX
  5
78
330
77
100
AcDbEntity
  8
_U+30EC_U+30A4_U+30E4_U+30FC 1
 62
   179
420
  2234388
370
     9
100
AcDbVertex
100
AcDb2dVertex
 10
83.66068342119371
 20
-136.9780371879777
 30
0.0
  0
VERTEX
  5
79
330
77
100
AcDbEntity
  8
_U+30EC_U+30A4_U+30E4_U+30FC 1
 62
   179
420
  2234388
370
     9
100
AcDbVertex
100
AcDb2dVertex
 10
84.52678812131975
 20
-136.477798299214
 30
0.0
  0
SEQEND
  5
7A
330
77
100
AcDbEntity
  8
_U+30EC_U+30A4_U+30E4_U+30FC 1
 62
   179
420
  2234388
370
     9
  0
SPLINE
  5
7B
330
1F
100
AcDbEntity
  8
_U+30EC_U+30A4_U+30E4_U+30FC 1
 62
   179
420
  2234388
370
    25
100
AcDbSpline
210
0.0
220
0.0
230
1.0
 70
     8
 71
     3
 72
     8
 73
     4
 74
     0
 42
0.0000000001
 43
0.0000000001
 12
1.0
 22
0.0
 32
0.0
 13
1.0
 23
0.0
 33
0.0
 40
0.0
 40
0.0
 40
0.0
 40
0.0
 40
1.0
 40
1.0
 40
1.0
 40
1.0
 10
89.94111548318875
 20
-126.697528301659
 30
0.0
 10
89.63137660220197
 20
-126.8763160793921
 30
0.0
 10
89.44087660706202
 20
-127.2063749681984
 30
0.0
 10
89.44087660706202
 20
-127.5636330236647
 30
0.0
  0
SPLINE
  5
7C
330
1F
100
AcDbEntity
  8
_U+30EC_U+30A4_U+30E4_U+30FC 1
 62
   179
420
  2234388
370
    25
100
AcDbSpline
210
0.0
220
0.0
230
1.0
 70
     8
 71
     3
 72
     8
 73
     4
 74
     0
 42
0.0000000001
 43
0.0000000001
 12
1.0
 22
0.0
 32
0.0
 13
1.0
 23
0.0
 33
0.0
 40
0.0
 40
0.0
 40
0.0
 40
0.0
 40
1.0
 40
1.0
 40
1.0
 40
1.0
 10
90.44100158154671
 20
-115.5636499711092
 30
0.0
 10
90.16470831079218
 20
-115.5636499711092
 30
0.0
 10
89.94111548318875
 20
-115.7874169154976
 30
0.0
 10
89.94111548318875
 20
-116.0635360820952
 30
0.0
  0
SPLINE
  5
7D
330
1F
100
AcDbEntity
  8
_U+30EC_U+30A4_U+30E4_U+30FC 1
 62
   179
420
  2234388
370
    25
100
AcDbSpline
210
0.0
220
0.0
230
1.0
 70
     8
 71
     3
 72
     8
 73
     4
 74
     0
 42
0.0000000001
 43
0.0000000001
 12
1.0
 22
0.0
 32
0.0
 13
1.0
 23
0.0
 33
0.0
 40
0.0
 40
0.0
 40
0.0
 40
0.0
 40
1.0
 40
1.0
 40
1.0
 40
1.0
 10
93.44098844945512
 20
-131.5637096893312
 30
0.0
 10
93.79824649589627
 20
-131.5637096893312
 30
0.0
 10
94.12827009858776
 20
-131.3728569116014
 30
0.0
 10
94.30705787180429
 20
-131.063506078345
 30
0.0
  0
SPLINE
  5
7E
330
1F
100
AcDbEntity
  8
_U+30EC_U+30A4_U+30E4_U+30FC 1
 62
   179
420
  2234388
370
    25
100
AcDbSpline
210
0.0
220
0.0
230
1.0
 70
     8
 71
     3
 72
     8
 73
     4
 74
     0
 42
0.0000000001
 43
0.0000000001
 12
1.0
 22
0.0
 32
0.0
 13
1.0
 23
0.0
 33
0.0
 40
0.0
 40
0.0
 40
0.0
 40
0.0
 40
1.0
 40
1.0
 40
1.0
 40
1.0
 10
104.942425656029
 20
-131.063506078345
 30
0.0
 10
105.2187212045357
 20
-131.063506078345
 30
0.0
 10
105.4426645321557
 20
-130.8395627450678
 30
0.0
 10
105.4426645321557
 20
-130.5636199673591
 30
0.0
  0
SPLINE
  5
7F
330
1F
100
AcDbEntity
  8
_U+30EC_U+30A4_U+30E4_U+30FC 1
 62
   179
420
  2234388
370
     9
100
AcDbSpline
210
0.0
220
0.0
230
1.0
 70
    11
 71
     3
 72
    17
 73
    13
 74
     0
 42
0.0000000001
 43
0.0000000001
 12
1.0
 22
0.0
 32
0.0
 13
1.0
 23
0.0
 33
0.0
 40
0.0
 40
0.0
 40
0.0
 40
0.0
 40
1.0
 40
1.0
 40
1.0
 40
2.0
 40
2.0
 40
2.0
 40
3.0
 40
3.0
 40
3.0
 40
4.0
 40
4.0
 40
4.0
 40
4.0
 10
90.54090824566455
 20
-126.5635080239148
 30
0.0
 10
90.54090824566455
 20
-126.5083688572617
 30
0.0
 10
90.49610546902979
 20
-126.4636013572731
 30
0.0
 10
90.44100158154671
 20
-126.4636013572731
 30
0.0
 10
90.38586241628676
 20
-126.4636013572731
 30
0.0
 10
90.34109719963696
 20
-126.5083688572617
 30
0.0
 10
90.34109719963696
 20
-126.5635080239148
 30
0.0
 10
90.34109719963696
 20
-126.6186119127897
 30
0.0
 10
90.38586241628676
 20
-126.6634146905564
 30
0.0
 10
90.44100158154671
 20
-126.6634146905564
 30
0.0
 10
90.49610546902979
 20
-126.6634146905564
 30
0.0
 10
90.54090824566455
 20
-126.6186119127897
 30
0.0
 10
90.54090824566455
 20
-126.5635080239148
 30
0.0
  0
SPLINE
  5
80
330
1F
100
AcDbEntity
  8
_U+30EC_U+30A4_U+30E4_U+30FC 1
 62
   179
420
  2234388
370
    25
100
AcDbSpline
210
0.0
220
0.0
230
1.0
 70
     8
 71
     3
 72
     8
 73
     4
 74
     0
 42
0.0000000001
 43
0.0000000001
 12
1.0
 22
0.0
 32
0.0
 13
1.0
 23
0.0
 33
0.0
 40
0.0
 40
0.0
 40
0.0
 40
0.0
 40
1.0
 40
1.0
 40
1.0
 40
1.0
 10
83.94078896960318
 20
-127.5636330236647
 30
0.0
 10
83.94078896960318
 20
-127.0113594126915
 30
0.0
 10
84.38828756929765
 20
-126.5635080239148
 30
0.0
 10
84.94087866631098
 20
-126.5635080239148
 30
0.0
  0
SPLINE
  5
81
330
1F
100
AcDbEntity
  8
_U+30EC_U+30A4_U+30E4_U+30FC 1
 62
   179
420
  2234388
370
     9
100
AcDbSpline
210
0.0
220
0.0
230
1.0
 70
    11
 71
     3
 72
    17
 73
    13
 74
     0
 42
0.0000000001
 43
0.0000000001
 12
1.0
 22
0.0
 32
0.0
 13
1.0
 23
0.0
 33
0.0
 40
0.0
 40
0.0
 40
0.0
 40
0.0
 40
1.0
 40
1.0
 40
1.0
 40
2.0
 40
2.0
 40
2.0
 40
3.0
 40
3.0
 40
3.0
 40
4.0
 40
4.0
 40
4.0
 40
4.0
 10
89.54113604894864
 20
-122.5637488582479
 30
0.0
 10
89.54113604894864
 20
-122.508644969373
 30
0.0
 10
89.49633327231388
 20
-122.4638421916062
 30
0.0
 10
89.44087660706202
 20
-122.4638421916062
 30
0.0
 10
89.38577497765371
 20
-122.4638421916062
 30
0.0
 10
89.34097219988698
 20
-122.508644969373
 30
0.0
 10
89.34097219988698
 20
-122.5637488582479
 30
0.0
 10
89.34097219988698
 20
-122.618888024901
 30
0.0
 10
89.38577497765371
 20
-122.6636555248895
 30
0.0
 10
89.44087660706202
 20
-122.6636555248895
 30
0.0
 10
89.49633327231388
 20
-122.6636555248895
 30
0.0
 10
89.54113604894864
 20
-122.618888024901
 30
0.0
 10
89.54113604894864
 20
-122.5637488582479
 30
0.0
  0
SPLINE
  5
82
330
1F
100
AcDbEntity
  8
_U+30EC_U+30A4_U+30E4_U+30FC 1
 62
   179
420
  2234388
370
     9
100
AcDbSpline
210
0.0
220
0.0
230
1.0
 70
    11
 71
     3
 72
    17
 73
    13
 74
     0
 42
0.0000000001
 43
0.0000000001
 12
1.0
 22
0.0
 32
0.0
 13
1.0
 23
0.0
 33
0.0
 40
0.0
 40
0.0
 40
0.0
 40
0.0
 40
1.0
 40
1.0
 40
1.0
 40
2.0
 40
2.0
 40
2.0
 40
3.0
 40
3.0
 40
3.0
 40
4.0
 40
4.0
 40
4.0
 40
4.0
 10
85.0411381081976
 20
-122.5637488582479
 30
0.0
 10
85.0411381081976
 20
-122.508644969373
 30
0.0
 10
84.9963706093397
 20
-122.4638421916062
 30
0.0
 10
84.94087866631098
 20
-122.4638421916062
 30
0.0
 10
84.88577477882791
 20
-122.4638421916062
 30
0.0
 10
84.84097200219314
 20
-122.508644969373
 30
0.0
 10
84.84097200219314
 20
-122.5637488582479
 30
0.0
 10
84.84097200219314
 20
-122.618888024901
 30
0.0
 10
84.88577477882791
 20
-122.6636555248895
 30
0.0
 10
84.94087866631098
 20
-122.6636555248895
 30
0.0
 10
84.9963706093397
 20
-122.6636555248895
 30
0.0
 10
85.0411381081976
 20
-122.618888024901
 30
0.0
 10
85.0411381081976
 20
-122.5637488582479
 30
0.0
  0
SPLINE
  5
83
330
1F
100
AcDbEntity
  8
_U+30EC_U+30A4_U+30E4_U+30FC 1
 62
   179
420
  2234388
370
     9
100
AcDbSpline
210
0.0
220
0.0
230
1.0
 70
    11
 71
     3
 72
    17
 73
    13
 74
     0
 42
0.0000000001
 43
0.0000000001
 12
1.0
 22
0.0
 32
0.0
 13
1.0
 23
0.0
 33
0.0
 40
0.0
 40
0.0
 40
0.0
 40
0.0
 40
1.0
 40
1.0
 40
1.0
 40
2.0
 40
2.0
 40
2.0
 40
3.0
 40
3.0
 40
3.0
 40
4.0
 40
4.0
 40
4.0
 40
4.0
 10
80.0409365690967
 20
-126.5635080239148
 30
0.0
 10
80.0409365690967
 20
-126.5083688572617
 30
0.0
 10
79.99613379246193
 20
-126.4636013572731
 30
0.0
 10
79.94102990497886
 20
-126.4636013572731
 30
0.0
 10
79.8857496286114
 20
-126.4636013572731
 30
0.0
 10
79.84094685197664
 20
-126.5083688572617
 30
0.0
 10
79.84094685197664
 20
-126.5635080239148
 30
0.0
 10
79.84094685197664
 20
-126.6186119127897
 30
0.0
 10
79.8857496286114
 20
-126.6634146905564
 30
0.0
 10
79.94102990497886
 20
-126.6634146905564
 30
0.0
 10
79.99613379246193
 20
-126.6634146905564
 30
0.0
 10
80.0409365690967
 20
-126.6186119127897
 30
0.0
 10
80.0409365690967
 20
-126.5635080239148
 30
0.0
  0
SPLINE
  5
84
330
1F
100
AcDbEntity
  8
_U+30EC_U+30A4_U+30E4_U+30FC 1
 62
   179
420
  2234388
370
     9
100
AcDbSpline
210
0.0
220
0.0
230
1.0
 70
    11
 71
     3
 72
    17
 73
    13
 74
     0
 42
0.0000000001
 43
0.0000000001
 12
1.0
 22
0.0
 32
0.0
 13
1.0
 23
0.0
 33
0.0
 40
0.0
 40
0.0
 40
0.0
 40
0.0
 40
1.0
 40
1.0
 40
1.0
 40
2.0
 40
2.0
 40
2.0
 40
3.0
 40
3.0
 40
3.0
 40
4.0
 40
4.0
 40
4.0
 40
4.0
 10
80.0409365690967
 20
-137.0634799657344
 30
0.0
 10
80.0409365690967
 20
-137.0083407990813
 30
0.0
 10
79.99613379246193
 20
-136.9635732990927
 30
0.0
 10
79.94102990497886
 20
-136.9635732990927
 30
0.0
 10
79.8857496286114
 20
-136.9635732990927
 30
0.0
 10
79.84094685197664
 20
-137.0083407990813
 30
0.0
 10
79.84094685197664
 20
-137.0634799657344
 30
0.0
 10
79.84094685197664
 20
-137.118936632387
 30
0.0
 10
79.8857496286114
 20
-137.163386632376
 30
0.0
 10
79.94102990497886
 20
-137.163386632376
 30
0.0
 10
79.99613379246193
 20
-137.163386632376
 30
0.0
 10
80.0409365690967
 20
-137.118936632387
 30
0.0
 10
80.0409365690967
 20
-137.0634799657344
 30
0.0
  0
SPLINE
  5
85
330
1F
100
AcDbEntity
  8
_U+30EC_U+30A4_U+30E4_U+30FC 1
 62
   179
420
  2234388
370
    25
100
AcDbSpline
210
0.0
220
0.0
230
1.0
 70
     8
 71
     3
 72
     8
 73
     4
 74
     0
 42
0.0000000001
 43
0.0000000001
 12
1.0
 22
0.0
 32
0.0
 13
1.0
 23
0.0
 33
0.0
 40
0.0
 40
0.0
 40
0.0
 40
0.0
 40
1.0
 40
1.0
 40
1.0
 40
1.0
 10
83.94078896960318
 20
-135.0635827440122
 30
0.0
 10
83.94078896960318
 20
-136.1684474659576
 30
0.0
 10
84.83649172452967
 20
-137.0634799657344
 30
0.0
 10
85.94100364079567
 20
-137.0634799657344
 30
0.0
  0
SPLINE
  5
86
330
1F
100
AcDbEntity
  8
_U+30EC_U+30A4_U+30E4_U+30FC 1
 62
   179
420
  2234388
370
     9
100
AcDbSpline
210
0.0
220
0.0
230
1.0
 70
    11
 71
     3
 72
    17
 73
    13
 74
     0
 42
0.0000000001
 43
0.0000000001
 12
1.0
 22
0.0
 32
0.0
 13
1.0
 23
0.0
 33
0.0
 40
0.0
 40
0.0
 40
0.0
 40
0.0
 40
1.0
 40
1.0
 40
1.0
 40
2.0
 40
2.0
 40
2.0
 40
3.0
 40
3.0
 40
3.0
 40
4.0
 40
4.0
 40
4.0
 40
4.0
 10
105.5425711962736
 20
-126.5635080239148
 30
0.0
 10
105.5425711962736
 20
-126.5083688572617
 30
0.0
 10
105.4977684196388
 20
-126.4636013572731
 30
0.0
 10
105.4426645321557
 20
-126.4636013572731
 30
0.0
 10
105.3875253668958
 20
-126.4636013572731
 30
0.0
 10
105.3427578680379
 20
-126.5083688572617
 30
0.0
 10
105.3427578680379
 20
-126.5635080239148
 30
0.0
 10
105.3427578680379
 20
-126.6186119127897
 30
0.0
 10
105.3875253668958
 20
-126.6634146905564
 30
0.0
 10
105.4426645321557
 20
-126.6634146905564
 30
0.0
 10
105.4977684196388
 20
-126.6634146905564
 30
0.0
 10
105.5425711962736
 20
-126.6186119127897
 30
0.0
 10
105.5425711962736
 20
-126.5635080239148
 30
0.0
  0
SPLINE
  5
87
330
1F
100
AcDbEntity
  8
_U+30EC_U+30A4_U+30E4_U+30FC 1
 62
   179
420
  2234388
370
    25
100
AcDbSpline
210
0.0
220
0.0
230
1.0
 70
     8
 71
     3
 72
    11
 73
     7
 74
     0
 42
0.0000000001
 43
0.0000000001
 12
1.0
 22
0.0
 32
0.0
 13
1.0
 23
0.0
 33
0.0
 40
0.0
 40
0.0
 40
0.0
 40
0.0
 40
1.0
 40
1.0
 40
1.0
 40
2.0
 40
2.0
 40
2.0
 40
2.0
 10
84.94087866631098
 20
-134.6322766330085
 30
0.0
 10
84.94087866631098
 20
-134.7979763551892
 30
0.0
 10
85.0752517184384
 20
-134.9323494107112
 30
0.0
 10
85.24095143643326
 20
-134.9323494107112
 30
0.0
 10
85.3205381010695
 20
-134.9323494107112
 30
0.0
 10
85.39666754357172
 20
-134.9006346884973
 30
0.0
 10
85.45318254212991
 20
-134.8441549662888
 30
0.0
  0
SPLINE
  5
88
330
1F
100
AcDbEntity
  8
_U+30EC_U+30A4_U+30E4_U+30FC 1
 62
   179
420
  2234388
370
    25
100
AcDbSpline
210
0.0
220
0.0
230
1.0
 70
     8
 71
     3
 72
    11
 73
     7
 74
     0
 42
0.0000000001
 43
0.0000000001
 12
1.0
 22
0.0
 32
0.0
 13
1.0
 23
0.0
 33
0.0
 40
0.0
 40
0.0
 40
0.0
 40
0.0
 40
1.0
 40
1.0
 40
1.0
 40
2.0
 40
2.0
 40
2.0
 40
2.0
 10
86.16011391298348
 20
-135.5514038550011
 30
0.0
 10
86.04299169374929
 20
-135.6688788549719
 30
0.0
 10
86.04299169374929
 20
-135.8583910771464
 30
0.0
 10
86.16011391298348
 20
-135.9755132993394
 30
0.0
 10
86.37234720062915
 20
-136.0637077437618
 30
0.0
 10
86.29275835404388
 20
-136.0637077437618
 30
0.0
 10
86.37234720062915
 20
-136.0637077437618
 30
0.0
  0
POLYLINE
  5
89
330
1F
100
AcDbEntity
  8
_U+30EC_U+30A4_U+30E4_U+30FC 1
 62
   179
420
  2234388
370
     9
100
AcDb2dPolyline
 66
     1
 10
0.0
 20
0.0
 30
0.0
  0
VERTEX
  5
8A
330
89
100
AcDbEntity
  8
_U+30EC_U+30A4_U+30E4_U+30FC 1
 62
   179
420
  2234388
370
     9
100
AcDbVertex
100
AcDb2dVertex
 10
90.44100158154671
 20
-126.5635080239148
 30
0.0
  0
VERTEX
  5
8B
330
89
100
AcDbEntity
  8
_U+30EC_U+30A4_U+30E4_U+30FC 1
 62
   179
420
  2234388
370
     9
100
AcDbVertex
100
AcDb2dVertex
 10
105.4426645321557
 20
-126.5635080239148
 30
0.0
  0
SEQEND
  5
8C
330
89
100
AcDbEntity
  8
_U+30EC_U+30A4_U+30E4_U+30FC 1
 62
   179
420
  2234388
370
     9
  0
POLYLINE
  5
8D
330
1F
100
AcDbEntity
  8
_U+30EC_U+30A4_U+30E4_U+30FC 1
 62
   179
420
  2234388
370
     9
100
AcDb2dPolyline
 66
     1
 10
0.0
 20
0.0
 30
0.0
  0
VERTEX
  5
8E
330
8D
100
AcDbEntity
  8
_U+30EC_U+30A4_U+30E4_U+30FC 1
 62
   179
420
  2234388
370
     9
100
AcDbVertex
100
AcDb2dVertex
 10
105.4426645321557
 20
-128.0235494124385
 30
0.0
  0
VERTEX
  5
8F
330
8D
100
AcDbEntity
  8
_U+30EC_U+30A4_U+30E4_U+30FC 1
 62
   179
420
  2234388
370
     9
100
AcDbVertex
100
AcDb2dVertex
 10
105.4426645321557
 20
-125.5637358019425
 30
0.0
  0
SEQEND
  5
90
330
8D
100
AcDbEntity
  8
_U+30EC_U+30A4_U+30E4_U+30FC 1
 62
   179
420
  2234388
370
     9
  0
INSERT
  5
92
330
1F
100
AcDbEntity
  8
_U+30EC_U+30A4_U+30E4_U+30FC 1
100
AcDbBlockReference
  2
block 2
 10
0.0
 20
0.0
 30
0.0
  0
POLYLINE
  5
99
330
1F
100
AcDbEntity
  8
_U+30EC_U+30A4_U+30E4_U+30FC 1
 62
   179
420
  2234388
370
     9
100
AcDb2dPolyline
 66
     1
 10
0.0
 20
0.0
 30
0.0
  0
VERTEX
  5
9A
330
99
100
AcDbEntity
  8
_U+30EC_U+30A4_U+30E4_U+30FC 1
 62
   179
420
  2234388
370
     9
100
AcDbVertex
100
AcDb2dVertex
 10
79.94102990497886
 20
-137.0634799657344
 30
0.0
  0
VERTEX
  5
9B
330
99
100
AcDbEntity
  8
_U+30EC_U+30A4_U+30E4_U+30FC 1
 62
   179
420
  2234388
370
     9
100
AcDbVertex
100
AcDb2dVertex
 10
79.94102990497886
 20
-126.5635080239148
 30
0.0
  0
SEQEND
  5
9C
330
99
100
AcDbEntity
  8
_U+30EC_U+30A4_U+30E4_U+30FC 1
 62
   179
420
  2234388
370
     9
  0
POLYLINE
  5
9D
330
1F
100
AcDbEntity
  8
_U+30EC_U+30A4_U+30E4_U+30FC 1
 62
   179
420
  2234388
370
     9
100
AcDb2dPolyline
 66
     1
 10
0.0
 20
0.0
 30
0.0
  0
VERTEX
  5
9E
330
9D
100
AcDbEntity
  8
_U+30EC_U+30A4_U+30E4_U+30FC 1
 62
   179
420
  2234388
370
     9
100
AcDbVertex
100
AcDb2dVertex
 10
82.84594316420169
 20
-137.0634799657344
 30
0.0
  0
VERTEX
  5
9F
330
9D
100
AcDbEntity
  8
_U+30EC_U+30A4_U+30E4_U+30FC 1
 62
   179
420
  2234388
370
     9
100
AcDbVertex
100
AcDb2dVertex
 10
78.94090493049417
 20
-137.0634799657344
 30
0.0
  0
SEQEND
  5
A0
330
9D
100
AcDbEntity
  8
_U+30EC_U+30A4_U+30E4_U+30FC 1
 62
   179
420
  2234388
370
     9
  0
POLYLINE
  5
A1
330
1F
100
AcDbEntity
  8
_U+30EC_U+30A4_U+30E4_U+30FC 1
 62
   179
420
  2234388
370
     9
100
AcDb2dPolyline
 66
     1
 10
0.0
 20
0.0
 30
0.0
  0
VERTEX
  5
A2
330
A1
100
AcDbEntity
  8
_U+30EC_U+30A4_U+30E4_U+30FC 1
 62
   179
420
  2234388
370
     9
100
AcDbVertex
100
AcDb2dVertex
 10
81.40107125661899
 20
-126.5635080239148
 30
0.0
  0
VERTEX
  5
A3
330
A1
100
AcDbEntity
  8
_U+30EC_U+30A4_U+30E4_U+30FC 1
 62
   179
420
  2234388
370
     9
100
AcDbVertex
100
AcDb2dVertex
 10
78.94090493049417
 20
-126.5635080239148
 30
0.0
  0
SEQEND
  5
A4
330
A1
100
AcDbEntity
  8
_U+30EC_U+30A4_U+30E4_U+30FC 1
 62
   179
420
  2234388
370
     9
  0
INSERT
  5
A6
330
1F
100
AcDbEntity
  8
_U+30EC_U+30A4_U+30E4_U+30FC 1
100
AcDbBlockReference
  2
block 3
 10
0.0
 20
0.0
 30
0.0
  0
POLYLINE
  5
B8
330
1F
100
AcDbEntity
  8
_U+30EC_U+30A4_U+30E4_U+30FC 1
 62
   179
420
  2234388
370
     9
100
AcDb2dPolyline
 66
     1
 10
0.0
 20
0.0
 30
0.0
  0
VERTEX
  5
B9
330
B8
100
AcDbEntity
  8
_U+30EC_U+30A4_U+30E4_U+30FC 1
 62
   179
420
  2234388
370
     9
100
AcDbVertex
100
AcDb2dVertex
 10
84.94087866631098
 20
-122.5637488582479
 30
0.0
  0
VERTEX
  5
BA
330
B8
100
AcDbEntity
  8
_U+30EC_U+30A4_U+30E4_U+30FC 1
 62
   179
420
  2234388
370
     9
100
AcDbVertex
100
AcDb2dVertex
 10
89.44087660706202
 20
-122.5637488582479
 30
0.0
  0
SEQEND
  5
BB
330
B8
100
AcDbEntity
  8
_U+30EC_U+30A4_U+30E4_U+30FC 1
 62
   179
420
  2234388
370
     9
  0
POLYLINE
  5
BC
330
1F
100
AcDbEntity
  8
_U+30EC_U+30A4_U+30E4_U+30FC 1
 62
   179
420
  2234388
370
     9
100
AcDb2dPolyline
 66
     1
 10
0.0
 20
0.0
 30
0.0
  0
VERTEX
  5
BD
330
BC
100
AcDbEntity
  8
_U+30EC_U+30A4_U+30E4_U+30FC 1
 62
   179
420
  2234388
370
     9
100
AcDbVertex
100
AcDb2dVertex
 10
84.94087866631098
 20
-124.0184280245511
 30
0.0
  0
VERTEX
  5
BE
330
BC
100
AcDbEntity
  8
_U+30EC_U+30A4_U+30E4_U+30FC 1
 62
   179
420
  2234388
370
     9
100
AcDbVertex
100
AcDb2dVertex
 10
84.94087866631098
 20
-121.5636238584979
 30
0.0
  0
SEQEND
  5
BF
330
BC
100
AcDbEntity
  8
_U+30EC_U+30A4_U+30E4_U+30FC 1
 62
   179
420
  2234388
370
     9
  0
POLYLINE
  5
C0
330
1F
100
AcDbEntity
  8
_U+30EC_U+30A4_U+30E4_U+30FC 1
 62
   179
420
  2234388
370
     9
100
AcDb2dPolyline
 66
     1
 10
0.0
 20
0.0
 30
0.0
  0
VERTEX
  5
C1
330
C0
100
AcDbEntity
  8
_U+30EC_U+30A4_U+30E4_U+30FC 1
 62
   179
420
  2234388
370
     9
100
AcDbVertex
100
AcDb2dVertex
 10
89.44087660706202
 20
-125.0235624687441
 30
0.0
  0
VERTEX
  5
C2
330
C0
100
AcDbEntity
  8
_U+30EC_U+30A4_U+30E4_U+30FC 1
 62
   179
420
  2234388
370
     9
100
AcDbVertex
100
AcDb2dVertex
 10
89.44087660706202
 20
-121.5636238584979
 30
0.0
  0
SEQEND
  5
C3
330
C0
100
AcDbEntity
  8
_U+30EC_U+30A4_U+30E4_U+30FC 1
 62
   179
420
  2234388
370
     9
  0
INSERT
  5
C5
330
1F
100
AcDbEntity
  8
_U+30EC_U+30A4_U+30E4_U+30FC 1
100
AcDbBlockReference
  2
block 4
 10
0.0
 20
0.0
 30
0.0
  0
POLYLINE
  5
E7
330
1F
100
AcDbEntity
  8
_U+30EC_U+30A4_U+30E4_U+30FC 1
 62
   179
420
  2234388
370
     9
100
AcDb2dPolyline
 66
     1
 10
0.0
 20
0.0
 30
0.0
  0
VERTEX
  5
E8
330
E7
100
AcDbEntity
  8
_U+30EC_U+30A4_U+30E4_U+30FC 1
 62
   179
420
  2234388
370
     9
100
AcDbVertex
100
AcDb2dVertex
 10
84.52678812131975
 20
-136.477798299214
 30
0.0
  0
VERTEX
  5
E9
330
E7
100
AcDbEntity
  8
_U+30EC_U+30A4_U+30E4_U+30FC 1
 62
   179
420
  2234388
370
     9
100
AcDbVertex
100
AcDb2dVertex
 10
79.94102990497886
 20
-141.0635566314008
 30
0.0
  0
SEQEND
  5
EA
330
E7
100
AcDbEntity
  8
_U+30EC_U+30A4_U+30E4_U+30FC 1
 62
   179
420
  2234388
370
     9
  0
POLYLINE
  5
EB
330
1F
100
AcDbEntity
  8
_U+30EC_U+30A4_U+30E4_U+30FC 1
 62
   179
420
  2234388
370
     9
100
AcDb2dPolyline
 66
     1
 10
0.0
 20
0.0
 30
0.0
  0
VERTEX
  5
EC
330
EB
100
AcDbEntity
  8
_U+30EC_U+30A4_U+30E4_U+30FC 1
 62
   179
420
  2234388
370
     9
100
AcDbVertex
100
AcDb2dVertex
 10
79.94102990497886
 20
-141.0635566314008
 30
0.0
  0
VERTEX
  5
ED
330
EB
100
AcDbEntity
  8
_U+30EC_U+30A4_U+30E4_U+30FC 1
 62
   179
420
  2234388
370
     9
100
AcDbVertex
100
AcDb2dVertex
 10
76.42686943907701
 20
-141.0635566314008
 30
0.0
  0
SEQEND
  5
EE
330
EB
100
AcDbEntity
  8
_U+30EC_U+30A4_U+30E4_U+30FC 1
 62
   179
420
  2234388
370
     9
  0
INSERT
  5
F0
330
1F
100
AcDbEntity
  8
_U+30EC_U+30A4_U+30E4_U+30FC 1
100
AcDbBlockReference
  2
block 5
 10
0.0
 20
0.0
 30
0.0
  0
SPLINE
  5
F8
330
1F
100
AcDbEntity
  8
_U+30EC_U+30A4_U+30E4_U+30FC 1
 62
     7
420
 16777215
370
    25
100
AcDbSpline
210
0.0
220
0.0
230
1.0
 70
     8
 71
     3
 72
    14
 73
    10
 74
     0
 42
0.0000000001
 43
0.0000000001
 12
1.0
 22
0.0
 32
0.0
 13
1.0
 23
0.0
 33
0.0
 40
0.0
 40
0.0
 40
0.0
 40
0.0
 40
1.0
 40
1.0
 40
1.0
 40
2.0
 40
2.0
 40
2.0
 40
3.0
 40
3.0
 40
3.0
 40
3.0
 10
87.37243471538793
 20
-136.0633549659841
 30
0.0
 10
87.37243471538793
 20
-136.0633549659841
 30
0.0
 10
94.4410805319454
 20
-136.0633549659841
 30
0.0
 10
94.4410805319454
 20
-136.0633549659841
 30
0.0
 10
94.4410805319454
 20
-136.6159460769569
 30
0.0
 10
93.99322676869967
 20
-137.063797465734
 30
0.0
 10
93.44130830997287
 20
-137.063797465734
 30
0.0
 10
93.44130830997287
 20
-137.063797465734
 30
0.0
 10
85.91154669710274
 20
-137.063797465734
 30
0.0
 10
85.91154669710274
 20
-137.063797465734
 30
0.0
  0
SPLINE
  5
F9
330
1F
100
AcDbEntity
  8
_U+30EC_U+30A4_U+30E4_U+30FC 1
 62
     7
420
 16777215
370
    25
100
AcDbSpline
210
0.0
220
0.0
230
1.0
 70
     8
 71
     3
 72
    14
 73
    10
 74
     0
 42
0.0000000001
 43
0.0000000001
 12
1.0
 22
0.0
 32
0.0
 13
1.0
 23
0.0
 33
0.0
 40
0.0
 40
0.0
 40
0.0
 40
0.0
 40
1.0
 40
1.0
 40
1.0
 40
2.0
 40
2.0
 40
2.0
 40
3.0
 40
3.0
 40
3.0
 40
3.0
 10
85.91154669710274
 20
-137.063797465734
 30
0.0
 10
85.91154669710274
 20
-137.063797465734
 30
0.0
 10
93.44130830997287
 20
-137.063797465734
 30
0.0
 10
93.44130830997287
 20
-137.063797465734
 30
0.0
 10
93.99322676869967
 20
-137.063797465734
 30
0.0
 10
94.4410805319454
 20
-136.6159460769569
 30
0.0
 10
94.4410805319454
 20
-136.0633549659841
 30
0.0
 10
94.4410805319454
 20
-136.0633549659841
 30
0.0
 10
87.37243471538793
 20
-136.0633549659841
 30
0.0
 10
87.37243471538793
 20
-136.0633549659841
 30
0.0
  0
HATCH
  5
FA
330
1F
100
AcDbEntity
  8
_U+30EC_U+30A4_U+30E4_U+30FC 1
 62
   253
420
 11711154
100
AcDbHatch
 10
0.0
 20
0.0
 30
0.0
210
0.0
220
0.0
230
1.0
  2
SOLID
 70
     1
 71
     0
 91
        1
 92
        1
 93
        2
 72
     4
 94
        3
 73
     0
 74
     0
 95
       14
 96
       10
 40
0.0
 40
0.0
 40
0.0
 40
0.0
 40
0.3527777776895833
 40
0.3527777776895833
 40
0.3527777776895833
 40
0.7055555553791667
 40
0.7055555553791667
 40
0.7055555553791667
 40
1.05833333306875
 40
1.05833333306875
 40
1.05833333306875
 40
1.05833333306875
 10
85.91154669710274
 20
-137.063797465734
 10
85.91154669710274
 20
-137.063797465734
 10
93.44130830997287
 20
-137.063797465734
 10
93.44130830997287
 20
-137.063797465734
 10
93.99322676869967
 20
-137.063797465734
 10
94.4410805319454
 20
-136.6159460769569
 10
94.4410805319454
 20
-136.0633549659841
 10
94.4410805319454
 20
-136.0633549659841
 10
87.37243471538793
 20
-136.0633549659841
 10
87.37243471538793
 20
-136.0633549659841
 97
        0
 72
     1
 10
87.37243471538793
 20
-136.0633549659841
 11
85.91154669710274
 21
-137.063797465734
 97
        0
 75
     2
 76
     1
 98
        0
  0
POLYLINE
  5
FB
330
1F
100
AcDbEntity
  8
_U+30EC_U+30A4_U+30E4_U+30FC 1
 62
   179
420
  2234388
370
    25
100
AcDb2dPolyline
 66
     1
 10
0.0
 20
0.0
 30
0.0
  0
VERTEX
  5
FC
330
FB
100
AcDbEntity
  8
_U+30EC_U+30A4_U+30E4_U+30FC 1
 62
   179
420
  2234388
370
    25
100
AcDbVertex
100
AcDb2dVertex
 10
86.37234720062915
 20
-136.0637077437618
 30
0.0
  0
VERTEX
  5
FD
330
FB
100
AcDbEntity
  8
_U+30EC_U+30A4_U+30E4_U+30FC 1
 62
   179
420
  2234388
370
    25
100
AcDbVertex
100
AcDb2dVertex
 10
93.44098844945512
 20
-136.0637077437618
 30
0.0
  0
SEQEND
  5
FE
330
FB
100
AcDbEntity
  8
_U+30EC_U+30A4_U+30E4_U+30FC 1
 62
   179
420
  2234388
370
    25
  0
SPLINE
  5
FF
330
1F
100
AcDbEntity
  8
_U+30EC_U+30A4_U+30E4_U+30FC 1
 62
     7
420
 16777215
370
     9
100
AcDbSpline
210
0.0
220
0.0
230
1.0
 70
    11
 71
     3
 72
    17
 73
    13
 74
     0
 42
0.0000000001
 43
0.0000000001
 12
1.0
 22
0.0
 32
0.0
 13
1.0
 23
0.0
 33
0.0
 40
0.0
 40
0.0
 40
0.0
 40
0.0
 40
1.0
 40
1.0
 40
1.0
 40
2.0
 40
2.0
 40
2.0
 40
3.0
 40
3.0
 40
3.0
 40
4.0
 40
4.0
 40
4.0
 40
4.0
 10
85.04078533042882
 20
-122.5637488582479
 30
0.0
 10
85.04078533042882
 20
-122.508644969373
 30
0.0
 10
84.99601783157094
 20
-122.4638421916062
 30
0.0
 10
84.94087866631098
 20
-122.4638421916062
 30
0.0
 10
84.88577477882791
 20
-122.4638421916062
 30
0.0
 10
84.84097200219314
 20
-122.508644969373
 30
0.0
 10
84.84097200219314
 20
-122.5637488582479
 30
0.0
 10
84.84097200219314
 20
-122.618888024901
 30
0.0
 10
84.88577477882791
 20
-122.6636555248895
 30
0.0
 10
84.94087866631098
 20
-122.6636555248895
 30
0.0
 10
84.99601783157094
 20
-122.6636555248895
 30
0.0
 10
85.04078533042882
 20
-122.618888024901
 30
0.0
 10
85.04078533042882
 20
-122.5637488582479
 30
0.0
  0
POLYLINE
  5
100
330
1F
100
AcDbEntity
  8
_U+30EC_U+30A4_U+30E4_U+30FC 1
 62
     7
420
 16777215
370
     9
100
AcDb2dPolyline
 66
     1
 10
0.0
 20
0.0
 30
0.0
  0
VERTEX
  5
101
330
100
100
AcDbEntity
  8
_U+30EC_U+30A4_U+30E4_U+30FC 1
 62
     7
420
 16777215
370
     9
100
AcDbVertex
100
AcDb2dVertex
 10
88.44043413258544
 20
-122.5637488582479
 30
0.0
  0
VERTEX
  5
102
330
100
100
AcDbEntity
  8
_U+30EC_U+30A4_U+30E4_U+30FC 1
 62
     7
420
 16777215
370
     9
100
AcDbVertex
100
AcDb2dVertex
 10
84.94087866631098
 20
-122.5637488582479
 30
0.0
  0
SEQEND
  5
103
330
100
100
AcDbEntity
  8
_U+30EC_U+30A4_U+30E4_U+30FC 1
 62
     7
420
 16777215
370
     9
  0
POLYLINE
  5
104
330
1F
100
AcDbEntity
  8
_U+30EC_U+30A4_U+30E4_U+30FC 1
 62
     7
420
 16777215
370
     9
100
AcDb2dPolyline
 66
     1
 10
0.0
 20
0.0
 30
0.0
  0
VERTEX
  5
105
330
104
100
AcDbEntity
  8
_U+30EC_U+30A4_U+30E4_U+30FC 1
 62
     7
420
 16777215
370
     9
100
AcDbVertex
100
AcDb2dVertex
 10
84.94087866631098
 20
-124.0184280245511
 30
0.0
  0
VERTEX
  5
106
330
104
100
AcDbEntity
  8
_U+30EC_U+30A4_U+30E4_U+30FC 1
 62
     7
420
 16777215
370
     9
100
AcDbVertex
100
AcDb2dVertex
 10
84.94087866631098
 20
-121.5636238584979
 30
0.0
  0
SEQEND
  5
107
330
104
100
AcDbEntity
  8
_U+30EC_U+30A4_U+30E4_U+30FC 1
 62
     7
420
 16777215
370
     9
  0
POLYLINE
  5
108
330
1F
100
AcDbEntity
  8
_U+30EC_U+30A4_U+30E4_U+30FC 1
 62
   179
420
  2234388
370
     9
100
AcDb2dPolyline
 66
     1
 10
0.0
 20
0.0
 30
0.0
  0
VERTEX
  5
109
330
108
100
AcDbEntity
  8
_U+30EC_U+30A4_U+30E4_U+30FC 1
 62
   179
420
  2234388
370
     9
100
AcDbVertex
100
AcDb2dVertex
 10
82.39050706470971
 20
-122.5620202471372
 30
0.0
  0
VERTEX
  5
10A
330
108
100
AcDbEntity
  8
_U+30EC_U+30A4_U+30E4_U+30FC 1
 62
   179
420
  2234388
370
     9
100
AcDbVertex
100
AcDb2dVertex
 10
84.94087866631098
 20
-122.5620202471372
 30
0.0
  0
SEQEND
  5
10B
330
108
100
AcDbEntity
  8
_U+30EC_U+30A4_U+30E4_U+30FC 1
 62
   179
420
  2234388
370
     9
  0
SPLINE
  5
10C
330
1F
100
AcDbEntity
  8
_U+30EC_U+30A4_U+30E4_U+30FC 1
 62
   179
420
  2234388
370
     9
100
AcDbSpline
210
0.0
220
0.0
230
1.0
 70
    11
 71
     3
 72
    17
 73
    13
 74
     0
 42
0.0000000001
 43
0.0000000001
 12
1.0
 22
0.0
 32
0.0
 13
1.0
 23
0.0
 33
0.0
 40
0.0
 40
0.0
 40
0.0
 40
0.0
 40
1.0
 40
1.0
 40
1.0
 40
2.0
 40
2.0
 40
2.0
 40
3.0
 40
3.0
 40
3.0
 40
4.0
 40
4.0
 40
4.0
 40
4.0
 10
84.03035924509582
 20
-122.5584219138049
 30
0.0
 10
84.03035924509582
 20
-122.5032827471518
 30
0.0
 10
83.98555646846106
 20
-122.4585152471633
 30
0.0
 10
83.93045258097798
 20
-122.4585152471633
 30
0.0
 10
83.87531341571804
 20
-122.4585152471633
 30
0.0
 10
83.83054591686015
 20
-122.5032827471518
 30
0.0
 10
83.83054591686015
 20
-122.5584219138049
 30
0.0
 10
83.83054591686015
 20
-122.6135258026798
 30
0.0
 10
83.87531341571804
 20
-122.6583285804465
 30
0.0
 10
83.93045258097798
 20
-122.6583285804465
 30
0.0
 10
83.98555646846106
 20
-122.6583285804465
 30
0.0
 10
84.03035924509582
 20
-122.6135258026798
 30
0.0
 10
84.03035924509582
 20
-122.5584219138049
 30
0.0
  0
POLYLINE
  5
10D
330
1F
100
AcDbEntity
  8
_U+30EC_U+30A4_U+30E4_U+30FC 1
 62
   179
420
  2234388
370
     9
100
AcDb2dPolyline
 66
     1
 10
0.0
 20
0.0
 30
0.0
  0
VERTEX
  5
10E
330
10D
100
AcDbEntity
  8
_U+30EC_U+30A4_U+30E4_U+30FC 1
 62
   179
420
  2234388
370
     9
100
AcDbVertex
100
AcDb2dVertex
 10
83.93045258097798
 20
-124.0184280245511
 30
0.0
  0
VERTEX
  5
10F
330
10D
100
AcDbEntity
  8
_U+30EC_U+30A4_U+30E4_U+30FC 1
 62
   179
420
  2234388
370
     9
100
AcDbVertex
100
AcDb2dVertex
 10
83.93045258097798
 20
-121.5586496918327
 30
0.0
  0
SEQEND
  5
110
330
10D
100
AcDbEntity
  8
_U+30EC_U+30A4_U+30E4_U+30FC 1
 62
   179
420
  2234388
370
     9
  0
INSERT
  5
112
330
1F
100
AcDbEntity
  8
_U+30EC_U+30A4_U+30E4_U+30FC 1
100
AcDbBlockReference
  2
block 6
 10
0.0
 20
0.0
 30
0.0
  0
ENDSEC
  0
SECTION
  2
OBJECTS
  0
DICTIONARY
  5
C
330
0
100
AcDbDictionary
281
     1
  3
ACAD_GROUP
350
D
  3
ACAD_LAYOUT
350
1A
  3
ACAD_MATERIAL
350
3B
  3
ACAD_MLEADERSTYLE
350
118
  3
ACAD_MLINESTYLE
350
17
  3
ACAD_PLOTSETTINGS
350
19
  3
ACAD_PLOTSTYLENAME
350
E
  3
ACAD_TABLESTYLE
350
117
  3
ACAD_VISUALSTYLE
350
2A
  0
SUN
  5
3F
330
29
100
AcDbSun
 90
        1
290
     0
 63
     7
421
 16777215
 40
1.0
291
     1
 91
  2455826
 92
 54000000
292
     0
 70
     2
 71
   256
280
     1
  0
DICTIONARY
  5
D
102
{ACAD_REACTORS
330
C
102
}
330
C
100
AcDbDictionary
281
     1
  0
DICTIONARY
  5
1A
102
{ACAD_REACTORS
330
C
102
}
330
C
100
AcDbDictionary
281
     1
  3
Layout1
350
1E
  3
Layout2
350
26
  3
Model
350
22
  0
DICTIONARY
  5
3B
102
{ACAD_REACTORS
330
C
102
}
330
C
100
AcDbDictionary
281
     1
  3
ByBlock
350
3D
  3
ByLayer
350
3C
  3
Global
350
3E
  0
DICTIONARY
  5
118
102
{ACAD_REACTORS
330
C
102
}
330
C
100
AcDbDictionary
281
     1
  0
DICTIONARY
  5
17
102
{ACAD_REACTORS
330
C
102
}
330
C
100
AcDbDictionary
281
     1
  3
Standard
350
18
  0
DICTIONARY
  5
19
102
{ACAD_REACTORS
330
C
102
}
330
C
100
AcDbDictionary
281
     1
  0
ACDBDICTIONARYWDFLT
  5
E
102
{ACAD_REACTORS
330
C
102
}
330
C
100
AcDbDictionary
281
     1
  3
Normal
350
F
100
AcDbDictionaryWithDefault
340
F
  0
DICTIONARY
  5
117
102
{ACAD_REACTORS
330
C
102
}
330
C
100
AcDbDictionary
281
     1
  0
DICTIONARY
  5
2A
102
{ACAD_REACTORS
330
C
102
}
330
C
100
AcDbDictionary
281
     1
  3
2dWireframe
350
2F
  3
3D Hidden
350
31
  3
3dWireframe
350
30
  3
Basic
350
32
  3
Brighten
350
36
  3
ColorChange
350
3A
  3
Conceptual
350
34
  3
Dim
350
35
  3
Facepattern
350
39
  3
Flat
350
2B
  3
FlatWithEdges
350
2C
  3
Gouraud
350
2D
  3
GouraudWithEdges
350
2E
  3
Linepattern
350
38
  3
Realistic
350
33
  3
Thicken
350
37
  0
LAYOUT
  5
1E
102
{ACAD_REACTORS
330
1A
102
}
330
1A
100
AcDbPlotSettings
  1

  2
none_device
  4

  6

 40
0.0
 41
0.0
 42
0.0
 43
0.0
 44
0.0
 45
0.0
 46
0.0
 47
0.0
 48
0.0
 49
0.0
140
0.0
141
0.0
142
1.0
143
1.0
 70
   688
 72
     0
 73
     0
 74
     5
  7

 75
    16
 76
     0
 77
     2
 78
   300
147
1.0
148
0.0
149
0.0
100
AcDbLayout
  1
Layout1
 70
     1
 71
     1
 10
0.0
 20
0.0
 11
12.0
 21
9.0
 12
0.0
 22
0.0
 32
0.0
 14
1.000000000000000E+20
 24
1.000000000000000E+20
 34
1.000000000000000E+20
 15
-1.000000000000000E+20
 25
-1.000000000000000E+20
 35
-1.000000000000000E+20
146
0.0
 13
0.0
 23
0.0
 33
0.0
 16
1.0
 26
0.0
 36
0.0
 17
0.0
 27
1.0
 37
0.0
 76
     0
330
1B
  0
LAYOUT
  5
26
102
{ACAD_REACTORS
330
1A
102
}
330
1A
100
AcDbPlotSettings
  1

  2
none_device
  4

  6

 40
0.0
 41
0.0
 42
0.0
 43
0.0
 44
0.0
 45
0.0
 46
0.0
 47
0.0
 48
0.0
 49
0.0
140
0.0
141
0.0
142
1.0
143
1.0
 70
   688
 72
     0
 73
     0
 74
     5
  7

 75
    16
 76
     0
 77
     2
 78
   300
147
1.0
148
0.0
149
0.0
100
AcDbLayout
  1
Layout2
 70
     1
 71
     2
 10
0.0
 20
0.0
 11
0.0
 21
0.0
 12
0.0
 22
0.0
 32
0.0
 14
0.0
 24
0.0
 34
0.0
 15
0.0
 25
0.0
 35
0.0
146
0.0
 13
0.0
 23
0.0
 33
0.0
 16
1.0
 26
0.0
 36
0.0
 17
0.0
 27
1.0
 37
0.0
 76
     0
330
23
  0
LAYOUT
  5
22
102
{ACAD_REACTORS
330
1A
102
}
330
1A
100
AcDbPlotSettings
  1

  2
none_device
  4

  6

 40
0.0
 41
0.0
 42
0.0
 43
0.0
 44
0.0
 45
0.0
 46
0.0
 47
0.0
 48
0.0
 49
0.0
140
0.0
141
0.0
142
1.0
143
1.0
 70
  1712
 72
     0
 73
     0
 74
     0
  7

 75
     0
 76
     0
 77
     2
 78
   300
147
1.0
148
0.0
149
0.0
100
AcDbLayout
  1
Model
 70
     1
 71
     0
 10
0.0
 20
0.0
 11
12.0
 21
9.0
 12
0.0
 22
0.0
 32
0.0
 14
1.000000000000000E+20
 24
1.000000000000000E+20
 34
1.000000000000000E+20
 15
-1.000000000000000E+20
 25
-1.000000000000000E+20
 35
-1.000000000000000E+20
146
0.0
 13
0.0
 23
0.0
 33
0.0
 16
1.0
 26
0.0
 36
0.0
 17
0.0
 27
1.0
 37
0.0
 76
     0
330
1F
331
29
  0
MATERIAL
  5
3D
102
{ACAD_REACTORS
330
3B
102
}
330
3B
100
AcDbMaterial
  1
ByBlock
 72
     1
 94
      127
  0
MATERIAL
  5
3C
102
{ACAD_REACTORS
330
3B
102
}
330
3B
100
AcDbMaterial
  1
ByLayer
 72
     1
 94
      127
  0
MATERIAL
  5
3E
102
{ACAD_REACTORS
330
3B
102
}
330
3B
100
AcDbMaterial
  1
Global
 72
     1
 94
      127
  0
MLINESTYLE
  5
18
102
{ACAD_REACTORS
330
17
102
}
330
17
100
AcDbMlineStyle
  2
Standard
 70
     0
  3

 62
   256
 51
90.0
 52
90.0
 71
     2
 49
0.5
 62
   256
  6
BYLAYER
 49
-0.5
 62
   256
  6
BYLAYER
  0
ACDBPLACEHOLDER
  5
F
102
{ACAD_REACTORS
330
E
102
}
330
E
  0
VISUALSTYLE
  5
2F
102
{ACAD_REACTORS
330
2A
102
}
330
2A
100
AcDbVisualStyle
  2
2dWireframe
 70
     4
177
     2
291
     0
 71
     0
176
     1
 72
     2
176
     1
 73
     0
176
     1
 90
        0
176
     1
 40
-0.6
176
     1
 41
-30.0
176
     1
 62
     5
 63
     7
421
 16777215
176
     1
 74
     1
176
     1
 91
        4
176
     1
 64
     7
176
     1
 65
   257
176
     1
 75
     1
176
     1
175
     1
176
     1
 42
1.0
176
     1
 92
        0
176
     1
 66
   257
176
     1
 43
1.0
176
     1
 76
     1
176
     1
 77
     6
176
     1
 78
     2
176
     1
 67
     7
176
     1
 79
     5
176
     1
170
     0
176
     1
171
     0
176
     1
290
     0
176
     1
 93
        1
176
     1
 44
0.0
176
     1
173
     0
176
     1
  0
VISUALSTYLE
  5
31
102
{ACAD_REACTORS
330
2A
102
}
330
2A
100
AcDbVisualStyle
  2
3D Hidden
 70
     6
177
     2
291
     0
 71
     1
176
     1
 72
     2
176
     1
 73
     2
176
     1
 90
        0
176
     1
 40
-0.6
176
     1
 41
-30.0
176
     1
 62
     5
 63
     7
421
 16777215
176
     1
 74
     2
176
     1
 91
        2
176
     1
 64
     7
176
     1
 65
   257
176
     1
 75
     2
176
     1
175
     1
176
     1
 42
40.0
176
     1
 92
        0
176
     1
 66
   257
176
     1
 43
1.0
176
     1
 76
     1
176
     1
 77
     6
176
     1
 78
     2
176
     1
 67
     7
176
     1
 79
     3
176
     1
170
     0
176
     1
171
     0
176
     1
290
     0
176
     1
 93
        1
176
     1
 44
0.0
176
     1
173
     0
176
     1
  0
VISUALSTYLE
  5
30
102
{ACAD_REACTORS
330
2A
102
}
330
2A
100
AcDbVisualStyle
  2
3dWireframe
 70
     5
177
     2
291
     0
 71
     0
176
     1
 72
     2
176
     1
 73
     0
176
     1
 90
        0
176
     1
 40
-0.6
176
     1
 41
-30.0
176
     1
 62
     5
 63
     7
421
 16777215
176
     1
 74
     1
176
     1
 91
        4
176
     1
 64
     7
176
     1
 65
   257
176
     1
 75
     1
176
     1
175
     1
176
     1
 42
1.0
176
     1
 92
        0
176
     1
 66
   257
176
     1
 43
1.0
176
     1
 76
     1
176
     1
 77
     6
176
     1
 78
     2
176
     1
 67
     7
176
     1
 79
     5
176
     1
170
     0
176
     1
171
     0
176
     1
290
     0
176
     1
 93
        1
176
     1
 44
0.0
176
     1
173
     0
176
     1
  0
VISUALSTYLE
  5
32
102
{ACAD_REACTORS
330
2A
102
}
330
2A
100
AcDbVisualStyle
  2
Basic
 70
     7
177
     2
291
     1
 71
     1
176
     1
 72
     0
176
     1
 73
     1
176
     1
 90
        0
176
     1
 40
-0.6
176
     1
 41
-30.0
176
     1
 62
     5
 63
     7
421
 16777215
176
     1
 74
     0
176
     1
 91
        4
176
     1
 64
     7
176
     1
 65
   257
176
     1
 75
     1
176
     1
175
     1
176
     1
 42
1.0
176
     1
 92
        8
176
     1
 66
     7
176
     1
 43
1.0
176
     1
 76
     1
176
     1
 77
     6
176
     1
 78
     2
176
     1
 67
     7
176
     1
 79
     5
176
     1
170
     0
176
     1
171
     0
176
     1
290
     0
176
     1
 93
        1
176
     1
 44
0.0
176
     1
173
     0
176
     1
  0
VISUALSTYLE
  5
36
102
{ACAD_REACTORS
330
2A
102
}
330
2A
100
AcDbVisualStyle
  2
Brighten
 70
    12
177
     2
291
     1
 71
     2
176
     1
 72
     2
176
     1
 73
     0
176
     1
 90
        0
176
     1
 40
-0.6
176
     1
 41
-30.0
176
     1
 62
     5
 63
     7
421
 16777215
176
     1
 74
     1
176
     1
 91
        4
176
     1
 64
     7
176
     1
 65
   257
176
     1
 75
     1
176
     1
175
     1
176
     1
 42
1.0
176
     1
 92
        8
176
     1
 66
     7
176
     1
 43
1.0
176
     1
 76
     1
176
     1
 77
     6
176
     1
 78
     2
176
     1
 67
     7
176
     1
 79
     5
176
     1
170
     0
176
     1
171
     0
176
     1
290
     0
176
     1
 93
        1
176
     1
 44
50.0
176
     1
173
     0
176
     1
  0
VISUALSTYLE
  5
3A
102
{ACAD_REACTORS
330
2A
102
}
330
2A
100
AcDbVisualStyle
  2
ColorChange
 70
    16
177
     2
291
     1
 71
     2
176
     1
 72
     2
176
     1
 73
     3
176
     1
 90
        0
176
     1
 40
-0.6
176
     1
 41
-30.0
176
     1
 62
     5
 63
     8
421
  8421504
176
     1
 74
     1
176
     1
 91
        4
176
     1
 64
     7
176
     1
 65
   257
176
     1
 75
     1
176
     1
175
     1
176
     1
 42
1.0
176
     1
 92
        8
176
     1
 66
     8
424
  8421504
176
     1
 43
1.0
176
     1
 76
     1
176
     1
 77
     6
176
     1
 78
     2
176
     1
 67
     7
176
     1
 79
     5
176
     1
170
     0
176
     1
171
     0
176
     1
290
     0
176
     1
 93
        1
176
     1
 44
0.0
176
     1
173
     0
176
     1
  0
VISUALSTYLE
  5
34
102
{ACAD_REACTORS
330
2A
102
}
330
2A
100
AcDbVisualStyle
  2
Conceptual
 70
     9
177
     2
291
     0
 71
     3
176
     1
 72
     2
176
     1
 73
     0
176
     1
 90
        0
176
     1
 40
-0.6
176
     1
 41
-30.0
176
     1
 62
     5
 63
     7
421
 16777215
176
     1
 74
     2
176
     1
 91
        2
176
     1
 64
     7
176
     1
 65
   257
176
     1
 75
     1
176
     1
175
     1
176
     1
 42
40.0
176
     1
 92
        8
176
     1
 66
     7
176
     1
 43
1.0
176
     1
 76
     1
176
     1
 77
     6
176
     1
 78
     2
176
     1
 67
     7
176
     1
 79
     3
176
     1
170
     0
176
     1
171
     0
176
     1
290
     0
176
     1
 93
        1
176
     1
 44
0.0
176
     1
173
     0
176
     1
  0
VISUALSTYLE
  5
35
102
{ACAD_REACTORS
330
2A
102
}
330
2A
100
AcDbVisualStyle
  2
Dim
 70
    11
177
     2
291
     1
 71
     2
176
     1
 72
     2
176
     1
 73
     0
176
     1
 90
        0
176
     1
 40
-0.6
176
     1
 41
-30.0
176
     1
 62
     5
 63
     7
421
 16777215
176
     1
 74
     1
176
     1
 91
        4
176
     1
 64
     7
176
     1
 65
   257
176
     1
 75
     1
176
     1
175
     1
176
     1
 42
1.0
176
     1
 92
        8
176
     1
 66
     7
176
     1
 43
1.0
176
     1
 76
     1
176
     1
 77
     6
176
     1
 78
     2
176
     1
 67
     7
176
     1
 79
     5
176
     1
170
     0
176
     1
171
     0
176
     1
290
     0
176
     1
 93
        1
176
     1
 44
-50.0
176
     1
173
     0
176
     1
  0
VISUALSTYLE
  5
39
102
{ACAD_REACTORS
330
2A
102
}
330
2A
100
AcDbVisualStyle
  2
Facepattern
 70
    15
177
     2
291
     1
 71
     2
176
     1
 72
     2
176
     1
 73
     0
176
     1
 90
        0
176
     1
 40
-0.6
176
     1
 41
-30.0
176
     1
 62
     5
 63
     7
421
 16777215
176
     1
 74
     1
176
     1
 91
        4
176
     1
 64
     7
176
     1
 65
   257
176
     1
 75
     1
176
     1
175
     1
176
     1
 42
1.0
176
     1
 92
        8
176
     1
 66
     7
176
     1
 43
1.0
176
     1
 76
     1
176
     1
 77
     6
176
     1
 78
     2
176
     1
 67
     7
176
     1
 79
     5
176
     1
170
     0
176
     1
171
     0
176
     1
290
     0
176
     1
 93
        1
176
     1
 44
0.0
176
     1
173
     0
176
     1
  0
VISUALSTYLE
  5
2B
102
{ACAD_REACTORS
330
2A
102
}
330
2A
100
AcDbVisualStyle
  2
Flat
 70
     0
177
     2
291
     1
 71
     2
176
     1
 72
     1
176
     1
 73
     1
176
     1
 90
        2
176
     1
 40
-0.6
176
     1
 41
30.0
176
     1
 62
     5
 63
     7
421
 16777215
176
     1
 74
     0
176
     1
 91
        4
176
     1
 64
     7
176
     1
 65
   257
176
     1
 75
     1
176
     1
175
     1
176
     1
 42
1.0
176
     1
 92
        8
176
     1
 66
     7
176
     1
 43
1.0
176
     1
 76
     1
176
     1
 77
     6
176
     1
 78
     2
176
     1
 67
     7
176
     1
 79
     5
176
     1
170
     0
176
     1
171
     0
176
     1
290
     0
176
     1
 93
       13
176
     1
 44
0.0
176
     1
173
     0
176
     1
  0
VISUALSTYLE
  5
2C
102
{ACAD_REACTORS
330
2A
102
}
330
2A
100
AcDbVisualStyle
  2
FlatWithEdges
 70
     1
177
     2
291
     1
 71
     2
176
     1
 72
     1
176
     1
 73
     1
176
     1
 90
        2
176
     1
 40
-0.6
176
     1
 41
30.0
176
     1
 62
     5
 63
     7
421
 16777215
176
     1
 74
     1
176
     1
 91
        4
176
     1
 64
     7
176
     1
 65
   257
176
     1
 75
     1
176
     1
175
     1
176
     1
 42
1.0
176
     1
 92
        0
176
     1
 66
   257
176
     1
 43
1.0
176
     1
 76
     1
176
     1
 77
     6
176
     1
 78
     2
176
     1
 67
     7
176
     1
 79
     5
176
     1
170
     0
176
     1
171
     0
176
     1
290
     0
176
     1
 93
       13
176
     1
 44
0.0
176
     1
173
     0
176
     1
  0
VISUALSTYLE
  5
2D
102
{ACAD_REACTORS
330
2A
102
}
330
2A
100
AcDbVisualStyle
  2
Gouraud
 70
     2
177
     2
291
     1
 71
     2
176
     1
 72
     2
176
     1
 73
     1
176
     1
 90
        2
176
     1
 40
-0.6
176
     1
 41
30.0
176
     1
 62
     5
 63
     7
421
 16777215
176
     1
 74
     0
176
     1
 91
        4
176
     1
 64
     7
176
     1
 65
   257
176
     1
 75
     1
176
     1
175
     1
176
     1
 42
1.0
176
     1
 92
        0
176
     1
 66
     7
176
     1
 43
1.0
176
     1
 76
     1
176
     1
 77
     6
176
     1
 78
     2
176
     1
 67
     7
176
     1
 79
     5
176
     1
170
     0
176
     1
171
     0
176
     1
290
     0
176
     1
 93
       13
176
     1
 44
0.0
176
     1
173
     0
176
     1
  0
VISUALSTYLE
  5
2E
102
{ACAD_REACTORS
330
2A
102
}
330
2A
100
AcDbVisualStyle
  2
GouraudWithEdges
 70
     3
177
     2
291
     1
 71
     2
176
     1
 72
     2
176
     1
 73
     1
176
     1
 90
        2
176
     1
 40
-0.6
176
     1
 41
30.0
176
     1
 62
     5
 63
     7
421
 16777215
176
     1
 74
     1
176
     1
 91
        4
176
     1
 64
     7
176
     1
 65
   257
176
     1
 75
     1
176
     1
175
     1
176
     1
 42
1.0
176
     1
 92
        0
176
     1
 66
   257
176
     1
 43
1.0
176
     1
 76
     1
176
     1
 77
     6
176
     1
 78
     2
176
     1
 67
     7
176
     1
 79
     5
176
     1
170
     0
176
     1
171
     0
176
     1
290
     0
176
     1
 93
       13
176
     1
 44
0.0
176
     1
173
     0
176
     1
  0
VISUALSTYLE
  5
38
102
{ACAD_REACTORS
330
2A
102
}
330
2A
100
AcDbVisualStyle
  2
Linepattern
 70
    14
177
     2
291
     1
 71
     2
176
     1
 72
     2
176
     1
 73
     0
176
     1
 90
        0
176
     1
 40
-0.6
176
     1
 41
-30.0
176
     1
 62
     5
 63
     7
421
 16777215
176
     1
 74
     1
176
     1
 91
        4
176
     1
 64
     7
176
     1
 65
   257
176
     1
 75
     7
176
     1
175
     7
176
     1
 42
1.0
176
     1
 92
        8
176
     1
 66
     7
176
     1
 43
1.0
176
     1
 76
     1
176
     1
 77
     6
176
     1
 78
     2
176
     1
 67
     7
176
     1
 79
     5
176
     1
170
     0
176
     1
171
     0
176
     1
290
     0
176
     1
 93
        1
176
     1
 44
0.0
176
     1
173
     0
176
     1
  0
VISUALSTYLE
  5
33
102
{ACAD_REACTORS
330
2A
102
}
330
2A
100
AcDbVisualStyle
  2
Realistic
 70
     8
177
     2
291
     0
 71
     2
176
     1
 72
     2
176
     1
 73
     0
176
     1
 90
        0
176
     1
 40
-0.6
176
     1
 41
-30.0
176
     1
 62
     5
 63
     7
421
 16777215
176
     1
 74
     1
176
     1
 91
        0
176
     1
 64
     7
176
     1
 65
   257
176
     1
 75
     1
176
     1
175
     1
176
     1
 42
1.0
176
     1
 92
        8
176
     1
 66
     8
424
  7895160
176
     1
 43
1.0
176
     1
 76
     1
176
     1
 77
     6
176
     1
 78
     2
176
     1
 67
     7
176
     1
 79
     5
176
     1
170
     0
176
     1
171
     0
176
     1
290
     0
176
     1
 93
       13
176
     1
 44
0.0
176
     1
173
     0
176
     1
  0
VISUALSTYLE
  5
37
102
{ACAD_REACTORS
330
2A
102
}
330
2A
100
AcDbVisualStyle
  2
Thicken
 70
    13
177
     2
291
     1
 71
     2
176
     1
 72
     2
176
     1
 73
     0
176
     1
 90
        0
176
     1
 40
-0.6
176
     1
 41
-30.0
176
     1
 62
     5
 63
     7
421
 16777215
176
     1
 74
     1
176
     1
 91
        4
176
     1
 64
     7
176
     1
 65
   257
176
     1
 75
     1
176
     1
175
     1
176
     1
 42
1.0
176
     1
 92
       12
176
     1
 66
     7
176
     1
 43
1.0
176
     1
 76
     1
176
     1
 77
     6
176
     1
 78
     2
176
     1
 67
     7
176
     1
 79
     5
176
     1
170
     0
176
     1
171
     0
176
     1
290
     0
176
     1
 93
        1
176
     1
 44
0.0
176
     1
173
     0
176
     1
  0
ENDSEC
  0
EOF
