  0
SECTION
  2
HEADER
  9
$ACADVER
  1
AC1024
  9
$ACADMAINTVER
 70
     6
  9
$DWGCODEPAGE
  3
UNDEFINED
  9
$INSBASE
 10
0.0
 20
0.0
 30
0.0
  9
$EXTMIN
 10
1.000000000000000E+20
 20
1.000000000000000E+20
 30
1.000000000000000E+20
  9
$EXTMAX
 10
-1.000000000000000E+20
 20
-1.000000000000000E+20
 30
-1.000000000000000E+20
  9
$LIMMIN
 10
0.0
 20
0.0
  9
$LIMMAX
 10
12.0
 20
9.0
  9
$ORTHOMODE
 70
     0
  9
$REGENMODE
 70
     1
  9
$FILLMODE
 70
     1
  9
$QTEXTMODE
 70
     0
  9
$MIRRTEXT
 70
     1
  9
$LTSCALE
 40
1.0
  9
$ATTMODE
 70
     1
  9
$TEXTSIZE
 40
0.2
  9
$TRACEWID
 40
0.05
  9
$TEXTSTYLE
  7
Standard
  9
$CLAYER
  8
0
  9
$CELTYPE
  6
ByLayer
  9
$CECOLOR
 62
   256
  9
$CELTSCALE
 40
1.0
  9
$DISPSILH
 70
     0
  9
$DIMSCALE
 40
1.0
  9
$DIMASZ
 40
0.18
  9
$DIMEXO
 40
0.0625
  9
$DIMDLI
 40
0.38
  9
$DIMRND
 40
0.0
  9
$DIMDLE
 40
0.0
  9
$DIMEXE
 40
0.18
  9
$DIMTP
 40
0.0
  9
$DIMTM
 40
0.0
  9
$DIMTXT
 40
0.18
  9
$DIMCEN
 40
0.09
  9
$DIMTSZ
 40
0.0
  9
$DIMTOL
 70
     0
  9
$DIMLIM
 70
     0
  9
$DIMTIH
 70
     1
  9
$DIMTOH
 70
     1
  9
$DIMSE1
 70
     0
  9
$DIMSE2
 70
     0
  9
$DIMTAD
 70
     0
  9
$DIMZIN
 70
     0
  9
$DIMBLK
  1

  9
$DIMASO
 70
     1
  9
$DIMSHO
 70
     1
  9
$DIMPOST
  1

  9
$DIMAPOST
  1

  9
$DIMALT
 70
     0
  9
$DIMALTD
 70
     2
  9
$DIMALTF
 40
25.4
  9
$DIMLFAC
 40
1.0
  9
$DIMTOFL
 70
     0
  9
$DIMTVP
 40
0.0
  9
$DIMTIX
 70
     0
  9
$DIMSOXD
 70
     0
  9
$DIMSAH
 70
     0
  9
$DIMBLK1
  1

  9
$DIMBLK2
  1

  9
$DIMSTYLE
  2
Standard
  9
$DIMCLRD
 70
     0
  9
$DIMCLRE
 70
     0
  9
$DIMCLRT
 70
     0
  9
$DIMTFAC
 40
1.0
  9
$DIMGAP
 40
0.09
  9
$DIMJUST
 70
     0
  9
$DIMSD1
 70
     0
  9
$DIMSD2
 70
     0
  9
$DIMTOLJ
 70
     1
  9
$DIMTZIN
 70
     0
  9
$DIMALTZ
 70
     0
  9
$DIMALTTZ
 70
     0
  9
$DIMUPT
 70
     0
  9
$DIMDEC
 70
     4
  9
$DIMTDEC
 70
     4
  9
$DIMALTU
 70
     2
  9
$DIMALTTD
 70
     2
  9
$DIMTXSTY
  7
Standard
  9
$DIMAUNIT
 70
     0
  9
$DIMADEC
 70
     0
  9
$DIMALTRND
 40
0.0
  9
$DIMAZIN
 70
     0
  9
$DIMDSEP
 70
    46
  9
$DIMATFIT
 70
     3
  9
$DIMFRAC
 70
     0
  9
$DIMLDRBLK
  1

  9
$DIMLUNIT
 70
     2
  9
$DIMLWD
 70
    -2
  9
$DIMLWE
 70
    -2
  9
$DIMTMOVE
 70
     0
  9
$DIMFXL
 40
1.0
  9
$DIMFXLON
 70
     0
  9
$DIMJOGANG
 40
0.7853981633974483
  9
$DIMTFILL
 70
     0
  9
$DIMTFILLCLR
 70
     0
  9
$DIMARCSYM
 70
     0
  9
$DIMLTYPE
  6

  9
$DIMLTEX1
  6

  9
$DIMLTEX2
  6

  9
$DIMTXTDIRECTION
 70
     0
  9
$LUNITS
 70
     2
  9
$LUPREC
 70
     4
  9
$SKETCHINC
 40
0.1
  9
$FILLETRAD
 40
0.5
  9
$AUNITS
 70
     0
  9
$AUPREC
 70
     0
  9
$MENU
  1
.
  9
$ELEVATION
 40
0.0
  9
$PELEVATION
 40
0.0
  9
$THICKNESS
 40
0.0
  9
$LIMCHECK
 70
     0
  9
$CHAMFERA
 40
0.5
  9
$CHAMFERB
 40
0.5
  9
$CHAMFERC
 40
1.0
  9
$CHAMFERD
 40
0.0
  9
$SKPOLY
 70
     0
  9
$TDCREATE
 40
2457917.619166655
  9
$TDUCREATE
 40
2457917.244166667
  9
$TDUPDATE
 40
2457917.619166655
  9
$TDUUPDATE
 40
2457917.244166667
  9
$TDINDWG
 40
0.0000000116
  9
$TDUSRTIMER
 40
0.0000000116
  9
$USRTIMER
 70
     1
  9
$ANGBASE
 50
0.0
  9
$ANGDIR
 70
     0
  9
$PDMODE
 70
     0
  9
$PDSIZE
 40
0.0
  9
$PLINEWID
 40
0.0
  9
$SPLFRAME
 70
     0
  9
$SPLINETYPE
 70
     6
  9
$SPLINESEGS
 70
     8
  9
$HANDSEED
  5
ED
  9
$SURFTAB1
 70
     6
  9
$SURFTAB2
 70
     6
  9
$SURFTYPE
 70
     6
  9
$SURFU
 70
     6
  9
$SURFV
 70
     6
  9
$UCSBASE
  2

  9
$UCSNAME
  2

  9
$UCSORG
 10
0.0
 20
0.0
 30
0.0
  9
$UCSXDIR
 10
1.0
 20
0.0
 30
0.0
  9
$UCSYDIR
 10
0.0
 20
1.0
 30
0.0
  9
$UCSORTHOREF
  2

  9
$UCSORTHOVIEW
 70
     0
  9
$UCSORGTOP
 10
0.0
 20
0.0
 30
0.0
  9
$UCSORGBOTTOM
 10
0.0
 20
0.0
 30
0.0
  9
$UCSORGLEFT
 10
0.0
 20
0.0
 30
0.0
  9
$UCSORGRIGHT
 10
0.0
 20
0.0
 30
0.0
  9
$UCSORGFRONT
 10
0.0
 20
0.0
 30
0.0
  9
$UCSORGBACK
 10
0.0
 20
0.0
 30
0.0
  9
$PUCSBASE
  2

  9
$PUCSNAME
  2

  9
$PUCSORG
 10
0.0
 20
0.0
 30
0.0
  9
$PUCSXDIR
 10
1.0
 20
0.0
 30
0.0
  9
$PUCSYDIR
 10
0.0
 20
1.0
 30
0.0
  9
$PUCSORTHOREF
  2

  9
$PUCSORTHOVIEW
 70
     0
  9
$PUCSORGTOP
 10
0.0
 20
0.0
 30
0.0
  9
$PUCSORGBOTTOM
 10
0.0
 20
0.0
 30
0.0
  9
$PUCSORGLEFT
 10
0.0
 20
0.0
 30
0.0
  9
$PUCSORGRIGHT
 10
0.0
 20
0.0
 30
0.0
  9
$PUCSORGFRONT
 10
0.0
 20
0.0
 30
0.0
  9
$PUCSORGBACK
 10
0.0
 20
0.0
 30
0.0
  9
$USERI1
 70
     0
  9
$USERI2
 70
     0
  9
$USERI3
 70
     0
  9
$USERI4
 70
     0
  9
$USERI5
 70
     0
  9
$USERR1
 40
0.0
  9
$USERR2
 40
0.0
  9
$USERR3
 40
0.0
  9
$USERR4
 40
0.0
  9
$USERR5
 40
0.0
  9
$WORLDVIEW
 70
     1
  9
$SHADEDGE
 70
     3
  9
$SHADEDIF
 70
    70
  9
$TILEMODE
 70
     1
  9
$MAXACTVP
 70
    64
  9
$PINSBASE
 10
0.0
 20
0.0
 30
0.0
  9
$PLIMCHECK
 70
     0
  9
$PEXTMIN
 10
1.000000000000000E+20
 20
1.000000000000000E+20
 30
1.000000000000000E+20
  9
$PEXTMAX
 10
-1.000000000000000E+20
 20
-1.000000000000000E+20
 30
-1.000000000000000E+20
  9
$PLIMMIN
 10
0.0
 20
0.0
  9
$PLIMMAX
 10
12.0
 20
9.0
  9
$UNITMODE
 70
     0
  9
$VISRETAIN
 70
     1
  9
$PLINEGEN
 70
     0
  9
$PSLTSCALE
 70
     1
  9
$TREEDEPTH
 70
  3020
  9
$CMLSTYLE
  2
Standard
  9
$CMLJUST
 70
     0
  9
$CMLSCALE
 40
1.0
  9
$PROXYGRAPHICS
 70
     1
  9
$MEASUREMENT
 70
     0
  9
$CELWEIGHT
370
    -1
  9
$ENDCAPS
280
     0
  9
$JOINSTYLE
280
     0
  9
$LWDISPLAY
290
     1
  9
$INSUNITS
 70
     1
  9
$HYPERLINKBASE
  1

  9
$STYLESHEET
  1

  9
$XEDIT
290
     1
  9
$CEPSNTYPE
380
     0
  9
$PSTYLEMODE
290
     1
  9
$FINGERPRINTGUID
  2
{50308484-5B59-D856-6C20-675AFB012E9F}
  9
$VERSIONGUID
  2
{FAEB1C32-E019-11D5-929B-00C0DF256EC4}
  9
$EXTNAMES
290
     1
  9
$PSVPSCALE
 40
0.0
  9
$OLESTARTUP
290
     0
  9
$SORTENTS
280
   127
  9
$INDEXCTL
280
     0
  9
$HIDETEXT
280
     1
  9
$XCLIPFRAME
280
     2
  9
$HALOGAP
280
     0
  9
$OBSCOLOR
 70
   257
  9
$OBSLTYPE
280
     0
  9
$INTERSECTIONDISPLAY
280
     0
  9
$INTERSECTIONCOLOR
 70
   257
  9
$DIMASSOC
280
     2
  9
$PROJECTNAME
  1

  9
$CAMERADISPLAY
290
     0
  9
$LENSLENGTH
 40
50.0
  9
$CAMERAHEIGHT
 40
0.0
  9
$STEPSPERSEC
 40
2.0
  9
$STEPSIZE
 40
6.0
  9
$3DDWFPREC
 40
2.0
  9
$PSOLWIDTH
 40
0.25
  9
$PSOLHEIGHT
 40
4.0
  9
$LOFTANG1
 40
1.570796326794897
  9
$LOFTANG2
 40
1.570796326794897
  9
$LOFTMAG1
 40
0.0
  9
$LOFTMAG2
 40
0.0
  9
$LOFTPARAM
 70
     7
  9
$LOFTNORMALS
280
     1
  9
$LATITUDE
 40
37.795
  9
$LONGITUDE
 40
-122.394
  9
$NORTHDIRECTION
 40
0.0
  9
$TIMEZONE
 70
 -8000
  9
$LIGHTGLYPHDISPLAY
280
     1
  9
$TILEMODELIGHTSYNCH
280
     1
  9
$CMATERIAL
347
3C
  9
$SOLIDHIST
280
     1
  9
$SHOWHIST
280
     1
  9
$DWFFRAME
280
     2
  9
$DGNFRAME
280
     2
  9
$REALWORLDSCALE
290
     1
  9
$INTERFERECOLOR
 62
   256
  9
$CSHADOW
280
     0
  9
$SHADOWPLANELOCATION
 40
0.0
  0
ENDSEC
  0
SECTION
  2
CLASSES
  0
CLASS
  1
ACDBDICTIONARYWDFLT
  2
AcDbDictionaryWithDefault
  3
ObjectDBX Classes
 90
        0
 91
        4
280
     0
281
     0
  0
CLASS
  1
VISUALSTYLE
  2
AcDbVisualStyle
  3
ObjectDBX Classes
 90
     4095
 91
        4
280
     0
281
     0
  0
CLASS
  1
MATERIAL
  2
AcDbMaterial
  3
ObjectDBX Classes
 90
     1153
 91
        4
280
     0
281
     0
  0
CLASS
  1
SUN
  2
AcDbSun
  3
SCENEOE
 90
     1024
 91
        4
280
     0
281
     0
  0
ENDSEC
  0
SECTION
  2
TABLES
  0
TABLE
  2
VPORT
  5
8
330
0
100
AcDbSymbolTable
 70
     1
  0
VPORT
  5
29
330
8
100
AcDbSymbolTableRecord
100
AcDbViewportTableRecord
  2
*Active
 70
     0
 10
0.0
 20
0.0
 11
1.0
 21
1.0
 12
0.0
 22
0.0
 13
0.0
 23
0.0
 14
0.5
 24
0.5
 15
0.5
 25
0.5
 16
0.0
 26
0.0
 36
1.0
 17
91.00082462281999
 27
-128.4993055234307
 37
0.0
 40
256.9986110468615
 41
0.7081814508812795
 42
50.0
 43
0.0
 44
0.0
 50
0.0
 51
0.0
 71
     0
 72
   100
 73
     1
 74
     3
 75
     0
 76
     0
 77
     0
 78
     0
281
     0
 65
     1
110
0.0
120
0.0
130
0.0
111
1.0
121
0.0
131
0.0
112
0.0
122
1.0
132
0.0
 79
     0
146
0.0
 60
     3
 61
     5
292
     1
282
     1
141
0.0
142
0.0
 63
   250
361
3F
  0
ENDTAB
  0
TABLE
  2
LTYPE
  5
5
330
0
100
AcDbSymbolTable
 70
     2
  0
LTYPE
  5
14
330
5
100
AcDbSymbolTableRecord
100
AcDbLinetypeTableRecord
  2
ByBlock
 70
     0
  3

 72
    65
 73
     0
 40
0.0
  0
LTYPE
  5
15
330
5
100
AcDbSymbolTableRecord
100
AcDbLinetypeTableRecord
  2
ByLayer
 70
     0
  3

 72
    65
 73
     0
 40
0.0
  0
LTYPE
  5
16
330
5
100
AcDbSymbolTableRecord
100
AcDbLinetypeTableRecord
  2
Continuous
 70
     0
  3
Solid line
 72
    65
 73
     0
 40
0.0
  0
LTYPE
  5
47
330
5
100
AcDbSymbolTableRecord
100
AcDbLinetypeTableRecord
  2
AI-Linetype-1
 70
     0
  3
Adobe Illustrator Linetype No. 1
 72
    65
 73
     2
 40
1.411111110758333
 49
0.7055555553791667
 74
     0
 49
-0.7055555553791667
 74
     0
  0
ENDTAB
  0
TABLE
  2
LAYER
  5
2
330
0
100
AcDbSymbolTable
 70
     2
  0
LAYER
  5
10
330
2
100
AcDbSymbolTableRecord
100
AcDbLayerTableRecord
  2
0
 70
     0
 62
     7
  6
Continuous
370
    -3
390
F
347
3E
  0
LAYER
  5
40
330
2
100
AcDbSymbolTableRecord
100
AcDbLayerTableRecord
  2
_U+30EC_U+30A4_U+30E4_U+30FC 1
 70
     0
 62
     7
  6
Continuous
370
    -3
390
F
347
3E
  0
ENDTAB
  0
TABLE
  2
STYLE
  5
3
330
0
100
AcDbSymbolTable
 70
     1
  0
STYLE
  5
11
330
3
100
AcDbSymbolTableRecord
100
AcDbTextStyleTableRecord
  2
Standard
 70
     0
 40
0.0
 41
1.0
 50
0.0
 71
     0
 42
0.2
  3
txt
  4

  0
ENDTAB
  0
TABLE
  2
VIEW
  5
6
330
0
100
AcDbSymbolTable
 70
     0
  0
ENDTAB
  0
TABLE
  2
UCS
  5
7
330
0
100
AcDbSymbolTable
 70
     0
  0
ENDTAB
  0
TABLE
  2
APPID
  5
9
330
0
100
AcDbSymbolTable
 70
     1
  0
APPID
  5
12
330
9
100
AcDbSymbolTableRecord
100
AcDbRegAppTableRecord
  2
ACAD
 70
     0
  0
ENDTAB
  0
TABLE
  2
DIMSTYLE
  5
A
330
0
100
AcDbSymbolTable
 70
     1
100
AcDbDimStyleTable
  0
DIMSTYLE
105
27
330
A
100
AcDbSymbolTableRecord
100
AcDbDimStyleTableRecord
  2
Standard
 70
     0
178
     0
340
11
  0
ENDTAB
  0
TABLE
  2
BLOCK_RECORD
  5
1
330
0
100
AcDbSymbolTable
 70
     6
  0
BLOCK_RECORD
  5
1F
330
1
100
AcDbSymbolTableRecord
100
AcDbBlockTableRecord
  2
*Model_Space
340
22
 70
     0
280
     1
281
     0
  0
BLOCK_RECORD
  5
1B
330
1
100
AcDbSymbolTableRecord
100
AcDbBlockTableRecord
  2
*Paper_Space
340
1E
 70
     0
280
     1
281
     0
  0
BLOCK_RECORD
  5
23
330
1
100
AcDbSymbolTableRecord
100
AcDbBlockTableRecord
  2
*Paper_Space0
340
26
 70
     0
280
     1
281
     0
  0
BLOCK_RECORD
  5
87
330
1
100
AcDbSymbolTableRecord
100
AcDbBlockTableRecord
  2
block 2
340
0
102
{BLKREFS
331
88
102
}
 70
     0
280
     1
281
     0
  0
BLOCK_RECORD
  5
9B
330
1
100
AcDbSymbolTableRecord
100
AcDbBlockTableRecord
  2
block 3
340
0
102
{BLKREFS
331
9C
102
}
 70
     0
280
     1
281
     0
  0
BLOCK_RECORD
  5
B7
330
1
100
AcDbSymbolTableRecord
100
AcDbBlockTableRecord
  2
block 4
340
0
102
{BLKREFS
331
B8
102
}
 70
     0
280
     1
281
     0
  0
BLOCK_RECORD
  5
D0
330
1
100
AcDbSymbolTableRecord
100
AcDbBlockTableRecord
  2
block 5
340
0
102
{BLKREFS
331
D1
102
}
 70
     0
280
     1
281
     0
  0
BLOCK_RECORD
  5
E5
330
1
100
AcDbSymbolTableRecord
100
AcDbBlockTableRecord
  2
block 6
340
0
102
{BLKREFS
331
E6
102
}
 70
     0
280
     1
281
     0
  0
ENDTAB
  0
ENDSEC
  0
SECTION
  2
BLOCKS
  0
BLOCK
  5
20
330
1F
100
AcDbEntity
  8
0
100
AcDbBlockBegin
  2
*Model_Space
 70
     0
 10
0.0
 20
0.0
 30
0.0
  3
*Model_Space
  1

  0
ENDBLK
  5
21
330
1F
100
AcDbEntity
  8
0
100
AcDbBlockEnd
  0
BLOCK
  5
1C
330
1B
100
AcDbEntity
 67
     1
  8
0
100
AcDbBlockBegin
  2
*Paper_Space
 70
     0
 10
0.0
 20
0.0
 30
0.0
  3
*Paper_Space
  1

  0
ENDBLK
  5
1D
330
1B
100
AcDbEntity
 67
     1
  8
0
100
AcDbBlockEnd
  0
BLOCK
  5
24
330
23
100
AcDbEntity
  8
0
100
AcDbBlockBegin
  2
*Paper_Space0
 70
     0
 10
0.0
 20
0.0
 30
0.0
  3
*Paper_Space0
  1

  0
ENDBLK
  5
25
330
23
100
AcDbEntity
  8
0
100
AcDbBlockEnd
  0
BLOCK
  5
89
330
87
100
AcDbEntity
  8
0
100
AcDbBlockBegin
  2
block 2
 70
     0
 10
0.0
 20
0.0
 30
0.0
  3
block 2
  1

  0
SPLINE
  5
8B
330
87
100
AcDbEntity
  8
_U+30EC_U+30A4_U+30E4_U+30FC 1
370
     0
100
AcDbSpline
210
0.0
220
0.0
230
1.0
 70
    11
 71
     3
 72
    26
 73
    22
 74
     0
 42
0.0000000001
 43
0.0000000001
 12
1.0
 22
0.0
 32
0.0
 13
1.0
 23
0.0
 33
0.0
 40
0.0
 40
0.0
 40
0.0
 40
0.0
 40
1.0
 40
1.0
 40
1.0
 40
2.0
 40
2.0
 40
2.0
 40
3.0
 40
3.0
 40
3.0
 40
4.0
 40
4.0
 40
4.0
 40
5.0
 40
5.0
 40
5.0
 40
6.0
 40
6.0
 40
6.0
 40
7.0
 40
7.0
 40
7.0
 40
7.0
 10
96.80649411642338
 20
-126.6148382929991
 30
0.0
 10
96.80649411642338
 20
-126.6148382929991
 30
0.0
 10
96.80649411642338
 20
-125.5106851899765
 30
0.0
 10
96.80649411642338
 20
-125.5106851899765
 30
0.0
 10
96.80649411642338
 20
-125.5106851899765
 30
0.0
 10
96.45406084828232
 20
-125.5106851899765
 30
0.0
 10
96.45406084828232
 20
-125.5106851899765
 30
0.0
 10
96.45406084828232
 20
-125.5106851899765
 30
0.0
 10
96.45406084828232
 20
-125.3625460841108
 30
0.0
 10
96.45406084828232
 20
-125.3625460841108
 30
0.0
 10
96.80890568326305
 20
-125.3477321735242
 30
0.0
 10
96.85851505825066
 20
-125.1847791570719
 30
0.0
 10
96.89020993671495
 20
-125.0704019869616
 30
0.0
 10
96.89020993671495
 20
-125.0704019869616
 30
0.0
 10
97.04627276219676
 20
-125.0704019869616
 30
0.0
 10
97.04627276219676
 20
-125.0704019869616
 30
0.0
 10
97.04627276219676
 20
-125.0704019869616
 30
0.0
 10
97.04627276219676
 20
-126.6148382929991
 30
0.0
 10
97.04627276219676
 20
-126.6148382929991
 30
0.0
 10
97.04627276219676
 20
-126.6148382929991
 30
0.0
 10
96.80649411642338
 20
-126.6148382929991
 30
0.0
 10
96.80649411642338
 20
-126.6148382929991
 30
0.0
  0
HATCH
  5
8C
330
87
100
AcDbEntity
  8
_U+30EC_U+30A4_U+30E4_U+30FC 1
 62
     7
420
 16777215
100
AcDbHatch
 10
0.0
 20
0.0
 30
0.0
210
0.0
220
0.0
230
1.0
  2
SOLID
 70
     1
 71
     0
 91
        1
 92
        1
 93
        1
 72
     4
 94
        3
 73
     0
 74
     1
 95
       26
 96
       22
 40
0.0
 40
0.0
 40
0.0
 40
0.0
 40
1.0
 40
1.0
 40
1.0
 40
2.0
 40
2.0
 40
2.0
 40
3.0
 40
3.0
 40
3.0
 40
4.0
 40
4.0
 40
4.0
 40
5.0
 40
5.0
 40
5.0
 40
6.0
 40
6.0
 40
6.0
 40
7.0
 40
7.0
 40
7.0
 40
7.0
 10
96.80649411642338
 20
-126.6148382929991
 10
96.80649411642338
 20
-126.6148382929991
 10
96.80649411642338
 20
-125.5106851899765
 10
96.80649411642338
 20
-125.5106851899765
 10
96.80649411642338
 20
-125.5106851899765
 10
96.45406084828232
 20
-125.5106851899765
 10
96.45406084828232
 20
-125.5106851899765
 10
96.45406084828232
 20
-125.5106851899765
 10
96.45406084828232
 20
-125.3625460841108
 10
96.45406084828232
 20
-125.3625460841108
 10
96.80890568326305
 20
-125.3477321735242
 10
96.85851505825066
 20
-125.1847791570719
 10
96.89020993671495
 20
-125.0704019869616
 10
96.89020993671495
 20
-125.0704019869616
 10
97.04627276219676
 20
-125.0704019869616
 10
97.04627276219676
 20
-125.0704019869616
 10
97.04627276219676
 20
-125.0704019869616
 10
97.04627276219676
 20
-126.6148382929991
 10
97.04627276219676
 20
-126.6148382929991
 10
97.04627276219676
 20
-126.6148382929991
 10
96.80649411642338
 20
-126.6148382929991
 10
96.80649411642338
 20
-126.6148382929991
 97
        0
 97
        0
 75
     2
 76
     1
 98
        0
  0
SPLINE
  5
8D
330
87
100
AcDbEntity
  8
_U+30EC_U+30A4_U+30E4_U+30FC 1
370
     0
100
AcDbSpline
210
0.0
220
0.0
230
1.0
 70
    11
 71
     3
 72
    53
 73
    49
 74
     0
 42
0.0000000001
 43
0.0000000001
 12
1.0
 22
0.0
 32
0.0
 13
1.0
 23
0.0
 33
0.0
 40
0.0
 40
0.0
 40
0.0
 40
0.0
 40
1.0
 40
1.0
 40
1.0
 40
2.0
 40
2.0
 40
2.0
 40
3.0
 40
3.0
 40
3.0
 40
4.0
 40
4.0
 40
4.0
 40
5.0
 40
5.0
 40
5.0
 40
6.0
 40
6.0
 40
6.0
 40
7.0
 40
7.0
 40
7.0
 40
8.0
 40
8.0
 40
8.0
 40
9.0
 40
9.0
 40
9.0
 40
10.0
 40
10.0
 40
10.0
 40
11.0
 40
11.0
 40
11.0
 40
12.0
 40
12.0
 40
12.0
 40
13.0
 40
13.0
 40
13.0
 40
14.0
 40
14.0
 40
14.0
 40
15.0
 40
15.0
 40
15.0
 40
16.0
 40
16.0
 40
16.0
 40
16.0
 10
98.0959933565524
 20
-126.6654811966322
 30
0.0
 10
98.01262204580935
 20
-126.6654811966322
 30
0.0
 10
97.90375702847545
 20
-126.6486002287545
 30
0.0
 10
97.79558103023861
 20
-126.5852104718259
 30
0.0
 10
97.60989038358365
 20
-126.4753119258465
 30
0.0
 10
97.58749726292952
 20
-126.3440537878584
 30
0.0
 10
97.56717119956654
 20
-126.2362222991701
 30
0.0
 10
97.56717119956654
 20
-126.2362222991701
 30
0.0
 10
97.80453827850026
 20
-126.2362222991701
 30
0.0
 10
97.80453827850026
 20
-126.2362222991701
 30
0.0
 10
97.86310490174951
 20
-126.435004308669
 30
0.0
 10
97.99884166386835
 20
-126.4646321298422
 30
0.0
 10
98.09840492339207
 20
-126.4646321298422
 30
0.0
 10
98.24757755790338
 20
-126.4646321298422
 30
0.0
 10
98.41018606480718
 20
-126.3650688703185
 30
0.0
 10
98.41018606480718
 20
-126.1325249250641
 30
0.0
 10
98.41018606480718
 20
-125.87655433051
 30
0.0
 10
98.21829424627876
 20
-125.8066188921595
 30
0.0
 10
98.08944767513042
 20
-125.8066188921595
 30
0.0
 10
98.05534122982645
 20
-125.8066188921595
 30
0.0
 10
97.90375702847545
 20
-125.8066188921595
 30
0.0
 10
97.80901690263109
 20
-125.9358099728563
 30
0.0
 10
97.80901690263109
 20
-125.9358099728563
 30
0.0
 10
97.62125919868497
 20
-125.9168619476875
 30
0.0
 10
97.62125919868497
 20
-125.9168619476875
 30
0.0
 10
97.62125919868497
 20
-125.9168619476875
 30
0.0
 10
97.75010576983331
 20
-125.0704019869616
 30
0.0
 10
97.75010576983331
 20
-125.0704019869616
 30
0.0
 10
97.75010576983331
 20
-125.0704019869616
 30
0.0
 10
98.58209632952115
 20
-125.0704019869616
 30
0.0
 10
98.58209632952115
 20
-125.0704019869616
 30
0.0
 10
98.58209632952115
 20
-125.0704019869616
 30
0.0
 10
98.58209632952115
 20
-125.2650498818782
 30
0.0
 10
98.58209632952115
 20
-125.2650498818782
 30
0.0
 10
98.58209632952115
 20
-125.2650498818782
 30
0.0
 10
97.92442760138695
 20
-125.2650498818782
 30
0.0
 10
97.92442760138695
 20
-125.2650498818782
 30
0.0
 10
97.92442760138695
 20
-125.2650498818782
 30
0.0
 10
97.85414765348786
 20
-125.6881076074669
 30
0.0
 10
97.85414765348786
 20
-125.6881076074669
 30
0.0
 10
97.9196044677076
 20
-125.6543456717114
 30
0.0
 10
98.00779891213
 20
-125.614038054534
 30
0.0
 10
98.13457842598719
 20
-125.614038054534
 30
0.0
 10
98.40570744067635
 20
-125.614038054534
 30
0.0
 10
98.65892195884221
 20
-125.800417720286
 30
0.0
 10
98.65892195884221
 20
-126.1135768998952
 30
0.0
 10
98.65892195884221
 20
-126.4308701940867
 30
0.0
 10
98.41948782261736
 20
-126.6654811966322
 30
0.0
 10
98.0959933565524
 20
-126.6654811966322
 30
0.0
  0
HATCH
  5
8E
330
87
100
AcDbEntity
  8
_U+30EC_U+30A4_U+30E4_U+30FC 1
 62
     7
420
 16777215
100
AcDbHatch
 10
0.0
 20
0.0
 30
0.0
210
0.0
220
0.0
230
1.0
  2
SOLID
 70
     1
 71
     0
 91
        1
 92
        1
 93
        1
 72
     4
 94
        3
 73
     0
 74
     1
 95
       53
 96
       49
 40
0.0
 40
0.0
 40
0.0
 40
0.0
 40
1.0
 40
1.0
 40
1.0
 40
2.0
 40
2.0
 40
2.0
 40
3.0
 40
3.0
 40
3.0
 40
4.0
 40
4.0
 40
4.0
 40
5.0
 40
5.0
 40
5.0
 40
6.0
 40
6.0
 40
6.0
 40
7.0
 40
7.0
 40
7.0
 40
8.0
 40
8.0
 40
8.0
 40
9.0
 40
9.0
 40
9.0
 40
10.0
 40
10.0
 40
10.0
 40
11.0
 40
11.0
 40
11.0
 40
12.0
 40
12.0
 40
12.0
 40
13.0
 40
13.0
 40
13.0
 40
14.0
 40
14.0
 40
14.0
 40
15.0
 40
15.0
 40
15.0
 40
16.0
 40
16.0
 40
16.0
 40
16.0
 10
98.0959933565524
 20
-126.6654811966322
 10
98.01262204580935
 20
-126.6654811966322
 10
97.90375702847545
 20
-126.6486002287545
 10
97.79558103023861
 20
-126.5852104718259
 10
97.60989038358365
 20
-126.4753119258465
 10
97.58749726292952
 20
-126.3440537878584
 10
97.56717119956654
 20
-126.2362222991701
 10
97.56717119956654
 20
-126.2362222991701
 10
97.80453827850026
 20
-126.2362222991701
 10
97.80453827850026
 20
-126.2362222991701
 10
97.86310490174951
 20
-126.435004308669
 10
97.99884166386835
 20
-126.4646321298422
 10
98.09840492339207
 20
-126.4646321298422
 10
98.24757755790338
 20
-126.4646321298422
 10
98.41018606480718
 20
-126.3650688703185
 10
98.41018606480718
 20
-126.1325249250641
 10
98.41018606480718
 20
-125.87655433051
 10
98.21829424627876
 20
-125.8066188921595
 10
98.08944767513042
 20
-125.8066188921595
 10
98.05534122982645
 20
-125.8066188921595
 10
97.90375702847545
 20
-125.8066188921595
 10
97.80901690263109
 20
-125.9358099728563
 10
97.80901690263109
 20
-125.9358099728563
 10
97.62125919868497
 20
-125.9168619476875
 10
97.62125919868497
 20
-125.9168619476875
 10
97.62125919868497
 20
-125.9168619476875
 10
97.75010576983331
 20
-125.0704019869616
 10
97.75010576983331
 20
-125.0704019869616
 10
97.75010576983331
 20
-125.0704019869616
 10
98.58209632952115
 20
-125.0704019869616
 10
98.58209632952115
 20
-125.0704019869616
 10
98.58209632952115
 20
-125.0704019869616
 10
98.58209632952115
 20
-125.2650498818782
 10
98.58209632952115
 20
-125.2650498818782
 10
98.58209632952115
 20
-125.2650498818782
 10
97.92442760138695
 20
-125.2650498818782
 10
97.92442760138695
 20
-125.2650498818782
 10
97.92442760138695
 20
-125.2650498818782
 10
97.85414765348786
 20
-125.6881076074669
 10
97.85414765348786
 20
-125.6881076074669
 10
97.9196044677076
 20
-125.6543456717114
 10
98.00779891213
 20
-125.614038054534
 10
98.13457842598719
 20
-125.614038054534
 10
98.40570744067635
 20
-125.614038054534
 10
98.65892195884221
 20
-125.800417720286
 10
98.65892195884221
 20
-126.1135768998952
 10
98.65892195884221
 20
-126.4308701940867
 10
98.41948782261736
 20
-126.6654811966322
 10
98.0959933565524
 20
-126.6654811966322
 97
        0
 97
        0
 75
     2
 76
     1
 98
        0
  0
ENDBLK
  5
8A
330
87
100
AcDbEntity
  8
0
100
AcDbBlockEnd
  0
BLOCK
  5
9D
330
9B
100
AcDbEntity
  8
0
100
AcDbBlockBegin
  2
block 3
 70
     0
 10
0.0
 20
0.0
 30
0.0
  3
block 3
  1

  0
SPLINE
  5
9F
330
9B
100
AcDbEntity
  8
_U+30EC_U+30A4_U+30E4_U+30FC 1
370
     0
100
AcDbSpline
210
0.0
220
0.0
230
1.0
 70
    11
 71
     3
 72
    62
 73
    58
 74
     0
 42
0.0000000001
 43
0.0000000001
 12
1.0
 22
0.0
 32
0.0
 13
1.0
 23
0.0
 33
0.0
 40
0.0
 40
0.0
 40
0.0
 40
0.0
 40
1.0
 40
1.0
 40
1.0
 40
2.0
 40
2.0
 40
2.0
 40
3.0
 40
3.0
 40
3.0
 40
4.0
 40
4.0
 40
4.0
 40
5.0
 40
5.0
 40
5.0
 40
6.0
 40
6.0
 40
6.0
 40
7.0
 40
7.0
 40
7.0
 40
8.0
 40
8.0
 40
8.0
 40
9.0
 40
9.0
 40
9.0
 40
10.0
 40
10.0
 40
10.0
 40
11.0
 40
11.0
 40
11.0
 40
12.0
 40
12.0
 40
12.0
 40
13.0
 40
13.0
 40
13.0
 40
14.0
 40
14.0
 40
14.0
 40
15.0
 40
15.0
 40
15.0
 40
16.0
 40
16.0
 40
16.0
 40
17.0
 40
17.0
 40
17.0
 40
18.0
 40
18.0
 40
18.0
 40
19.0
 40
19.0
 40
19.0
 40
19.0
 10
86.49515107429636
 20
-122.6650363191601
 30
0.0
 10
86.39317624793296
 20
-122.6650363191601
 30
0.0
 10
86.16028779313007
 20
-122.6440212367001
 30
0.0
 10
86.0269625978509
 20
-122.4579860804966
 30
0.0
 10
85.94806991123868
 20
-122.3456759676775
 30
0.0
 10
85.94324677755934
 20
-122.2464572177023
 30
0.0
 10
85.93876815342851
 20
-122.1617078687651
 30
0.0
 10
85.93876815342851
 20
-122.1617078687651
 30
0.0
 10
86.17406817507107
 20
-122.1617078687651
 30
0.0
 10
86.17406817507107
 20
-122.1617078687651
 30
0.0
 10
86.17613523236221
 20
-122.235777421698
 30
0.0
 10
86.18750404746355
 20
-122.4703884242435
 30
0.0
 10
86.49032794061701
 20
-122.4703884242435
 30
0.0
 10
86.63743351783717
 20
-122.4703884242435
 30
0.0
 10
86.80038653428949
 20
-122.4007974954415
 30
0.0
 10
86.80038653428949
 20
-122.1723876647694
 30
0.0
 10
86.80038653428949
 20
-122.055943437368
 30
0.0
 10
86.75938989801502
 20
-122.0073675910259
 30
0.0
 10
86.72562796225957
 20
-121.9756727125616
 30
0.0
 10
86.64639076609882
 20
-121.9016031596288
 30
0.0
 10
86.5220228190813
 20
-121.8888563063334
 30
0.0
 10
86.46345619583205
 20
-121.8888563063334
 30
0.0
 10
86.44313013246908
 20
-121.8888563063334
 30
0.0
 10
86.40454506303429
 20
-121.8909233636245
 30
0.0
 10
86.37526175140967
 20
-121.8950574782068
 30
0.0
 10
86.37526175140967
 20
-121.8950574782068
 30
0.0
 10
86.37526175140967
 20
-121.7004095832902
 30
0.0
 10
86.37526175140967
 20
-121.7004095832902
 30
0.0
 10
86.41591387813561
 20
-121.7069552647121
 30
0.0
 10
86.46104462899238
 20
-121.7090223220033
 30
0.0
 10
86.46793481996288
 20
-121.7090223220033
 30
0.0
 10
86.53787025831345
 20
-121.7090223220033
 30
0.0
 10
86.75043264975336
 20
-121.6876627299948
 30
0.0
 10
86.75043264975336
 20
-121.4509846701581
 30
0.0
 10
86.75043264975336
 20
-121.2732177431192
 30
0.0
 10
86.6102172635037
 20
-121.2180962153552
 30
0.0
 10
86.49273950745668
 20
-121.2180962153552
 30
0.0
 10
86.21024167766619
 20
-121.2180962153552
 30
0.0
 10
86.20093991985603
 20
-121.4509846701581
 30
0.0
 10
86.1964612957252
 20
-121.5226426562513
 30
0.0
 10
86.1964612957252
 20
-121.5226426562513
 30
0.0
 10
85.97942028015446
 20
-121.5226426562513
 30
0.0
 10
85.97942028015446
 20
-121.5226426562513
 30
0.0
 10
85.98872203796464
 20
-121.3979301996852
 30
0.0
 10
86.01800534958926
 20
-121.0213812631474
 30
0.0
 10
86.50617537984915
 20
-121.0213812631474
 30
0.0
 10
86.74595402562254
 20
-121.0213812631474
 30
0.0
 10
87.00364716791923
 20
-121.1485052865532
 30
0.0
 10
87.00364716791923
 20
-121.4444389887361
 30
0.0
 10
87.00364716791923
 20
-121.6308186544881
 30
0.0
 10
86.90201685110436
 20
-121.7131564365856
 30
0.0
 10
86.79556340061013
 20
-121.7744791362231
 30
0.0
 10
86.86136472437842
 20
-121.8020399001051
 30
0.0
 10
87.0556681097465
 20
-121.8823106249114
 30
0.0
 10
87.0556681097465
 20
-122.159640811474
 30
0.0
 10
87.0556681097465
 20
-122.4979491881255
 30
0.0
 10
86.79108477647932
 20
-122.6650363191601
 30
0.0
 10
86.49515107429636
 20
-122.6650363191601
 30
0.0
  0
HATCH
  5
A0
330
9B
100
AcDbEntity
  8
_U+30EC_U+30A4_U+30E4_U+30FC 1
 62
     7
420
 16777215
100
AcDbHatch
 10
0.0
 20
0.0
 30
0.0
210
0.0
220
0.0
230
1.0
  2
SOLID
 70
     1
 71
     0
 91
        1
 92
        1
 93
        1
 72
     4
 94
        3
 73
     0
 74
     1
 95
       62
 96
       58
 40
0.0
 40
0.0
 40
0.0
 40
0.0
 40
1.0
 40
1.0
 40
1.0
 40
2.0
 40
2.0
 40
2.0
 40
3.0
 40
3.0
 40
3.0
 40
4.0
 40
4.0
 40
4.0
 40
5.0
 40
5.0
 40
5.0
 40
6.0
 40
6.0
 40
6.0
 40
7.0
 40
7.0
 40
7.0
 40
8.0
 40
8.0
 40
8.0
 40
9.0
 40
9.0
 40
9.0
 40
10.0
 40
10.0
 40
10.0
 40
11.0
 40
11.0
 40
11.0
 40
12.0
 40
12.0
 40
12.0
 40
13.0
 40
13.0
 40
13.0
 40
14.0
 40
14.0
 40
14.0
 40
15.0
 40
15.0
 40
15.0
 40
16.0
 40
16.0
 40
16.0
 40
17.0
 40
17.0
 40
17.0
 40
18.0
 40
18.0
 40
18.0
 40
19.0
 40
19.0
 40
19.0
 40
19.0
 10
86.49515107429636
 20
-122.6650363191601
 10
86.39317624793296
 20
-122.6650363191601
 10
86.16028779313007
 20
-122.6440212367001
 10
86.0269625978509
 20
-122.4579860804966
 10
85.94806991123868
 20
-122.3456759676775
 10
85.94324677755934
 20
-122.2464572177023
 10
85.93876815342851
 20
-122.1617078687651
 10
85.93876815342851
 20
-122.1617078687651
 10
86.17406817507107
 20
-122.1617078687651
 10
86.17406817507107
 20
-122.1617078687651
 10
86.17613523236221
 20
-122.235777421698
 10
86.18750404746355
 20
-122.4703884242435
 10
86.49032794061701
 20
-122.4703884242435
 10
86.63743351783717
 20
-122.4703884242435
 10
86.80038653428949
 20
-122.4007974954415
 10
86.80038653428949
 20
-122.1723876647694
 10
86.80038653428949
 20
-122.055943437368
 10
86.75938989801502
 20
-122.0073675910259
 10
86.72562796225957
 20
-121.9756727125616
 10
86.64639076609882
 20
-121.9016031596288
 10
86.5220228190813
 20
-121.8888563063334
 10
86.46345619583205
 20
-121.8888563063334
 10
86.44313013246908
 20
-121.8888563063334
 10
86.40454506303429
 20
-121.8909233636245
 10
86.37526175140967
 20
-121.8950574782068
 10
86.37526175140967
 20
-121.8950574782068
 10
86.37526175140967
 20
-121.7004095832902
 10
86.37526175140967
 20
-121.7004095832902
 10
86.41591387813561
 20
-121.7069552647121
 10
86.46104462899238
 20
-121.7090223220033
 10
86.46793481996288
 20
-121.7090223220033
 10
86.53787025831345
 20
-121.7090223220033
 10
86.75043264975336
 20
-121.6876627299948
 10
86.75043264975336
 20
-121.4509846701581
 10
86.75043264975336
 20
-121.2732177431192
 10
86.6102172635037
 20
-121.2180962153552
 10
86.49273950745668
 20
-121.2180962153552
 10
86.21024167766619
 20
-121.2180962153552
 10
86.20093991985603
 20
-121.4509846701581
 10
86.1964612957252
 20
-121.5226426562513
 10
86.1964612957252
 20
-121.5226426562513
 10
85.97942028015446
 20
-121.5226426562513
 10
85.97942028015446
 20
-121.5226426562513
 10
85.98872203796464
 20
-121.3979301996852
 10
86.01800534958926
 20
-121.0213812631474
 10
86.50617537984915
 20
-121.0213812631474
 10
86.74595402562254
 20
-121.0213812631474
 10
87.00364716791923
 20
-121.1485052865532
 10
87.00364716791923
 20
-121.4444389887361
 10
87.00364716791923
 20
-121.6308186544881
 10
86.90201685110436
 20
-121.7131564365856
 10
86.79556340061013
 20
-121.7744791362231
 10
86.86136472437842
 20
-121.8020399001051
 10
87.0556681097465
 20
-121.8823106249114
 10
87.0556681097465
 20
-122.159640811474
 10
87.0556681097465
 20
-122.4979491881255
 10
86.79108477647932
 20
-122.6650363191601
 10
86.49515107429636
 20
-122.6650363191601
 97
        0
 97
        0
 75
     2
 76
     1
 98
        0
  0
POLYLINE
  5
A1
330
9B
100
AcDbEntity
  8
_U+30EC_U+30A4_U+30E4_U+30FC 1
370
     0
100
AcDb2dPolyline
 66
     1
 10
0.0
 20
0.0
 30
0.0
  0
VERTEX
  5
A2
330
A1
100
AcDbEntity
  8
_U+30EC_U+30A4_U+30E4_U+30FC 1
370
     0
100
AcDbVertex
100
AcDb2dVertex
 10
87.29165715048612
 20
-122.614393415527
 30
0.0
  0
VERTEX
  5
A3
330
A1
100
AcDbEntity
  8
_U+30EC_U+30A4_U+30E4_U+30FC 1
370
     0
100
AcDbVertex
100
AcDb2dVertex
 10
87.29165715048612
 20
-122.3625569355552
 30
0.0
  0
VERTEX
  5
A4
330
A1
100
AcDbEntity
  8
_U+30EC_U+30A4_U+30E4_U+30FC 1
370
     0
100
AcDbVertex
100
AcDb2dVertex
 10
87.56071910788413
 20
-122.3625569355552
 30
0.0
  0
VERTEX
  5
A5
330
A1
100
AcDbEntity
  8
_U+30EC_U+30A4_U+30E4_U+30FC 1
370
     0
100
AcDbVertex
100
AcDb2dVertex
 10
87.56071910788413
 20
-122.614393415527
 30
0.0
  0
VERTEX
  5
A6
330
A1
100
AcDbEntity
  8
_U+30EC_U+30A4_U+30E4_U+30FC 1
370
     0
100
AcDbVertex
100
AcDb2dVertex
 10
87.29165715048612
 20
-122.614393415527
 30
0.0
  0
SEQEND
  5
A7
330
A1
100
AcDbEntity
  8
_U+30EC_U+30A4_U+30E4_U+30FC 1
370
     0
  0
HATCH
  5
A8
330
9B
100
AcDbEntity
  8
_U+30EC_U+30A4_U+30E4_U+30FC 1
 62
     7
420
 16777215
100
AcDbHatch
 10
0.0
 20
0.0
 30
0.0
210
0.0
220
0.0
230
1.0
  2
SOLID
 70
     1
 71
     0
 91
        1
 92
        1
 93
        4
 72
     1
 10
87.29165715048612
 20
-122.614393415527
 11
87.29165715048612
 21
-122.3625569355552
 72
     1
 10
87.29165715048612
 20
-122.3625569355552
 11
87.56071910788413
 21
-122.3625569355552
 72
     1
 10
87.56071910788413
 20
-122.3625569355552
 11
87.56071910788413
 21
-122.614393415527
 72
     1
 10
87.56071910788413
 20
-122.614393415527
 11
87.29165715048612
 21
-122.614393415527
 97
        0
 75
     2
 76
     1
 98
        0
  0
SPLINE
  5
A9
330
9B
100
AcDbEntity
  8
_U+30EC_U+30A4_U+30E4_U+30FC 1
370
     0
100
AcDbSpline
210
0.0
220
0.0
230
1.0
 70
    11
 71
     3
 72
    53
 73
    49
 74
     0
 42
0.0000000001
 43
0.0000000001
 12
1.0
 22
0.0
 32
0.0
 13
1.0
 23
0.0
 33
0.0
 40
0.0
 40
0.0
 40
0.0
 40
0.0
 40
1.0
 40
1.0
 40
1.0
 40
2.0
 40
2.0
 40
2.0
 40
3.0
 40
3.0
 40
3.0
 40
4.0
 40
4.0
 40
4.0
 40
5.0
 40
5.0
 40
5.0
 40
6.0
 40
6.0
 40
6.0
 40
7.0
 40
7.0
 40
7.0
 40
8.0
 40
8.0
 40
8.0
 40
9.0
 40
9.0
 40
9.0
 40
10.0
 40
10.0
 40
10.0
 40
11.0
 40
11.0
 40
11.0
 40
12.0
 40
12.0
 40
12.0
 40
13.0
 40
13.0
 40
13.0
 40
14.0
 40
14.0
 40
14.0
 40
15.0
 40
15.0
 40
15.0
 40
16.0
 40
16.0
 40
16.0
 40
16.0
 10
88.32725285335222
 20
-122.6650363191601
 30
0.0
 10
88.24388154260917
 20
-122.6650363191601
 30
0.0
 10
88.13501652527528
 20
-122.6481553512824
 30
0.0
 10
88.02684052703843
 20
-122.5847655943538
 30
0.0
 10
87.84114988038347
 20
-122.4748670483743
 30
0.0
 10
87.81875675972934
 20
-122.3436089103863
 30
0.0
 10
87.79843069636637
 20
-122.235777421698
 30
0.0
 10
87.79843069636637
 20
-122.235777421698
 30
0.0
 10
88.03579777530008
 20
-122.235777421698
 30
0.0
 10
88.03579777530008
 20
-122.235777421698
 30
0.0
 10
88.09436439854933
 20
-122.4345594311969
 30
0.0
 10
88.23010116066817
 20
-122.4641872523701
 30
0.0
 10
88.32966442019189
 20
-122.4641872523701
 30
0.0
 10
88.4788370547032
 20
-122.4641872523701
 30
0.0
 10
88.641445561607
 20
-122.3646239928463
 30
0.0
 10
88.641445561607
 20
-122.132080047592
 30
0.0
 10
88.641445561607
 20
-121.8761094530379
 30
0.0
 10
88.44955374307858
 20
-121.8061740146874
 30
0.0
 10
88.32070717193024
 20
-121.8061740146874
 30
0.0
 10
88.28660072662628
 20
-121.8061740146874
 30
0.0
 10
88.13501652527528
 20
-121.8061740146874
 30
0.0
 10
88.04027639943091
 20
-121.9353650953842
 30
0.0
 10
88.04027639943091
 20
-121.9353650953842
 30
0.0
 10
87.85251869548479
 20
-121.9164170702153
 30
0.0
 10
87.85251869548479
 20
-121.9164170702153
 30
0.0
 10
87.85251869548479
 20
-121.9164170702153
 30
0.0
 10
87.98136526663313
 20
-121.0699571094895
 30
0.0
 10
87.98136526663313
 20
-121.0699571094895
 30
0.0
 10
87.98136526663313
 20
-121.0699571094895
 30
0.0
 10
88.81335582632097
 20
-121.0699571094895
 30
0.0
 10
88.81335582632097
 20
-121.0699571094895
 30
0.0
 10
88.81335582632097
 20
-121.0699571094895
 30
0.0
 10
88.81335582632097
 20
-121.2646050044061
 30
0.0
 10
88.81335582632097
 20
-121.2646050044061
 30
0.0
 10
88.81335582632097
 20
-121.2646050044061
 30
0.0
 10
88.15568709818677
 20
-121.2646050044061
 30
0.0
 10
88.15568709818677
 20
-121.2646050044061
 30
0.0
 10
88.15568709818677
 20
-121.2646050044061
 30
0.0
 10
88.08540715028768
 20
-121.6876627299948
 30
0.0
 10
88.08540715028768
 20
-121.6876627299948
 30
0.0
 10
88.15086396450742
 20
-121.6539007942393
 30
0.0
 10
88.23905840892982
 20
-121.6135931770619
 30
0.0
 10
88.36583792278702
 20
-121.6135931770619
 30
0.0
 10
88.63696693747617
 20
-121.6135931770619
 30
0.0
 10
88.89018145564204
 20
-121.7999728428139
 30
0.0
 10
88.89018145564204
 20
-122.1131320224231
 30
0.0
 10
88.89018145564204
 20
-122.4304253166146
 30
0.0
 10
88.65074731941718
 20
-122.6650363191601
 30
0.0
 10
88.32725285335222
 20
-122.6650363191601
 30
0.0
  0
HATCH
  5
AA
330
9B
100
AcDbEntity
  8
_U+30EC_U+30A4_U+30E4_U+30FC 1
 62
     7
420
 16777215
100
AcDbHatch
 10
0.0
 20
0.0
 30
0.0
210
0.0
220
0.0
230
1.0
  2
SOLID
 70
     1
 71
     0
 91
        1
 92
        1
 93
        1
 72
     4
 94
        3
 73
     0
 74
     1
 95
       53
 96
       49
 40
0.0
 40
0.0
 40
0.0
 40
0.0
 40
1.0
 40
1.0
 40
1.0
 40
2.0
 40
2.0
 40
2.0
 40
3.0
 40
3.0
 40
3.0
 40
4.0
 40
4.0
 40
4.0
 40
5.0
 40
5.0
 40
5.0
 40
6.0
 40
6.0
 40
6.0
 40
7.0
 40
7.0
 40
7.0
 40
8.0
 40
8.0
 40
8.0
 40
9.0
 40
9.0
 40
9.0
 40
10.0
 40
10.0
 40
10.0
 40
11.0
 40
11.0
 40
11.0
 40
12.0
 40
12.0
 40
12.0
 40
13.0
 40
13.0
 40
13.0
 40
14.0
 40
14.0
 40
14.0
 40
15.0
 40
15.0
 40
15.0
 40
16.0
 40
16.0
 40
16.0
 40
16.0
 10
88.32725285335222
 20
-122.6650363191601
 10
88.24388154260917
 20
-122.6650363191601
 10
88.13501652527528
 20
-122.6481553512824
 10
88.02684052703843
 20
-122.5847655943538
 10
87.84114988038347
 20
-122.4748670483743
 10
87.81875675972934
 20
-122.3436089103863
 10
87.79843069636637
 20
-122.235777421698
 10
87.79843069636637
 20
-122.235777421698
 10
88.03579777530008
 20
-122.235777421698
 10
88.03579777530008
 20
-122.235777421698
 10
88.09436439854933
 20
-122.4345594311969
 10
88.23010116066817
 20
-122.4641872523701
 10
88.32966442019189
 20
-122.4641872523701
 10
88.4788370547032
 20
-122.4641872523701
 10
88.641445561607
 20
-122.3646239928463
 10
88.641445561607
 20
-122.132080047592
 10
88.641445561607
 20
-121.8761094530379
 10
88.44955374307858
 20
-121.8061740146874
 10
88.32070717193024
 20
-121.8061740146874
 10
88.28660072662628
 20
-121.8061740146874
 10
88.13501652527528
 20
-121.8061740146874
 10
88.04027639943091
 20
-121.9353650953842
 10
88.04027639943091
 20
-121.9353650953842
 10
87.85251869548479
 20
-121.9164170702153
 10
87.85251869548479
 20
-121.9164170702153
 10
87.85251869548479
 20
-121.9164170702153
 10
87.98136526663313
 20
-121.0699571094895
 10
87.98136526663313
 20
-121.0699571094895
 10
87.98136526663313
 20
-121.0699571094895
 10
88.81335582632097
 20
-121.0699571094895
 10
88.81335582632097
 20
-121.0699571094895
 10
88.81335582632097
 20
-121.0699571094895
 10
88.81335582632097
 20
-121.2646050044061
 10
88.81335582632097
 20
-121.2646050044061
 10
88.81335582632097
 20
-121.2646050044061
 10
88.15568709818677
 20
-121.2646050044061
 10
88.15568709818677
 20
-121.2646050044061
 10
88.15568709818677
 20
-121.2646050044061
 10
88.08540715028768
 20
-121.6876627299948
 10
88.08540715028768
 20
-121.6876627299948
 10
88.15086396450742
 20
-121.6539007942393
 10
88.23905840892982
 20
-121.6135931770619
 10
88.36583792278702
 20
-121.6135931770619
 10
88.63696693747617
 20
-121.6135931770619
 10
88.89018145564204
 20
-121.7999728428139
 10
88.89018145564204
 20
-122.1131320224231
 10
88.89018145564204
 20
-122.4304253166146
 10
88.65074731941718
 20
-122.6650363191601
 10
88.32725285335222
 20
-122.6650363191601
 97
        0
 97
        0
 75
     2
 76
     1
 98
        0
  0
ENDBLK
  5
9E
330
9B
100
AcDbEntity
  8
0
100
AcDbBlockEnd
  0
BLOCK
  5
B9
330
B7
100
AcDbEntity
  8
0
100
AcDbBlockBegin
  2
block 4
 70
     0
 10
0.0
 20
0.0
 30
0.0
  3
block 4
  1

  0
SPLINE
  5
BB
330
B7
100
AcDbEntity
  8
_U+30EC_U+30A4_U+30E4_U+30FC 1
370
     0
100
AcDbSpline
210
0.0
220
0.0
230
1.0
 70
    11
 71
     3
 72
    32
 73
    28
 74
     0
 42
0.0000000001
 43
0.0000000001
 12
1.0
 22
0.0
 32
0.0
 13
1.0
 23
0.0
 33
0.0
 40
0.0
 40
0.0
 40
0.0
 40
0.0
 40
1.0
 40
1.0
 40
1.0
 40
2.0
 40
2.0
 40
2.0
 40
3.0
 40
3.0
 40
3.0
 40
4.0
 40
4.0
 40
4.0
 40
5.0
 40
5.0
 40
5.0
 40
6.0
 40
6.0
 40
6.0
 40
7.0
 40
7.0
 40
7.0
 40
8.0
 40
8.0
 40
8.0
 40
9.0
 40
9.0
 40
9.0
 40
9.0
 10
79.9368950538005
 20
-132.7805256829507
 30
0.0
 10
79.9368950538005
 20
-132.9658718200571
 30
0.0
 10
79.86695961544993
 20
-133.2280435864847
 30
0.0
 10
79.53485241067185
 20
-133.2686957132106
 30
0.0
 10
79.53485241067185
 20
-133.2686957132106
 30
0.0
 10
79.53485241067185
 20
-133.0406303920871
 30
0.0
 10
79.53485241067185
 20
-133.0406303920871
 30
0.0
 10
79.59410805301815
 20
-133.0292615769857
 30
0.0
 10
79.74224715888388
 20
-132.9951551316818
 30
0.0
 10
79.74224715888388
 20
-132.778114116111
 30
0.0
 10
79.74224715888388
 20
-132.4663329746959
 30
0.0
 10
79.41220701139696
 20
-132.42568084797
 30
0.0
 10
79.20705157525032
 20
-132.411900466029
 30
0.0
 10
79.28732230005664
 20
-132.509052158713
 30
0.0
 10
79.34451088511179
 20
-132.5813991639033
 30
0.0
 10
79.34451088511179
 20
-132.7760470588199
 30
0.0
 10
79.34451088511179
 20
-132.9682833868968
 30
0.0
 10
79.23874645371463
 20
-133.2914333434132
 30
0.0
 10
78.83256969600367
 20
-133.2914333434132
 30
0.0
 10
78.51303708974675
 20
-133.2914333434132
 30
0.0
 10
78.29306774301354
 20
-133.0788709519734
 30
0.0
 10
78.29306774301354
 20
-132.7398735562248
 30
0.0
 10
78.29306774301354
 20
-132.1903808263274
 30
0.0
 10
78.84738360659024
 20
-132.1790120112261
 30
0.0
 10
79.06097952667574
 20
-132.1790120112261
 30
0.0
 10
79.29162866941321
 20
-132.1790120112261
 30
0.0
 10
79.9368950538005
 20
-132.1993380745891
 30
0.0
 10
79.9368950538005
 20
-132.7805256829507
 30
0.0
  0
SPLINE
  5
BC
330
B7
100
AcDbEntity
  8
_U+30EC_U+30A4_U+30E4_U+30FC 1
370
     0
100
AcDbSpline
210
0.0
220
0.0
230
1.0
 70
    11
 71
     3
 72
    17
 73
    13
 74
     0
 42
0.0000000001
 43
0.0000000001
 12
1.0
 22
0.0
 32
0.0
 13
1.0
 23
0.0
 33
0.0
 40
0.0
 40
0.0
 40
0.0
 40
0.0
 40
1.0
 40
1.0
 40
1.0
 40
2.0
 40
2.0
 40
2.0
 40
3.0
 40
3.0
 40
3.0
 40
4.0
 40
4.0
 40
4.0
 40
4.0
 10
78.48564858063901
 20
-132.7374619893851
 30
0.0
 10
78.48564858063901
 20
-132.8642415032423
 30
0.0
 10
78.5426649109199
 20
-133.0516546976399
 30
0.0
 10
78.8282633266471
 20
-133.0516546976399
 30
0.0
 10
79.05460610002802
 20
-133.0516546976399
 30
0.0
 10
79.14986299019517
 20
-132.9024820631286
 30
0.0
 10
79.14986299019517
 20
-132.7577880527481
 30
0.0
 10
79.14986299019517
 20
-132.4777017897972
 30
0.0
 10
78.94040118469199
 20
-132.4367051535228
 30
0.0
 10
78.8241292120648
 20
-132.4367051535228
 30
0.0
 10
78.64842934231706
 20
-132.4367051535228
 30
0.0
 10
78.48564858063901
 20
-132.5386799798862
 30
0.0
 10
78.48564858063901
 20
-132.7374619893851
 30
0.0
  0
HATCH
  5
BD
330
B7
100
AcDbEntity
  8
_U+30EC_U+30A4_U+30E4_U+30FC 1
 62
     7
420
 16777215
100
AcDbHatch
 10
0.0
 20
0.0
 30
0.0
210
0.0
220
0.0
230
1.0
  2
SOLID
 70
     1
 71
     0
 91
        2
 92
        1
 93
        1
 72
     4
 94
        3
 73
     0
 74
     1
 95
       32
 96
       28
 40
0.0
 40
0.0
 40
0.0
 40
0.0
 40
1.0
 40
1.0
 40
1.0
 40
2.0
 40
2.0
 40
2.0
 40
3.0
 40
3.0
 40
3.0
 40
4.0
 40
4.0
 40
4.0
 40
5.0
 40
5.0
 40
5.0
 40
6.0
 40
6.0
 40
6.0
 40
7.0
 40
7.0
 40
7.0
 40
8.0
 40
8.0
 40
8.0
 40
9.0
 40
9.0
 40
9.0
 40
9.0
 10
79.9368950538005
 20
-132.7805256829507
 10
79.9368950538005
 20
-132.9658718200571
 10
79.86695961544993
 20
-133.2280435864847
 10
79.53485241067185
 20
-133.2686957132106
 10
79.53485241067185
 20
-133.2686957132106
 10
79.53485241067185
 20
-133.0406303920871
 10
79.53485241067185
 20
-133.0406303920871
 10
79.59410805301815
 20
-133.0292615769857
 10
79.74224715888388
 20
-132.9951551316818
 10
79.74224715888388
 20
-132.778114116111
 10
79.74224715888388
 20
-132.4663329746959
 10
79.41220701139696
 20
-132.42568084797
 10
79.20705157525032
 20
-132.411900466029
 10
79.28732230005664
 20
-132.509052158713
 10
79.34451088511179
 20
-132.5813991639033
 10
79.34451088511179
 20
-132.7760470588199
 10
79.34451088511179
 20
-132.9682833868968
 10
79.23874645371463
 20
-133.2914333434132
 10
78.83256969600367
 20
-133.2914333434132
 10
78.51303708974675
 20
-133.2914333434132
 10
78.29306774301354
 20
-133.0788709519734
 10
78.29306774301354
 20
-132.7398735562248
 10
78.29306774301354
 20
-132.1903808263274
 10
78.84738360659024
 20
-132.1790120112261
 10
79.06097952667574
 20
-132.1790120112261
 10
79.29162866941321
 20
-132.1790120112261
 10
79.9368950538005
 20
-132.1993380745891
 10
79.9368950538005
 20
-132.7805256829507
 97
        0
 97
        0
 92
        1
 93
        1
 72
     4
 94
        3
 73
     0
 74
     1
 95
       17
 96
       13
 40
0.0
 40
0.0
 40
0.0
 40
0.0
 40
1.0
 40
1.0
 40
1.0
 40
2.0
 40
2.0
 40
2.0
 40
3.0
 40
3.0
 40
3.0
 40
4.0
 40
4.0
 40
4.0
 40
4.0
 10
78.48564858063901
 20
-132.7374619893851
 10
78.48564858063901
 20
-132.8642415032423
 10
78.5426649109199
 20
-133.0516546976399
 10
78.8282633266471
 20
-133.0516546976399
 10
79.05460610002802
 20
-133.0516546976399
 10
79.14986299019517
 20
-132.9024820631286
 10
79.14986299019517
 20
-132.7577880527481
 10
79.14986299019517
 20
-132.4777017897972
 10
78.94040118469199
 20
-132.4367051535228
 10
78.8241292120648
 20
-132.4367051535228
 10
78.64842934231706
 20
-132.4367051535228
 10
78.48564858063901
 20
-132.5386799798862
 10
78.48564858063901
 20
-132.7374619893851
 97
        0
 97
        0
 75
     2
 76
     1
 98
        0
  0
POLYLINE
  5
BE
330
B7
100
AcDbEntity
  8
_U+30EC_U+30A4_U+30E4_U+30FC 1
370
     0
100
AcDb2dPolyline
 66
     1
 10
0.0
 20
0.0
 30
0.0
  0
VERTEX
  5
BF
330
BE
100
AcDbEntity
  8
_U+30EC_U+30A4_U+30E4_U+30FC 1
370
     0
100
AcDbVertex
100
AcDb2dVertex
 10
79.88607989539307
 20
-131.9478461041658
 30
0.0
  0
VERTEX
  5
C0
330
BE
100
AcDbEntity
  8
_U+30EC_U+30A4_U+30E4_U+30FC 1
370
     0
100
AcDbVertex
100
AcDb2dVertex
 10
79.63441567019557
 20
-131.9478461041658
 30
0.0
  0
VERTEX
  5
C1
330
BE
100
AcDbEntity
  8
_U+30EC_U+30A4_U+30E4_U+30FC 1
370
     0
100
AcDbVertex
100
AcDb2dVertex
 10
79.63441567019557
 20
-131.6787841467678
 30
0.0
  0
VERTEX
  5
C2
330
BE
100
AcDbEntity
  8
_U+30EC_U+30A4_U+30E4_U+30FC 1
370
     0
100
AcDbVertex
100
AcDb2dVertex
 10
79.88607989539307
 20
-131.6787841467678
 30
0.0
  0
VERTEX
  5
C3
330
BE
100
AcDbEntity
  8
_U+30EC_U+30A4_U+30E4_U+30FC 1
370
     0
100
AcDbVertex
100
AcDb2dVertex
 10
79.88607989539307
 20
-131.9478461041658
 30
0.0
  0
SEQEND
  5
C4
330
BE
100
AcDbEntity
  8
_U+30EC_U+30A4_U+30E4_U+30FC 1
370
     0
  0
HATCH
  5
C5
330
B7
100
AcDbEntity
  8
_U+30EC_U+30A4_U+30E4_U+30FC 1
 62
     7
420
 16777215
100
AcDbHatch
 10
0.0
 20
0.0
 30
0.0
210
0.0
220
0.0
230
1.0
  2
SOLID
 70
     1
 71
     0
 91
        1
 92
        1
 93
        4
 72
     1
 10
79.88607989539307
 20
-131.9478461041658
 11
79.63441567019557
 21
-131.9478461041658
 72
     1
 10
79.63441567019557
 20
-131.9478461041658
 11
79.63441567019557
 21
-131.6787841467678
 72
     1
 10
79.63441567019557
 20
-131.6787841467678
 11
79.88607989539307
 21
-131.6787841467678
 72
     1
 10
79.88607989539307
 20
-131.6787841467678
 11
79.88607989539307
 21
-131.9478461041658
 97
        0
 75
     2
 76
     1
 98
        0
  0
SPLINE
  5
C6
330
B7
100
AcDbEntity
  8
_U+30EC_U+30A4_U+30E4_U+30FC 1
370
     0
100
AcDbSpline
210
0.0
220
0.0
230
1.0
 70
    11
 71
     3
 72
    53
 73
    49
 74
     0
 42
0.0000000001
 43
0.0000000001
 12
1.0
 22
0.0
 32
0.0
 13
1.0
 23
0.0
 33
0.0
 40
0.0
 40
0.0
 40
0.0
 40
0.0
 40
1.0
 40
1.0
 40
1.0
 40
2.0
 40
2.0
 40
2.0
 40
3.0
 40
3.0
 40
3.0
 40
4.0
 40
4.0
 40
4.0
 40
5.0
 40
5.0
 40
5.0
 40
6.0
 40
6.0
 40
6.0
 40
7.0
 40
7.0
 40
7.0
 40
8.0
 40
8.0
 40
8.0
 40
9.0
 40
9.0
 40
9.0
 40
10.0
 40
10.0
 40
10.0
 40
11.0
 40
11.0
 40
11.0
 40
12.0
 40
12.0
 40
12.0
 40
13.0
 40
13.0
 40
13.0
 40
14.0
 40
14.0
 40
14.0
 40
15.0
 40
15.0
 40
15.0
 40
16.0
 40
16.0
 40
16.0
 40
16.0
 10
79.9368950538005
 20
-130.9119058917512
 30
0.0
 10
79.9368950538005
 20
-130.9956217120428
 30
0.0
 10
79.92001408592277
 20
-131.1037977102796
 30
0.0
 10
79.85645207421992
 20
-131.2126627276135
 30
0.0
 10
79.74638127346618
 20
-131.3980088647199
 30
0.0
 10
79.61529539025243
 20
-131.4204019853741
 30
0.0
 10
79.50746390156411
 20
-131.440728048737
 30
0.0
 10
79.50746390156411
 20
-131.440728048737
 30
0.0
 10
79.50746390156411
 20
-131.2033609698033
 30
0.0
 10
79.50746390156411
 20
-131.2033609698033
 30
0.0
 10
79.70624591106302
 20
-131.1447943465541
 30
0.0
 10
79.73587373223617
 20
-131.0090575844353
 30
0.0
 10
79.73587373223617
 20
-130.9094943249115
 30
0.0
 10
79.73587373223617
 20
-130.7603216904002
 30
0.0
 10
79.63648272748672
 20
-130.5973686739479
 30
0.0
 10
79.40376652745809
 20
-130.5973686739479
 30
0.0
 10
79.14779593290403
 20
-130.5973686739479
 30
0.0
 10
79.07803274932772
 20
-130.7896050020248
 30
0.0
 10
79.07803274932772
 20
-130.9184515731732
 30
0.0
 10
79.07803274932772
 20
-130.9525580184771
 30
0.0
 10
79.07803274932772
 20
-131.1037977102796
 30
0.0
 10
79.20705157525032
 20
-131.1988823456725
 30
0.0
 10
79.20705157525032
 20
-131.1988823456725
 30
0.0
 10
79.1879312953072
 20
-131.3866400496186
 30
0.0
 10
79.1879312953072
 20
-131.3866400496186
 30
0.0
 10
79.1879312953072
 20
-131.3866400496186
 30
0.0
 10
78.34181584412983
 20
-131.2577934784703
 30
0.0
 10
78.34181584412983
 20
-131.2577934784703
 30
0.0
 10
78.34181584412983
 20
-131.2577934784703
 30
0.0
 10
78.34181584412983
 20
-130.4258029187824
 30
0.0
 10
78.34181584412983
 20
-130.4258029187824
 30
0.0
 10
78.34181584412983
 20
-130.4258029187824
 30
0.0
 10
78.53646373904644
 20
-130.4258029187824
 30
0.0
 10
78.53646373904644
 20
-130.4258029187824
 30
0.0
 10
78.53646373904644
 20
-130.4258029187824
 30
0.0
 10
78.53646373904644
 20
-131.0834716469166
 30
0.0
 10
78.53646373904644
 20
-131.0834716469166
 30
0.0
 10
78.53646373904644
 20
-131.0834716469166
 30
0.0
 10
78.95952146463512
 20
-131.1537515948157
 30
0.0
 10
78.95952146463512
 20
-131.1537515948157
 30
0.0
 10
78.92558727410541
 20
-131.088294780596
 30
0.0
 10
78.88545191170225
 20
-131.0001003361736
 30
0.0
 10
78.88545191170225
 20
-130.8733208223164
 30
0.0
 10
78.88545191170225
 20
-130.6021918076272
 30
0.0
 10
79.07165932268
 20
-130.3489772894614
 30
0.0
 10
79.38464624751495
 20
-130.3489772894614
 30
0.0
 10
79.70211179648072
 20
-130.3489772894614
 30
0.0
 10
79.9368950538005
 20
-130.5884114256862
 30
0.0
 10
79.9368950538005
 20
-130.9119058917512
 30
0.0
  0
HATCH
  5
C7
330
B7
100
AcDbEntity
  8
_U+30EC_U+30A4_U+30E4_U+30FC 1
 62
     7
420
 16777215
100
AcDbHatch
 10
0.0
 20
0.0
 30
0.0
210
0.0
220
0.0
230
1.0
  2
SOLID
 70
     1
 71
     0
 91
        1
 92
        1
 93
        1
 72
     4
 94
        3
 73
     0
 74
     1
 95
       53
 96
       49
 40
0.0
 40
0.0
 40
0.0
 40
0.0
 40
1.0
 40
1.0
 40
1.0
 40
2.0
 40
2.0
 40
2.0
 40
3.0
 40
3.0
 40
3.0
 40
4.0
 40
4.0
 40
4.0
 40
5.0
 40
5.0
 40
5.0
 40
6.0
 40
6.0
 40
6.0
 40
7.0
 40
7.0
 40
7.0
 40
8.0
 40
8.0
 40
8.0
 40
9.0
 40
9.0
 40
9.0
 40
10.0
 40
10.0
 40
10.0
 40
11.0
 40
11.0
 40
11.0
 40
12.0
 40
12.0
 40
12.0
 40
13.0
 40
13.0
 40
13.0
 40
14.0
 40
14.0
 40
14.0
 40
15.0
 40
15.0
 40
15.0
 40
16.0
 40
16.0
 40
16.0
 40
16.0
 10
79.9368950538005
 20
-130.9119058917512
 10
79.9368950538005
 20
-130.9956217120428
 10
79.92001408592277
 20
-131.1037977102796
 10
79.85645207421992
 20
-131.2126627276135
 10
79.74638127346618
 20
-131.3980088647199
 10
79.61529539025243
 20
-131.4204019853741
 10
79.50746390156411
 20
-131.440728048737
 10
79.50746390156411
 20
-131.440728048737
 10
79.50746390156411
 20
-131.2033609698033
 10
79.50746390156411
 20
-131.2033609698033
 10
79.70624591106302
 20
-131.1447943465541
 10
79.73587373223617
 20
-131.0090575844353
 10
79.73587373223617
 20
-130.9094943249115
 10
79.73587373223617
 20
-130.7603216904002
 10
79.63648272748672
 20
-130.5973686739479
 10
79.40376652745809
 20
-130.5973686739479
 10
79.14779593290403
 20
-130.5973686739479
 10
79.07803274932772
 20
-130.7896050020248
 10
79.07803274932772
 20
-130.9184515731732
 10
79.07803274932772
 20
-130.9525580184771
 10
79.07803274932772
 20
-131.1037977102796
 10
79.20705157525032
 20
-131.1988823456725
 10
79.20705157525032
 20
-131.1988823456725
 10
79.1879312953072
 20
-131.3866400496186
 10
79.1879312953072
 20
-131.3866400496186
 10
79.1879312953072
 20
-131.3866400496186
 10
78.34181584412983
 20
-131.2577934784703
 10
78.34181584412983
 20
-131.2577934784703
 10
78.34181584412983
 20
-131.2577934784703
 10
78.34181584412983
 20
-130.4258029187824
 10
78.34181584412983
 20
-130.4258029187824
 10
78.34181584412983
 20
-130.4258029187824
 10
78.53646373904644
 20
-130.4258029187824
 10
78.53646373904644
 20
-130.4258029187824
 10
78.53646373904644
 20
-130.4258029187824
 10
78.53646373904644
 20
-131.0834716469166
 10
78.53646373904644
 20
-131.0834716469166
 10
78.53646373904644
 20
-131.0834716469166
 10
78.95952146463512
 20
-131.1537515948157
 10
78.95952146463512
 20
-131.1537515948157
 10
78.92558727410541
 20
-131.088294780596
 10
78.88545191170225
 20
-131.0001003361736
 10
78.88545191170225
 20
-130.8733208223164
 10
78.88545191170225
 20
-130.6021918076272
 10
79.07165932268
 20
-130.3489772894614
 10
79.38464624751495
 20
-130.3489772894614
 10
79.70211179648072
 20
-130.3489772894614
 10
79.9368950538005
 20
-130.5884114256862
 10
79.9368950538005
 20
-130.9119058917512
 97
        0
 97
        0
 75
     2
 76
     1
 98
        0
  0
ENDBLK
  5
BA
330
B7
100
AcDbEntity
  8
0
100
AcDbBlockEnd
  0
BLOCK
  5
D2
330
D0
100
AcDbEntity
  8
0
100
AcDbBlockBegin
  2
block 5
 70
     0
 10
0.0
 20
0.0
 30
0.0
  3
block 5
  1

  0
SPLINE
  5
D4
330
D0
100
AcDbEntity
  8
_U+30EC_U+30A4_U+30E4_U+30FC 1
370
     0
100
AcDbSpline
210
0.0
220
0.0
230
1.0
 70
    11
 71
     3
 72
    44
 73
    40
 74
     0
 42
0.0000000001
 43
0.0000000001
 12
1.0
 22
0.0
 32
0.0
 13
1.0
 23
0.0
 33
0.0
 40
0.0
 40
0.0
 40
0.0
 40
0.0
 40
1.0
 40
1.0
 40
1.0
 40
2.0
 40
2.0
 40
2.0
 40
3.0
 40
3.0
 40
3.0
 40
4.0
 40
4.0
 40
4.0
 40
5.0
 40
5.0
 40
5.0
 40
6.0
 40
6.0
 40
6.0
 40
7.0
 40
7.0
 40
7.0
 40
8.0
 40
8.0
 40
8.0
 40
9.0
 40
9.0
 40
9.0
 40
10.0
 40
10.0
 40
10.0
 40
11.0
 40
11.0
 40
11.0
 40
12.0
 40
12.0
 40
12.0
 40
13.0
 40
13.0
 40
13.0
 40
13.0
 10
77.92754311202853
 20
-139.5329128340404
 30
0.0
 10
77.69465465722564
 20
-139.6917317359104
 30
0.0
 10
77.59526365247619
 20
-139.7658012888433
 30
0.0
 10
77.54324271064891
 20
-139.9094617705782
 30
0.0
 10
77.54324271064891
 20
-139.9094617705782
 30
0.0
 10
78.37523327033675
 20
-139.9094617705782
 30
0.0
 10
78.37523327033675
 20
-139.9094617705782
 30
0.0
 10
78.37523327033675
 20
-139.9094617705782
 30
0.0
 10
78.37523327033675
 20
-140.1147894614991
 30
0.0
 10
78.37523327033675
 20
-140.1147894614991
 30
0.0
 10
78.37523327033675
 20
-140.1147894614991
 30
0.0
 10
77.27642006531632
 20
-140.1147894614991
 30
0.0
 10
77.27642006531632
 20
-140.1147894614991
 30
0.0
 10
77.31035425584602
 20
-139.7571885501302
 30
0.0
 10
77.38046194897086
 20
-139.678984882615
 30
0.0
 10
77.79197860468395
 20
-139.3806396135923
 30
0.0
 10
78.0655191862128
 20
-139.1818576040934
 30
0.0
 10
78.13562687933762
 20
-139.113989223034
 30
0.0
 10
78.13562687933762
 20
-138.9765299131725
 30
0.0
 10
78.13562687933762
 20
-138.85801862848
 30
0.0
 10
78.05862899524229
 20
-138.7271050000404
 30
0.0
 10
77.84847817064205
 20
-138.7271050000404
 30
0.0
 10
77.5704589649824
 20
-138.7271050000404
 30
0.0
 10
77.56132946194647
 20
-138.9575818880037
 30
0.0
 10
77.55685083781565
 20
-139.0740261154051
 30
0.0
 10
77.55685083781565
 20
-139.0740261154051
 30
0.0
 10
77.31724444681653
 20
-139.0740261154051
 30
0.0
 10
77.31724444681653
 20
-139.0740261154051
 30
0.0
 10
77.32620169507817
 20
-138.9469020919994
 30
0.0
 10
77.3375705101795
 20
-138.8349364887288
 30
0.0
 10
77.42335338776222
 20
-138.7164252040362
 30
0.0
 10
77.5410033985835
 20
-138.555539244875
 30
0.0
 10
77.73995766285668
 20
-138.5217773091196
 30
0.0
 10
77.8643256098742
 20
-138.5217773091196
 30
0.0
 10
78.16043156683142
 20
-138.5217773091196
 30
0.0
 10
78.38195120653299
 20
-138.7057454080319
 30
0.0
 10
78.38195120653299
 20
-138.9785969704637
 30
0.0
 10
78.38195120653299
 20
-139.2073513106843
 30
0.0
 10
78.25775551428973
 20
-139.3065700606595
 30
0.0
 10
77.92754311202853
 20
-139.5329128340404
 30
0.0
  0
HATCH
  5
D5
330
D0
100
AcDbEntity
  8
_U+30EC_U+30A4_U+30E4_U+30FC 1
 62
     7
420
 16777215
100
AcDbHatch
 10
0.0
 20
0.0
 30
0.0
210
0.0
220
0.0
230
1.0
  2
SOLID
 70
     1
 71
     0
 91
        1
 92
        1
 93
        1
 72
     4
 94
        3
 73
     0
 74
     1
 95
       44
 96
       40
 40
0.0
 40
0.0
 40
0.0
 40
0.0
 40
1.0
 40
1.0
 40
1.0
 40
2.0
 40
2.0
 40
2.0
 40
3.0
 40
3.0
 40
3.0
 40
4.0
 40
4.0
 40
4.0
 40
5.0
 40
5.0
 40
5.0
 40
6.0
 40
6.0
 40
6.0
 40
7.0
 40
7.0
 40
7.0
 40
8.0
 40
8.0
 40
8.0
 40
9.0
 40
9.0
 40
9.0
 40
10.0
 40
10.0
 40
10.0
 40
11.0
 40
11.0
 40
11.0
 40
12.0
 40
12.0
 40
12.0
 40
13.0
 40
13.0
 40
13.0
 40
13.0
 10
77.92754311202853
 20
-139.5329128340404
 10
77.69465465722564
 20
-139.6917317359104
 10
77.59526365247619
 20
-139.7658012888433
 10
77.54324271064891
 20
-139.9094617705782
 10
77.54324271064891
 20
-139.9094617705782
 10
78.37523327033675
 20
-139.9094617705782
 10
78.37523327033675
 20
-139.9094617705782
 10
78.37523327033675
 20
-139.9094617705782
 10
78.37523327033675
 20
-140.1147894614991
 10
78.37523327033675
 20
-140.1147894614991
 10
78.37523327033675
 20
-140.1147894614991
 10
77.27642006531632
 20
-140.1147894614991
 10
77.27642006531632
 20
-140.1147894614991
 10
77.31035425584602
 20
-139.7571885501302
 10
77.38046194897086
 20
-139.678984882615
 10
77.79197860468395
 20
-139.3806396135923
 10
78.0655191862128
 20
-139.1818576040934
 10
78.13562687933762
 20
-139.113989223034
 10
78.13562687933762
 20
-138.9765299131725
 10
78.13562687933762
 20
-138.85801862848
 10
78.05862899524229
 20
-138.7271050000404
 10
77.84847817064205
 20
-138.7271050000404
 10
77.5704589649824
 20
-138.7271050000404
 10
77.56132946194647
 20
-138.9575818880037
 10
77.55685083781565
 20
-139.0740261154051
 10
77.55685083781565
 20
-139.0740261154051
 10
77.31724444681653
 20
-139.0740261154051
 10
77.31724444681653
 20
-139.0740261154051
 10
77.32620169507817
 20
-138.9469020919994
 10
77.3375705101795
 20
-138.8349364887288
 10
77.42335338776222
 20
-138.7164252040362
 10
77.5410033985835
 20
-138.555539244875
 10
77.73995766285668
 20
-138.5217773091196
 10
77.8643256098742
 20
-138.5217773091196
 10
78.16043156683142
 20
-138.5217773091196
 10
78.38195120653299
 20
-138.7057454080319
 10
78.38195120653299
 20
-138.9785969704637
 10
78.38195120653299
 20
-139.2073513106843
 10
78.25775551428973
 20
-139.3065700606595
 10
77.92754311202853
 20
-139.5329128340404
 97
        0
 97
        0
 75
     2
 76
     1
 98
        0
  0
SPLINE
  5
D6
330
D0
100
AcDbEntity
  8
_U+30EC_U+30A4_U+30E4_U+30FC 1
370
     0
100
AcDbSpline
210
0.0
220
0.0
230
1.0
 70
    11
 71
     3
 72
    44
 73
    40
 74
     0
 42
0.0000000001
 43
0.0000000001
 12
1.0
 22
0.0
 32
0.0
 13
1.0
 23
0.0
 33
0.0
 40
0.0
 40
0.0
 40
0.0
 40
0.0
 40
1.0
 40
1.0
 40
1.0
 40
2.0
 40
2.0
 40
2.0
 40
3.0
 40
3.0
 40
3.0
 40
4.0
 40
4.0
 40
4.0
 40
5.0
 40
5.0
 40
5.0
 40
6.0
 40
6.0
 40
6.0
 40
7.0
 40
7.0
 40
7.0
 40
8.0
 40
8.0
 40
8.0
 40
9.0
 40
9.0
 40
9.0
 40
10.0
 40
10.0
 40
10.0
 40
11.0
 40
11.0
 40
11.0
 40
12.0
 40
12.0
 40
12.0
 40
13.0
 40
13.0
 40
13.0
 40
13.0
 10
79.63527694406687
 20
-140.1147894614991
 30
0.0
 10
79.61047225657308
 20
-140.0703477297394
 30
0.0
 10
79.58790688114469
 20
-140.017637768815
 30
0.0
 10
79.58549531430502
 20
-139.7868163713033
 30
0.0
 10
79.5810166901742
 20
-139.5435926300447
 30
0.0
 10
79.51779918801986
 20
-139.4736571916941
 30
0.0
 10
79.32780217200833
 20
-139.4736571916941
 30
0.0
 10
79.32780217200833
 20
-139.4736571916941
 30
0.0
 10
78.89148082880143
 20
-139.4736571916941
 30
0.0
 10
78.89148082880143
 20
-139.4736571916941
 30
0.0
 10
78.89148082880143
 20
-139.4736571916941
 30
0.0
 10
78.89148082880143
 20
-140.1147894614991
 30
0.0
 10
78.89148082880143
 20
-140.1147894614991
 30
0.0
 10
78.89148082880143
 20
-140.1147894614991
 30
0.0
 10
78.64050562270099
 20
-140.1147894614991
 30
0.0
 10
78.64050562270099
 20
-140.1147894614991
 30
0.0
 10
78.64050562270099
 20
-140.1147894614991
 30
0.0
 10
78.64050562270099
 20
-138.5703531554616
 30
0.0
 10
78.64050562270099
 20
-138.5703531554616
 30
0.0
 10
78.64050562270099
 20
-138.5703531554616
 30
0.0
 10
79.36173636253804
 20
-138.5703531554616
 30
0.0
 10
79.36173636253804
 20
-138.5703531554616
 30
0.0
 10
79.68953719795957
 20
-138.5703531554616
 30
0.0
 10
79.86816539886976
 20
-138.741918910627
 30
0.0
 10
79.86816539886976
 20
-138.9978895051811
 30
0.0
 10
79.86816539886976
 20
-139.0485324088143
 30
0.0
 10
79.85903589583386
 20
-139.1312147004602
 30
0.0
 10
79.81166583291167
 20
-139.2114854252666
 30
0.0
 10
79.74827607598307
 20
-139.3151827993726
 30
0.0
 10
79.67816838285825
 20
-139.3341308245415
 30
0.0
 10
79.61271156863849
 20
-139.3510117924192
 30
0.0
 10
79.75964489108439
 20
-139.3933864668878
 30
0.0
 10
79.83199189627464
 20
-139.4419623132298
 30
0.0
 10
79.83647052040547
 20
-139.7571885501302
 30
0.0
 10
79.84112139931055
 20
-140.0279730552708
 30
0.0
 10
79.8795342139711
 20
-140.0596679337351
 30
0.0
 10
79.95188121916134
 20
-140.1147894614991
 30
0.0
 10
79.95188121916134
 20
-140.1147894614991
 30
0.0
 10
79.63527694406687
 20
-140.1147894614991
 30
0.0
 10
79.63527694406687
 20
-140.1147894614991
 30
0.0
  0
SPLINE
  5
D7
330
D0
100
AcDbEntity
  8
_U+30EC_U+30A4_U+30E4_U+30FC 1
370
     0
100
AcDbSpline
210
0.0
220
0.0
230
1.0
 70
    11
 71
     3
 72
    20
 73
    16
 74
     0
 42
0.0000000001
 43
0.0000000001
 12
1.0
 22
0.0
 32
0.0
 13
1.0
 23
0.0
 33
0.0
 40
0.0
 40
0.0
 40
0.0
 40
0.0
 40
1.0
 40
1.0
 40
1.0
 40
2.0
 40
2.0
 40
2.0
 40
3.0
 40
3.0
 40
3.0
 40
4.0
 40
4.0
 40
4.0
 40
5.0
 40
5.0
 40
5.0
 40
5.0
 10
79.36621498666887
 20
-138.7818820182559
 30
0.0
 10
79.36621498666887
 20
-138.7818820182559
 30
0.0
 10
78.89148082880143
 20
-138.7818820182559
 30
0.0
 10
78.89148082880143
 20
-138.7818820182559
 30
0.0
 10
78.89148082880143
 20
-138.7818820182559
 30
0.0
 10
78.89148082880143
 20
-139.2621283288998
 30
0.0
 10
78.89148082880143
 20
-139.2621283288998
 30
0.0
 10
78.89148082880143
 20
-139.2621283288998
 30
0.0
 10
79.36397567460345
 20
-139.2621283288998
 30
0.0
 10
79.36397567460345
 20
-139.2621283288998
 30
0.0
 10
79.47025687032341
 20
-139.2621283288998
 30
0.0
 10
79.6149508807039
 20
-139.1859917186757
 30
0.0
 10
79.6149508807039
 20
-139.0147704730588
 30
0.0
 10
79.6149508807039
 20
-138.9365668055436
 30
0.0
 10
79.57877737810878
 20
-138.7818820182559
 30
0.0
 10
79.36621498666887
 20
-138.7818820182559
 30
0.0
  0
HATCH
  5
D8
330
D0
100
AcDbEntity
  8
_U+30EC_U+30A4_U+30E4_U+30FC 1
 62
     7
420
 16777215
100
AcDbHatch
 10
0.0
 20
0.0
 30
0.0
210
0.0
220
0.0
230
1.0
  2
SOLID
 70
     1
 71
     0
 91
        2
 92
        1
 93
        1
 72
     4
 94
        3
 73
     0
 74
     1
 95
       44
 96
       40
 40
0.0
 40
0.0
 40
0.0
 40
0.0
 40
1.0
 40
1.0
 40
1.0
 40
2.0
 40
2.0
 40
2.0
 40
3.0
 40
3.0
 40
3.0
 40
4.0
 40
4.0
 40
4.0
 40
5.0
 40
5.0
 40
5.0
 40
6.0
 40
6.0
 40
6.0
 40
7.0
 40
7.0
 40
7.0
 40
8.0
 40
8.0
 40
8.0
 40
9.0
 40
9.0
 40
9.0
 40
10.0
 40
10.0
 40
10.0
 40
11.0
 40
11.0
 40
11.0
 40
12.0
 40
12.0
 40
12.0
 40
13.0
 40
13.0
 40
13.0
 40
13.0
 10
79.63527694406687
 20
-140.1147894614991
 10
79.61047225657308
 20
-140.0703477297394
 10
79.58790688114469
 20
-140.017637768815
 10
79.58549531430502
 20
-139.7868163713033
 10
79.5810166901742
 20
-139.5435926300447
 10
79.51779918801986
 20
-139.4736571916941
 10
79.32780217200833
 20
-139.4736571916941
 10
79.32780217200833
 20
-139.4736571916941
 10
78.89148082880143
 20
-139.4736571916941
 10
78.89148082880143
 20
-139.4736571916941
 10
78.89148082880143
 20
-139.4736571916941
 10
78.89148082880143
 20
-140.1147894614991
 10
78.89148082880143
 20
-140.1147894614991
 10
78.89148082880143
 20
-140.1147894614991
 10
78.64050562270099
 20
-140.1147894614991
 10
78.64050562270099
 20
-140.1147894614991
 10
78.64050562270099
 20
-140.1147894614991
 10
78.64050562270099
 20
-138.5703531554616
 10
78.64050562270099
 20
-138.5703531554616
 10
78.64050562270099
 20
-138.5703531554616
 10
79.36173636253804
 20
-138.5703531554616
 10
79.36173636253804
 20
-138.5703531554616
 10
79.68953719795957
 20
-138.5703531554616
 10
79.86816539886976
 20
-138.741918910627
 10
79.86816539886976
 20
-138.9978895051811
 10
79.86816539886976
 20
-139.0485324088143
 10
79.85903589583386
 20
-139.1312147004602
 10
79.81166583291167
 20
-139.2114854252666
 10
79.74827607598307
 20
-139.3151827993726
 10
79.67816838285825
 20
-139.3341308245415
 10
79.61271156863849
 20
-139.3510117924192
 10
79.75964489108439
 20
-139.3933864668878
 10
79.83199189627464
 20
-139.4419623132298
 10
79.83647052040547
 20
-139.7571885501302
 10
79.84112139931055
 20
-140.0279730552708
 10
79.8795342139711
 20
-140.0596679337351
 10
79.95188121916134
 20
-140.1147894614991
 10
79.95188121916134
 20
-140.1147894614991
 10
79.63527694406687
 20
-140.1147894614991
 10
79.63527694406687
 20
-140.1147894614991
 97
        0
 97
        0
 92
        1
 93
        1
 72
     4
 94
        3
 73
     0
 74
     1
 95
       20
 96
       16
 40
0.0
 40
0.0
 40
0.0
 40
0.0
 40
1.0
 40
1.0
 40
1.0
 40
2.0
 40
2.0
 40
2.0
 40
3.0
 40
3.0
 40
3.0
 40
4.0
 40
4.0
 40
4.0
 40
5.0
 40
5.0
 40
5.0
 40
5.0
 10
79.36621498666887
 20
-138.7818820182559
 10
79.36621498666887
 20
-138.7818820182559
 10
78.89148082880143
 20
-138.7818820182559
 10
78.89148082880143
 20
-138.7818820182559
 10
78.89148082880143
 20
-138.7818820182559
 10
78.89148082880143
 20
-139.2621283288998
 10
78.89148082880143
 20
-139.2621283288998
 10
78.89148082880143
 20
-139.2621283288998
 10
79.36397567460345
 20
-139.2621283288998
 10
79.36397567460345
 20
-139.2621283288998
 10
79.47025687032341
 20
-139.2621283288998
 10
79.6149508807039
 20
-139.1859917186757
 10
79.6149508807039
 20
-139.0147704730588
 10
79.6149508807039
 20
-138.9365668055436
 10
79.57877737810878
 20
-138.7818820182559
 10
79.36621498666887
 20
-138.7818820182559
 97
        0
 97
        0
 75
     2
 76
     1
 98
        0
  0
ENDBLK
  5
D3
330
D0
100
AcDbEntity
  8
0
100
AcDbBlockEnd
  0
BLOCK
  5
E7
330
E5
100
AcDbEntity
  8
0
100
AcDbBlockBegin
  2
block 6
 70
     0
 10
0.0
 20
0.0
 30
0.0
  3
block 6
  1

  0
SPLINE
  5
E9
330
E5
100
AcDbEntity
  8
_U+30EC_U+30A4_U+30E4_U+30FC 1
370
     0
100
AcDbSpline
210
0.0
220
0.0
230
1.0
 70
    11
 71
     3
 72
    26
 73
    22
 74
     0
 42
0.0000000001
 43
0.0000000001
 12
1.0
 22
0.0
 32
0.0
 13
1.0
 23
0.0
 33
0.0
 40
0.0
 40
0.0
 40
0.0
 40
0.0
 40
1.0
 40
1.0
 40
1.0
 40
2.0
 40
2.0
 40
2.0
 40
3.0
 40
3.0
 40
3.0
 40
4.0
 40
4.0
 40
4.0
 40
5.0
 40
5.0
 40
5.0
 40
6.0
 40
6.0
 40
6.0
 40
7.0
 40
7.0
 40
7.0
 40
7.0
 10
83.35494653949112
 20
-122.6130153773329
 30
0.0
 10
83.35494653949112
 20
-122.6130153773329
 30
0.0
 10
83.35494653949112
 20
-121.5088622743103
 30
0.0
 10
83.35494653949112
 20
-121.5088622743103
 30
0.0
 10
83.35494653949112
 20
-121.5088622743103
 30
0.0
 10
83.00251327135007
 20
-121.5088622743103
 30
0.0
 10
83.00251327135007
 20
-121.5088622743103
 30
0.0
 10
83.00251327135007
 20
-121.5088622743103
 30
0.0
 10
83.00251327135007
 20
-121.3607231684446
 30
0.0
 10
83.00251327135007
 20
-121.3607231684446
 30
0.0
 10
83.3573581063308
 20
-121.345909257858
 30
0.0
 10
83.4069674813184
 20
-121.1829562414057
 30
0.0
 10
83.4386623597827
 20
-121.0685790712954
 30
0.0
 10
83.4386623597827
 20
-121.0685790712954
 30
0.0
 10
83.59472518526452
 20
-121.0685790712954
 30
0.0
 10
83.59472518526452
 20
-121.0685790712954
 30
0.0
 10
83.59472518526452
 20
-121.0685790712954
 30
0.0
 10
83.59472518526452
 20
-122.6130153773329
 30
0.0
 10
83.59472518526452
 20
-122.6130153773329
 30
0.0
 10
83.59472518526452
 20
-122.6130153773329
 30
0.0
 10
83.35494653949112
 20
-122.6130153773329
 30
0.0
 10
83.35494653949112
 20
-122.6130153773329
 30
0.0
  0
HATCH
  5
EA
330
E5
100
AcDbEntity
  8
_U+30EC_U+30A4_U+30E4_U+30FC 1
 62
   179
420
  2234388
100
AcDbHatch
 10
0.0
 20
0.0
 30
0.0
210
0.0
220
0.0
230
1.0
  2
SOLID
 70
     1
 71
     0
 91
        1
 92
        1
 93
        1
 72
     4
 94
        3
 73
     0
 74
     1
 95
       26
 96
       22
 40
0.0
 40
0.0
 40
0.0
 40
0.0
 40
1.0
 40
1.0
 40
1.0
 40
2.0
 40
2.0
 40
2.0
 40
3.0
 40
3.0
 40
3.0
 40
4.0
 40
4.0
 40
4.0
 40
5.0
 40
5.0
 40
5.0
 40
6.0
 40
6.0
 40
6.0
 40
7.0
 40
7.0
 40
7.0
 40
7.0
 10
83.35494653949112
 20
-122.6130153773329
 10
83.35494653949112
 20
-122.6130153773329
 10
83.35494653949112
 20
-121.5088622743103
 10
83.35494653949112
 20
-121.5088622743103
 10
83.35494653949112
 20
-121.5088622743103
 10
83.00251327135007
 20
-121.5088622743103
 10
83.00251327135007
 20
-121.5088622743103
 10
83.00251327135007
 20
-121.5088622743103
 10
83.00251327135007
 20
-121.3607231684446
 10
83.00251327135007
 20
-121.3607231684446
 10
83.3573581063308
 20
-121.345909257858
 10
83.4069674813184
 20
-121.1829562414057
 10
83.4386623597827
 20
-121.0685790712954
 10
83.4386623597827
 20
-121.0685790712954
 10
83.59472518526452
 20
-121.0685790712954
 10
83.59472518526452
 20
-121.0685790712954
 10
83.59472518526452
 20
-121.0685790712954
 10
83.59472518526452
 20
-122.6130153773329
 10
83.59472518526452
 20
-122.6130153773329
 10
83.59472518526452
 20
-122.6130153773329
 10
83.35494653949112
 20
-122.6130153773329
 10
83.35494653949112
 20
-122.6130153773329
 97
        0
 97
        0
 75
     2
 76
     1
 98
        0
  0
ENDBLK
  5
E8
330
E5
100
AcDbEntity
  8
0
100
AcDbBlockEnd
  0
ENDSEC
  0
SECTION
  2
ENTITIES
  0
POLYLINE
  5
41
330
1F
100
AcDbEntity
  8
_U+30EC_U+30A4_U+30E4_U+30FC 1
  6
AI-Linetype-1
 62
   251
420
  5855577
370
    25
100
AcDb2dPolyline
 66
     1
 10
0.0
 20
0.0
 30
0.0
  0
VERTEX
  5
42
330
41
100
AcDbEntity
  8
_U+30EC_U+30A4_U+30E4_U+30FC 1
  6
AI-Linetype-1
 62
   251
420
  5855577
370
    25
100
AcDbVertex
100
AcDb2dVertex
 10
85.34932476700176
 20
-126.4894246905999
 30
0.0
  0
VERTEX
  5
43
330
41
100
AcDbEntity
  8
_U+30EC_U+30A4_U+30E4_U+30FC 1
  6
AI-Linetype-1
 62
   251
420
  5855577
370
    25
100
AcDbVertex
100
AcDb2dVertex
 10
83.49724148091902
 20
-126.4894246905999
 30
0.0
  0
VERTEX
  5
44
330
41
100
AcDbEntity
  8
_U+30EC_U+30A4_U+30E4_U+30FC 1
  6
AI-Linetype-1
 62
   251
420
  5855577
370
    25
100
AcDbVertex
100
AcDb2dVertex
 10
83.49724148091902
 20
-137.5137302433994
 30
0.0
  0
VERTEX
  5
45
330
41
100
AcDbEntity
  8
_U+30EC_U+30A4_U+30E4_U+30FC 1
  6
AI-Linetype-1
 62
   251
420
  5855577
370
    25
100
AcDbVertex
100
AcDb2dVertex
 10
94.56578508742582
 20
-137.5137302433994
 30
0.0
  0
VERTEX
  5
46
330
41
100
AcDbEntity
  8
_U+30EC_U+30A4_U+30E4_U+30FC 1
  6
AI-Linetype-1
 62
   251
420
  5855577
370
    25
100
AcDbVertex
100
AcDb2dVertex
 10
94.56578508742582
 20
-135.9586152437882
 30
0.0
  0
SEQEND
  5
48
330
41
100
AcDbEntity
  8
_U+30EC_U+30A4_U+30E4_U+30FC 1
  6
AI-Linetype-1
 62
   251
420
  5855577
370
    25
  0
POLYLINE
  5
49
330
1F
100
AcDbEntity
  8
_U+30EC_U+30A4_U+30E4_U+30FC 1
 62
     7
420
 16777215
370
    25
100
AcDb2dPolyline
 66
     1
 10
0.0
 20
0.0
 30
0.0
  0
VERTEX
  5
4A
330
49
100
AcDbEntity
  8
_U+30EC_U+30A4_U+30E4_U+30FC 1
 62
     7
420
 16777215
370
    25
100
AcDbVertex
100
AcDb2dVertex
 10
89.69011410070345
 20
-132.2110569113919
 30
0.0
  0
VERTEX
  5
4B
330
49
100
AcDbEntity
  8
_U+30EC_U+30A4_U+30E4_U+30FC 1
 62
     7
420
 16777215
370
    25
100
AcDbVertex
100
AcDb2dVertex
 10
92.98311818335858
 20
-132.2110569113919
 30
0.0
  0
SEQEND
  5
4C
330
49
100
AcDbEntity
  8
_U+30EC_U+30A4_U+30E4_U+30FC 1
 62
     7
420
 16777215
370
    25
  0
POLYLINE
  5
4D
330
1F
100
AcDbEntity
  8
_U+30EC_U+30A4_U+30E4_U+30FC 1
 62
     7
420
 16777215
370
    25
100
AcDb2dPolyline
 66
     1
 10
0.0
 20
0.0
 30
0.0
  0
VERTEX
  5
4E
330
4D
100
AcDbEntity
  8
_U+30EC_U+30A4_U+30E4_U+30FC 1
 62
     7
420
 16777215
370
    25
100
AcDbVertex
100
AcDb2dVertex
 10
88.9825124520892
 20
-128.2105921901695
 30
0.0
  0
VERTEX
  5
4F
330
4D
100
AcDbEntity
  8
_U+30EC_U+30A4_U+30E4_U+30FC 1
 62
     7
420
 16777215
370
    25
100
AcDbVertex
100
AcDb2dVertex
 10
88.9825124520892
 20
-131.5034199671244
 30
0.0
  0
SEQEND
  5
50
330
4D
100
AcDbEntity
  8
_U+30EC_U+30A4_U+30E4_U+30FC 1
 62
     7
420
 16777215
370
    25
  0
POLYLINE
  5
51
330
1F
100
AcDbEntity
  8
_U+30EC_U+30A4_U+30E4_U+30FC 1
 62
     7
420
 16777215
370
    25
100
AcDb2dPolyline
 66
     1
 10
0.0
 20
0.0
 30
0.0
  0
VERTEX
  5
52
330
51
100
AcDbEntity
  8
_U+30EC_U+30A4_U+30E4_U+30FC 1
 62
     7
420
 16777215
370
    25
100
AcDbVertex
100
AcDb2dVertex
 10
86.70184164499129
 20
-135.1986260773115
 30
0.0
  0
VERTEX
  5
53
330
51
100
AcDbEntity
  8
_U+30EC_U+30A4_U+30E4_U+30FC 1
 62
     7
420
 16777215
370
    25
100
AcDbVertex
100
AcDb2dVertex
 10
89.69011410070345
 20
-132.2110569113919
 30
0.0
  0
SEQEND
  5
54
330
51
100
AcDbEntity
  8
_U+30EC_U+30A4_U+30E4_U+30FC 1
 62
     7
420
 16777215
370
    25
  0
POLYLINE
  5
55
330
1F
100
AcDbEntity
  8
_U+30EC_U+30A4_U+30E4_U+30FC 1
 62
     7
420
 16777215
370
    25
100
AcDb2dPolyline
 66
     1
 10
0.0
 20
0.0
 30
0.0
  0
VERTEX
  5
56
330
55
100
AcDbEntity
  8
_U+30EC_U+30A4_U+30E4_U+30FC 1
 62
     7
420
 16777215
370
    25
100
AcDbVertex
100
AcDb2dVertex
 10
85.9949080838649
 20
-134.4916946885995
 30
0.0
  0
VERTEX
  5
57
330
55
100
AcDbEntity
  8
_U+30EC_U+30A4_U+30E4_U+30FC 1
 62
     7
420
 16777215
370
    25
100
AcDbVertex
100
AcDb2dVertex
 10
88.9825124520892
 20
-131.5034199671244
 30
0.0
  0
SEQEND
  5
58
330
55
100
AcDbEntity
  8
_U+30EC_U+30A4_U+30E4_U+30FC 1
 62
     7
420
 16777215
370
    25
  0
POLYLINE
  5
59
330
1F
100
AcDbEntity
  8
_U+30EC_U+30A4_U+30E4_U+30FC 1
 62
     7
420
 16777215
370
    25
100
AcDb2dPolyline
 66
     1
 10
0.0
 20
0.0
 30
0.0
  0
VERTEX
  5
5A
330
59
100
AcDbEntity
  8
_U+30EC_U+30A4_U+30E4_U+30FC 1
 62
     7
420
 16777215
370
    25
100
AcDbVertex
100
AcDb2dVertex
 10
89.9829549265658
 20
-116.2108208042807
 30
0.0
  0
VERTEX
  5
5B
330
59
100
AcDbEntity
  8
_U+30EC_U+30A4_U+30E4_U+30FC 1
 62
     7
420
 16777215
370
    25
100
AcDbVertex
100
AcDb2dVertex
 10
89.9829549265658
 20
-131.2105791338639
 30
0.0
  0
SEQEND
  5
5C
330
59
100
AcDbEntity
  8
_U+30EC_U+30A4_U+30E4_U+30FC 1
 62
     7
420
 16777215
370
    25
  0
POLYLINE
  5
5D
330
1F
100
AcDbEntity
  8
_U+30EC_U+30A4_U+30E4_U+30FC 1
 62
     7
420
 16777215
370
    25
100
AcDb2dPolyline
 66
     1
 10
0.0
 20
0.0
 30
0.0
  0
VERTEX
  5
5E
330
5D
100
AcDbEntity
  8
_U+30EC_U+30A4_U+30E4_U+30FC 1
 62
     7
420
 16777215
370
    25
100
AcDbVertex
100
AcDb2dVertex
 10
89.9829549265658
 20
-131.2105791338639
 30
0.0
  0
VERTEX
  5
5F
330
5D
100
AcDbEntity
  8
_U+30EC_U+30A4_U+30E4_U+30FC 1
 62
     7
420
 16777215
370
    25
100
AcDbVertex
100
AcDb2dVertex
 10
104.9830656549922
 20
-131.2105791338639
 30
0.0
  0
SEQEND
  5
60
330
5D
100
AcDbEntity
  8
_U+30EC_U+30A4_U+30E4_U+30FC 1
 62
     7
420
 16777215
370
    25
  0
POLYLINE
  5
61
330
1F
100
AcDbEntity
  8
_U+30EC_U+30A4_U+30E4_U+30FC 1
 62
     7
420
 16777215
370
    25
100
AcDb2dPolyline
 66
     1
 10
0.0
 20
0.0
 30
0.0
  0
VERTEX
  5
62
330
61
100
AcDbEntity
  8
_U+30EC_U+30A4_U+30E4_U+30FC 1
 62
     7
420
 16777215
370
    25
100
AcDbVertex
100
AcDb2dVertex
 10
89.48275132821594
 20
-116.7107069152667
 30
0.0
  0
VERTEX
  5
63
330
61
100
AcDbEntity
  8
_U+30EC_U+30A4_U+30E4_U+30FC 1
 62
     7
420
 16777215
370
    25
100
AcDbVertex
100
AcDb2dVertex
 10
89.48275132821594
 20
-127.3445227459416
 30
0.0
  0
SEQEND
  5
64
330
61
100
AcDbEntity
  8
_U+30EC_U+30A4_U+30E4_U+30FC 1
 62
     7
420
 16777215
370
    25
  0
POLYLINE
  5
65
330
1F
100
AcDbEntity
  8
_U+30EC_U+30A4_U+30E4_U+30FC 1
 62
     7
420
 16777215
370
    25
100
AcDb2dPolyline
 66
     1
 10
0.0
 20
0.0
 30
0.0
  0
VERTEX
  5
66
330
65
100
AcDbEntity
  8
_U+30EC_U+30A4_U+30E4_U+30FC 1
 62
     7
420
 16777215
370
    25
100
AcDbVertex
100
AcDb2dVertex
 10
93.84922288348463
 20
-131.7108180226276
 30
0.0
  0
VERTEX
  5
67
330
65
100
AcDbEntity
  8
_U+30EC_U+30A4_U+30E4_U+30FC 1
 62
     7
420
 16777215
370
    25
100
AcDbVertex
100
AcDb2dVertex
 10
104.4828620566423
 20
-131.7108180226276
 30
0.0
  0
SEQEND
  5
68
330
65
100
AcDbEntity
  8
_U+30EC_U+30A4_U+30E4_U+30FC 1
 62
     7
420
 16777215
370
    25
  0
POLYLINE
  5
69
330
1F
100
AcDbEntity
  8
_U+30EC_U+30A4_U+30E4_U+30FC 1
 62
     7
420
 16777215
370
     9
100
AcDb2dPolyline
 66
     1
 10
0.0
 20
0.0
 30
0.0
  0
VERTEX
  5
6A
330
69
100
AcDbEntity
  8
_U+30EC_U+30A4_U+30E4_U+30FC 1
 62
     7
420
 16777215
370
     9
100
AcDbVertex
100
AcDb2dVertex
 10
84.56866284247367
 20
-136.9907724657521
 30
0.0
  0
VERTEX
  5
6B
330
69
100
AcDbEntity
  8
_U+30EC_U+30A4_U+30E4_U+30FC 1
 62
     7
420
 16777215
370
     9
100
AcDbVertex
100
AcDb2dVertex
 10
85.06886644082353
 20
-136.1253732993022
 30
0.0
  0
SEQEND
  5
6C
330
69
100
AcDbEntity
  8
_U+30EC_U+30A4_U+30E4_U+30FC 1
 62
     7
420
 16777215
370
     9
  0
POLYLINE
  5
6D
330
1F
100
AcDbEntity
  8
_U+30EC_U+30A4_U+30E4_U+30FC 1
 62
     7
420
 16777215
370
     9
100
AcDb2dPolyline
 66
     1
 10
0.0
 20
0.0
 30
0.0
  0
VERTEX
  5
6E
330
6D
100
AcDbEntity
  8
_U+30EC_U+30A4_U+30E4_U+30FC 1
 62
     7
420
 16777215
370
     9
100
AcDbVertex
100
AcDb2dVertex
 10
84.20279701847434
 20
-136.6249066325104
 30
0.0
  0
VERTEX
  5
6F
330
6D
100
AcDbEntity
  8
_U+30EC_U+30A4_U+30E4_U+30FC 1
 62
     7
420
 16777215
370
     9
100
AcDbVertex
100
AcDb2dVertex
 10
85.06886644082353
 20
-136.1253732993022
 30
0.0
  0
SEQEND
  5
70
330
6D
100
AcDbEntity
  8
_U+30EC_U+30A4_U+30E4_U+30FC 1
 62
     7
420
 16777215
370
     9
  0
SPLINE
  5
71
330
1F
100
AcDbEntity
  8
_U+30EC_U+30A4_U+30E4_U+30FC 1
 62
     7
420
 16777215
370
    25
100
AcDbSpline
210
0.0
220
0.0
230
1.0
 70
     8
 71
     3
 72
     8
 73
     4
 74
     0
 42
0.0000000001
 43
0.0000000001
 12
1.0
 22
0.0
 32
0.0
 13
1.0
 23
0.0
 33
0.0
 40
0.0
 40
0.0
 40
0.0
 40
0.0
 40
1.0
 40
1.0
 40
1.0
 40
1.0
 10
89.48275132821594
 20
-127.3445227459416
 30
0.0
 10
89.17336522499792
 20
-127.5236633014525
 30
0.0
 10
88.9825124520892
 20
-127.853686912481
 30
0.0
 10
88.9825124520892
 20
-128.2105921901695
 30
0.0
  0
SPLINE
  5
72
330
1F
100
AcDbEntity
  8
_U+30EC_U+30A4_U+30E4_U+30FC 1
 62
     7
420
 16777215
370
    25
100
AcDbSpline
210
0.0
220
0.0
230
1.0
 70
     8
 71
     3
 72
     8
 73
     4
 74
     0
 42
0.0000000001
 43
0.0000000001
 12
1.0
 22
0.0
 32
0.0
 13
1.0
 23
0.0
 33
0.0
 40
0.0
 40
0.0
 40
0.0
 40
0.0
 40
1.0
 40
1.0
 40
1.0
 40
1.0
 10
92.98311818335858
 20
-132.2110569113919
 30
0.0
 10
93.34002345203095
 20
-132.2110569113919
 30
0.0
 10
93.67008233249933
 20
-132.0202041336615
 30
0.0
 10
93.84922288348463
 20
-131.7108180226276
 30
0.0
  0
SPLINE
  5
73
330
1F
100
AcDbEntity
  8
_U+30EC_U+30A4_U+30E4_U+30FC 1
 62
     7
420
 16777215
370
    25
100
AcDbSpline
210
0.0
220
0.0
230
1.0
 70
     8
 71
     3
 72
     8
 73
     4
 74
     0
 42
0.0000000001
 43
0.0000000001
 12
1.0
 22
0.0
 32
0.0
 13
1.0
 23
0.0
 33
0.0
 40
0.0
 40
0.0
 40
0.0
 40
0.0
 40
1.0
 40
1.0
 40
1.0
 40
1.0
 10
104.4828620566423
 20
-131.7108180226276
 30
0.0
 10
104.759157605149
 20
-131.7108180226276
 30
0.0
 10
104.9830656549922
 20
-131.4869099671285
 30
0.0
 10
104.9830656549922
 20
-131.2105791338639
 30
0.0
  0
SPLINE
  5
74
330
1F
100
AcDbEntity
  8
_U+30EC_U+30A4_U+30E4_U+30FC 1
 62
     7
420
 16777215
370
     9
100
AcDbSpline
210
0.0
220
0.0
230
1.0
 70
    11
 71
     3
 72
    17
 73
    13
 74
     0
 42
0.0000000001
 43
0.0000000001
 12
1.0
 22
0.0
 32
0.0
 13
1.0
 23
0.0
 33
0.0
 40
0.0
 40
0.0
 40
0.0
 40
0.0
 40
1.0
 40
1.0
 40
1.0
 40
2.0
 40
2.0
 40
2.0
 40
3.0
 40
3.0
 40
3.0
 40
4.0
 40
4.0
 40
4.0
 40
4.0
 10
90.0828638663682
 20
-127.2108552459752
 30
0.0
 10
90.0828638663682
 20
-127.1557160793221
 30
0.0
 10
90.03809409182574
 20
-127.1109485793335
 30
0.0
 10
89.9829549265658
 20
-127.1109485793335
 30
0.0
 10
89.92785103908271
 20
-127.1109485793335
 30
0.0
 10
89.88304826244796
 20
-127.1557160793221
 30
0.0
 10
89.88304826244796
 20
-127.2108552459752
 30
0.0
 10
89.88304826244796
 20
-127.2659591348501
 30
0.0
 10
89.92785103908271
 20
-127.3107619126168
 30
0.0
 10
89.9829549265658
 20
-127.3107619126168
 30
0.0
 10
90.03809409182574
 20
-127.3107619126168
 30
0.0
 10
90.0828638663682
 20
-127.2659591348501
 30
0.0
 10
90.0828638663682
 20
-127.2108552459752
 30
0.0
  0
SPLINE
  5
75
330
1F
100
AcDbEntity
  8
_U+30EC_U+30A4_U+30E4_U+30FC 1
 62
     7
420
 16777215
370
    25
100
AcDbSpline
210
0.0
220
0.0
230
1.0
 70
     8
 71
     3
 72
    14
 73
    10
 74
     0
 42
0.0000000001
 43
0.0000000001
 12
1.0
 22
0.0
 32
0.0
 13
1.0
 23
0.0
 33
0.0
 40
0.0
 40
0.0
 40
0.0
 40
0.0
 40
1.0
 40
1.0
 40
1.0
 40
2.0
 40
2.0
 40
2.0
 40
3.0
 40
3.0
 40
3.0
 40
3.0
 10
84.48251664554607
 20
-134.7108049663226
 30
0.0
 10
84.48251664554607
 20
-134.7108049663226
 30
0.0
 10
84.48251664554607
 20
-128.2105921901695
 30
0.0
 10
84.48251664554607
 20
-128.2105921901695
 30
0.0
 10
84.48251664554607
 20
-127.6587066347519
 30
0.0
 10
84.93040116657829
 20
-127.2108552459752
 30
0.0
 10
85.4829944230738
 20
-127.2108552459752
 30
0.0
 10
85.4829944230738
 20
-127.2108552459752
 30
0.0
 10
85.4829944230738
 20
-134.279498855319
 30
0.0
 10
85.4829944230738
 20
-134.279498855319
 30
0.0
  0
SPLINE
  5
76
330
1F
100
AcDbEntity
  8
_U+30EC_U+30A4_U+30E4_U+30FC 1
 62
     7
420
 16777215
370
    25
100
AcDbSpline
210
0.0
220
0.0
230
1.0
 70
     8
 71
     3
 72
    14
 73
    10
 74
     0
 42
0.0000000001
 43
0.0000000001
 12
1.0
 22
0.0
 32
0.0
 13
1.0
 23
0.0
 33
0.0
 40
0.0
 40
0.0
 40
0.0
 40
0.0
 40
1.0
 40
1.0
 40
1.0
 40
2.0
 40
2.0
 40
2.0
 40
3.0
 40
3.0
 40
3.0
 40
3.0
 10
86.91407056041511
 20
-135.7105771882945
 30
0.0
 10
86.91407056041511
 20
-135.7105771882945
 30
0.0
 10
93.9828903800745
 20
-135.7105771882945
 30
0.0
 10
93.9828903800745
 20
-135.7105771882945
 30
0.0
 10
93.9828903800745
 20
-136.2631682992673
 30
0.0
 10
93.53503900261124
 20
-136.7110196880444
 30
0.0
 10
92.98311818335858
 20
-136.7110196880444
 30
0.0
 10
92.98311818335858
 20
-136.7110196880444
 30
0.0
 10
86.48272918253065
 20
-136.7110196880444
 30
0.0
 10
86.48272918253065
 20
-136.7110196880444
 30
0.0
  0
SPLINE
  5
77
330
1F
100
AcDbEntity
  8
_U+30EC_U+30A4_U+30E4_U+30FC 1
 62
     7
420
 16777215
370
     9
100
AcDbSpline
210
0.0
220
0.0
230
1.0
 70
    11
 71
     3
 72
    17
 73
    13
 74
     0
 42
0.0000000001
 43
0.0000000001
 12
1.0
 22
0.0
 32
0.0
 13
1.0
 23
0.0
 33
0.0
 40
0.0
 40
0.0
 40
0.0
 40
0.0
 40
1.0
 40
1.0
 40
1.0
 40
2.0
 40
2.0
 40
2.0
 40
3.0
 40
3.0
 40
3.0
 40
4.0
 40
4.0
 40
4.0
 40
4.0
 10
89.08309164439598
 20
-123.2109196914194
 30
0.0
 10
89.08309164439598
 20
-123.1557805247666
 30
0.0
 10
89.03832189510983
 20
-123.1110130247778
 30
0.0
 10
88.9825124520892
 20
-123.1110130247778
 30
0.0
 10
88.92737328682925
 20
-123.1110130247778
 30
0.0
 10
88.88260578797137
 20
-123.1557805247666
 30
0.0
 10
88.88260578797137
 20
-123.2109196914194
 30
0.0
 10
88.88260578797137
 20
-123.2660235802946
 30
0.0
 10
88.92737328682925
 20
-123.310826358061
 30
0.0
 10
88.9825124520892
 20
-123.310826358061
 30
0.0
 10
89.03832189510983
 20
-123.310826358061
 30
0.0
 10
89.08309164439598
 20
-123.2660235802946
 30
0.0
 10
89.08309164439598
 20
-123.2109196914194
 30
0.0
  0
SPLINE
  5
78
330
1F
100
AcDbEntity
  8
_U+30EC_U+30A4_U+30E4_U+30FC 1
 62
     7
420
 16777215
370
     9
100
AcDbSpline
210
0.0
220
0.0
230
1.0
 70
    11
 71
     3
 72
    17
 73
    13
 74
     0
 42
0.0000000001
 43
0.0000000001
 12
1.0
 22
0.0
 32
0.0
 13
1.0
 23
0.0
 33
0.0
 40
0.0
 40
0.0
 40
0.0
 40
0.0
 40
1.0
 40
1.0
 40
1.0
 40
2.0
 40
2.0
 40
2.0
 40
3.0
 40
3.0
 40
3.0
 40
4.0
 40
4.0
 40
4.0
 40
4.0
 10
85.58289892770946
 20
-123.2109196914194
 30
0.0
 10
85.58289892770946
 20
-123.1557805247666
 30
0.0
 10
85.5380961510747
 20
-123.1110130247778
 30
0.0
 10
85.4829944230738
 20
-123.1110130247778
 30
0.0
 10
85.42785309833167
 20
-123.1110130247778
 30
0.0
 10
85.38308559947379
 20
-123.1557805247666
 30
0.0
 10
85.38308559947379
 20
-123.2109196914194
 30
0.0
 10
85.38308559947379
 20
-123.2660235802946
 30
0.0
 10
85.42785309833167
 20
-123.310826358061
 30
0.0
 10
85.4829944230738
 20
-123.310826358061
 30
0.0
 10
85.5380961510747
 20
-123.310826358061
 30
0.0
 10
85.58289892770946
 20
-123.2660235802946
 30
0.0
 10
85.58289892770946
 20
-123.2109196914194
 30
0.0
  0
SPLINE
  5
79
330
1F
100
AcDbEntity
  8
_U+30EC_U+30A4_U+30E4_U+30FC 1
 62
     7
420
 16777215
370
     9
100
AcDbSpline
210
0.0
220
0.0
230
1.0
 70
    11
 71
     3
 72
    17
 73
    13
 74
     0
 42
0.0000000001
 43
0.0000000001
 12
1.0
 22
0.0
 32
0.0
 13
1.0
 23
0.0
 33
0.0
 40
0.0
 40
0.0
 40
0.0
 40
0.0
 40
1.0
 40
1.0
 40
1.0
 40
2.0
 40
2.0
 40
2.0
 40
3.0
 40
3.0
 40
3.0
 40
4.0
 40
4.0
 40
4.0
 40
4.0
 10
80.58266211083168
 20
-127.2108552459752
 30
0.0
 10
80.58266211083168
 20
-127.1557160793221
 30
0.0
 10
80.5378946119738
 20
-127.1109485793335
 30
0.0
 10
80.48275544671385
 20
-127.1109485793335
 30
0.0
 10
80.42765155923078
 20
-127.1109485793335
 30
0.0
 10
80.38284878259601
 20
-127.1557160793221
 30
0.0
 10
80.38284878259601
 20
-127.2108552459752
 30
0.0
 10
80.38284878259601
 20
-127.2659591348501
 30
0.0
 10
80.42765155923078
 20
-127.3107619126168
 30
0.0
 10
80.48275544671385
 20
-127.3107619126168
 30
0.0
 10
80.5378946119738
 20
-127.3107619126168
 30
0.0
 10
80.58266211083168
 20
-127.2659591348501
 30
0.0
 10
80.58266211083168
 20
-127.2108552459752
 30
0.0
  0
SPLINE
  5
7A
330
1F
100
AcDbEntity
  8
_U+30EC_U+30A4_U+30E4_U+30FC 1
 62
     7
420
 16777215
370
     9
100
AcDbSpline
210
0.0
220
0.0
230
1.0
 70
    11
 71
     3
 72
    17
 73
    13
 74
     0
 42
0.0000000001
 43
0.0000000001
 12
1.0
 22
0.0
 32
0.0
 13
1.0
 23
0.0
 33
0.0
 40
0.0
 40
0.0
 40
0.0
 40
0.0
 40
1.0
 40
1.0
 40
1.0
 40
2.0
 40
2.0
 40
2.0
 40
3.0
 40
3.0
 40
3.0
 40
4.0
 40
4.0
 40
4.0
 40
4.0
 10
80.58266211083168
 20
-136.7110196880444
 30
0.0
 10
80.58266211083168
 20
-136.6559157991695
 30
0.0
 10
80.5378946119738
 20
-136.6111130214028
 30
0.0
 10
80.48275544671385
 20
-136.6111130214028
 30
0.0
 10
80.42765155923078
 20
-136.6111130214028
 30
0.0
 10
80.38284878259601
 20
-136.6559157991695
 30
0.0
 10
80.38284878259601
 20
-136.7110196880444
 30
0.0
 10
80.38284878259601
 20
-136.7661588546975
 30
0.0
 10
80.42765155923078
 20
-136.810926354686
 30
0.0
 10
80.48275544671385
 20
-136.810926354686
 30
0.0
 10
80.5378946119738
 20
-136.810926354686
 30
0.0
 10
80.58266211083168
 20
-136.7661588546975
 30
0.0
 10
80.58266211083168
 20
-136.7110196880444
 30
0.0
  0
SPLINE
  5
7B
330
1F
100
AcDbEntity
  8
_U+30EC_U+30A4_U+30E4_U+30FC 1
 62
     7
420
 16777215
370
    25
100
AcDbSpline
210
0.0
220
0.0
230
1.0
 70
     8
 71
     3
 72
     8
 73
     4
 74
     0
 42
0.0000000001
 43
0.0000000001
 12
1.0
 22
0.0
 32
0.0
 13
1.0
 23
0.0
 33
0.0
 40
0.0
 40
0.0
 40
0.0
 40
0.0
 40
1.0
 40
1.0
 40
1.0
 40
1.0
 10
84.48251664554607
 20
-134.7108049663226
 30
0.0
 10
84.48251664554607
 20
-135.8153169104909
 30
0.0
 10
85.37825254404153
 20
-136.7110196880444
 30
0.0
 10
86.48272918253065
 20
-136.7110196880444
 30
0.0
  0
SPLINE
  5
7C
330
1F
100
AcDbEntity
  8
_U+30EC_U+30A4_U+30E4_U+30FC 1
 62
     7
420
 16777215
370
     9
100
AcDbSpline
210
0.0
220
0.0
230
1.0
 70
    11
 71
     3
 72
    17
 73
    13
 74
     0
 42
0.0000000001
 43
0.0000000001
 12
1.0
 22
0.0
 32
0.0
 13
1.0
 23
0.0
 33
0.0
 40
0.0
 40
0.0
 40
0.0
 40
0.0
 40
1.0
 40
1.0
 40
1.0
 40
2.0
 40
2.0
 40
2.0
 40
3.0
 40
3.0
 40
3.0
 40
4.0
 40
4.0
 40
4.0
 40
4.0
 10
105.0829749737291
 20
-127.2108552459752
 30
0.0
 10
105.0829749737291
 20
-127.1557160793221
 30
0.0
 10
105.0382048202521
 20
-127.1109485793335
 30
0.0
 10
104.9830656549922
 20
-127.1109485793335
 30
0.0
 10
104.9279617675091
 20
-127.1109485793335
 30
0.0
 10
104.8831589908744
 20
-127.1557160793221
 30
0.0
 10
104.8831589908744
 20
-127.2108552459752
 30
0.0
 10
104.8831589908744
 20
-127.2659591348501
 30
0.0
 10
104.9279617675091
 20
-127.3107619126168
 30
0.0
 10
104.9830656549922
 20
-127.3107619126168
 30
0.0
 10
105.0382048202521
 20
-127.3107619126168
 30
0.0
 10
105.0829749737291
 20
-127.2659591348501
 30
0.0
 10
105.0829749737291
 20
-127.2108552459752
 30
0.0
  0
SPLINE
  5
7D
330
1F
100
AcDbEntity
  8
_U+30EC_U+30A4_U+30E4_U+30FC 1
 62
     7
420
 16777215
370
    25
100
AcDbSpline
210
0.0
220
0.0
230
1.0
 70
     8
 71
     3
 72
    11
 73
     7
 74
     0
 42
0.0000000001
 43
0.0000000001
 12
1.0
 22
0.0
 32
0.0
 13
1.0
 23
0.0
 33
0.0
 40
0.0
 40
0.0
 40
0.0
 40
0.0
 40
1.0
 40
1.0
 40
1.0
 40
2.0
 40
2.0
 40
2.0
 40
2.0
 10
86.70184164499129
 20
-135.1986260773115
 30
0.0
 10
86.58471942279823
 20
-135.3157835772821
 30
0.0
 10
86.58471942279823
 20
-135.505930799457
 30
0.0
 10
86.70184164499129
 20
-135.6230882994276
 30
0.0
 10
86.75835445327664
 20
-135.6795680216354
 30
0.0
 10
86.83483886718008
 20
-135.7105771882945
 30
0.0
 10
86.91407056041511
 20
-135.7105771882945
 30
0.0
  0
SPLINE
  5
7E
330
1F
100
AcDbEntity
  8
_U+30EC_U+30A4_U+30E4_U+30FC 1
 62
     7
420
 16777215
370
    25
100
AcDbSpline
210
0.0
220
0.0
230
1.0
 70
     8
 71
     3
 72
    11
 73
     7
 74
     0
 42
0.0000000001
 43
0.0000000001
 12
1.0
 22
0.0
 32
0.0
 13
1.0
 23
0.0
 33
0.0
 40
0.0
 40
0.0
 40
0.0
 40
0.0
 40
1.0
 40
1.0
 40
1.0
 40
2.0
 40
2.0
 40
2.0
 40
2.0
 10
85.4829944230738
 20
-134.279498855319
 30
0.0
 10
85.4829944230738
 20
-134.4448457997219
 30
0.0
 10
85.61733003794215
 20
-134.5792188552439
 30
0.0
 10
85.78271225594513
 20
-134.5792188552439
 30
0.0
 10
85.86261642057327
 20
-134.5792188552439
 30
0.0
 10
85.9384305340708
 20
-134.5482096885854
 30
0.0
 10
85.9949080838649
 20
-134.4916946885995
 30
0.0
  0
POLYLINE
  5
7F
330
1F
100
AcDbEntity
  8
_U+30EC_U+30A4_U+30E4_U+30FC 1
 62
     7
420
 16777215
370
     9
100
AcDb2dPolyline
 66
     1
 10
0.0
 20
0.0
 30
0.0
  0
VERTEX
  5
80
330
7F
100
AcDbEntity
  8
_U+30EC_U+30A4_U+30E4_U+30FC 1
 62
     7
420
 16777215
370
     9
100
AcDbVertex
100
AcDb2dVertex
 10
89.9829549265658
 20
-127.2108552459752
 30
0.0
  0
VERTEX
  5
81
330
7F
100
AcDbEntity
  8
_U+30EC_U+30A4_U+30E4_U+30FC 1
 62
     7
420
 16777215
370
     9
100
AcDbVertex
100
AcDb2dVertex
 10
104.9830656549922
 20
-127.2108552459752
 30
0.0
  0
SEQEND
  5
82
330
7F
100
AcDbEntity
  8
_U+30EC_U+30A4_U+30E4_U+30FC 1
 62
     7
420
 16777215
370
     9
  0
POLYLINE
  5
83
330
1F
100
AcDbEntity
  8
_U+30EC_U+30A4_U+30E4_U+30FC 1
 62
     7
420
 16777215
370
     9
100
AcDb2dPolyline
 66
     1
 10
0.0
 20
0.0
 30
0.0
  0
VERTEX
  5
84
330
83
100
AcDbEntity
  8
_U+30EC_U+30A4_U+30E4_U+30FC 1
 62
     7
420
 16777215
370
     9
100
AcDbVertex
100
AcDb2dVertex
 10
104.9830656549922
 20
-128.6708613567214
 30
0.0
  0
VERTEX
  5
85
330
83
100
AcDbEntity
  8
_U+30EC_U+30A4_U+30E4_U+30FC 1
 62
     7
420
 16777215
370
     9
100
AcDbVertex
100
AcDb2dVertex
 10
104.9830656549922
 20
-126.2110830240029
 30
0.0
  0
SEQEND
  5
86
330
83
100
AcDbEntity
  8
_U+30EC_U+30A4_U+30E4_U+30FC 1
 62
     7
420
 16777215
370
     9
  0
INSERT
  5
88
330
1F
100
AcDbEntity
  8
_U+30EC_U+30A4_U+30E4_U+30FC 1
100
AcDbBlockReference
  2
block 2
 10
0.0
 20
0.0
 30
0.0
  0
POLYLINE
  5
8F
330
1F
100
AcDbEntity
  8
_U+30EC_U+30A4_U+30E4_U+30FC 1
 62
     7
420
 16777215
370
     9
100
AcDb2dPolyline
 66
     1
 10
0.0
 20
0.0
 30
0.0
  0
VERTEX
  5
90
330
8F
100
AcDbEntity
  8
_U+30EC_U+30A4_U+30E4_U+30FC 1
 62
     7
420
 16777215
370
     9
100
AcDbVertex
100
AcDb2dVertex
 10
88.9825124520892
 20
-123.2109196914194
 30
0.0
  0
VERTEX
  5
91
330
8F
100
AcDbEntity
  8
_U+30EC_U+30A4_U+30E4_U+30FC 1
 62
     7
420
 16777215
370
     9
100
AcDbVertex
100
AcDb2dVertex
 10
85.4829944230738
 20
-123.2109196914194
 30
0.0
  0
SEQEND
  5
92
330
8F
100
AcDbEntity
  8
_U+30EC_U+30A4_U+30E4_U+30FC 1
 62
     7
420
 16777215
370
     9
  0
POLYLINE
  5
93
330
1F
100
AcDbEntity
  8
_U+30EC_U+30A4_U+30E4_U+30FC 1
 62
     7
420
 16777215
370
     9
100
AcDb2dPolyline
 66
     1
 10
0.0
 20
0.0
 30
0.0
  0
VERTEX
  5
94
330
93
100
AcDbEntity
  8
_U+30EC_U+30A4_U+30E4_U+30FC 1
 62
     7
420
 16777215
370
     9
100
AcDbVertex
100
AcDb2dVertex
 10
88.9825124520892
 20
-125.6708744130267
 30
0.0
  0
VERTEX
  5
95
330
93
100
AcDbEntity
  8
_U+30EC_U+30A4_U+30E4_U+30FC 1
 62
     7
420
 16777215
370
     9
100
AcDbVertex
100
AcDb2dVertex
 10
88.9825124520892
 20
-122.2107946916694
 30
0.0
  0
SEQEND
  5
96
330
93
100
AcDbEntity
  8
_U+30EC_U+30A4_U+30E4_U+30FC 1
 62
     7
420
 16777215
370
     9
  0
POLYLINE
  5
97
330
1F
100
AcDbEntity
  8
_U+30EC_U+30A4_U+30E4_U+30FC 1
 62
     7
420
 16777215
370
     9
100
AcDb2dPolyline
 66
     1
 10
0.0
 20
0.0
 30
0.0
  0
VERTEX
  5
98
330
97
100
AcDbEntity
  8
_U+30EC_U+30A4_U+30E4_U+30FC 1
 62
     7
420
 16777215
370
     9
100
AcDbVertex
100
AcDb2dVertex
 10
85.4829944230738
 20
-124.6655988577226
 30
0.0
  0
VERTEX
  5
99
330
97
100
AcDbEntity
  8
_U+30EC_U+30A4_U+30E4_U+30FC 1
 62
     7
420
 16777215
370
     9
100
AcDbVertex
100
AcDb2dVertex
 10
85.4829944230738
 20
-122.2107946916694
 30
0.0
  0
SEQEND
  5
9A
330
97
100
AcDbEntity
  8
_U+30EC_U+30A4_U+30E4_U+30FC 1
 62
     7
420
 16777215
370
     9
  0
INSERT
  5
9C
330
1F
100
AcDbEntity
  8
_U+30EC_U+30A4_U+30E4_U+30FC 1
100
AcDbBlockReference
  2
block 3
 10
0.0
 20
0.0
 30
0.0
  0
POLYLINE
  5
AB
330
1F
100
AcDbEntity
  8
_U+30EC_U+30A4_U+30E4_U+30FC 1
 62
     7
420
 16777215
370
     9
100
AcDb2dPolyline
 66
     1
 10
0.0
 20
0.0
 30
0.0
  0
VERTEX
  5
AC
330
AB
100
AcDbEntity
  8
_U+30EC_U+30A4_U+30E4_U+30FC 1
 62
     7
420
 16777215
370
     9
100
AcDbVertex
100
AcDb2dVertex
 10
80.48275544671385
 20
-136.7110196880444
 30
0.0
  0
VERTEX
  5
AD
330
AB
100
AcDbEntity
  8
_U+30EC_U+30A4_U+30E4_U+30FC 1
 62
     7
420
 16777215
370
     9
100
AcDbVertex
100
AcDb2dVertex
 10
80.48275544671385
 20
-127.2108552459752
 30
0.0
  0
SEQEND
  5
AE
330
AB
100
AcDbEntity
  8
_U+30EC_U+30A4_U+30E4_U+30FC 1
 62
     7
420
 16777215
370
     9
  0
POLYLINE
  5
AF
330
1F
100
AcDbEntity
  8
_U+30EC_U+30A4_U+30E4_U+30FC 1
 62
     7
420
 16777215
370
     9
100
AcDb2dPolyline
 66
     1
 10
0.0
 20
0.0
 30
0.0
  0
VERTEX
  5
B0
330
AF
100
AcDbEntity
  8
_U+30EC_U+30A4_U+30E4_U+30FC 1
 62
     7
420
 16777215
370
     9
100
AcDbVertex
100
AcDb2dVertex
 10
83.524087869123
 20
-136.7110196880444
 30
0.0
  0
VERTEX
  5
B1
330
AF
100
AcDbEntity
  8
_U+30EC_U+30A4_U+30E4_U+30FC 1
 62
     7
420
 16777215
370
     9
100
AcDbVertex
100
AcDb2dVertex
 10
79.48301852777482
 20
-136.7110196880444
 30
0.0
  0
SEQEND
  5
B2
330
AF
100
AcDbEntity
  8
_U+30EC_U+30A4_U+30E4_U+30FC 1
 62
     7
420
 16777215
370
     9
  0
POLYLINE
  5
B3
330
1F
100
AcDbEntity
  8
_U+30EC_U+30A4_U+30E4_U+30FC 1
 62
     7
420
 16777215
370
     9
100
AcDb2dPolyline
 66
     1
 10
0.0
 20
0.0
 30
0.0
  0
VERTEX
  5
B4
330
B3
100
AcDbEntity
  8
_U+30EC_U+30A4_U+30E4_U+30FC 1
 62
     7
420
 16777215
370
     9
100
AcDbVertex
100
AcDb2dVertex
 10
81.94279679835398
 20
-127.2108552459752
 30
0.0
  0
VERTEX
  5
B5
330
B3
100
AcDbEntity
  8
_U+30EC_U+30A4_U+30E4_U+30FC 1
 62
     7
420
 16777215
370
     9
100
AcDbVertex
100
AcDb2dVertex
 10
79.48301852777482
 20
-127.2108552459752
 30
0.0
  0
SEQEND
  5
B6
330
B3
100
AcDbEntity
  8
_U+30EC_U+30A4_U+30E4_U+30FC 1
 62
     7
420
 16777215
370
     9
  0
INSERT
  5
B8
330
1F
100
AcDbEntity
  8
_U+30EC_U+30A4_U+30E4_U+30FC 1
100
AcDbBlockReference
  2
block 4
 10
0.0
 20
0.0
 30
0.0
  0
POLYLINE
  5
C8
330
1F
100
AcDbEntity
  8
_U+30EC_U+30A4_U+30E4_U+30FC 1
 62
     7
420
 16777215
370
     9
100
AcDb2dPolyline
 66
     1
 10
0.0
 20
0.0
 30
0.0
  0
VERTEX
  5
C9
330
C8
100
AcDbEntity
  8
_U+30EC_U+30A4_U+30E4_U+30FC 1
 62
     7
420
 16777215
370
     9
100
AcDbVertex
100
AcDb2dVertex
 10
85.06886644082353
 20
-136.1253732993022
 30
0.0
  0
VERTEX
  5
CA
330
C8
100
AcDbEntity
  8
_U+30EC_U+30A4_U+30E4_U+30FC 1
 62
     7
420
 16777215
370
     9
100
AcDbVertex
100
AcDb2dVertex
 10
80.48275544671385
 20
-140.7107788537113
 30
0.0
  0
SEQEND
  5
CB
330
C8
100
AcDbEntity
  8
_U+30EC_U+30A4_U+30E4_U+30FC 1
 62
     7
420
 16777215
370
     9
  0
POLYLINE
  5
CC
330
1F
100
AcDbEntity
  8
_U+30EC_U+30A4_U+30E4_U+30FC 1
 62
     7
420
 16777215
370
     9
100
AcDb2dPolyline
 66
     1
 10
0.0
 20
0.0
 30
0.0
  0
VERTEX
  5
CD
330
CC
100
AcDbEntity
  8
_U+30EC_U+30A4_U+30E4_U+30FC 1
 62
     7
420
 16777215
370
     9
100
AcDbVertex
100
AcDb2dVertex
 10
80.48275544671385
 20
-140.7107788537113
 30
0.0
  0
VERTEX
  5
CE
330
CC
100
AcDbEntity
  8
_U+30EC_U+30A4_U+30E4_U+30FC 1
 62
     7
420
 16777215
370
     9
100
AcDbVertex
100
AcDb2dVertex
 10
76.96877136969638
 20
-140.7107788537113
 30
0.0
  0
SEQEND
  5
CF
330
CC
100
AcDbEntity
  8
_U+30EC_U+30A4_U+30E4_U+30FC 1
 62
     7
420
 16777215
370
     9
  0
INSERT
  5
D1
330
1F
100
AcDbEntity
  8
_U+30EC_U+30A4_U+30E4_U+30FC 1
100
AcDbBlockReference
  2
block 5
 10
0.0
 20
0.0
 30
0.0
  0
SPLINE
  5
D9
330
1F
100
AcDbEntity
  8
_U+30EC_U+30A4_U+30E4_U+30FC 1
 62
     7
420
 16777215
370
    25
100
AcDbSpline
210
0.0
220
0.0
230
1.0
 70
     8
 71
     3
 72
     8
 73
     4
 74
     0
 42
0.0000000001
 43
0.0000000001
 12
1.0
 22
0.0
 32
0.0
 13
1.0
 23
0.0
 33
0.0
 40
0.0
 40
0.0
 40
0.0
 40
0.0
 40
1.0
 40
1.0
 40
1.0
 40
1.0
 10
89.9829549265658
 20
-116.2108208042807
 30
0.0
 10
89.70665937805911
 20
-116.2108208042807
 30
0.0
 10
89.48275132821594
 20
-116.4345877486691
 30
0.0
 10
89.48275132821594
 20
-116.7107069152667
 30
0.0
  0
SPLINE
  5
DA
330
1F
100
AcDbEntity
  8
_U+30EC_U+30A4_U+30E4_U+30FC 1
 62
     7
420
 16777215
370
    25
100
AcDbSpline
210
0.0
220
0.0
230
1.0
 70
    11
 71
     3
 72
    74
 73
    70
 74
     0
 42
0.0000000001
 43
0.0000000001
 12
1.0
 22
0.0
 32
0.0
 13
1.0
 23
0.0
 33
0.0
 40
0.0
 40
0.0
 40
0.0
 40
0.0
 40
1.0
 40
1.0
 40
1.0
 40
2.0
 40
2.0
 40
2.0
 40
3.0
 40
3.0
 40
3.0
 40
4.0
 40
4.0
 40
4.0
 40
5.0
 40
5.0
 40
5.0
 40
6.0
 40
6.0
 40
6.0
 40
7.0
 40
7.0
 40
7.0
 40
8.0
 40
8.0
 40
8.0
 40
9.0
 40
9.0
 40
9.0
 40
10.0
 40
10.0
 40
10.0
 40
11.0
 40
11.0
 40
11.0
 40
12.0
 40
12.0
 40
12.0
 40
13.0
 40
13.0
 40
13.0
 40
14.0
 40
14.0
 40
14.0
 40
15.0
 40
15.0
 40
15.0
 40
16.0
 40
16.0
 40
16.0
 40
17.0
 40
17.0
 40
17.0
 40
18.0
 40
18.0
 40
18.0
 40
19.0
 40
19.0
 40
19.0
 40
20.0
 40
20.0
 40
20.0
 40
21.0
 40
21.0
 40
21.0
 40
22.0
 40
22.0
 40
22.0
 40
23.0
 40
23.0
 40
23.0
 40
23.0
 10
86.91407056041511
 20
-135.7105771882945
 30
0.0
 10
86.83483886718008
 20
-135.7105771882945
 30
0.0
 10
86.75835445327664
 20
-135.6795680216354
 30
0.0
 10
86.70184164499129
 20
-135.6230882994276
 30
0.0
 10
86.58471942279823
 20
-135.505930799457
 30
0.0
 10
86.58471942279823
 20
-135.3157835772821
 30
0.0
 10
86.70184164499129
 20
-135.1986260773115
 30
0.0
 10
86.70184164499129
 20
-135.1986260773115
 30
0.0
 10
89.69011410070345
 20
-132.2110569113919
 30
0.0
 10
89.69011410070345
 20
-132.2110569113919
 30
0.0
 10
89.69011410070345
 20
-132.2110569113919
 30
0.0
 10
92.98311818335858
 20
-132.2110569113919
 30
0.0
 10
92.98311818335858
 20
-132.2110569113919
 30
0.0
 10
93.34002345203095
 20
-132.2110569113919
 30
0.0
 10
93.67008233249933
 20
-132.0202041336615
 30
0.0
 10
93.84922288348463
 20
-131.7108180226276
 30
0.0
 10
93.84922288348463
 20
-131.7108180226276
 30
0.0
 10
104.4828620566423
 20
-131.7108180226276
 30
0.0
 10
104.4828620566423
 20
-131.7108180226276
 30
0.0
 10
104.759157605149
 20
-131.7108180226276
 30
0.0
 10
104.9830656549922
 20
-131.4869099671285
 30
0.0
 10
104.9830656549922
 20
-131.2105791338639
 30
0.0
 10
104.9830656549922
 20
-131.2105791338639
 30
0.0
 10
89.9829549265658
 20
-131.2105791338639
 30
0.0
 10
89.9829549265658
 20
-131.2105791338639
 30
0.0
 10
89.9829549265658
 20
-131.2105791338639
 30
0.0
 10
89.9829549265658
 20
-116.2108208042807
 30
0.0
 10
89.9829549265658
 20
-116.2108208042807
 30
0.0
 10
89.70665937805911
 20
-116.2108208042807
 30
0.0
 10
89.48275132821594
 20
-116.4345877486691
 30
0.0
 10
89.48275132821594
 20
-116.7107069152667
 30
0.0
 10
89.48275132821594
 20
-116.7107069152667
 30
0.0
 10
89.48275132821594
 20
-127.3445227459416
 30
0.0
 10
89.48275132821594
 20
-127.3445227459416
 30
0.0
 10
89.17336522499792
 20
-127.5236633014525
 30
0.0
 10
88.9825124520892
 20
-127.853686912481
 30
0.0
 10
88.9825124520892
 20
-128.2105921901695
 30
0.0
 10
88.9825124520892
 20
-128.2105921901695
 30
0.0
 10
88.9825124520892
 20
-131.5034199671244
 30
0.0
 10
88.9825124520892
 20
-131.5034199671244
 30
0.0
 10
88.9825124520892
 20
-131.5034199671244
 30
0.0
 10
85.9949080838649
 20
-134.4916946885995
 30
0.0
 10
85.9949080838649
 20
-134.4916946885995
 30
0.0
 10
85.9384305340708
 20
-134.5482096885854
 30
0.0
 10
85.86261642057327
 20
-134.5792188552439
 30
0.0
 10
85.78271225594513
 20
-134.5792188552439
 30
0.0
 10
85.61733003794215
 20
-134.5792188552439
 30
0.0
 10
85.4829944230738
 20
-134.4448457997219
 30
0.0
 10
85.4829944230738
 20
-134.279498855319
 30
0.0
 10
85.4829944230738
 20
-134.279498855319
 30
0.0
 10
85.4829944230738
 20
-127.2108552459752
 30
0.0
 10
85.4829944230738
 20
-127.2108552459752
 30
0.0
 10
84.93040116657829
 20
-127.2108552459752
 30
0.0
 10
84.48251664554607
 20
-127.6587066347519
 30
0.0
 10
84.48251664554607
 20
-128.2105921901695
 30
0.0
 10
84.48251664554607
 20
-128.2105921901695
 30
0.0
 10
84.48251664554607
 20
-134.7108049663226
 30
0.0
 10
84.48251664554607
 20
-134.7108049663226
 30
0.0
 10
84.48251664554607
 20
-135.8153169104909
 30
0.0
 10
85.37825254404153
 20
-136.7110196880444
 30
0.0
 10
86.48272918253065
 20
-136.7110196880444
 30
0.0
 10
86.48272918253065
 20
-136.7110196880444
 30
0.0
 10
92.98311818335858
 20
-136.7110196880444
 30
0.0
 10
92.98311818335858
 20
-136.7110196880444
 30
0.0
 10
93.53503900261124
 20
-136.7110196880444
 30
0.0
 10
93.9828903800745
 20
-136.2631682992673
 30
0.0
 10
93.9828903800745
 20
-135.7105771882945
 30
0.0
 10
93.9828903800745
 20
-135.7105771882945
 30
0.0
 10
86.91407056041511
 20
-135.7105771882945
 30
0.0
 10
86.91407056041511
 20
-135.7105771882945
 30
0.0
  0
HATCH
  5
DB
330
1F
100
AcDbEntity
  8
_U+30EC_U+30A4_U+30E4_U+30FC 1
 62
   253
420
 11711154
100
AcDbHatch
 10
0.0
 20
0.0
 30
0.0
210
0.0
220
0.0
230
1.0
  2
SOLID
 70
     1
 71
     0
 91
        1
 92
        1
 93
        1
 72
     4
 94
        3
 73
     0
 74
     1
 95
       74
 96
       70
 40
0.0
 40
0.0
 40
0.0
 40
0.0
 40
1.0
 40
1.0
 40
1.0
 40
2.0
 40
2.0
 40
2.0
 40
3.0
 40
3.0
 40
3.0
 40
4.0
 40
4.0
 40
4.0
 40
5.0
 40
5.0
 40
5.0
 40
6.0
 40
6.0
 40
6.0
 40
7.0
 40
7.0
 40
7.0
 40
8.0
 40
8.0
 40
8.0
 40
9.0
 40
9.0
 40
9.0
 40
10.0
 40
10.0
 40
10.0
 40
11.0
 40
11.0
 40
11.0
 40
12.0
 40
12.0
 40
12.0
 40
13.0
 40
13.0
 40
13.0
 40
14.0
 40
14.0
 40
14.0
 40
15.0
 40
15.0
 40
15.0
 40
16.0
 40
16.0
 40
16.0
 40
17.0
 40
17.0
 40
17.0
 40
18.0
 40
18.0
 40
18.0
 40
19.0
 40
19.0
 40
19.0
 40
20.0
 40
20.0
 40
20.0
 40
21.0
 40
21.0
 40
21.0
 40
22.0
 40
22.0
 40
22.0
 40
23.0
 40
23.0
 40
23.0
 40
23.0
 10
86.91407056041511
 20
-135.7105771882945
 10
86.83483886718008
 20
-135.7105771882945
 10
86.75835445327664
 20
-135.6795680216354
 10
86.70184164499129
 20
-135.6230882994276
 10
86.58471942279823
 20
-135.505930799457
 10
86.58471942279823
 20
-135.3157835772821
 10
86.70184164499129
 20
-135.1986260773115
 10
86.70184164499129
 20
-135.1986260773115
 10
89.69011410070345
 20
-132.2110569113919
 10
89.69011410070345
 20
-132.2110569113919
 10
89.69011410070345
 20
-132.2110569113919
 10
92.98311818335858
 20
-132.2110569113919
 10
92.98311818335858
 20
-132.2110569113919
 10
93.34002345203095
 20
-132.2110569113919
 10
93.67008233249933
 20
-132.0202041336615
 10
93.84922288348463
 20
-131.7108180226276
 10
93.84922288348463
 20
-131.7108180226276
 10
104.4828620566423
 20
-131.7108180226276
 10
104.4828620566423
 20
-131.7108180226276
 10
104.759157605149
 20
-131.7108180226276
 10
104.9830656549922
 20
-131.4869099671285
 10
104.9830656549922
 20
-131.2105791338639
 10
104.9830656549922
 20
-131.2105791338639
 10
89.9829549265658
 20
-131.2105791338639
 10
89.9829549265658
 20
-131.2105791338639
 10
89.9829549265658
 20
-131.2105791338639
 10
89.9829549265658
 20
-116.2108208042807
 10
89.9829549265658
 20
-116.2108208042807
 10
89.70665937805911
 20
-116.2108208042807
 10
89.48275132821594
 20
-116.4345877486691
 10
89.48275132821594
 20
-116.7107069152667
 10
89.48275132821594
 20
-116.7107069152667
 10
89.48275132821594
 20
-127.3445227459416
 10
89.48275132821594
 20
-127.3445227459416
 10
89.17336522499792
 20
-127.5236633014525
 10
88.9825124520892
 20
-127.853686912481
 10
88.9825124520892
 20
-128.2105921901695
 10
88.9825124520892
 20
-128.2105921901695
 10
88.9825124520892
 20
-131.5034199671244
 10
88.9825124520892
 20
-131.5034199671244
 10
88.9825124520892
 20
-131.5034199671244
 10
85.9949080838649
 20
-134.4916946885995
 10
85.9949080838649
 20
-134.4916946885995
 10
85.9384305340708
 20
-134.5482096885854
 10
85.86261642057327
 20
-134.5792188552439
 10
85.78271225594513
 20
-134.5792188552439
 10
85.61733003794215
 20
-134.5792188552439
 10
85.4829944230738
 20
-134.4448457997219
 10
85.4829944230738
 20
-134.279498855319
 10
85.4829944230738
 20
-134.279498855319
 10
85.4829944230738
 20
-127.2108552459752
 10
85.4829944230738
 20
-127.2108552459752
 10
84.93040116657829
 20
-127.2108552459752
 10
84.48251664554607
 20
-127.6587066347519
 10
84.48251664554607
 20
-128.2105921901695
 10
84.48251664554607
 20
-128.2105921901695
 10
84.48251664554607
 20
-134.7108049663226
 10
84.48251664554607
 20
-134.7108049663226
 10
84.48251664554607
 20
-135.8153169104909
 10
85.37825254404153
 20
-136.7110196880444
 10
86.48272918253065
 20
-136.7110196880444
 10
86.48272918253065
 20
-136.7110196880444
 10
92.98311818335858
 20
-136.7110196880444
 10
92.98311818335858
 20
-136.7110196880444
 10
93.53503900261124
 20
-136.7110196880444
 10
93.9828903800745
 20
-136.2631682992673
 10
93.9828903800745
 20
-135.7105771882945
 10
93.9828903800745
 20
-135.7105771882945
 10
86.91407056041511
 20
-135.7105771882945
 10
86.91407056041511
 20
-135.7105771882945
 97
        0
 97
        0
 75
     2
 76
     1
 98
        0
  0
POLYLINE
  5
DC
330
1F
100
AcDbEntity
  8
_U+30EC_U+30A4_U+30E4_U+30FC 1
 62
   179
420
  2234388
370
     9
100
AcDb2dPolyline
 66
     1
 10
0.0
 20
0.0
 30
0.0
  0
VERTEX
  5
DD
330
DC
100
AcDbEntity
  8
_U+30EC_U+30A4_U+30E4_U+30FC 1
 62
   179
420
  2234388
370
     9
100
AcDbVertex
100
AcDb2dVertex
 10
82.93258538421348
 20
-123.2091910803088
 30
0.0
  0
VERTEX
  5
DE
330
DC
100
AcDbEntity
  8
_U+30EC_U+30A4_U+30E4_U+30FC 1
 62
   179
420
  2234388
370
     9
100
AcDbVertex
100
AcDb2dVertex
 10
88.9725288412328
 20
-123.2091910803088
 30
0.0
  0
SEQEND
  5
DF
330
DC
100
AcDbEntity
  8
_U+30EC_U+30A4_U+30E4_U+30FC 1
 62
   179
420
  2234388
370
     9
  0
SPLINE
  5
E0
330
1F
100
AcDbEntity
  8
_U+30EC_U+30A4_U+30E4_U+30FC 1
 62
   179
420
  2234388
370
     9
100
AcDbSpline
210
0.0
220
0.0
230
1.0
 70
    11
 71
     3
 72
    17
 73
    13
 74
     0
 42
0.0000000001
 43
0.0000000001
 12
1.0
 22
0.0
 32
0.0
 13
1.0
 23
0.0
 33
0.0
 40
0.0
 40
0.0
 40
0.0
 40
0.0
 40
1.0
 40
1.0
 40
1.0
 40
2.0
 40
2.0
 40
2.0
 40
3.0
 40
3.0
 40
3.0
 40
4.0
 40
4.0
 40
4.0
 40
4.0
 10
84.57243756459958
 20
-123.2055574691986
 30
0.0
 10
84.57243756459958
 20
-123.1504535803237
 30
0.0
 10
84.52767220109023
 20
-123.1056508025569
 30
0.0
 10
84.47253090048176
 20
-123.1056508025569
 30
0.0
 10
84.41742701299869
 20
-123.1056508025569
 30
0.0
 10
84.37262423636392
 20
-123.1504535803237
 30
0.0
 10
84.37262423636392
 20
-123.2055574691986
 30
0.0
 10
84.37262423636392
 20
-123.2606966358517
 30
0.0
 10
84.41742701299869
 20
-123.3054641358402
 30
0.0
 10
84.47253090048176
 20
-123.3054641358402
 30
0.0
 10
84.52767220109023
 20
-123.3054641358402
 30
0.0
 10
84.57243756459958
 20
-123.2606966358517
 30
0.0
 10
84.57243756459958
 20
-123.2055574691986
 30
0.0
  0
POLYLINE
  5
E1
330
1F
100
AcDbEntity
  8
_U+30EC_U+30A4_U+30E4_U+30FC 1
 62
   179
420
  2234388
370
     9
100
AcDb2dPolyline
 66
     1
 10
0.0
 20
0.0
 30
0.0
  0
VERTEX
  5
E2
330
E1
100
AcDbEntity
  8
_U+30EC_U+30A4_U+30E4_U+30FC 1
 62
   179
420
  2234388
370
     9
100
AcDbVertex
100
AcDb2dVertex
 10
84.47253090048176
 20
-124.6655988577226
 30
0.0
  0
VERTEX
  5
E3
330
E1
100
AcDbEntity
  8
_U+30EC_U+30A4_U+30E4_U+30FC 1
 62
   179
420
  2234388
370
     9
100
AcDbVertex
100
AcDb2dVertex
 10
84.47253090048176
 20
-122.2058205250042
 30
0.0
  0
SEQEND
  5
E4
330
E1
100
AcDbEntity
  8
_U+30EC_U+30A4_U+30E4_U+30FC 1
 62
   179
420
  2234388
370
     9
  0
INSERT
  5
E6
330
1F
100
AcDbEntity
  8
_U+30EC_U+30A4_U+30E4_U+30FC 1
100
AcDbBlockReference
  2
block 6
 10
0.0
 20
0.0
 30
0.0
  0
ENDSEC
  0
SECTION
  2
OBJECTS
  0
DICTIONARY
  5
C
330
0
100
AcDbDictionary
281
     1
  3
ACAD_GROUP
350
D
  3
ACAD_LAYOUT
350
1A
  3
ACAD_MATERIAL
350
3B
  3
ACAD_MLEADERSTYLE
350
EC
  3
ACAD_MLINESTYLE
350
17
  3
ACAD_PLOTSETTINGS
350
19
  3
ACAD_PLOTSTYLENAME
350
E
  3
ACAD_TABLESTYLE
350
EB
  3
ACAD_VISUALSTYLE
350
2A
  0
SUN
  5
3F
330
29
100
AcDbSun
 90
        1
290
     0
 63
     7
421
 16777215
 40
1.0
291
     1
 91
  2455826
 92
 54000000
292
     0
 70
     2
 71
   256
280
     1
  0
DICTIONARY
  5
D
102
{ACAD_REACTORS
330
C
102
}
330
C
100
AcDbDictionary
281
     1
  0
DICTIONARY
  5
1A
102
{ACAD_REACTORS
330
C
102
}
330
C
100
AcDbDictionary
281
     1
  3
Layout1
350
1E
  3
Layout2
350
26
  3
Model
350
22
  0
DICTIONARY
  5
3B
102
{ACAD_REACTORS
330
C
102
}
330
C
100
AcDbDictionary
281
     1
  3
ByBlock
350
3D
  3
ByLayer
350
3C
  3
Global
350
3E
  0
DICTIONARY
  5
EC
102
{ACAD_REACTORS
330
C
102
}
330
C
100
AcDbDictionary
281
     1
  0
DICTIONARY
  5
17
102
{ACAD_REACTORS
330
C
102
}
330
C
100
AcDbDictionary
281
     1
  3
Standard
350
18
  0
DICTIONARY
  5
19
102
{ACAD_REACTORS
330
C
102
}
330
C
100
AcDbDictionary
281
     1
  0
ACDBDICTIONARYWDFLT
  5
E
102
{ACAD_REACTORS
330
C
102
}
330
C
100
AcDbDictionary
281
     1
  3
Normal
350
F
100
AcDbDictionaryWithDefault
340
F
  0
DICTIONARY
  5
EB
102
{ACAD_REACTORS
330
C
102
}
330
C
100
AcDbDictionary
281
     1
  0
DICTIONARY
  5
2A
102
{ACAD_REACTORS
330
C
102
}
330
C
100
AcDbDictionary
281
     1
  3
2dWireframe
350
2F
  3
3D Hidden
350
31
  3
3dWireframe
350
30
  3
Basic
350
32
  3
Brighten
350
36
  3
ColorChange
350
3A
  3
Conceptual
350
34
  3
Dim
350
35
  3
Facepattern
350
39
  3
Flat
350
2B
  3
FlatWithEdges
350
2C
  3
Gouraud
350
2D
  3
GouraudWithEdges
350
2E
  3
Linepattern
350
38
  3
Realistic
350
33
  3
Thicken
350
37
  0
LAYOUT
  5
1E
102
{ACAD_REACTORS
330
1A
102
}
330
1A
100
AcDbPlotSettings
  1

  2
none_device
  4

  6

 40
0.0
 41
0.0
 42
0.0
 43
0.0
 44
0.0
 45
0.0
 46
0.0
 47
0.0
 48
0.0
 49
0.0
140
0.0
141
0.0
142
1.0
143
1.0
 70
   688
 72
     0
 73
     0
 74
     5
  7

 75
    16
 76
     0
 77
     2
 78
   300
147
1.0
148
0.0
149
0.0
100
AcDbLayout
  1
Layout1
 70
     1
 71
     1
 10
0.0
 20
0.0
 11
12.0
 21
9.0
 12
0.0
 22
0.0
 32
0.0
 14
1.000000000000000E+20
 24
1.000000000000000E+20
 34
1.000000000000000E+20
 15
-1.000000000000000E+20
 25
-1.000000000000000E+20
 35
-1.000000000000000E+20
146
0.0
 13
0.0
 23
0.0
 33
0.0
 16
1.0
 26
0.0
 36
0.0
 17
0.0
 27
1.0
 37
0.0
 76
     0
330
1B
  0
LAYOUT
  5
26
102
{ACAD_REACTORS
330
1A
102
}
330
1A
100
AcDbPlotSettings
  1

  2
none_device
  4

  6

 40
0.0
 41
0.0
 42
0.0
 43
0.0
 44
0.0
 45
0.0
 46
0.0
 47
0.0
 48
0.0
 49
0.0
140
0.0
141
0.0
142
1.0
143
1.0
 70
   688
 72
     0
 73
     0
 74
     5
  7

 75
    16
 76
     0
 77
     2
 78
   300
147
1.0
148
0.0
149
0.0
100
AcDbLayout
  1
Layout2
 70
     1
 71
     2
 10
0.0
 20
0.0
 11
0.0
 21
0.0
 12
0.0
 22
0.0
 32
0.0
 14
0.0
 24
0.0
 34
0.0
 15
0.0
 25
0.0
 35
0.0
146
0.0
 13
0.0
 23
0.0
 33
0.0
 16
1.0
 26
0.0
 36
0.0
 17
0.0
 27
1.0
 37
0.0
 76
     0
330
23
  0
LAYOUT
  5
22
102
{ACAD_REACTORS
330
1A
102
}
330
1A
100
AcDbPlotSettings
  1

  2
none_device
  4

  6

 40
0.0
 41
0.0
 42
0.0
 43
0.0
 44
0.0
 45
0.0
 46
0.0
 47
0.0
 48
0.0
 49
0.0
140
0.0
141
0.0
142
1.0
143
1.0
 70
  1712
 72
     0
 73
     0
 74
     0
  7

 75
     0
 76
     0
 77
     2
 78
   300
147
1.0
148
0.0
149
0.0
100
AcDbLayout
  1
Model
 70
     1
 71
     0
 10
0.0
 20
0.0
 11
12.0
 21
9.0
 12
0.0
 22
0.0
 32
0.0
 14
1.000000000000000E+20
 24
1.000000000000000E+20
 34
1.000000000000000E+20
 15
-1.000000000000000E+20
 25
-1.000000000000000E+20
 35
-1.000000000000000E+20
146
0.0
 13
0.0
 23
0.0
 33
0.0
 16
1.0
 26
0.0
 36
0.0
 17
0.0
 27
1.0
 37
0.0
 76
     0
330
1F
331
29
  0
MATERIAL
  5
3D
102
{ACAD_REACTORS
330
3B
102
}
330
3B
100
AcDbMaterial
  1
ByBlock
 72
     1
 94
      127
  0
MATERIAL
  5
3C
102
{ACAD_REACTORS
330
3B
102
}
330
3B
100
AcDbMaterial
  1
ByLayer
 72
     1
 94
      127
  0
MATERIAL
  5
3E
102
{ACAD_REACTORS
330
3B
102
}
330
3B
100
AcDbMaterial
  1
Global
 72
     1
 94
      127
  0
MLINESTYLE
  5
18
102
{ACAD_REACTORS
330
17
102
}
330
17
100
AcDbMlineStyle
  2
Standard
 70
     0
  3

 62
   256
 51
90.0
 52
90.0
 71
     2
 49
0.5
 62
   256
  6
BYLAYER
 49
-0.5
 62
   256
  6
BYLAYER
  0
ACDBPLACEHOLDER
  5
F
102
{ACAD_REACTORS
330
E
102
}
330
E
  0
VISUALSTYLE
  5
2F
102
{ACAD_REACTORS
330
2A
102
}
330
2A
100
AcDbVisualStyle
  2
2dWireframe
 70
     4
177
     2
291
     0
 71
     0
176
     1
 72
     2
176
     1
 73
     0
176
     1
 90
        0
176
     1
 40
-0.6
176
     1
 41
-30.0
176
     1
 62
     5
 63
     7
421
 16777215
176
     1
 74
     1
176
     1
 91
        4
176
     1
 64
     7
176
     1
 65
   257
176
     1
 75
     1
176
     1
175
     1
176
     1
 42
1.0
176
     1
 92
        0
176
     1
 66
   257
176
     1
 43
1.0
176
     1
 76
     1
176
     1
 77
     6
176
     1
 78
     2
176
     1
 67
     7
176
     1
 79
     5
176
     1
170
     0
176
     1
171
     0
176
     1
290
     0
176
     1
 93
        1
176
     1
 44
0.0
176
     1
173
     0
176
     1
  0
VISUALSTYLE
  5
31
102
{ACAD_REACTORS
330
2A
102
}
330
2A
100
AcDbVisualStyle
  2
3D Hidden
 70
     6
177
     2
291
     0
 71
     1
176
     1
 72
     2
176
     1
 73
     2
176
     1
 90
        0
176
     1
 40
-0.6
176
     1
 41
-30.0
176
     1
 62
     5
 63
     7
421
 16777215
176
     1
 74
     2
176
     1
 91
        2
176
     1
 64
     7
176
     1
 65
   257
176
     1
 75
     2
176
     1
175
     1
176
     1
 42
40.0
176
     1
 92
        0
176
     1
 66
   257
176
     1
 43
1.0
176
     1
 76
     1
176
     1
 77
     6
176
     1
 78
     2
176
     1
 67
     7
176
     1
 79
     3
176
     1
170
     0
176
     1
171
     0
176
     1
290
     0
176
     1
 93
        1
176
     1
 44
0.0
176
     1
173
     0
176
     1
  0
VISUALSTYLE
  5
30
102
{ACAD_REACTORS
330
2A
102
}
330
2A
100
AcDbVisualStyle
  2
3dWireframe
 70
     5
177
     2
291
     0
 71
     0
176
     1
 72
     2
176
     1
 73
     0
176
     1
 90
        0
176
     1
 40
-0.6
176
     1
 41
-30.0
176
     1
 62
     5
 63
     7
421
 16777215
176
     1
 74
     1
176
     1
 91
        4
176
     1
 64
     7
176
     1
 65
   257
176
     1
 75
     1
176
     1
175
     1
176
     1
 42
1.0
176
     1
 92
        0
176
     1
 66
   257
176
     1
 43
1.0
176
     1
 76
     1
176
     1
 77
     6
176
     1
 78
     2
176
     1
 67
     7
176
     1
 79
     5
176
     1
170
     0
176
     1
171
     0
176
     1
290
     0
176
     1
 93
        1
176
     1
 44
0.0
176
     1
173
     0
176
     1
  0
VISUALSTYLE
  5
32
102
{ACAD_REACTORS
330
2A
102
}
330
2A
100
AcDbVisualStyle
  2
Basic
 70
     7
177
     2
291
     1
 71
     1
176
     1
 72
     0
176
     1
 73
     1
176
     1
 90
        0
176
     1
 40
-0.6
176
     1
 41
-30.0
176
     1
 62
     5
 63
     7
421
 16777215
176
     1
 74
     0
176
     1
 91
        4
176
     1
 64
     7
176
     1
 65
   257
176
     1
 75
     1
176
     1
175
     1
176
     1
 42
1.0
176
     1
 92
        8
176
     1
 66
     7
176
     1
 43
1.0
176
     1
 76
     1
176
     1
 77
     6
176
     1
 78
     2
176
     1
 67
     7
176
     1
 79
     5
176
     1
170
     0
176
     1
171
     0
176
     1
290
     0
176
     1
 93
        1
176
     1
 44
0.0
176
     1
173
     0
176
     1
  0
VISUALSTYLE
  5
36
102
{ACAD_REACTORS
330
2A
102
}
330
2A
100
AcDbVisualStyle
  2
Brighten
 70
    12
177
     2
291
     1
 71
     2
176
     1
 72
     2
176
     1
 73
     0
176
     1
 90
        0
176
     1
 40
-0.6
176
     1
 41
-30.0
176
     1
 62
     5
 63
     7
421
 16777215
176
     1
 74
     1
176
     1
 91
        4
176
     1
 64
     7
176
     1
 65
   257
176
     1
 75
     1
176
     1
175
     1
176
     1
 42
1.0
176
     1
 92
        8
176
     1
 66
     7
176
     1
 43
1.0
176
     1
 76
     1
176
     1
 77
     6
176
     1
 78
     2
176
     1
 67
     7
176
     1
 79
     5
176
     1
170
     0
176
     1
171
     0
176
     1
290
     0
176
     1
 93
        1
176
     1
 44
50.0
176
     1
173
     0
176
     1
  0
VISUALSTYLE
  5
3A
102
{ACAD_REACTORS
330
2A
102
}
330
2A
100
AcDbVisualStyle
  2
ColorChange
 70
    16
177
     2
291
     1
 71
     2
176
     1
 72
     2
176
     1
 73
     3
176
     1
 90
        0
176
     1
 40
-0.6
176
     1
 41
-30.0
176
     1
 62
     5
 63
     8
421
  8421504
176
     1
 74
     1
176
     1
 91
        4
176
     1
 64
     7
176
     1
 65
   257
176
     1
 75
     1
176
     1
175
     1
176
     1
 42
1.0
176
     1
 92
        8
176
     1
 66
     8
424
  8421504
176
     1
 43
1.0
176
     1
 76
     1
176
     1
 77
     6
176
     1
 78
     2
176
     1
 67
     7
176
     1
 79
     5
176
     1
170
     0
176
     1
171
     0
176
     1
290
     0
176
     1
 93
        1
176
     1
 44
0.0
176
     1
173
     0
176
     1
  0
VISUALSTYLE
  5
34
102
{ACAD_REACTORS
330
2A
102
}
330
2A
100
AcDbVisualStyle
  2
Conceptual
 70
     9
177
     2
291
     0
 71
     3
176
     1
 72
     2
176
     1
 73
     0
176
     1
 90
        0
176
     1
 40
-0.6
176
     1
 41
-30.0
176
     1
 62
     5
 63
     7
421
 16777215
176
     1
 74
     2
176
     1
 91
        2
176
     1
 64
     7
176
     1
 65
   257
176
     1
 75
     1
176
     1
175
     1
176
     1
 42
40.0
176
     1
 92
        8
176
     1
 66
     7
176
     1
 43
1.0
176
     1
 76
     1
176
     1
 77
     6
176
     1
 78
     2
176
     1
 67
     7
176
     1
 79
     3
176
     1
170
     0
176
     1
171
     0
176
     1
290
     0
176
     1
 93
        1
176
     1
 44
0.0
176
     1
173
     0
176
     1
  0
VISUALSTYLE
  5
35
102
{ACAD_REACTORS
330
2A
102
}
330
2A
100
AcDbVisualStyle
  2
Dim
 70
    11
177
     2
291
     1
 71
     2
176
     1
 72
     2
176
     1
 73
     0
176
     1
 90
        0
176
     1
 40
-0.6
176
     1
 41
-30.0
176
     1
 62
     5
 63
     7
421
 16777215
176
     1
 74
     1
176
     1
 91
        4
176
     1
 64
     7
176
     1
 65
   257
176
     1
 75
     1
176
     1
175
     1
176
     1
 42
1.0
176
     1
 92
        8
176
     1
 66
     7
176
     1
 43
1.0
176
     1
 76
     1
176
     1
 77
     6
176
     1
 78
     2
176
     1
 67
     7
176
     1
 79
     5
176
     1
170
     0
176
     1
171
     0
176
     1
290
     0
176
     1
 93
        1
176
     1
 44
-50.0
176
     1
173
     0
176
     1
  0
VISUALSTYLE
  5
39
102
{ACAD_REACTORS
330
2A
102
}
330
2A
100
AcDbVisualStyle
  2
Facepattern
 70
    15
177
     2
291
     1
 71
     2
176
     1
 72
     2
176
     1
 73
     0
176
     1
 90
        0
176
     1
 40
-0.6
176
     1
 41
-30.0
176
     1
 62
     5
 63
     7
421
 16777215
176
     1
 74
     1
176
     1
 91
        4
176
     1
 64
     7
176
     1
 65
   257
176
     1
 75
     1
176
     1
175
     1
176
     1
 42
1.0
176
     1
 92
        8
176
     1
 66
     7
176
     1
 43
1.0
176
     1
 76
     1
176
     1
 77
     6
176
     1
 78
     2
176
     1
 67
     7
176
     1
 79
     5
176
     1
170
     0
176
     1
171
     0
176
     1
290
     0
176
     1
 93
        1
176
     1
 44
0.0
176
     1
173
     0
176
     1
  0
VISUALSTYLE
  5
2B
102
{ACAD_REACTORS
330
2A
102
}
330
2A
100
AcDbVisualStyle
  2
Flat
 70
     0
177
     2
291
     1
 71
     2
176
     1
 72
     1
176
     1
 73
     1
176
     1
 90
        2
176
     1
 40
-0.6
176
     1
 41
30.0
176
     1
 62
     5
 63
     7
421
 16777215
176
     1
 74
     0
176
     1
 91
        4
176
     1
 64
     7
176
     1
 65
   257
176
     1
 75
     1
176
     1
175
     1
176
     1
 42
1.0
176
     1
 92
        8
176
     1
 66
     7
176
     1
 43
1.0
176
     1
 76
     1
176
     1
 77
     6
176
     1
 78
     2
176
     1
 67
     7
176
     1
 79
     5
176
     1
170
     0
176
     1
171
     0
176
     1
290
     0
176
     1
 93
       13
176
     1
 44
0.0
176
     1
173
     0
176
     1
  0
VISUALSTYLE
  5
2C
102
{ACAD_REACTORS
330
2A
102
}
330
2A
100
AcDbVisualStyle
  2
FlatWithEdges
 70
     1
177
     2
291
     1
 71
     2
176
     1
 72
     1
176
     1
 73
     1
176
     1
 90
        2
176
     1
 40
-0.6
176
     1
 41
30.0
176
     1
 62
     5
 63
     7
421
 16777215
176
     1
 74
     1
176
     1
 91
        4
176
     1
 64
     7
176
     1
 65
   257
176
     1
 75
     1
176
     1
175
     1
176
     1
 42
1.0
176
     1
 92
        0
176
     1
 66
   257
176
     1
 43
1.0
176
     1
 76
     1
176
     1
 77
     6
176
     1
 78
     2
176
     1
 67
     7
176
     1
 79
     5
176
     1
170
     0
176
     1
171
     0
176
     1
290
     0
176
     1
 93
       13
176
     1
 44
0.0
176
     1
173
     0
176
     1
  0
VISUALSTYLE
  5
2D
102
{ACAD_REACTORS
330
2A
102
}
330
2A
100
AcDbVisualStyle
  2
Gouraud
 70
     2
177
     2
291
     1
 71
     2
176
     1
 72
     2
176
     1
 73
     1
176
     1
 90
        2
176
     1
 40
-0.6
176
     1
 41
30.0
176
     1
 62
     5
 63
     7
421
 16777215
176
     1
 74
     0
176
     1
 91
        4
176
     1
 64
     7
176
     1
 65
   257
176
     1
 75
     1
176
     1
175
     1
176
     1
 42
1.0
176
     1
 92
        0
176
     1
 66
     7
176
     1
 43
1.0
176
     1
 76
     1
176
     1
 77
     6
176
     1
 78
     2
176
     1
 67
     7
176
     1
 79
     5
176
     1
170
     0
176
     1
171
     0
176
     1
290
     0
176
     1
 93
       13
176
     1
 44
0.0
176
     1
173
     0
176
     1
  0
VISUALSTYLE
  5
2E
102
{ACAD_REACTORS
330
2A
102
}
330
2A
100
AcDbVisualStyle
  2
GouraudWithEdges
 70
     3
177
     2
291
     1
 71
     2
176
     1
 72
     2
176
     1
 73
     1
176
     1
 90
        2
176
     1
 40
-0.6
176
     1
 41
30.0
176
     1
 62
     5
 63
     7
421
 16777215
176
     1
 74
     1
176
     1
 91
        4
176
     1
 64
     7
176
     1
 65
   257
176
     1
 75
     1
176
     1
175
     1
176
     1
 42
1.0
176
     1
 92
        0
176
     1
 66
   257
176
     1
 43
1.0
176
     1
 76
     1
176
     1
 77
     6
176
     1
 78
     2
176
     1
 67
     7
176
     1
 79
     5
176
     1
170
     0
176
     1
171
     0
176
     1
290
     0
176
     1
 93
       13
176
     1
 44
0.0
176
     1
173
     0
176
     1
  0
VISUALSTYLE
  5
38
102
{ACAD_REACTORS
330
2A
102
}
330
2A
100
AcDbVisualStyle
  2
Linepattern
 70
    14
177
     2
291
     1
 71
     2
176
     1
 72
     2
176
     1
 73
     0
176
     1
 90
        0
176
     1
 40
-0.6
176
     1
 41
-30.0
176
     1
 62
     5
 63
     7
421
 16777215
176
     1
 74
     1
176
     1
 91
        4
176
     1
 64
     7
176
     1
 65
   257
176
     1
 75
     7
176
     1
175
     7
176
     1
 42
1.0
176
     1
 92
        8
176
     1
 66
     7
176
     1
 43
1.0
176
     1
 76
     1
176
     1
 77
     6
176
     1
 78
     2
176
     1
 67
     7
176
     1
 79
     5
176
     1
170
     0
176
     1
171
     0
176
     1
290
     0
176
     1
 93
        1
176
     1
 44
0.0
176
     1
173
     0
176
     1
  0
VISUALSTYLE
  5
33
102
{ACAD_REACTORS
330
2A
102
}
330
2A
100
AcDbVisualStyle
  2
Realistic
 70
     8
177
     2
291
     0
 71
     2
176
     1
 72
     2
176
     1
 73
     0
176
     1
 90
        0
176
     1
 40
-0.6
176
     1
 41
-30.0
176
     1
 62
     5
 63
     7
421
 16777215
176
     1
 74
     1
176
     1
 91
        0
176
     1
 64
     7
176
     1
 65
   257
176
     1
 75
     1
176
     1
175
     1
176
     1
 42
1.0
176
     1
 92
        8
176
     1
 66
     8
424
  7895160
176
     1
 43
1.0
176
     1
 76
     1
176
     1
 77
     6
176
     1
 78
     2
176
     1
 67
     7
176
     1
 79
     5
176
     1
170
     0
176
     1
171
     0
176
     1
290
     0
176
     1
 93
       13
176
     1
 44
0.0
176
     1
173
     0
176
     1
  0
VISUALSTYLE
  5
37
102
{ACAD_REACTORS
330
2A
102
}
330
2A
100
AcDbVisualStyle
  2
Thicken
 70
    13
177
     2
291
     1
 71
     2
176
     1
 72
     2
176
     1
 73
     0
176
     1
 90
        0
176
     1
 40
-0.6
176
     1
 41
-30.0
176
     1
 62
     5
 63
     7
421
 16777215
176
     1
 74
     1
176
     1
 91
        4
176
     1
 64
     7
176
     1
 65
   257
176
     1
 75
     1
176
     1
175
     1
176
     1
 42
1.0
176
     1
 92
       12
176
     1
 66
     7
176
     1
 43
1.0
176
     1
 76
     1
176
     1
 77
     6
176
     1
 78
     2
176
     1
 67
     7
176
     1
 79
     5
176
     1
170
     0
176
     1
171
     0
176
     1
290
     0
176
     1
 93
        1
176
     1
 44
0.0
176
     1
173
     0
176
     1
  0
ENDSEC
  0
EOF
