  0
SECTION
  2
HEADER
  9
$ACADVER
  1
AC1024
  9
$ACADMAINTVER
 70
     6
  9
$DWGCODEPAGE
  3
UNDEFINED
  9
$INSBASE
 10
0.0
 20
0.0
 30
0.0
  9
$EXTMIN
 10
1.000000000000000E+20
 20
1.000000000000000E+20
 30
1.000000000000000E+20
  9
$EXTMAX
 10
-1.000000000000000E+20
 20
-1.000000000000000E+20
 30
-1.000000000000000E+20
  9
$LIMMIN
 10
0.0
 20
0.0
  9
$LIMMAX
 10
12.0
 20
9.0
  9
$ORTHOMODE
 70
     0
  9
$REGENMODE
 70
     1
  9
$FILLMODE
 70
     1
  9
$QTEXTMODE
 70
     0
  9
$MIRRTEXT
 70
     1
  9
$LTSCALE
 40
1.0
  9
$ATTMODE
 70
     1
  9
$TEXTSIZE
 40
0.2
  9
$TRACEWID
 40
0.05
  9
$TEXTSTYLE
  7
Standard
  9
$CLAYER
  8
0
  9
$CELTYPE
  6
ByLayer
  9
$CECOLOR
 62
   256
  9
$CELTSCALE
 40
1.0
  9
$DISPSILH
 70
     0
  9
$DIMSCALE
 40
1.0
  9
$DIMASZ
 40
0.18
  9
$DIMEXO
 40
0.0625
  9
$DIMDLI
 40
0.38
  9
$DIMRND
 40
0.0
  9
$DIMDLE
 40
0.0
  9
$DIMEXE
 40
0.18
  9
$DIMTP
 40
0.0
  9
$DIMTM
 40
0.0
  9
$DIMTXT
 40
0.18
  9
$DIMCEN
 40
0.09
  9
$DIMTSZ
 40
0.0
  9
$DIMTOL
 70
     0
  9
$DIMLIM
 70
     0
  9
$DIMTIH
 70
     1
  9
$DIMTOH
 70
     1
  9
$DIMSE1
 70
     0
  9
$DIMSE2
 70
     0
  9
$DIMTAD
 70
     0
  9
$DIMZIN
 70
     0
  9
$DIMBLK
  1

  9
$DIMASO
 70
     1
  9
$DIMSHO
 70
     1
  9
$DIMPOST
  1

  9
$DIMAPOST
  1

  9
$DIMALT
 70
     0
  9
$DIMALTD
 70
     2
  9
$DIMALTF
 40
25.4
  9
$DIMLFAC
 40
1.0
  9
$DIMTOFL
 70
     0
  9
$DIMTVP
 40
0.0
  9
$DIMTIX
 70
     0
  9
$DIMSOXD
 70
     0
  9
$DIMSAH
 70
     0
  9
$DIMBLK1
  1

  9
$DIMBLK2
  1

  9
$DIMSTYLE
  2
Standard
  9
$DIMCLRD
 70
     0
  9
$DIMCLRE
 70
     0
  9
$DIMCLRT
 70
     0
  9
$DIMTFAC
 40
1.0
  9
$DIMGAP
 40
0.09
  9
$DIMJUST
 70
     0
  9
$DIMSD1
 70
     0
  9
$DIMSD2
 70
     0
  9
$DIMTOLJ
 70
     1
  9
$DIMTZIN
 70
     0
  9
$DIMALTZ
 70
     0
  9
$DIMALTTZ
 70
     0
  9
$DIMUPT
 70
     0
  9
$DIMDEC
 70
     4
  9
$DIMTDEC
 70
     4
  9
$DIMALTU
 70
     2
  9
$DIMALTTD
 70
     2
  9
$DIMTXSTY
  7
Standard
  9
$DIMAUNIT
 70
     0
  9
$DIMADEC
 70
     0
  9
$DIMALTRND
 40
0.0
  9
$DIMAZIN
 70
     0
  9
$DIMDSEP
 70
    46
  9
$DIMATFIT
 70
     3
  9
$DIMFRAC
 70
     0
  9
$DIMLDRBLK
  1

  9
$DIMLUNIT
 70
     2
  9
$DIMLWD
 70
    -2
  9
$DIMLWE
 70
    -2
  9
$DIMTMOVE
 70
     0
  9
$DIMFXL
 40
1.0
  9
$DIMFXLON
 70
     0
  9
$DIMJOGANG
 40
0.7853981633974483
  9
$DIMTFILL
 70
     0
  9
$DIMTFILLCLR
 70
     0
  9
$DIMARCSYM
 70
     0
  9
$DIMLTYPE
  6

  9
$DIMLTEX1
  6

  9
$DIMLTEX2
  6

  9
$DIMTXTDIRECTION
 70
     0
  9
$LUNITS
 70
     2
  9
$LUPREC
 70
     4
  9
$SKETCHINC
 40
0.1
  9
$FILLETRAD
 40
0.5
  9
$AUNITS
 70
     0
  9
$AUPREC
 70
     0
  9
$MENU
  1
.
  9
$ELEVATION
 40
0.0
  9
$PELEVATION
 40
0.0
  9
$THICKNESS
 40
0.0
  9
$LIMCHECK
 70
     0
  9
$CHAMFERA
 40
0.5
  9
$CHAMFERB
 40
0.5
  9
$CHAMFERC
 40
1.0
  9
$CHAMFERD
 40
0.0
  9
$SKPOLY
 70
     0
  9
$TDCREATE
 40
2457917.619085636
  9
$TDUCREATE
 40
2457917.244085648
  9
$TDUPDATE
 40
2457917.619085636
  9
$TDUUPDATE
 40
2457917.244085648
  9
$TDINDWG
 40
0.0000000116
  9
$TDUSRTIMER
 40
0.0000000116
  9
$USRTIMER
 70
     1
  9
$ANGBASE
 50
0.0
  9
$ANGDIR
 70
     0
  9
$PDMODE
 70
     0
  9
$PDSIZE
 40
0.0
  9
$PLINEWID
 40
0.0
  9
$SPLFRAME
 70
     0
  9
$SPLINETYPE
 70
     6
  9
$SPLINESEGS
 70
     8
  9
$HANDSEED
  5
117
  9
$SURFTAB1
 70
     6
  9
$SURFTAB2
 70
     6
  9
$SURFTYPE
 70
     6
  9
$SURFU
 70
     6
  9
$SURFV
 70
     6
  9
$UCSBASE
  2

  9
$UCSNAME
  2

  9
$UCSORG
 10
0.0
 20
0.0
 30
0.0
  9
$UCSXDIR
 10
1.0
 20
0.0
 30
0.0
  9
$UCSYDIR
 10
0.0
 20
1.0
 30
0.0
  9
$UCSORTHOREF
  2

  9
$UCSORTHOVIEW
 70
     0
  9
$UCSORGTOP
 10
0.0
 20
0.0
 30
0.0
  9
$UCSORGBOTTOM
 10
0.0
 20
0.0
 30
0.0
  9
$UCSORGLEFT
 10
0.0
 20
0.0
 30
0.0
  9
$UCSORGRIGHT
 10
0.0
 20
0.0
 30
0.0
  9
$UCSORGFRONT
 10
0.0
 20
0.0
 30
0.0
  9
$UCSORGBACK
 10
0.0
 20
0.0
 30
0.0
  9
$PUCSBASE
  2

  9
$PUCSNAME
  2

  9
$PUCSORG
 10
0.0
 20
0.0
 30
0.0
  9
$PUCSXDIR
 10
1.0
 20
0.0
 30
0.0
  9
$PUCSYDIR
 10
0.0
 20
1.0
 30
0.0
  9
$PUCSORTHOREF
  2

  9
$PUCSORTHOVIEW
 70
     0
  9
$PUCSORGTOP
 10
0.0
 20
0.0
 30
0.0
  9
$PUCSORGBOTTOM
 10
0.0
 20
0.0
 30
0.0
  9
$PUCSORGLEFT
 10
0.0
 20
0.0
 30
0.0
  9
$PUCSORGRIGHT
 10
0.0
 20
0.0
 30
0.0
  9
$PUCSORGFRONT
 10
0.0
 20
0.0
 30
0.0
  9
$PUCSORGBACK
 10
0.0
 20
0.0
 30
0.0
  9
$USERI1
 70
     0
  9
$USERI2
 70
     0
  9
$USERI3
 70
     0
  9
$USERI4
 70
     0
  9
$USERI5
 70
     0
  9
$USERR1
 40
0.0
  9
$USERR2
 40
0.0
  9
$USERR3
 40
0.0
  9
$USERR4
 40
0.0
  9
$USERR5
 40
0.0
  9
$WORLDVIEW
 70
     1
  9
$SHADEDGE
 70
     3
  9
$SHADEDIF
 70
    70
  9
$TILEMODE
 70
     1
  9
$MAXACTVP
 70
    64
  9
$PINSBASE
 10
0.0
 20
0.0
 30
0.0
  9
$PLIMCHECK
 70
     0
  9
$PEXTMIN
 10
1.000000000000000E+20
 20
1.000000000000000E+20
 30
1.000000000000000E+20
  9
$PEXTMAX
 10
-1.000000000000000E+20
 20
-1.000000000000000E+20
 30
-1.000000000000000E+20
  9
$PLIMMIN
 10
0.0
 20
0.0
  9
$PLIMMAX
 10
12.0
 20
9.0
  9
$UNITMODE
 70
     0
  9
$VISRETAIN
 70
     1
  9
$PLINEGEN
 70
     0
  9
$PSLTSCALE
 70
     1
  9
$TREEDEPTH
 70
  3020
  9
$CMLSTYLE
  2
Standard
  9
$CMLJUST
 70
     0
  9
$CMLSCALE
 40
1.0
  9
$PROXYGRAPHICS
 70
     1
  9
$MEASUREMENT
 70
     0
  9
$CELWEIGHT
370
    -1
  9
$ENDCAPS
280
     0
  9
$JOINSTYLE
280
     0
  9
$LWDISPLAY
290
     1
  9
$INSUNITS
 70
     1
  9
$HYPERLINKBASE
  1

  9
$STYLESHEET
  1

  9
$XEDIT
290
     1
  9
$CEPSNTYPE
380
     0
  9
$PSTYLEMODE
290
     1
  9
$FINGERPRINTGUID
  2
{9D823BDA-4A13-A58A-6BB6-C2C574909F21}
  9
$VERSIONGUID
  2
{FAEB1C32-E019-11D5-929B-00C0DF256EC4}
  9
$EXTNAMES
290
     1
  9
$PSVPSCALE
 40
0.0
  9
$OLESTARTUP
290
     0
  9
$SORTENTS
280
   127
  9
$INDEXCTL
280
     0
  9
$HIDETEXT
280
     1
  9
$XCLIPFRAME
280
     2
  9
$HALOGAP
280
     0
  9
$OBSCOLOR
 70
   257
  9
$OBSLTYPE
280
     0
  9
$INTERSECTIONDISPLAY
280
     0
  9
$INTERSECTIONCOLOR
 70
   257
  9
$DIMASSOC
280
     2
  9
$PROJECTNAME
  1

  9
$CAMERADISPLAY
290
     0
  9
$LENSLENGTH
 40
50.0
  9
$CAMERAHEIGHT
 40
0.0
  9
$STEPSPERSEC
 40
2.0
  9
$STEPSIZE
 40
6.0
  9
$3DDWFPREC
 40
2.0
  9
$PSOLWIDTH
 40
0.25
  9
$PSOLHEIGHT
 40
4.0
  9
$LOFTANG1
 40
1.570796326794897
  9
$LOFTANG2
 40
1.570796326794897
  9
$LOFTMAG1
 40
0.0
  9
$LOFTMAG2
 40
0.0
  9
$LOFTPARAM
 70
     7
  9
$LOFTNORMALS
280
     1
  9
$LATITUDE
 40
37.795
  9
$LONGITUDE
 40
-122.394
  9
$NORTHDIRECTION
 40
0.0
  9
$TIMEZONE
 70
 -8000
  9
$LIGHTGLYPHDISPLAY
280
     1
  9
$TILEMODELIGHTSYNCH
280
     1
  9
$CMATERIAL
347
3C
  9
$SOLIDHIST
280
     1
  9
$SHOWHIST
280
     1
  9
$DWFFRAME
280
     2
  9
$DGNFRAME
280
     2
  9
$REALWORLDSCALE
290
     1
  9
$INTERFERECOLOR
 62
   256
  9
$CSHADOW
280
     0
  9
$SHADOWPLANELOCATION
 40
0.0
  0
ENDSEC
  0
SECTION
  2
CLASSES
  0
CLASS
  1
ACDBDICTIONARYWDFLT
  2
AcDbDictionaryWithDefault
  3
ObjectDBX Classes
 90
        0
 91
        4
280
     0
281
     0
  0
CLASS
  1
VISUALSTYLE
  2
AcDbVisualStyle
  3
ObjectDBX Classes
 90
     4095
 91
        4
280
     0
281
     0
  0
CLASS
  1
MATERIAL
  2
AcDbMaterial
  3
ObjectDBX Classes
 90
     1153
 91
        4
280
     0
281
     0
  0
CLASS
  1
SUN
  2
AcDbSun
  3
SCENEOE
 90
     1024
 91
        4
280
     0
281
     0
  0
ENDSEC
  0
SECTION
  2
TABLES
  0
TABLE
  2
VPORT
  5
8
330
0
100
AcDbSymbolTable
 70
     1
  0
VPORT
  5
29
330
8
100
AcDbSymbolTableRecord
100
AcDbViewportTableRecord
  2
*Active
 70
     0
 10
0.0
 20
0.0
 11
1.0
 21
1.0
 12
0.0
 22
0.0
 13
0.0
 23
0.0
 14
0.5
 24
0.5
 15
0.5
 25
0.5
 16
0.0
 26
0.0
 36
1.0
 17
91.00082462281999
 27
-128.4993055234307
 37
0.0
 40
256.9986110468615
 41
0.7081814508812795
 42
50.0
 43
0.0
 44
0.0
 50
0.0
 51
0.0
 71
     0
 72
   100
 73
     1
 74
     3
 75
     0
 76
     0
 77
     0
 78
     0
281
     0
 65
     1
110
0.0
120
0.0
130
0.0
111
1.0
121
0.0
131
0.0
112
0.0
122
1.0
132
0.0
 79
     0
146
0.0
 60
     3
 61
     5
292
     1
282
     1
141
0.0
142
0.0
 63
   250
361
3F
  0
ENDTAB
  0
TABLE
  2
LTYPE
  5
5
330
0
100
AcDbSymbolTable
 70
     2
  0
LTYPE
  5
14
330
5
100
AcDbSymbolTableRecord
100
AcDbLinetypeTableRecord
  2
ByBlock
 70
     0
  3

 72
    65
 73
     0
 40
0.0
  0
LTYPE
  5
15
330
5
100
AcDbSymbolTableRecord
100
AcDbLinetypeTableRecord
  2
ByLayer
 70
     0
  3

 72
    65
 73
     0
 40
0.0
  0
LTYPE
  5
16
330
5
100
AcDbSymbolTableRecord
100
AcDbLinetypeTableRecord
  2
Continuous
 70
     0
  3
Solid line
 72
    65
 73
     0
 40
0.0
  0
LTYPE
  5
113
330
5
100
AcDbSymbolTableRecord
100
AcDbLinetypeTableRecord
  2
AI-Linetype-1
 70
     0
  3
Adobe Illustrator Linetype No. 1
 72
    65
 73
     2
 40
1.411111110758333
 49
0.7055555553791667
 74
     0
 49
-0.7055555553791667
 74
     0
  0
ENDTAB
  0
TABLE
  2
LAYER
  5
2
330
0
100
AcDbSymbolTable
 70
     2
  0
LAYER
  5
10
330
2
100
AcDbSymbolTableRecord
100
AcDbLayerTableRecord
  2
0
 70
     0
 62
     7
  6
Continuous
370
    -3
390
F
347
3E
  0
LAYER
  5
40
330
2
100
AcDbSymbolTableRecord
100
AcDbLayerTableRecord
  2
_U+30EC_U+30A4_U+30E4_U+30FC 1
 70
     0
 62
     7
  6
Continuous
370
    -3
390
F
347
3E
  0
ENDTAB
  0
TABLE
  2
STYLE
  5
3
330
0
100
AcDbSymbolTable
 70
     1
  0
STYLE
  5
11
330
3
100
AcDbSymbolTableRecord
100
AcDbTextStyleTableRecord
  2
Standard
 70
     0
 40
0.0
 41
1.0
 50
0.0
 71
     0
 42
0.2
  3
txt
  4

  0
ENDTAB
  0
TABLE
  2
VIEW
  5
6
330
0
100
AcDbSymbolTable
 70
     0
  0
ENDTAB
  0
TABLE
  2
UCS
  5
7
330
0
100
AcDbSymbolTable
 70
     0
  0
ENDTAB
  0
TABLE
  2
APPID
  5
9
330
0
100
AcDbSymbolTable
 70
     1
  0
APPID
  5
12
330
9
100
AcDbSymbolTableRecord
100
AcDbRegAppTableRecord
  2
ACAD
 70
     0
  0
ENDTAB
  0
TABLE
  2
DIMSTYLE
  5
A
330
0
100
AcDbSymbolTable
 70
     1
100
AcDbDimStyleTable
  0
DIMSTYLE
105
27
330
A
100
AcDbSymbolTableRecord
100
AcDbDimStyleTableRecord
  2
Standard
 70
     0
178
     0
340
11
  0
ENDTAB
  0
TABLE
  2
BLOCK_RECORD
  5
1
330
0
100
AcDbSymbolTable
 70
     7
  0
BLOCK_RECORD
  5
1F
330
1
100
AcDbSymbolTableRecord
100
AcDbBlockTableRecord
  2
*Model_Space
340
22
 70
     0
280
     1
281
     0
  0
BLOCK_RECORD
  5
1B
330
1
100
AcDbSymbolTableRecord
100
AcDbBlockTableRecord
  2
*Paper_Space
340
1E
 70
     0
280
     1
281
     0
  0
BLOCK_RECORD
  5
23
330
1
100
AcDbSymbolTableRecord
100
AcDbBlockTableRecord
  2
*Paper_Space0
340
26
 70
     0
280
     1
281
     0
  0
BLOCK_RECORD
  5
51
330
1
100
AcDbSymbolTableRecord
100
AcDbBlockTableRecord
  2
block 2
340
0
102
{BLKREFS
331
52
102
}
 70
     0
280
     1
281
     0
  0
BLOCK_RECORD
  5
90
330
1
100
AcDbSymbolTableRecord
100
AcDbBlockTableRecord
  2
block 3
340
0
102
{BLKREFS
331
91
102
}
 70
     0
280
     1
281
     0
  0
BLOCK_RECORD
  5
A7
330
1
100
AcDbSymbolTableRecord
100
AcDbBlockTableRecord
  2
block 4
340
0
102
{BLKREFS
331
A8
102
}
 70
     0
280
     1
281
     0
  0
BLOCK_RECORD
  5
C1
330
1
100
AcDbSymbolTableRecord
100
AcDbBlockTableRecord
  2
block 5
340
0
102
{BLKREFS
331
C2
102
}
 70
     0
280
     1
281
     0
  0
BLOCK_RECORD
  5
D3
330
1
100
AcDbSymbolTableRecord
100
AcDbBlockTableRecord
  2
block 6
340
0
102
{BLKREFS
331
D4
102
}
 70
     0
280
     1
281
     0
  0
BLOCK_RECORD
  5
104
330
1
100
AcDbSymbolTableRecord
100
AcDbBlockTableRecord
  2
block 7
340
0
102
{BLKREFS
331
105
102
}
 70
     0
280
     1
281
     0
  0
ENDTAB
  0
ENDSEC
  0
SECTION
  2
BLOCKS
  0
BLOCK
  5
20
330
1F
100
AcDbEntity
  8
0
100
AcDbBlockBegin
  2
*Model_Space
 70
     0
 10
0.0
 20
0.0
 30
0.0
  3
*Model_Space
  1

  0
ENDBLK
  5
21
330
1F
100
AcDbEntity
  8
0
100
AcDbBlockEnd
  0
BLOCK
  5
1C
330
1B
100
AcDbEntity
 67
     1
  8
0
100
AcDbBlockBegin
  2
*Paper_Space
 70
     0
 10
0.0
 20
0.0
 30
0.0
  3
*Paper_Space
  1

  0
ENDBLK
  5
1D
330
1B
100
AcDbEntity
 67
     1
  8
0
100
AcDbBlockEnd
  0
BLOCK
  5
24
330
23
100
AcDbEntity
  8
0
100
AcDbBlockBegin
  2
*Paper_Space0
 70
     0
 10
0.0
 20
0.0
 30
0.0
  3
*Paper_Space0
  1

  0
ENDBLK
  5
25
330
23
100
AcDbEntity
  8
0
100
AcDbBlockEnd
  0
BLOCK
  5
53
330
51
100
AcDbEntity
  8
0
100
AcDbBlockBegin
  2
block 2
 70
     0
 10
0.0
 20
0.0
 30
0.0
  3
block 2
  1

  0
SPLINE
  5
55
330
51
100
AcDbEntity
  8
_U+30EC_U+30A4_U+30E4_U+30FC 1
370
     0
100
AcDbSpline
210
0.0
220
0.0
230
1.0
 70
    11
 71
     3
 72
    26
 73
    22
 74
     0
 42
0.0000000001
 43
0.0000000001
 12
1.0
 22
0.0
 32
0.0
 13
1.0
 23
0.0
 33
0.0
 40
0.0
 40
0.0
 40
0.0
 40
0.0
 40
1.0
 40
1.0
 40
1.0
 40
2.0
 40
2.0
 40
2.0
 40
3.0
 40
3.0
 40
3.0
 40
4.0
 40
4.0
 40
4.0
 40
5.0
 40
5.0
 40
5.0
 40
6.0
 40
6.0
 40
6.0
 40
7.0
 40
7.0
 40
7.0
 40
7.0
 10
88.14207897102004
 20
-112.706643309497
 30
0.0
 10
88.14207897102004
 20
-112.706643309497
 30
0.0
 10
87.88886445285418
 20
-112.706643309497
 30
0.0
 10
87.88886445285418
 20
-112.706643309497
 30
0.0
 10
87.91590845241339
 20
-112.3977904992443
 30
0.0
 10
88.1215806528828
 20
-111.8794758834885
 30
0.0
 10
88.55566268402428
 20
-111.3739081210281
 30
0.0
 10
88.55566268402428
 20
-111.3739081210281
 30
0.0
 10
87.66045462218212
 20
-111.3739081210281
 30
0.0
 10
87.66045462218212
 20
-111.3739081210281
 30
0.0
 10
87.66045462218212
 20
-111.3739081210281
 30
0.0
 10
87.66045462218212
 20
-111.1623792582337
 30
0.0
 10
87.66045462218212
 20
-111.1623792582337
 30
0.0
 10
87.66045462218212
 20
-111.1623792582337
 30
0.0
 10
88.80887720219015
 20
-111.1623792582337
 30
0.0
 10
88.80887720219015
 20
-111.1623792582337
 30
0.0
 10
88.80887720219015
 20
-111.1623792582337
 30
0.0
 10
88.80887720219015
 20
-111.3739081210281
 30
0.0
 10
88.80887720219015
 20
-111.3739081210281
 30
0.0
 10
88.46298961547106
 20
-111.6636406513376
 30
0.0
 10
88.17825247361516
 20
-112.2560248200263
 30
0.0
 10
88.14207897102004
 20
-112.706643309497
 30
0.0
  0
HATCH
  5
56
330
51
100
AcDbEntity
  8
_U+30EC_U+30A4_U+30E4_U+30FC 1
 62
     7
420
 16777215
100
AcDbHatch
 10
0.0
 20
0.0
 30
0.0
210
0.0
220
0.0
230
1.0
  2
SOLID
 70
     1
 71
     0
 91
        1
 92
        1
 93
        1
 72
     4
 94
        3
 73
     0
 74
     1
 95
       26
 96
       22
 40
0.0
 40
0.0
 40
0.0
 40
0.0
 40
1.0
 40
1.0
 40
1.0
 40
2.0
 40
2.0
 40
2.0
 40
3.0
 40
3.0
 40
3.0
 40
4.0
 40
4.0
 40
4.0
 40
5.0
 40
5.0
 40
5.0
 40
6.0
 40
6.0
 40
6.0
 40
7.0
 40
7.0
 40
7.0
 40
7.0
 10
88.14207897102004
 20
-112.706643309497
 10
88.14207897102004
 20
-112.706643309497
 10
87.88886445285418
 20
-112.706643309497
 10
87.88886445285418
 20
-112.706643309497
 10
87.91590845241339
 20
-112.3977904992443
 10
88.1215806528828
 20
-111.8794758834885
 10
88.55566268402428
 20
-111.3739081210281
 10
88.55566268402428
 20
-111.3739081210281
 10
87.66045462218212
 20
-111.3739081210281
 10
87.66045462218212
 20
-111.3739081210281
 10
87.66045462218212
 20
-111.3739081210281
 10
87.66045462218212
 20
-111.1623792582337
 10
87.66045462218212
 20
-111.1623792582337
 10
87.66045462218212
 20
-111.1623792582337
 10
88.80887720219015
 20
-111.1623792582337
 10
88.80887720219015
 20
-111.1623792582337
 10
88.80887720219015
 20
-111.1623792582337
 10
88.80887720219015
 20
-111.3739081210281
 10
88.80887720219015
 20
-111.3739081210281
 10
88.46298961547106
 20
-111.6636406513376
 10
88.17825247361516
 20
-112.2560248200263
 10
88.14207897102004
 20
-112.706643309497
 97
        0
 97
        0
 75
     2
 76
     1
 98
        0
  0
ENDBLK
  5
54
330
51
100
AcDbEntity
  8
0
100
AcDbBlockEnd
  0
BLOCK
  5
92
330
90
100
AcDbEntity
  8
0
100
AcDbBlockBegin
  2
block 3
 70
     0
 10
0.0
 20
0.0
 30
0.0
  3
block 3
  1

  0
SPLINE
  5
94
330
90
100
AcDbEntity
  8
_U+30EC_U+30A4_U+30E4_U+30FC 1
370
     0
100
AcDbSpline
210
0.0
220
0.0
230
1.0
 70
    11
 71
     3
 72
    26
 73
    22
 74
     0
 42
0.0000000001
 43
0.0000000001
 12
1.0
 22
0.0
 32
0.0
 13
1.0
 23
0.0
 33
0.0
 40
0.0
 40
0.0
 40
0.0
 40
0.0
 40
1.0
 40
1.0
 40
1.0
 40
2.0
 40
2.0
 40
2.0
 40
3.0
 40
3.0
 40
3.0
 40
4.0
 40
4.0
 40
4.0
 40
5.0
 40
5.0
 40
5.0
 40
6.0
 40
6.0
 40
6.0
 40
7.0
 40
7.0
 40
7.0
 40
7.0
 10
87.70265704187642
 20
-119.0290825440275
 30
0.0
 10
87.70265704187642
 20
-119.0290825440275
 30
0.0
 10
87.70265704187642
 20
-117.9247571862306
 30
0.0
 10
87.70265704187642
 20
-117.9247571862306
 30
0.0
 10
87.70265704187642
 20
-117.9247571862306
 30
0.0
 10
87.34987926418684
 20
-117.9247571862306
 30
0.0
 10
87.34987926418684
 20
-117.9247571862306
 30
0.0
 10
87.34987926418684
 20
-117.9247571862306
 30
0.0
 10
87.34987926418684
 20
-117.7767903351391
 30
0.0
 10
87.34987926418684
 20
-117.7767903351391
 30
0.0
 10
87.70489635394183
 20
-117.7619764245526
 30
0.0
 10
87.7546779837037
 20
-117.5990234081003
 30
0.0
 10
87.78620060739374
 20
-117.4848184927642
 30
0.0
 10
87.78620060739374
 20
-117.4848184927642
 30
0.0
 10
87.94226343287555
 20
-117.4848184927642
 30
0.0
 10
87.94226343287555
 20
-117.4848184927642
 30
0.0
 10
87.94226343287555
 20
-117.4848184927642
 30
0.0
 10
87.94226343287555
 20
-119.0290825440275
 30
0.0
 10
87.94226343287555
 20
-119.0290825440275
 30
0.0
 10
87.94226343287555
 20
-119.0290825440275
 30
0.0
 10
87.70265704187642
 20
-119.0290825440275
 30
0.0
 10
87.70265704187642
 20
-119.0290825440275
 30
0.0
  0
HATCH
  5
95
330
90
100
AcDbEntity
  8
_U+30EC_U+30A4_U+30E4_U+30FC 1
 62
     7
420
 16777215
100
AcDbHatch
 10
0.0
 20
0.0
 30
0.0
210
0.0
220
0.0
230
1.0
  2
SOLID
 70
     1
 71
     0
 91
        1
 92
        1
 93
        1
 72
     4
 94
        3
 73
     0
 74
     1
 95
       26
 96
       22
 40
0.0
 40
0.0
 40
0.0
 40
0.0
 40
1.0
 40
1.0
 40
1.0
 40
2.0
 40
2.0
 40
2.0
 40
3.0
 40
3.0
 40
3.0
 40
4.0
 40
4.0
 40
4.0
 40
5.0
 40
5.0
 40
5.0
 40
6.0
 40
6.0
 40
6.0
 40
7.0
 40
7.0
 40
7.0
 40
7.0
 10
87.70265704187642
 20
-119.0290825440275
 10
87.70265704187642
 20
-119.0290825440275
 10
87.70265704187642
 20
-117.9247571862306
 10
87.70265704187642
 20
-117.9247571862306
 10
87.70265704187642
 20
-117.9247571862306
 10
87.34987926418684
 20
-117.9247571862306
 10
87.34987926418684
 20
-117.9247571862306
 10
87.34987926418684
 20
-117.9247571862306
 10
87.34987926418684
 20
-117.7767903351391
 10
87.34987926418684
 20
-117.7767903351391
 10
87.70489635394183
 20
-117.7619764245526
 10
87.7546779837037
 20
-117.5990234081003
 10
87.78620060739374
 20
-117.4848184927642
 10
87.78620060739374
 20
-117.4848184927642
 10
87.94226343287555
 20
-117.4848184927642
 10
87.94226343287555
 20
-117.4848184927642
 10
87.94226343287555
 20
-117.4848184927642
 10
87.94226343287555
 20
-119.0290825440275
 10
87.94226343287555
 20
-119.0290825440275
 10
87.94226343287555
 20
-119.0290825440275
 10
87.70265704187642
 20
-119.0290825440275
 10
87.70265704187642
 20
-119.0290825440275
 97
        0
 97
        0
 75
     2
 76
     1
 98
        0
  0
ENDBLK
  5
93
330
90
100
AcDbEntity
  8
0
100
AcDbBlockEnd
  0
BLOCK
  5
A9
330
A7
100
AcDbEntity
  8
0
100
AcDbBlockBegin
  2
block 4
 70
     0
 10
0.0
 20
0.0
 30
0.0
  3
block 4
  1

  0
SPLINE
  5
AB
330
A7
100
AcDbEntity
  8
_U+30EC_U+30A4_U+30E4_U+30FC 1
370
     0
100
AcDbSpline
210
0.0
220
0.0
230
1.0
 70
    11
 71
     3
 72
    26
 73
    22
 74
     0
 42
0.0000000001
 43
0.0000000001
 12
1.0
 22
0.0
 32
0.0
 13
1.0
 23
0.0
 33
0.0
 40
0.0
 40
0.0
 40
0.0
 40
0.0
 40
1.0
 40
1.0
 40
1.0
 40
2.0
 40
2.0
 40
2.0
 40
3.0
 40
3.0
 40
3.0
 40
4.0
 40
4.0
 40
4.0
 40
5.0
 40
5.0
 40
5.0
 40
6.0
 40
6.0
 40
6.0
 40
7.0
 40
7.0
 40
7.0
 40
7.0
 10
103.1161864976585
 20
-133.8316243155004
 30
0.0
 10
103.1161864976585
 20
-133.8316243155004
 30
0.0
 10
102.0120333946359
 20
-133.8316243155004
 30
0.0
 10
102.0120333946359
 20
-133.8316243155004
 30
0.0
 10
102.0120333946359
 20
-133.8316243155004
 30
0.0
 10
102.0120333946359
 20
-134.1840575836415
 30
0.0
 10
102.0120333946359
 20
-134.1840575836415
 30
0.0
 10
102.0120333946359
 20
-134.1840575836415
 30
0.0
 10
101.8638942887701
 20
-134.1840575836415
 30
0.0
 10
101.8638942887701
 20
-134.1840575836415
 30
0.0
 10
101.8490803781836
 20
-133.8292127486608
 30
0.0
 10
101.6861273617313
 20
-133.7796033736732
 30
0.0
 10
101.5717501916209
 20
-133.7479084952089
 30
0.0
 10
101.5717501916209
 20
-133.7479084952089
 30
0.0
 10
101.5717501916209
 20
-133.591845669727
 30
0.0
 10
101.5717501916209
 20
-133.591845669727
 30
0.0
 10
101.5717501916209
 20
-133.591845669727
 30
0.0
 10
103.1161864976585
 20
-133.591845669727
 30
0.0
 10
103.1161864976585
 20
-133.591845669727
 30
0.0
 10
103.1161864976585
 20
-133.591845669727
 30
0.0
 10
103.1161864976585
 20
-133.8316243155004
 30
0.0
 10
103.1161864976585
 20
-133.8316243155004
 30
0.0
  0
HATCH
  5
AC
330
A7
100
AcDbEntity
  8
_U+30EC_U+30A4_U+30E4_U+30FC 1
 62
     7
420
 16777215
100
AcDbHatch
 10
0.0
 20
0.0
 30
0.0
210
0.0
220
0.0
230
1.0
  2
SOLID
 70
     1
 71
     0
 91
        1
 92
        1
 93
        1
 72
     4
 94
        3
 73
     0
 74
     1
 95
       26
 96
       22
 40
0.0
 40
0.0
 40
0.0
 40
0.0
 40
1.0
 40
1.0
 40
1.0
 40
2.0
 40
2.0
 40
2.0
 40
3.0
 40
3.0
 40
3.0
 40
4.0
 40
4.0
 40
4.0
 40
5.0
 40
5.0
 40
5.0
 40
6.0
 40
6.0
 40
6.0
 40
7.0
 40
7.0
 40
7.0
 40
7.0
 10
103.1161864976585
 20
-133.8316243155004
 10
103.1161864976585
 20
-133.8316243155004
 10
102.0120333946359
 20
-133.8316243155004
 10
102.0120333946359
 20
-133.8316243155004
 10
102.0120333946359
 20
-133.8316243155004
 10
102.0120333946359
 20
-134.1840575836415
 10
102.0120333946359
 20
-134.1840575836415
 10
102.0120333946359
 20
-134.1840575836415
 10
101.8638942887701
 20
-134.1840575836415
 10
101.8638942887701
 20
-134.1840575836415
 10
101.8490803781836
 20
-133.8292127486608
 10
101.6861273617313
 20
-133.7796033736732
 10
101.5717501916209
 20
-133.7479084952089
 10
101.5717501916209
 20
-133.7479084952089
 10
101.5717501916209
 20
-133.591845669727
 10
101.5717501916209
 20
-133.591845669727
 10
101.5717501916209
 20
-133.591845669727
 10
103.1161864976585
 20
-133.591845669727
 10
103.1161864976585
 20
-133.591845669727
 10
103.1161864976585
 20
-133.591845669727
 10
103.1161864976585
 20
-133.8316243155004
 10
103.1161864976585
 20
-133.8316243155004
 97
        0
 97
        0
 75
     2
 76
     1
 98
        0
  0
SPLINE
  5
AD
330
A7
100
AcDbEntity
  8
_U+30EC_U+30A4_U+30E4_U+30FC 1
370
     0
100
AcDbSpline
210
0.0
220
0.0
230
1.0
 70
    11
 71
     3
 72
    53
 73
    49
 74
     0
 42
0.0000000001
 43
0.0000000001
 12
1.0
 22
0.0
 32
0.0
 13
1.0
 23
0.0
 33
0.0
 40
0.0
 40
0.0
 40
0.0
 40
0.0
 40
1.0
 40
1.0
 40
1.0
 40
2.0
 40
2.0
 40
2.0
 40
3.0
 40
3.0
 40
3.0
 40
4.0
 40
4.0
 40
4.0
 40
5.0
 40
5.0
 40
5.0
 40
6.0
 40
6.0
 40
6.0
 40
7.0
 40
7.0
 40
7.0
 40
8.0
 40
8.0
 40
8.0
 40
9.0
 40
9.0
 40
9.0
 40
10.0
 40
10.0
 40
10.0
 40
11.0
 40
11.0
 40
11.0
 40
12.0
 40
12.0
 40
12.0
 40
13.0
 40
13.0
 40
13.0
 40
14.0
 40
14.0
 40
14.0
 40
15.0
 40
15.0
 40
15.0
 40
16.0
 40
16.0
 40
16.0
 40
16.0
 10
103.1668294012916
 20
-132.5421250753714
 30
0.0
 10
103.1668294012916
 20
-132.6254963861145
 30
0.0
 10
103.1499484334139
 20
-132.7343614034484
 30
0.0
 10
103.0865586764853
 20
-132.8425374016852
 30
0.0
 10
102.9766601305058
 20
-133.0282280483402
 30
0.0
 10
102.8454019925178
 20
-133.0506211689943
 30
0.0
 10
102.7375705038295
 20
-133.0709472323573
 30
0.0
 10
102.7375705038295
 20
-133.0709472323573
 30
0.0
 10
102.7375705038295
 20
-132.8335801534236
 30
0.0
 10
102.7375705038295
 20
-132.8335801534236
 30
0.0
 10
102.9363525133284
 20
-132.7750135301743
 30
0.0
 10
102.9659803345016
 20
-132.6392767680555
 30
0.0
 10
102.9659803345016
 20
-132.5397135085317
 30
0.0
 10
102.9659803345016
 20
-132.3905408740204
 30
0.0
 10
102.8664170749778
 20
-132.2279323671166
 30
0.0
 10
102.6338731297235
 20
-132.2279323671166
 30
0.0
 10
102.3779025351694
 20
-132.2279323671166
 30
0.0
 10
102.3079670968188
 20
-132.419824185645
 30
0.0
 10
102.3079670968188
 20
-132.5486707567934
 30
0.0
 10
102.3079670968188
 20
-132.5827772020974
 30
0.0
 10
102.3079670968188
 20
-132.7343614034484
 30
0.0
 10
102.4371581775157
 20
-132.8291015292927
 30
0.0
 10
102.4371581775157
 20
-132.8291015292927
 30
0.0
 10
102.4182101523468
 20
-133.0168592332388
 30
0.0
 10
102.4182101523468
 20
-133.0168592332388
 30
0.0
 10
102.4182101523468
 20
-133.0168592332388
 30
0.0
 10
101.5717501916209
 20
-132.8880126620905
 30
0.0
 10
101.5717501916209
 20
-132.8880126620905
 30
0.0
 10
101.5717501916209
 20
-132.8880126620905
 30
0.0
 10
101.5717501916209
 20
-132.0560221024027
 30
0.0
 10
101.5717501916209
 20
-132.0560221024027
 30
0.0
 10
101.5717501916209
 20
-132.0560221024027
 30
0.0
 10
101.7663980865376
 20
-132.0560221024027
 30
0.0
 10
101.7663980865376
 20
-132.0560221024027
 30
0.0
 10
101.7663980865376
 20
-132.0560221024027
 30
0.0
 10
101.7663980865376
 20
-132.7136908305368
 30
0.0
 10
101.7663980865376
 20
-132.7136908305368
 30
0.0
 10
101.7663980865376
 20
-132.7136908305368
 30
0.0
 10
102.1894558121263
 20
-132.783970778436
 30
0.0
 10
102.1894558121263
 20
-132.783970778436
 30
0.0
 10
102.1556938763708
 20
-132.7185139642162
 30
0.0
 10
102.1153862591934
 20
-132.6303195197938
 30
0.0
 10
102.1153862591934
 20
-132.5035400059366
 30
0.0
 10
102.1153862591934
 20
-132.2324109912475
 30
0.0
 10
102.3017659249454
 20
-131.9791964730816
 30
0.0
 10
102.6149251045546
 20
-131.9791964730816
 30
0.0
 10
102.9322183987461
 20
-131.9791964730816
 30
0.0
 10
103.1668294012916
 20
-132.2186306093065
 30
0.0
 10
103.1668294012916
 20
-132.5421250753714
 30
0.0
  0
HATCH
  5
AE
330
A7
100
AcDbEntity
  8
_U+30EC_U+30A4_U+30E4_U+30FC 1
 62
     7
420
 16777215
100
AcDbHatch
 10
0.0
 20
0.0
 30
0.0
210
0.0
220
0.0
230
1.0
  2
SOLID
 70
     1
 71
     0
 91
        1
 92
        1
 93
        1
 72
     4
 94
        3
 73
     0
 74
     1
 95
       53
 96
       49
 40
0.0
 40
0.0
 40
0.0
 40
0.0
 40
1.0
 40
1.0
 40
1.0
 40
2.0
 40
2.0
 40
2.0
 40
3.0
 40
3.0
 40
3.0
 40
4.0
 40
4.0
 40
4.0
 40
5.0
 40
5.0
 40
5.0
 40
6.0
 40
6.0
 40
6.0
 40
7.0
 40
7.0
 40
7.0
 40
8.0
 40
8.0
 40
8.0
 40
9.0
 40
9.0
 40
9.0
 40
10.0
 40
10.0
 40
10.0
 40
11.0
 40
11.0
 40
11.0
 40
12.0
 40
12.0
 40
12.0
 40
13.0
 40
13.0
 40
13.0
 40
14.0
 40
14.0
 40
14.0
 40
15.0
 40
15.0
 40
15.0
 40
16.0
 40
16.0
 40
16.0
 40
16.0
 10
103.1668294012916
 20
-132.5421250753714
 10
103.1668294012916
 20
-132.6254963861145
 10
103.1499484334139
 20
-132.7343614034484
 10
103.0865586764853
 20
-132.8425374016852
 10
102.9766601305058
 20
-133.0282280483402
 10
102.8454019925178
 20
-133.0506211689943
 10
102.7375705038295
 20
-133.0709472323573
 10
102.7375705038295
 20
-133.0709472323573
 10
102.7375705038295
 20
-132.8335801534236
 10
102.7375705038295
 20
-132.8335801534236
 10
102.9363525133284
 20
-132.7750135301743
 10
102.9659803345016
 20
-132.6392767680555
 10
102.9659803345016
 20
-132.5397135085317
 10
102.9659803345016
 20
-132.3905408740204
 10
102.8664170749778
 20
-132.2279323671166
 10
102.6338731297235
 20
-132.2279323671166
 10
102.3779025351694
 20
-132.2279323671166
 10
102.3079670968188
 20
-132.419824185645
 10
102.3079670968188
 20
-132.5486707567934
 10
102.3079670968188
 20
-132.5827772020974
 10
102.3079670968188
 20
-132.7343614034484
 10
102.4371581775157
 20
-132.8291015292927
 10
102.4371581775157
 20
-132.8291015292927
 10
102.4182101523468
 20
-133.0168592332388
 10
102.4182101523468
 20
-133.0168592332388
 10
102.4182101523468
 20
-133.0168592332388
 10
101.5717501916209
 20
-132.8880126620905
 10
101.5717501916209
 20
-132.8880126620905
 10
101.5717501916209
 20
-132.8880126620905
 10
101.5717501916209
 20
-132.0560221024027
 10
101.5717501916209
 20
-132.0560221024027
 10
101.5717501916209
 20
-132.0560221024027
 10
101.7663980865376
 20
-132.0560221024027
 10
101.7663980865376
 20
-132.0560221024027
 10
101.7663980865376
 20
-132.0560221024027
 10
101.7663980865376
 20
-132.7136908305368
 10
101.7663980865376
 20
-132.7136908305368
 10
101.7663980865376
 20
-132.7136908305368
 10
102.1894558121263
 20
-132.783970778436
 10
102.1894558121263
 20
-132.783970778436
 10
102.1556938763708
 20
-132.7185139642162
 10
102.1153862591934
 20
-132.6303195197938
 10
102.1153862591934
 20
-132.5035400059366
 10
102.1153862591934
 20
-132.2324109912475
 10
102.3017659249454
 20
-131.9791964730816
 10
102.6149251045546
 20
-131.9791964730816
 10
102.9322183987461
 20
-131.9791964730816
 10
103.1668294012916
 20
-132.2186306093065
 10
103.1668294012916
 20
-132.5421250753714
 97
        0
 97
        0
 75
     2
 76
     1
 98
        0
  0
POLYLINE
  5
AF
330
A7
100
AcDbEntity
  8
_U+30EC_U+30A4_U+30E4_U+30FC 1
370
     0
100
AcDb2dPolyline
 66
     1
 10
0.0
 20
0.0
 30
0.0
  0
VERTEX
  5
B0
330
AF
100
AcDbEntity
  8
_U+30EC_U+30A4_U+30E4_U+30FC 1
370
     0
100
AcDbVertex
100
AcDb2dVertex
 10
103.1161864976585
 20
-131.7342501840803
 30
0.0
  0
VERTEX
  5
B1
330
AF
100
AcDbEntity
  8
_U+30EC_U+30A4_U+30E4_U+30FC 1
370
     0
100
AcDbVertex
100
AcDb2dVertex
 10
102.8643500176867
 20
-131.7342501840803
 30
0.0
  0
VERTEX
  5
B2
330
AF
100
AcDbEntity
  8
_U+30EC_U+30A4_U+30E4_U+30FC 1
370
     0
100
AcDbVertex
100
AcDb2dVertex
 10
102.8643500176867
 20
-131.4651882266823
 30
0.0
  0
VERTEX
  5
B3
330
AF
100
AcDbEntity
  8
_U+30EC_U+30A4_U+30E4_U+30FC 1
370
     0
100
AcDbVertex
100
AcDb2dVertex
 10
103.1161864976585
 20
-131.4651882266823
 30
0.0
  0
VERTEX
  5
B4
330
AF
100
AcDbEntity
  8
_U+30EC_U+30A4_U+30E4_U+30FC 1
370
     0
100
AcDbVertex
100
AcDb2dVertex
 10
103.1161864976585
 20
-131.7342501840803
 30
0.0
  0
SEQEND
  5
B5
330
AF
100
AcDbEntity
  8
_U+30EC_U+30A4_U+30E4_U+30FC 1
370
     0
  0
HATCH
  5
B6
330
A7
100
AcDbEntity
  8
_U+30EC_U+30A4_U+30E4_U+30FC 1
 62
     7
420
 16777215
100
AcDbHatch
 10
0.0
 20
0.0
 30
0.0
210
0.0
220
0.0
230
1.0
  2
SOLID
 70
     1
 71
     0
 91
        1
 92
        1
 93
        4
 72
     1
 10
103.1161864976585
 20
-131.7342501840803
 11
102.8643500176867
 21
-131.7342501840803
 72
     1
 10
102.8643500176867
 20
-131.7342501840803
 11
102.8643500176867
 21
-131.4651882266823
 72
     1
 10
102.8643500176867
 20
-131.4651882266823
 11
103.1161864976585
 21
-131.4651882266823
 72
     1
 10
103.1161864976585
 20
-131.4651882266823
 11
103.1161864976585
 21
-131.7342501840803
 97
        0
 75
     2
 76
     1
 98
        0
  0
SPLINE
  5
B7
330
A7
100
AcDbEntity
  8
_U+30EC_U+30A4_U+30E4_U+30FC 1
370
     0
100
AcDbSpline
210
0.0
220
0.0
230
1.0
 70
    11
 71
     3
 72
    53
 73
    49
 74
     0
 42
0.0000000001
 43
0.0000000001
 12
1.0
 22
0.0
 32
0.0
 13
1.0
 23
0.0
 33
0.0
 40
0.0
 40
0.0
 40
0.0
 40
0.0
 40
1.0
 40
1.0
 40
1.0
 40
2.0
 40
2.0
 40
2.0
 40
3.0
 40
3.0
 40
3.0
 40
4.0
 40
4.0
 40
4.0
 40
5.0
 40
5.0
 40
5.0
 40
6.0
 40
6.0
 40
6.0
 40
7.0
 40
7.0
 40
7.0
 40
8.0
 40
8.0
 40
8.0
 40
9.0
 40
9.0
 40
9.0
 40
10.0
 40
10.0
 40
10.0
 40
11.0
 40
11.0
 40
11.0
 40
12.0
 40
12.0
 40
12.0
 40
13.0
 40
13.0
 40
13.0
 40
14.0
 40
14.0
 40
14.0
 40
15.0
 40
15.0
 40
15.0
 40
16.0
 40
16.0
 40
16.0
 40
16.0
 10
103.1668294012916
 20
-130.6986544812142
 30
0.0
 10
103.1668294012916
 20
-130.7823703015058
 30
0.0
 10
103.1499484334139
 20
-130.8905462997427
 30
0.0
 10
103.0865586764853
 20
-130.9994113170766
 30
0.0
 10
102.9766601305058
 20
-131.184757454183
 30
0.0
 10
102.8454019925178
 20
-131.2071505748371
 30
0.0
 10
102.7375705038295
 20
-131.2274766382001
 30
0.0
 10
102.7375705038295
 20
-131.2274766382001
 30
0.0
 10
102.7375705038295
 20
-130.9901095592664
 30
0.0
 10
102.7375705038295
 20
-130.9901095592664
 30
0.0
 10
102.9363525133284
 20
-130.9315429360171
 30
0.0
 10
102.9659803345016
 20
-130.7958061738983
 30
0.0
 10
102.9659803345016
 20
-130.6962429143746
 30
0.0
 10
102.9659803345016
 20
-130.5470702798632
 30
0.0
 10
102.8664170749778
 20
-130.3841172634109
 30
0.0
 10
102.6338731297235
 20
-130.3841172634109
 30
0.0
 10
102.3779025351694
 20
-130.3841172634109
 30
0.0
 10
102.3079670968188
 20
-130.5763535914879
 30
0.0
 10
102.3079670968188
 20
-130.7052001626362
 30
0.0
 10
102.3079670968188
 20
-130.7393066079402
 30
0.0
 10
102.3079670968188
 20
-130.8905462997427
 30
0.0
 10
102.4371581775157
 20
-130.9856309351355
 30
0.0
 10
102.4371581775157
 20
-130.9856309351355
 30
0.0
 10
102.4182101523468
 20
-131.1733886390817
 30
0.0
 10
102.4182101523468
 20
-131.1733886390817
 30
0.0
 10
102.4182101523468
 20
-131.1733886390817
 30
0.0
 10
101.5717501916209
 20
-131.0445420679333
 30
0.0
 10
101.5717501916209
 20
-131.0445420679333
 30
0.0
 10
101.5717501916209
 20
-131.0445420679333
 30
0.0
 10
101.5717501916209
 20
-130.2125515082455
 30
0.0
 10
101.5717501916209
 20
-130.2125515082455
 30
0.0
 10
101.5717501916209
 20
-130.2125515082455
 30
0.0
 10
101.7663980865376
 20
-130.2125515082455
 30
0.0
 10
101.7663980865376
 20
-130.2125515082455
 30
0.0
 10
101.7663980865376
 20
-130.2125515082455
 30
0.0
 10
101.7663980865376
 20
-130.8702202363797
 30
0.0
 10
101.7663980865376
 20
-130.8702202363797
 30
0.0
 10
101.7663980865376
 20
-130.8702202363797
 30
0.0
 10
102.1894558121263
 20
-130.9405001842788
 30
0.0
 10
102.1894558121263
 20
-130.9405001842788
 30
0.0
 10
102.1556938763708
 20
-130.875043370059
 30
0.0
 10
102.1153862591934
 20
-130.7868489256366
 30
0.0
 10
102.1153862591934
 20
-130.6600694117794
 30
0.0
 10
102.1153862591934
 20
-130.3889403970903
 30
0.0
 10
102.3017659249454
 20
-130.1357258789244
 30
0.0
 10
102.6149251045546
 20
-130.1357258789244
 30
0.0
 10
102.9322183987461
 20
-130.1357258789244
 30
0.0
 10
103.1668294012916
 20
-130.3751600151493
 30
0.0
 10
103.1668294012916
 20
-130.6986544812142
 30
0.0
  0
HATCH
  5
B8
330
A7
100
AcDbEntity
  8
_U+30EC_U+30A4_U+30E4_U+30FC 1
 62
     7
420
 16777215
100
AcDbHatch
 10
0.0
 20
0.0
 30
0.0
210
0.0
220
0.0
230
1.0
  2
SOLID
 70
     1
 71
     0
 91
        1
 92
        1
 93
        1
 72
     4
 94
        3
 73
     0
 74
     1
 95
       53
 96
       49
 40
0.0
 40
0.0
 40
0.0
 40
0.0
 40
1.0
 40
1.0
 40
1.0
 40
2.0
 40
2.0
 40
2.0
 40
3.0
 40
3.0
 40
3.0
 40
4.0
 40
4.0
 40
4.0
 40
5.0
 40
5.0
 40
5.0
 40
6.0
 40
6.0
 40
6.0
 40
7.0
 40
7.0
 40
7.0
 40
8.0
 40
8.0
 40
8.0
 40
9.0
 40
9.0
 40
9.0
 40
10.0
 40
10.0
 40
10.0
 40
11.0
 40
11.0
 40
11.0
 40
12.0
 40
12.0
 40
12.0
 40
13.0
 40
13.0
 40
13.0
 40
14.0
 40
14.0
 40
14.0
 40
15.0
 40
15.0
 40
15.0
 40
16.0
 40
16.0
 40
16.0
 40
16.0
 10
103.1668294012916
 20
-130.6986544812142
 10
103.1668294012916
 20
-130.7823703015058
 10
103.1499484334139
 20
-130.8905462997427
 10
103.0865586764853
 20
-130.9994113170766
 10
102.9766601305058
 20
-131.184757454183
 10
102.8454019925178
 20
-131.2071505748371
 10
102.7375705038295
 20
-131.2274766382001
 10
102.7375705038295
 20
-131.2274766382001
 10
102.7375705038295
 20
-130.9901095592664
 10
102.7375705038295
 20
-130.9901095592664
 10
102.9363525133284
 20
-130.9315429360171
 10
102.9659803345016
 20
-130.7958061738983
 10
102.9659803345016
 20
-130.6962429143746
 10
102.9659803345016
 20
-130.5470702798632
 10
102.8664170749778
 20
-130.3841172634109
 10
102.6338731297235
 20
-130.3841172634109
 10
102.3779025351694
 20
-130.3841172634109
 10
102.3079670968188
 20
-130.5763535914879
 10
102.3079670968188
 20
-130.7052001626362
 10
102.3079670968188
 20
-130.7393066079402
 10
102.3079670968188
 20
-130.8905462997427
 10
102.4371581775157
 20
-130.9856309351355
 10
102.4371581775157
 20
-130.9856309351355
 10
102.4182101523468
 20
-131.1733886390817
 10
102.4182101523468
 20
-131.1733886390817
 10
102.4182101523468
 20
-131.1733886390817
 10
101.5717501916209
 20
-131.0445420679333
 10
101.5717501916209
 20
-131.0445420679333
 10
101.5717501916209
 20
-131.0445420679333
 10
101.5717501916209
 20
-130.2125515082455
 10
101.5717501916209
 20
-130.2125515082455
 10
101.5717501916209
 20
-130.2125515082455
 10
101.7663980865376
 20
-130.2125515082455
 10
101.7663980865376
 20
-130.2125515082455
 10
101.7663980865376
 20
-130.2125515082455
 10
101.7663980865376
 20
-130.8702202363797
 10
101.7663980865376
 20
-130.8702202363797
 10
101.7663980865376
 20
-130.8702202363797
 10
102.1894558121263
 20
-130.9405001842788
 10
102.1894558121263
 20
-130.9405001842788
 10
102.1556938763708
 20
-130.875043370059
 10
102.1153862591934
 20
-130.7868489256366
 10
102.1153862591934
 20
-130.6600694117794
 10
102.1153862591934
 20
-130.3889403970903
 10
102.3017659249454
 20
-130.1357258789244
 10
102.6149251045546
 20
-130.1357258789244
 10
102.9322183987461
 20
-130.1357258789244
 10
103.1668294012916
 20
-130.3751600151493
 10
103.1668294012916
 20
-130.6986544812142
 97
        0
 97
        0
 75
     2
 76
     1
 98
        0
  0
ENDBLK
  5
AA
330
A7
100
AcDbEntity
  8
0
100
AcDbBlockEnd
  0
BLOCK
  5
C3
330
C1
100
AcDbEntity
  8
0
100
AcDbBlockBegin
  2
block 5
 70
     0
 10
0.0
 20
0.0
 30
0.0
  3
block 5
  1

  0
SPLINE
  5
C5
330
C1
100
AcDbEntity
  8
_U+30EC_U+30A4_U+30E4_U+30FC 1
370
     0
100
AcDbSpline
210
0.0
220
0.0
230
1.0
 70
    11
 71
     3
 72
    26
 73
    22
 74
     0
 42
0.0000000001
 43
0.0000000001
 12
1.0
 22
0.0
 32
0.0
 13
1.0
 23
0.0
 33
0.0
 40
0.0
 40
0.0
 40
0.0
 40
0.0
 40
1.0
 40
1.0
 40
1.0
 40
2.0
 40
2.0
 40
2.0
 40
3.0
 40
3.0
 40
3.0
 40
4.0
 40
4.0
 40
4.0
 40
5.0
 40
5.0
 40
5.0
 40
6.0
 40
6.0
 40
6.0
 40
7.0
 40
7.0
 40
7.0
 40
7.0
 10
103.116531007207
 20
-120.5307996660479
 30
0.0
 10
103.116531007207
 20
-120.5307996660479
 30
0.0
 10
103.116531007207
 20
-120.7840141842137
 30
0.0
 10
103.116531007207
 20
-120.7840141842137
 30
0.0
 10
102.8075059421801
 20
-120.7569701846545
 30
0.0
 10
102.2893635811985
 20
-120.5512979841851
 30
0.0
 10
101.7836235639638
 20
-120.1172159530436
 30
0.0
 10
101.7836235639638
 20
-120.1172159530436
 30
0.0
 10
101.7836235639638
 20
-121.0124240148858
 30
0.0
 10
101.7836235639638
 20
-121.0124240148858
 30
0.0
 10
101.7836235639638
 20
-121.0124240148858
 30
0.0
 10
101.5720947011695
 20
-121.0124240148858
 30
0.0
 10
101.5720947011695
 20
-121.0124240148858
 30
0.0
 10
101.5720947011695
 20
-121.0124240148858
 30
0.0
 10
101.5720947011695
 20
-119.8640014348777
 30
0.0
 10
101.5720947011695
 20
-119.8640014348777
 30
0.0
 10
101.5720947011695
 20
-119.8640014348777
 30
0.0
 10
101.7836235639638
 20
-119.8640014348777
 30
0.0
 10
101.7836235639638
 20
-119.8640014348777
 30
0.0
 10
102.0737006038219
 20
-120.2098890215968
 30
0.0
 10
102.6659125177363
 20
-120.4946261634527
 30
0.0
 10
103.116531007207
 20
-120.5307996660479
 30
0.0
  0
HATCH
  5
C6
330
C1
100
AcDbEntity
  8
_U+30EC_U+30A4_U+30E4_U+30FC 1
 62
     7
420
 16777215
100
AcDbHatch
 10
0.0
 20
0.0
 30
0.0
210
0.0
220
0.0
230
1.0
  2
SOLID
 70
     1
 71
     0
 91
        1
 92
        1
 93
        1
 72
     4
 94
        3
 73
     0
 74
     1
 95
       26
 96
       22
 40
0.0
 40
0.0
 40
0.0
 40
0.0
 40
1.0
 40
1.0
 40
1.0
 40
2.0
 40
2.0
 40
2.0
 40
3.0
 40
3.0
 40
3.0
 40
4.0
 40
4.0
 40
4.0
 40
5.0
 40
5.0
 40
5.0
 40
6.0
 40
6.0
 40
6.0
 40
7.0
 40
7.0
 40
7.0
 40
7.0
 10
103.116531007207
 20
-120.5307996660479
 10
103.116531007207
 20
-120.5307996660479
 10
103.116531007207
 20
-120.7840141842137
 10
103.116531007207
 20
-120.7840141842137
 10
102.8075059421801
 20
-120.7569701846545
 10
102.2893635811985
 20
-120.5512979841851
 10
101.7836235639638
 20
-120.1172159530436
 10
101.7836235639638
 20
-120.1172159530436
 10
101.7836235639638
 20
-121.0124240148858
 10
101.7836235639638
 20
-121.0124240148858
 10
101.7836235639638
 20
-121.0124240148858
 10
101.5720947011695
 20
-121.0124240148858
 10
101.5720947011695
 20
-121.0124240148858
 10
101.5720947011695
 20
-121.0124240148858
 10
101.5720947011695
 20
-119.8640014348777
 10
101.5720947011695
 20
-119.8640014348777
 10
101.5720947011695
 20
-119.8640014348777
 10
101.7836235639638
 20
-119.8640014348777
 10
101.7836235639638
 20
-119.8640014348777
 10
102.0737006038219
 20
-120.2098890215968
 10
102.6659125177363
 20
-120.4946261634527
 10
103.116531007207
 20
-120.5307996660479
 97
        0
 97
        0
 75
     2
 76
     1
 98
        0
  0
ENDBLK
  5
C4
330
C1
100
AcDbEntity
  8
0
100
AcDbBlockEnd
  0
BLOCK
  5
D5
330
D3
100
AcDbEntity
  8
0
100
AcDbBlockBegin
  2
block 6
 70
     0
 10
0.0
 20
0.0
 30
0.0
  3
block 6
  1

  0
SPLINE
  5
D7
330
D3
100
AcDbEntity
  8
_U+30EC_U+30A4_U+30E4_U+30FC 1
370
     0
100
AcDbSpline
210
0.0
220
0.0
230
1.0
 70
    11
 71
     3
 72
    44
 73
    40
 74
     0
 42
0.0000000001
 43
0.0000000001
 12
1.0
 22
0.0
 32
0.0
 13
1.0
 23
0.0
 33
0.0
 40
0.0
 40
0.0
 40
0.0
 40
0.0
 40
1.0
 40
1.0
 40
1.0
 40
2.0
 40
2.0
 40
2.0
 40
3.0
 40
3.0
 40
3.0
 40
4.0
 40
4.0
 40
4.0
 40
5.0
 40
5.0
 40
5.0
 40
6.0
 40
6.0
 40
6.0
 40
7.0
 40
7.0
 40
7.0
 40
8.0
 40
8.0
 40
8.0
 40
9.0
 40
9.0
 40
9.0
 40
10.0
 40
10.0
 40
10.0
 40
11.0
 40
11.0
 40
11.0
 40
12.0
 40
12.0
 40
12.0
 40
13.0
 40
13.0
 40
13.0
 40
13.0
 10
78.53422442698103
 20
-130.1801676106841
 30
0.0
 10
78.69287107407679
 20
-130.413056065487
 30
0.0
 10
78.76694062700966
 20
-130.5122748154622
 30
0.0
 10
78.91077336351884
 20
-130.5642957572895
 30
0.0
 10
78.91077336351884
 20
-130.5642957572895
 30
0.0
 10
78.91077336351884
 20
-129.7323051976016
 30
0.0
 10
78.91077336351884
 20
-129.7323051976016
 30
0.0
 10
78.91077336351884
 20
-129.7323051976016
 30
0.0
 10
79.11592879966547
 20
-129.7323051976016
 30
0.0
 10
79.11592879966547
 20
-129.7323051976016
 30
0.0
 10
79.11592879966547
 20
-129.7323051976016
 30
0.0
 10
79.11592879966547
 20
-130.8312906573964
 30
0.0
 10
79.11592879966547
 20
-130.8312906573964
 30
0.0
 10
78.75832788829653
 20
-130.7971842120924
 30
0.0
 10
78.68012422078137
 20
-130.7272487737418
 30
0.0
 10
78.38177895175872
 20
-130.3155598632544
 30
0.0
 10
78.1829969422598
 20
-130.0420192817256
 30
0.0
 10
78.11530081597465
 20
-129.972083843375
 30
0.0
 10
77.97784150611318
 20
-129.972083843375
 30
0.0
 10
77.85933022142059
 20
-129.972083843375
 30
0.0
 10
77.72807208343256
 20
-130.0489094726961
 30
0.0
 10
77.72807208343256
 20
-130.2590602972963
 30
0.0
 10
77.72807208343256
 20
-130.5374240125045
 30
0.0
 10
77.95872122617004
 20
-130.5463812607662
 30
0.0
 10
78.07516545357149
 20
-130.550859884897
 30
0.0
 10
78.07516545357149
 20
-130.550859884897
 30
0.0
 10
78.07516545357149
 20
-130.7906385306704
 30
0.0
 10
78.07516545357149
 20
-130.7906385306704
 30
0.0
 10
77.94821368494003
 20
-130.7813367728602
 30
0.0
 10
77.83607582689515
 20
-130.7699679577589
 30
0.0
 10
77.71756454220255
 20
-130.6841850801762
 30
0.0
 10
77.55685083781565
 20
-130.5667073241292
 30
0.0
 10
77.52291664728594
 20
-130.3675808050817
 30
0.0
 10
77.52291664728594
 20
-130.2432128580642
 30
0.0
 10
77.52291664728594
 20
-129.9472791558812
 30
0.0
 10
77.70705700097254
 20
-129.7257595161797
 30
0.0
 10
77.97990856340434
 20
-129.7257595161797
 30
0.0
 10
78.2083183940764
 20
-129.7257595161797
 30
0.0
 10
78.30788165360012
 20
-129.8501274631972
 30
0.0
 10
78.53422442698103
 20
-130.1801676106841
 30
0.0
  0
HATCH
  5
D8
330
D3
100
AcDbEntity
  8
_U+30EC_U+30A4_U+30E4_U+30FC 1
 62
     7
420
 16777215
100
AcDbHatch
 10
0.0
 20
0.0
 30
0.0
210
0.0
220
0.0
230
1.0
  2
SOLID
 70
     1
 71
     0
 91
        1
 92
        1
 93
        1
 72
     4
 94
        3
 73
     0
 74
     1
 95
       44
 96
       40
 40
0.0
 40
0.0
 40
0.0
 40
0.0
 40
1.0
 40
1.0
 40
1.0
 40
2.0
 40
2.0
 40
2.0
 40
3.0
 40
3.0
 40
3.0
 40
4.0
 40
4.0
 40
4.0
 40
5.0
 40
5.0
 40
5.0
 40
6.0
 40
6.0
 40
6.0
 40
7.0
 40
7.0
 40
7.0
 40
8.0
 40
8.0
 40
8.0
 40
9.0
 40
9.0
 40
9.0
 40
10.0
 40
10.0
 40
10.0
 40
11.0
 40
11.0
 40
11.0
 40
12.0
 40
12.0
 40
12.0
 40
13.0
 40
13.0
 40
13.0
 40
13.0
 10
78.53422442698103
 20
-130.1801676106841
 10
78.69287107407679
 20
-130.413056065487
 10
78.76694062700966
 20
-130.5122748154622
 10
78.91077336351884
 20
-130.5642957572895
 10
78.91077336351884
 20
-130.5642957572895
 10
78.91077336351884
 20
-129.7323051976016
 10
78.91077336351884
 20
-129.7323051976016
 10
78.91077336351884
 20
-129.7323051976016
 10
79.11592879966547
 20
-129.7323051976016
 10
79.11592879966547
 20
-129.7323051976016
 10
79.11592879966547
 20
-129.7323051976016
 10
79.11592879966547
 20
-130.8312906573964
 10
79.11592879966547
 20
-130.8312906573964
 10
78.75832788829653
 20
-130.7971842120924
 10
78.68012422078137
 20
-130.7272487737418
 10
78.38177895175872
 20
-130.3155598632544
 10
78.1829969422598
 20
-130.0420192817256
 10
78.11530081597465
 20
-129.972083843375
 10
77.97784150611318
 20
-129.972083843375
 10
77.85933022142059
 20
-129.972083843375
 10
77.72807208343256
 20
-130.0489094726961
 10
77.72807208343256
 20
-130.2590602972963
 10
77.72807208343256
 20
-130.5374240125045
 10
77.95872122617004
 20
-130.5463812607662
 10
78.07516545357149
 20
-130.550859884897
 10
78.07516545357149
 20
-130.550859884897
 10
78.07516545357149
 20
-130.7906385306704
 10
78.07516545357149
 20
-130.7906385306704
 10
77.94821368494003
 20
-130.7813367728602
 10
77.83607582689515
 20
-130.7699679577589
 10
77.71756454220255
 20
-130.6841850801762
 10
77.55685083781565
 20
-130.5667073241292
 10
77.52291664728594
 20
-130.3675808050817
 10
77.52291664728594
 20
-130.2432128580642
 10
77.52291664728594
 20
-129.9472791558812
 10
77.70705700097254
 20
-129.7257595161797
 10
77.97990856340434
 20
-129.7257595161797
 10
78.2083183940764
 20
-129.7257595161797
 10
78.30788165360012
 20
-129.8501274631972
 10
78.53422442698103
 20
-130.1801676106841
 97
        0
 97
        0
 75
     2
 76
     1
 98
        0
  0
POLYLINE
  5
D9
330
D3
100
AcDbEntity
  8
_U+30EC_U+30A4_U+30E4_U+30FC 1
370
     0
100
AcDb2dPolyline
 66
     1
 10
0.0
 20
0.0
 30
0.0
  0
VERTEX
  5
DA
330
D9
100
AcDbEntity
  8
_U+30EC_U+30A4_U+30E4_U+30FC 1
370
     0
100
AcDbVertex
100
AcDb2dVertex
 10
78.7690076843008
 20
-128.6669094187882
 30
0.0
  0
VERTEX
  5
DB
330
D9
100
AcDbEntity
  8
_U+30EC_U+30A4_U+30E4_U+30FC 1
370
     0
100
AcDbVertex
100
AcDb2dVertex
 10
79.11592879966547
 20
-128.6669094187882
 30
0.0
  0
VERTEX
  5
DC
330
D9
100
AcDbEntity
  8
_U+30EC_U+30A4_U+30E4_U+30FC 1
370
     0
100
AcDbVertex
100
AcDb2dVertex
 10
79.11592879966547
 20
-128.8996256188168
 30
0.0
  0
VERTEX
  5
DD
330
D9
100
AcDbEntity
  8
_U+30EC_U+30A4_U+30E4_U+30FC 1
370
     0
100
AcDbVertex
100
AcDb2dVertex
 10
78.7690076843008
 20
-128.8996256188168
 30
0.0
  0
VERTEX
  5
DE
330
D9
100
AcDbEntity
  8
_U+30EC_U+30A4_U+30E4_U+30FC 1
370
     0
100
AcDbVertex
100
AcDb2dVertex
 10
78.7690076843008
 20
-129.6003580405166
 30
0.0
  0
VERTEX
  5
DF
330
D9
100
AcDbEntity
  8
_U+30EC_U+30A4_U+30E4_U+30FC 1
370
     0
100
AcDbVertex
100
AcDb2dVertex
 10
78.54473196821104
 20
-129.6003580405166
 30
0.0
  0
VERTEX
  5
E0
330
D9
100
AcDbEntity
  8
_U+30EC_U+30A4_U+30E4_U+30FC 1
370
     0
100
AcDbVertex
100
AcDb2dVertex
 10
77.57166474840223
 20
-128.874820931323
 30
0.0
  0
VERTEX
  5
E1
330
D9
100
AcDbEntity
  8
_U+30EC_U+30A4_U+30E4_U+30FC 1
370
     0
100
AcDbVertex
100
AcDb2dVertex
 10
77.57166474840223
 20
-128.6669094187882
 30
0.0
  0
VERTEX
  5
E2
330
D9
100
AcDbEntity
  8
_U+30EC_U+30A4_U+30E4_U+30FC 1
370
     0
100
AcDbVertex
100
AcDb2dVertex
 10
78.57005342002763
 20
-128.6669094187882
 30
0.0
  0
VERTEX
  5
E3
330
D9
100
AcDbEntity
  8
_U+30EC_U+30A4_U+30E4_U+30FC 1
370
     0
100
AcDbVertex
100
AcDb2dVertex
 10
78.57005342002763
 20
-128.4452175243123
 30
0.0
  0
VERTEX
  5
E4
330
D9
100
AcDbEntity
  8
_U+30EC_U+30A4_U+30E4_U+30FC 1
370
     0
100
AcDbVertex
100
AcDb2dVertex
 10
78.7690076843008
 20
-128.4452175243123
 30
0.0
  0
VERTEX
  5
E5
330
D9
100
AcDbEntity
  8
_U+30EC_U+30A4_U+30E4_U+30FC 1
370
     0
100
AcDbVertex
100
AcDb2dVertex
 10
78.7690076843008
 20
-128.6669094187882
 30
0.0
  0
SEQEND
  5
E6
330
D9
100
AcDbEntity
  8
_U+30EC_U+30A4_U+30E4_U+30FC 1
370
     0
  0
POLYLINE
  5
E7
330
D3
100
AcDbEntity
  8
_U+30EC_U+30A4_U+30E4_U+30FC 1
370
     0
100
AcDb2dPolyline
 66
     1
 10
0.0
 20
0.0
 30
0.0
  0
VERTEX
  5
E8
330
E7
100
AcDbEntity
  8
_U+30EC_U+30A4_U+30E4_U+30FC 1
370
     0
100
AcDbVertex
100
AcDb2dVertex
 10
77.91427949441032
 20
-128.8996256188168
 30
0.0
  0
VERTEX
  5
E9
330
E7
100
AcDbEntity
  8
_U+30EC_U+30A4_U+30E4_U+30FC 1
370
     0
100
AcDbVertex
100
AcDb2dVertex
 10
78.57005342002763
 20
-129.3881401586252
 30
0.0
  0
VERTEX
  5
EA
330
E7
100
AcDbEntity
  8
_U+30EC_U+30A4_U+30E4_U+30FC 1
370
     0
100
AcDbVertex
100
AcDb2dVertex
 10
78.57005342002763
 20
-128.8996256188168
 30
0.0
  0
VERTEX
  5
EB
330
E7
100
AcDbEntity
  8
_U+30EC_U+30A4_U+30E4_U+30FC 1
370
     0
100
AcDbVertex
100
AcDb2dVertex
 10
77.91427949441032
 20
-128.8996256188168
 30
0.0
  0
SEQEND
  5
EC
330
E7
100
AcDbEntity
  8
_U+30EC_U+30A4_U+30E4_U+30FC 1
370
     0
  0
HATCH
  5
ED
330
D3
100
AcDbEntity
  8
_U+30EC_U+30A4_U+30E4_U+30FC 1
 62
     7
420
 16777215
100
AcDbHatch
 10
0.0
 20
0.0
 30
0.0
210
0.0
220
0.0
230
1.0
  2
SOLID
 70
     1
 71
     0
 91
        2
 92
        1
 93
       11
 72
     1
 10
78.7690076843008
 20
-128.6669094187882
 11
79.11592879966547
 21
-128.6669094187882
 72
     1
 10
79.11592879966547
 20
-128.6669094187882
 11
79.11592879966547
 21
-128.8996256188168
 72
     1
 10
79.11592879966547
 20
-128.8996256188168
 11
78.7690076843008
 21
-128.8996256188168
 72
     1
 10
78.7690076843008
 20
-128.8996256188168
 11
78.7690076843008
 21
-129.6003580405166
 72
     1
 10
78.7690076843008
 20
-129.6003580405166
 11
78.54473196821104
 21
-129.6003580405166
 72
     1
 10
78.54473196821104
 20
-129.6003580405166
 11
77.57166474840223
 21
-128.874820931323
 72
     1
 10
77.57166474840223
 20
-128.874820931323
 11
77.57166474840223
 21
-128.6669094187882
 72
     1
 10
77.57166474840223
 20
-128.6669094187882
 11
78.57005342002763
 21
-128.6669094187882
 72
     1
 10
78.57005342002763
 20
-128.6669094187882
 11
78.57005342002763
 21
-128.4452175243123
 72
     1
 10
78.57005342002763
 20
-128.4452175243123
 11
78.7690076843008
 21
-128.4452175243123
 72
     1
 10
78.7690076843008
 20
-128.4452175243123
 11
78.7690076843008
 21
-128.6669094187882
 97
        0
 92
        1
 93
        3
 72
     1
 10
77.91427949441032
 20
-128.8996256188168
 11
78.57005342002763
 21
-129.3881401586252
 72
     1
 10
78.57005342002763
 20
-129.3881401586252
 11
78.57005342002763
 21
-128.8996256188168
 72
     1
 10
78.57005342002763
 20
-128.8996256188168
 11
77.91427949441032
 21
-128.8996256188168
 97
        0
 75
     2
 76
     1
 98
        0
  0
POLYLINE
  5
EE
330
D3
100
AcDbEntity
  8
_U+30EC_U+30A4_U+30E4_U+30FC 1
370
     0
100
AcDb2dPolyline
 66
     1
 10
0.0
 20
0.0
 30
0.0
  0
VERTEX
  5
EF
330
EE
100
AcDbEntity
  8
_U+30EC_U+30A4_U+30E4_U+30FC 1
370
     0
100
AcDbVertex
100
AcDb2dVertex
 10
79.11592879966547
 20
-128.2342054258408
 30
0.0
  0
VERTEX
  5
F0
330
EE
100
AcDbEntity
  8
_U+30EC_U+30A4_U+30E4_U+30FC 1
370
     0
100
AcDbVertex
100
AcDb2dVertex
 10
78.86426457446797
 20
-128.2342054258408
 30
0.0
  0
VERTEX
  5
F1
330
EE
100
AcDbEntity
  8
_U+30EC_U+30A4_U+30E4_U+30FC 1
370
     0
100
AcDbVertex
100
AcDb2dVertex
 10
78.86426457446797
 20
-127.9651434684427
 30
0.0
  0
VERTEX
  5
F2
330
EE
100
AcDbEntity
  8
_U+30EC_U+30A4_U+30E4_U+30FC 1
370
     0
100
AcDbVertex
100
AcDb2dVertex
 10
79.11592879966547
 20
-127.9651434684427
 30
0.0
  0
VERTEX
  5
F3
330
EE
100
AcDbEntity
  8
_U+30EC_U+30A4_U+30E4_U+30FC 1
370
     0
100
AcDbVertex
100
AcDb2dVertex
 10
79.11592879966547
 20
-128.2342054258408
 30
0.0
  0
SEQEND
  5
F4
330
EE
100
AcDbEntity
  8
_U+30EC_U+30A4_U+30E4_U+30FC 1
370
     0
  0
HATCH
  5
F5
330
D3
100
AcDbEntity
  8
_U+30EC_U+30A4_U+30E4_U+30FC 1
 62
     7
420
 16777215
100
AcDbHatch
 10
0.0
 20
0.0
 30
0.0
210
0.0
220
0.0
230
1.0
  2
SOLID
 70
     1
 71
     0
 91
        1
 92
        1
 93
        4
 72
     1
 10
79.11592879966547
 20
-128.2342054258408
 11
78.86426457446797
 21
-128.2342054258408
 72
     1
 10
78.86426457446797
 20
-128.2342054258408
 11
78.86426457446797
 21
-127.9651434684427
 72
     1
 10
78.86426457446797
 20
-127.9651434684427
 11
79.11592879966547
 21
-127.9651434684427
 72
     1
 10
79.11592879966547
 20
-127.9651434684427
 11
79.11592879966547
 21
-128.2342054258408
 97
        0
 75
     2
 76
     1
 98
        0
  0
SPLINE
  5
F6
330
D3
100
AcDbEntity
  8
_U+30EC_U+30A4_U+30E4_U+30FC 1
370
     0
100
AcDbSpline
210
0.0
220
0.0
230
1.0
 70
    11
 71
     3
 72
    53
 73
    49
 74
     0
 42
0.0000000001
 43
0.0000000001
 12
1.0
 22
0.0
 32
0.0
 13
1.0
 23
0.0
 33
0.0
 40
0.0
 40
0.0
 40
0.0
 40
0.0
 40
1.0
 40
1.0
 40
1.0
 40
2.0
 40
2.0
 40
2.0
 40
3.0
 40
3.0
 40
3.0
 40
4.0
 40
4.0
 40
4.0
 40
5.0
 40
5.0
 40
5.0
 40
6.0
 40
6.0
 40
6.0
 40
7.0
 40
7.0
 40
7.0
 40
8.0
 40
8.0
 40
8.0
 40
9.0
 40
9.0
 40
9.0
 40
10.0
 40
10.0
 40
10.0
 40
11.0
 40
11.0
 40
11.0
 40
12.0
 40
12.0
 40
12.0
 40
13.0
 40
13.0
 40
13.0
 40
14.0
 40
14.0
 40
14.0
 40
15.0
 40
15.0
 40
15.0
 40
16.0
 40
16.0
 40
16.0
 40
16.0
 10
79.1667439580729
 20
-127.1984374682004
 30
0.0
 10
79.1667439580729
 20
-127.282153288492
 30
0.0
 10
79.14986299019517
 20
-127.3906737962773
 30
0.0
 10
79.08630097849232
 20
-127.4991943040627
 30
0.0
 10
78.97623017773859
 20
-127.6845404411691
 30
0.0
 10
78.84514429452483
 20
-127.7072780713718
 30
0.0
 10
78.73731280583651
 20
-127.7276041347348
 30
0.0
 10
78.73731280583651
 20
-127.7276041347348
 30
0.0
 10
78.73731280583651
 20
-127.4902370558011
 30
0.0
 10
78.73731280583651
 20
-127.4902370558011
 30
0.0
 10
78.93609481533542
 20
-127.4313259230033
 30
0.0
 10
78.96572263650857
 20
-127.2957614156587
 30
0.0
 10
78.96572263650857
 20
-127.196198156135
 30
0.0
 10
78.96572263650857
 20
-127.0470255216237
 30
0.0
 10
78.86633163175911
 20
-126.8842447599456
 30
0.0
 10
78.63361543173049
 20
-126.8842447599456
 30
0.0
 10
78.37764483717642
 20
-126.8842447599456
 30
0.0
 10
78.30788165360012
 20
-127.0764810880225
 30
0.0
 10
78.30788165360012
 20
-127.2053276591709
 30
0.0
 10
78.30788165360012
 20
-127.2392618497006
 30
0.0
 10
78.30788165360012
 20
-127.3906737962773
 30
0.0
 10
78.43690047952272
 20
-127.485586176896
 30
0.0
 10
78.43690047952272
 20
-127.485586176896
 30
0.0
 10
78.41778019957958
 20
-127.6733438808421
 30
0.0
 10
78.41778019957958
 20
-127.6733438808421
 30
0.0
 10
78.41778019957958
 20
-127.6733438808421
 30
0.0
 10
77.57166474840223
 20
-127.5443250549195
 30
0.0
 10
77.57166474840223
 20
-127.5443250549195
 30
0.0
 10
77.57166474840223
 20
-127.5443250549195
 30
0.0
 10
77.57166474840223
 20
-126.7123344952316
 30
0.0
 10
77.57166474840223
 20
-126.7123344952316
 30
0.0
 10
77.57166474840223
 20
-126.7123344952316
 30
0.0
 10
77.76631264331884
 20
-126.7123344952316
 30
0.0
 10
77.76631264331884
 20
-126.7123344952316
 30
0.0
 10
77.76631264331884
 20
-126.7123344952316
 30
0.0
 10
77.76631264331884
 20
-127.3703477329144
 30
0.0
 10
77.76631264331884
 20
-127.3703477329144
 30
0.0
 10
77.76631264331884
 20
-127.3703477329144
 30
0.0
 10
78.18937036890752
 20
-127.4404554260392
 30
0.0
 10
78.18937036890752
 20
-127.4404554260392
 30
0.0
 10
78.15543617837781
 20
-127.3748263570452
 30
0.0
 10
78.11530081597465
 20
-127.2866319126228
 30
0.0
 10
78.11530081597465
 20
-127.1600246535399
 30
0.0
 10
78.11530081597465
 20
-126.8887233840764
 30
0.0
 10
78.30150822695241
 20
-126.6355088659106
 30
0.0
 10
78.61449515178735
 20
-126.6355088659106
 30
0.0
 10
78.93196070075312
 20
-126.6355088659106
 30
0.0
 10
79.1667439580729
 20
-126.875287511684
 30
0.0
 10
79.1667439580729
 20
-127.1984374682004
 30
0.0
  0
HATCH
  5
F7
330
D3
100
AcDbEntity
  8
_U+30EC_U+30A4_U+30E4_U+30FC 1
 62
     7
420
 16777215
100
AcDbHatch
 10
0.0
 20
0.0
 30
0.0
210
0.0
220
0.0
230
1.0
  2
SOLID
 70
     1
 71
     0
 91
        1
 92
        1
 93
        1
 72
     4
 94
        3
 73
     0
 74
     1
 95
       53
 96
       49
 40
0.0
 40
0.0
 40
0.0
 40
0.0
 40
1.0
 40
1.0
 40
1.0
 40
2.0
 40
2.0
 40
2.0
 40
3.0
 40
3.0
 40
3.0
 40
4.0
 40
4.0
 40
4.0
 40
5.0
 40
5.0
 40
5.0
 40
6.0
 40
6.0
 40
6.0
 40
7.0
 40
7.0
 40
7.0
 40
8.0
 40
8.0
 40
8.0
 40
9.0
 40
9.0
 40
9.0
 40
10.0
 40
10.0
 40
10.0
 40
11.0
 40
11.0
 40
11.0
 40
12.0
 40
12.0
 40
12.0
 40
13.0
 40
13.0
 40
13.0
 40
14.0
 40
14.0
 40
14.0
 40
15.0
 40
15.0
 40
15.0
 40
16.0
 40
16.0
 40
16.0
 40
16.0
 10
79.1667439580729
 20
-127.1984374682004
 10
79.1667439580729
 20
-127.282153288492
 10
79.14986299019517
 20
-127.3906737962773
 10
79.08630097849232
 20
-127.4991943040627
 10
78.97623017773859
 20
-127.6845404411691
 10
78.84514429452483
 20
-127.7072780713718
 10
78.73731280583651
 20
-127.7276041347348
 10
78.73731280583651
 20
-127.7276041347348
 10
78.73731280583651
 20
-127.4902370558011
 10
78.73731280583651
 20
-127.4902370558011
 10
78.93609481533542
 20
-127.4313259230033
 10
78.96572263650857
 20
-127.2957614156587
 10
78.96572263650857
 20
-127.196198156135
 10
78.96572263650857
 20
-127.0470255216237
 10
78.86633163175911
 20
-126.8842447599456
 10
78.63361543173049
 20
-126.8842447599456
 10
78.37764483717642
 20
-126.8842447599456
 10
78.30788165360012
 20
-127.0764810880225
 10
78.30788165360012
 20
-127.2053276591709
 10
78.30788165360012
 20
-127.2392618497006
 10
78.30788165360012
 20
-127.3906737962773
 10
78.43690047952272
 20
-127.485586176896
 10
78.43690047952272
 20
-127.485586176896
 10
78.41778019957958
 20
-127.6733438808421
 10
78.41778019957958
 20
-127.6733438808421
 10
78.41778019957958
 20
-127.6733438808421
 10
77.57166474840223
 20
-127.5443250549195
 10
77.57166474840223
 20
-127.5443250549195
 10
77.57166474840223
 20
-127.5443250549195
 10
77.57166474840223
 20
-126.7123344952316
 10
77.57166474840223
 20
-126.7123344952316
 10
77.57166474840223
 20
-126.7123344952316
 10
77.76631264331884
 20
-126.7123344952316
 10
77.76631264331884
 20
-126.7123344952316
 10
77.76631264331884
 20
-126.7123344952316
 10
77.76631264331884
 20
-127.3703477329144
 10
77.76631264331884
 20
-127.3703477329144
 10
77.76631264331884
 20
-127.3703477329144
 10
78.18937036890752
 20
-127.4404554260392
 10
78.18937036890752
 20
-127.4404554260392
 10
78.15543617837781
 20
-127.3748263570452
 10
78.11530081597465
 20
-127.2866319126228
 10
78.11530081597465
 20
-127.1600246535399
 10
78.11530081597465
 20
-126.8887233840764
 10
78.30150822695241
 20
-126.6355088659106
 10
78.61449515178735
 20
-126.6355088659106
 10
78.93196070075312
 20
-126.6355088659106
 10
79.1667439580729
 20
-126.875287511684
 10
79.1667439580729
 20
-127.1984374682004
 97
        0
 97
        0
 75
     2
 76
     1
 98
        0
  0
ENDBLK
  5
D6
330
D3
100
AcDbEntity
  8
0
100
AcDbBlockEnd
  0
BLOCK
  5
106
330
104
100
AcDbEntity
  8
0
100
AcDbBlockBegin
  2
block 7
 70
     0
 10
0.0
 20
0.0
 30
0.0
  3
block 7
  1

  0
SPLINE
  5
108
330
104
100
AcDbEntity
  8
_U+30EC_U+30A4_U+30E4_U+30FC 1
370
     0
100
AcDbSpline
210
0.0
220
0.0
230
1.0
 70
    11
 71
     3
 72
    26
 73
    22
 74
     0
 42
0.0000000001
 43
0.0000000001
 12
1.0
 22
0.0
 32
0.0
 13
1.0
 23
0.0
 33
0.0
 40
0.0
 40
0.0
 40
0.0
 40
0.0
 40
1.0
 40
1.0
 40
1.0
 40
2.0
 40
2.0
 40
2.0
 40
3.0
 40
3.0
 40
3.0
 40
4.0
 40
4.0
 40
4.0
 40
5.0
 40
5.0
 40
5.0
 40
6.0
 40
6.0
 40
6.0
 40
7.0
 40
7.0
 40
7.0
 40
7.0
 10
91.03613143340417
 20
-144.3825737486266
 30
0.0
 10
91.03613143340417
 20
-144.3825737486266
 30
0.0
 10
91.03613143340417
 20
-143.278420645604
 30
0.0
 10
91.03613143340417
 20
-143.278420645604
 30
0.0
 10
91.03613143340417
 20
-143.278420645604
 30
0.0
 10
90.68369816526311
 20
-143.278420645604
 30
0.0
 10
90.68369816526311
 20
-143.278420645604
 30
0.0
 10
90.68369816526311
 20
-143.278420645604
 30
0.0
 10
90.68369816526311
 20
-143.1302815397383
 30
0.0
 10
90.68369816526311
 20
-143.1302815397383
 30
0.0
 10
91.03854300024383
 20
-143.1154676291517
 30
0.0
 10
91.08815237523145
 20
-142.9525146126994
 30
0.0
 10
91.11984725369574
 20
-142.8381374425891
 30
0.0
 10
91.11984725369574
 20
-142.8381374425891
 30
0.0
 10
91.27591007917755
 20
-142.8381374425891
 30
0.0
 10
91.27591007917755
 20
-142.8381374425891
 30
0.0
 10
91.27591007917755
 20
-142.8381374425891
 30
0.0
 10
91.27591007917755
 20
-144.3825737486266
 30
0.0
 10
91.27591007917755
 20
-144.3825737486266
 30
0.0
 10
91.27591007917755
 20
-144.3825737486266
 30
0.0
 10
91.03613143340417
 20
-144.3825737486266
 30
0.0
 10
91.03613143340417
 20
-144.3825737486266
 30
0.0
  0
HATCH
  5
109
330
104
100
AcDbEntity
  8
_U+30EC_U+30A4_U+30E4_U+30FC 1
 62
     7
420
 16777215
100
AcDbHatch
 10
0.0
 20
0.0
 30
0.0
210
0.0
220
0.0
230
1.0
  2
SOLID
 70
     1
 71
     0
 91
        1
 92
        1
 93
        1
 72
     4
 94
        3
 73
     0
 74
     1
 95
       26
 96
       22
 40
0.0
 40
0.0
 40
0.0
 40
0.0
 40
1.0
 40
1.0
 40
1.0
 40
2.0
 40
2.0
 40
2.0
 40
3.0
 40
3.0
 40
3.0
 40
4.0
 40
4.0
 40
4.0
 40
5.0
 40
5.0
 40
5.0
 40
6.0
 40
6.0
 40
6.0
 40
7.0
 40
7.0
 40
7.0
 40
7.0
 10
91.03613143340417
 20
-144.3825737486266
 10
91.03613143340417
 20
-144.3825737486266
 10
91.03613143340417
 20
-143.278420645604
 10
91.03613143340417
 20
-143.278420645604
 10
91.03613143340417
 20
-143.278420645604
 10
90.68369816526311
 20
-143.278420645604
 10
90.68369816526311
 20
-143.278420645604
 10
90.68369816526311
 20
-143.278420645604
 10
90.68369816526311
 20
-143.1302815397383
 10
90.68369816526311
 20
-143.1302815397383
 10
91.03854300024383
 20
-143.1154676291517
 10
91.08815237523145
 20
-142.9525146126994
 10
91.11984725369574
 20
-142.8381374425891
 10
91.11984725369574
 20
-142.8381374425891
 10
91.27591007917755
 20
-142.8381374425891
 10
91.27591007917755
 20
-142.8381374425891
 10
91.27591007917755
 20
-142.8381374425891
 10
91.27591007917755
 20
-144.3825737486266
 10
91.27591007917755
 20
-144.3825737486266
 10
91.27591007917755
 20
-144.3825737486266
 10
91.03613143340417
 20
-144.3825737486266
 10
91.03613143340417
 20
-144.3825737486266
 97
        0
 97
        0
 75
     2
 76
     1
 98
        0
  0
SPLINE
  5
10A
330
104
100
AcDbEntity
  8
_U+30EC_U+30A4_U+30E4_U+30FC 1
370
     0
100
AcDbSpline
210
0.0
220
0.0
230
1.0
 70
    11
 71
     3
 72
    32
 73
    28
 74
     0
 42
0.0000000001
 43
0.0000000001
 12
1.0
 22
0.0
 32
0.0
 13
1.0
 23
0.0
 33
0.0
 40
0.0
 40
0.0
 40
0.0
 40
0.0
 40
1.0
 40
1.0
 40
1.0
 40
2.0
 40
2.0
 40
2.0
 40
3.0
 40
3.0
 40
3.0
 40
4.0
 40
4.0
 40
4.0
 40
5.0
 40
5.0
 40
5.0
 40
6.0
 40
6.0
 40
6.0
 40
7.0
 40
7.0
 40
7.0
 40
8.0
 40
8.0
 40
8.0
 40
9.0
 40
9.0
 40
9.0
 40
9.0
 10
92.35060761580124
 20
-144.4332166522597
 30
0.0
 10
91.79870331906422
 20
-144.4332166522597
 30
0.0
 10
91.78974607080256
 20
-143.8792452982316
 30
0.0
 10
91.78974607080256
 20
-143.6653048685976
 30
0.0
 10
91.78974607080256
 20
-143.4348279806344
 30
0.0
 10
91.81007213416554
 20
-142.7874945389559
 30
0.0
 10
92.39125974252718
 20
-142.7874945389559
 30
0.0
 10
92.57660587963363
 20
-142.7874945389559
 30
0.0
 10
92.83877764606115
 20
-142.8574299773065
 30
0.0
 10
92.87942977278709
 20
-143.1895371820846
 30
0.0
 10
92.87942977278709
 20
-143.1895371820846
 30
0.0
 10
92.65101994211503
 20
-143.1895371820846
 30
0.0
 10
92.65101994211503
 20
-143.1895371820846
 30
0.0
 10
92.63999563656223
 20
-143.1323485970294
 30
0.0
 10
92.60588919125826
 20
-142.9842094911637
 30
0.0
 10
92.38884817568751
 20
-142.9842094911637
 30
0.0
 10
92.07672252472388
 20
-142.9842094911637
 30
0.0
 10
92.03400334070678
 20
-143.3121825813595
 30
0.0
 10
92.02022295876579
 20
-143.5171657627318
 30
0.0
 10
92.1197862182895
 20
-143.4389620952167
 30
0.0
 10
92.19213322347974
 20
-143.3797064528704
 30
0.0
 10
92.38643660884784
 20
-143.3797064528704
 30
0.0
 10
92.57867293692478
 20
-143.3797064528704
 30
0.0
 10
92.90216740298975
 20
-143.4878824511072
 30
0.0
 10
92.90216740298975
 20
-143.8940592088182
 30
0.0
 10
92.90216740298975
 20
-144.2134195603008
 30
0.0
 10
92.68960501154983
 20
-144.4332166522597
 30
0.0
 10
92.35060761580124
 20
-144.4332166522597
 30
0.0
  0
SPLINE
  5
10B
330
104
100
AcDbEntity
  8
_U+30EC_U+30A4_U+30E4_U+30FC 1
370
     0
100
AcDbSpline
210
0.0
220
0.0
230
1.0
 70
    11
 71
     3
 72
    17
 73
    13
 74
     0
 42
0.0000000001
 43
0.0000000001
 12
1.0
 22
0.0
 32
0.0
 13
1.0
 23
0.0
 33
0.0
 40
0.0
 40
0.0
 40
0.0
 40
0.0
 40
1.0
 40
1.0
 40
1.0
 40
2.0
 40
2.0
 40
2.0
 40
3.0
 40
3.0
 40
3.0
 40
4.0
 40
4.0
 40
4.0
 40
4.0
 10
92.36852211232454
 20
-143.574354347787
 30
0.0
 10
92.0880913398252
 20
-143.574354347787
 30
0.0
 10
92.04743921309925
 20
-143.7858832105813
 30
0.0
 10
92.04743921309925
 20
-143.9023274379828
 30
0.0
 10
92.04743921309925
 20
-144.0780273077305
 30
0.0
 10
92.14906952991413
 20
-144.2409803241828
 30
0.0
 10
92.34578448212189
 20
-144.2409803241828
 30
0.0
 10
92.47463105327023
 20
-144.2409803241828
 30
0.0
 10
92.66238875721635
 20
-144.1817246818365
 30
0.0
 10
92.66238875721635
 20
-143.8961262661093
 30
0.0
 10
92.66238875721635
 20
-143.6718505500195
 30
0.0
 10
92.51321612270503
 20
-143.574354347787
 30
0.0
 10
92.36852211232454
 20
-143.574354347787
 30
0.0
  0
HATCH
  5
10C
330
104
100
AcDbEntity
  8
_U+30EC_U+30A4_U+30E4_U+30FC 1
 62
     7
420
 16777215
100
AcDbHatch
 10
0.0
 20
0.0
 30
0.0
210
0.0
220
0.0
230
1.0
  2
SOLID
 70
     1
 71
     0
 91
        2
 92
        1
 93
        1
 72
     4
 94
        3
 73
     0
 74
     1
 95
       32
 96
       28
 40
0.0
 40
0.0
 40
0.0
 40
0.0
 40
1.0
 40
1.0
 40
1.0
 40
2.0
 40
2.0
 40
2.0
 40
3.0
 40
3.0
 40
3.0
 40
4.0
 40
4.0
 40
4.0
 40
5.0
 40
5.0
 40
5.0
 40
6.0
 40
6.0
 40
6.0
 40
7.0
 40
7.0
 40
7.0
 40
8.0
 40
8.0
 40
8.0
 40
9.0
 40
9.0
 40
9.0
 40
9.0
 10
92.35060761580124
 20
-144.4332166522597
 10
91.79870331906422
 20
-144.4332166522597
 10
91.78974607080256
 20
-143.8792452982316
 10
91.78974607080256
 20
-143.6653048685976
 10
91.78974607080256
 20
-143.4348279806344
 10
91.81007213416554
 20
-142.7874945389559
 10
92.39125974252718
 20
-142.7874945389559
 10
92.57660587963363
 20
-142.7874945389559
 10
92.83877764606115
 20
-142.8574299773065
 10
92.87942977278709
 20
-143.1895371820846
 10
92.87942977278709
 20
-143.1895371820846
 10
92.65101994211503
 20
-143.1895371820846
 10
92.65101994211503
 20
-143.1895371820846
 10
92.63999563656223
 20
-143.1323485970294
 10
92.60588919125826
 20
-142.9842094911637
 10
92.38884817568751
 20
-142.9842094911637
 10
92.07672252472388
 20
-142.9842094911637
 10
92.03400334070678
 20
-143.3121825813595
 10
92.02022295876579
 20
-143.5171657627318
 10
92.1197862182895
 20
-143.4389620952167
 10
92.19213322347974
 20
-143.3797064528704
 10
92.38643660884784
 20
-143.3797064528704
 10
92.57867293692478
 20
-143.3797064528704
 10
92.90216740298975
 20
-143.4878824511072
 10
92.90216740298975
 20
-143.8940592088182
 10
92.90216740298975
 20
-144.2134195603008
 10
92.68960501154983
 20
-144.4332166522597
 10
92.35060761580124
 20
-144.4332166522597
 97
        0
 97
        0
 92
        1
 93
        1
 72
     4
 94
        3
 73
     0
 74
     1
 95
       17
 96
       13
 40
0.0
 40
0.0
 40
0.0
 40
0.0
 40
1.0
 40
1.0
 40
1.0
 40
2.0
 40
2.0
 40
2.0
 40
3.0
 40
3.0
 40
3.0
 40
4.0
 40
4.0
 40
4.0
 40
4.0
 10
92.36852211232454
 20
-143.574354347787
 10
92.0880913398252
 20
-143.574354347787
 10
92.04743921309925
 20
-143.7858832105813
 10
92.04743921309925
 20
-143.9023274379828
 10
92.04743921309925
 20
-144.0780273077305
 10
92.14906952991413
 20
-144.2409803241828
 10
92.34578448212189
 20
-144.2409803241828
 10
92.47463105327023
 20
-144.2409803241828
 10
92.66238875721635
 20
-144.1817246818365
 10
92.66238875721635
 20
-143.8961262661093
 10
92.66238875721635
 20
-143.6718505500195
 10
92.51321612270503
 20
-143.574354347787
 10
92.36852211232454
 20
-143.574354347787
 97
        0
 97
        0
 75
     2
 76
     1
 98
        0
  0
ENDBLK
  5
107
330
104
100
AcDbEntity
  8
0
100
AcDbBlockEnd
  0
ENDSEC
  0
SECTION
  2
ENTITIES
  0
SPLINE
  5
41
330
1F
100
AcDbEntity
  8
_U+30EC_U+30A4_U+30E4_U+30FC 1
 62
   253
420
 11711154
370
     9
100
AcDbSpline
210
0.0
220
0.0
230
1.0
 70
    11
 71
     3
 72
    44
 73
    40
 74
     0
 42
0.0000000001
 43
0.0000000001
 12
1.0
 22
0.0
 32
0.0
 13
1.0
 23
0.0
 33
0.0
 40
0.0
 40
0.0
 40
0.0
 40
0.0
 40
1.0
 40
1.0
 40
1.0
 40
2.0
 40
2.0
 40
2.0
 40
3.0
 40
3.0
 40
3.0
 40
4.0
 40
4.0
 40
4.0
 40
5.0
 40
5.0
 40
5.0
 40
6.0
 40
6.0
 40
6.0
 40
7.0
 40
7.0
 40
7.0
 40
8.0
 40
8.0
 40
8.0
 40
9.0
 40
9.0
 40
9.0
 40
10.0
 40
10.0
 40
10.0
 40
11.0
 40
11.0
 40
11.0
 40
12.0
 40
12.0
 40
12.0
 40
13.0
 40
13.0
 40
13.0
 40
13.0
 10
83.63140286638516
 20
-116.4921258042102
 30
0.0
 10
83.63140286638516
 20
-116.4921258042102
 30
0.0
 10
84.73383339381537
 20
-116.5803202486326
 30
0.0
 10
84.68973617271816
 20
-117.9914313593909
 30
0.0
 10
84.68973617271816
 20
-117.9914313593909
 30
0.0
 10
84.68973617271816
 20
-123.4594869135795
 30
0.0
 10
84.68973617271816
 20
-123.4594869135795
 30
0.0
 10
84.68973617271816
 20
-123.4594869135795
 30
0.0
 10
90.73105546303572
 20
-123.4153896913683
 30
0.0
 10
90.73105546303572
 20
-123.4153896913683
 30
0.0
 10
90.73105546303572
 20
-123.4153896913683
 30
0.0
 10
91.65709710607709
 20
-123.7681674690579
 30
0.0
 10
91.65709710607709
 20
-124.4296258022258
 30
0.0
 10
91.65709710607709
 20
-124.4296258022258
 30
0.0
 10
84.68973617271816
 20
-124.5178202466482
 30
0.0
 10
84.68973617271816
 20
-124.5178202466482
 30
0.0
 10
84.68973617271816
 20
-124.5178202466482
 30
0.0
 10
84.68973617271816
 20
-139.9077507983566
 30
0.0
 10
84.68973617271816
 20
-139.9077507983566
 30
0.0
 10
84.68973617271816
 20
-139.9077507983566
 30
0.0
 10
91.65709710607709
 20
-139.9077507983566
 30
0.0
 10
91.65709710607709
 20
-139.9077507983566
 30
0.0
 10
91.65709710607709
 20
-139.9077507983566
 30
0.0
 10
91.96577765375754
 20
-140.1282369094126
 30
0.0
 10
91.96577765375754
 20
-140.1282369094126
 30
0.0
 10
91.96577765375754
 20
-140.1282369094126
 30
0.0
 10
98.97723580821368
 20
-140.1723341316238
 30
0.0
 10
98.97723580821368
 20
-140.1723341316238
 30
0.0
 10
98.97723580821368
 20
-140.1723341316238
 30
0.0
 10
99.72688856686622
 20
-140.4810146871022
 30
0.0
 10
99.72688856686622
 20
-140.9219869092142
 30
0.0
 10
99.72688856686622
 20
-140.9219869092142
 30
0.0
 10
84.68973617271816
 20
-140.9219869092142
 30
0.0
 10
84.68973617271816
 20
-140.9219869092142
 30
0.0
 10
84.68973617271816
 20
-140.9219869092142
 30
0.0
 10
83.76369452967678
 20
-141.0101813536366
 30
0.0
 10
83.71959730857958
 20
-139.8636535761454
 30
0.0
 10
83.71959730857958
 20
-139.8636535761454
 30
0.0
 10
83.63140286638516
 20
-116.4921258042102
 30
0.0
 10
83.63140286638516
 20
-116.4921258042102
 30
0.0
  0
HATCH
  5
42
330
1F
100
AcDbEntity
  8
_U+30EC_U+30A4_U+30E4_U+30FC 1
 62
   253
420
 11711154
100
AcDbHatch
 10
0.0
 20
0.0
 30
0.0
210
0.0
220
0.0
230
1.0
  2
SOLID
 70
     1
 71
     0
 91
        1
 92
        1
 93
        1
 72
     4
 94
        3
 73
     0
 74
     1
 95
       44
 96
       40
 40
0.0
 40
0.0
 40
0.0
 40
0.0
 40
1.0
 40
1.0
 40
1.0
 40
2.0
 40
2.0
 40
2.0
 40
3.0
 40
3.0
 40
3.0
 40
4.0
 40
4.0
 40
4.0
 40
5.0
 40
5.0
 40
5.0
 40
6.0
 40
6.0
 40
6.0
 40
7.0
 40
7.0
 40
7.0
 40
8.0
 40
8.0
 40
8.0
 40
9.0
 40
9.0
 40
9.0
 40
10.0
 40
10.0
 40
10.0
 40
11.0
 40
11.0
 40
11.0
 40
12.0
 40
12.0
 40
12.0
 40
13.0
 40
13.0
 40
13.0
 40
13.0
 10
83.63140286638516
 20
-116.4921258042102
 10
83.63140286638516
 20
-116.4921258042102
 10
84.73383339381537
 20
-116.5803202486326
 10
84.68973617271816
 20
-117.9914313593909
 10
84.68973617271816
 20
-117.9914313593909
 10
84.68973617271816
 20
-123.4594869135795
 10
84.68973617271816
 20
-123.4594869135795
 10
84.68973617271816
 20
-123.4594869135795
 10
90.73105546303572
 20
-123.4153896913683
 10
90.73105546303572
 20
-123.4153896913683
 10
90.73105546303572
 20
-123.4153896913683
 10
91.65709710607709
 20
-123.7681674690579
 10
91.65709710607709
 20
-124.4296258022258
 10
91.65709710607709
 20
-124.4296258022258
 10
84.68973617271816
 20
-124.5178202466482
 10
84.68973617271816
 20
-124.5178202466482
 10
84.68973617271816
 20
-124.5178202466482
 10
84.68973617271816
 20
-139.9077507983566
 10
84.68973617271816
 20
-139.9077507983566
 10
84.68973617271816
 20
-139.9077507983566
 10
91.65709710607709
 20
-139.9077507983566
 10
91.65709710607709
 20
-139.9077507983566
 10
91.65709710607709
 20
-139.9077507983566
 10
91.96577765375754
 20
-140.1282369094126
 10
91.96577765375754
 20
-140.1282369094126
 10
91.96577765375754
 20
-140.1282369094126
 10
98.97723580821368
 20
-140.1723341316238
 10
98.97723580821368
 20
-140.1723341316238
 10
98.97723580821368
 20
-140.1723341316238
 10
99.72688856686622
 20
-140.4810146871022
 10
99.72688856686622
 20
-140.9219869092142
 10
99.72688856686622
 20
-140.9219869092142
 10
84.68973617271816
 20
-140.9219869092142
 10
84.68973617271816
 20
-140.9219869092142
 10
84.68973617271816
 20
-140.9219869092142
 10
83.76369452967678
 20
-141.0101813536366
 10
83.71959730857958
 20
-139.8636535761454
 10
83.71959730857958
 20
-139.8636535761454
 10
83.63140286638516
 20
-116.4921258042102
 10
83.63140286638516
 20
-116.4921258042102
 97
        0
 97
        0
 75
     2
 76
     1
 98
        0
  0
SPLINE
  5
43
330
1F
100
AcDbEntity
  8
_U+30EC_U+30A4_U+30E4_U+30FC 1
 62
     7
420
 16777215
370
     9
100
AcDbSpline
210
0.0
220
0.0
230
1.0
 70
    11
 71
     3
 72
    17
 73
    13
 74
     0
 42
0.0000000001
 43
0.0000000001
 12
1.0
 22
0.0
 32
0.0
 13
1.0
 23
0.0
 33
0.0
 40
0.0
 40
0.0
 40
0.0
 40
0.0
 40
1.0
 40
1.0
 40
1.0
 40
2.0
 40
2.0
 40
2.0
 40
3.0
 40
3.0
 40
3.0
 40
4.0
 40
4.0
 40
4.0
 40
4.0
 10
91.91272219924436
 20
-113.3026619161186
 30
0.0
 10
91.91272219924436
 20
-113.2475227494659
 30
0.0
 10
91.8679523784755
 20
-113.2027199716995
 30
0.0
 10
91.81281321321555
 20
-113.2027199716995
 30
0.0
 10
91.75700377019493
 20
-113.2027199716995
 30
0.0
 10
91.71223627133703
 20
-113.2475227494659
 30
0.0
 10
91.71223627133703
 20
-113.3026619161186
 30
0.0
 10
91.71223627133703
 20
-113.3577658049939
 30
0.0
 10
91.75700377019493
 20
-113.4025685827606
 30
0.0
 10
91.81281321321555
 20
-113.4025685827606
 30
0.0
 10
91.8679523784755
 20
-113.4025685827606
 30
0.0
 10
91.91272219924436
 20
-113.3577658049939
 30
0.0
 10
91.91272219924436
 20
-113.3026619161186
 30
0.0
  0
SPLINE
  5
44
330
1F
100
AcDbEntity
  8
_U+30EC_U+30A4_U+30E4_U+30FC 1
 62
     7
420
 16777215
370
     9
100
AcDbSpline
210
0.0
220
0.0
230
1.0
 70
    11
 71
     3
 72
    17
 73
    13
 74
     0
 42
0.0000000001
 43
0.0000000001
 12
1.0
 22
0.0
 32
0.0
 13
1.0
 23
0.0
 33
0.0
 40
0.0
 40
0.0
 40
0.0
 40
0.0
 40
1.0
 40
1.0
 40
1.0
 40
2.0
 40
2.0
 40
2.0
 40
3.0
 40
3.0
 40
3.0
 40
4.0
 40
4.0
 40
4.0
 40
4.0
 10
84.91230366703999
 20
-113.3026619161186
 30
0.0
 10
84.91230366703999
 20
-113.2475227494659
 30
0.0
 10
84.86750089040522
 20
-113.2027199716995
 30
0.0
 10
84.81239700292215
 20
-113.2027199716995
 30
0.0
 10
84.75725783766221
 20
-113.2027199716995
 30
0.0
 10
84.71249033880432
 20
-113.2475227494659
 30
0.0
 10
84.71249033880432
 20
-113.3026619161186
 30
0.0
 10
84.71249033880432
 20
-113.3577658049939
 30
0.0
 10
84.75725783766221
 20
-113.4025685827606
 30
0.0
 10
84.81239700292215
 20
-113.4025685827606
 30
0.0
 10
84.86750089040522
 20
-113.4025685827606
 30
0.0
 10
84.91230366703999
 20
-113.3577658049939
 30
0.0
 10
84.91230366703999
 20
-113.3026619161186
 30
0.0
  0
POLYLINE
  5
45
330
1F
100
AcDbEntity
  8
_U+30EC_U+30A4_U+30E4_U+30FC 1
 62
     7
420
 16777215
370
     9
100
AcDb2dPolyline
 66
     1
 10
0.0
 20
0.0
 30
0.0
  0
VERTEX
  5
46
330
45
100
AcDbEntity
  8
_U+30EC_U+30A4_U+30E4_U+30FC 1
 62
     7
420
 16777215
370
     9
100
AcDbVertex
100
AcDb2dVertex
 10
84.81239700292215
 20
-114.7626680268648
 30
0.0
  0
VERTEX
  5
47
330
45
100
AcDbEntity
  8
_U+30EC_U+30A4_U+30E4_U+30FC 1
 62
     7
420
 16777215
370
     9
100
AcDbVertex
100
AcDb2dVertex
 10
84.81239700292215
 20
-112.3028896941464
 30
0.0
  0
SEQEND
  5
48
330
45
100
AcDbEntity
  8
_U+30EC_U+30A4_U+30E4_U+30FC 1
 62
     7
420
 16777215
370
     9
  0
POLYLINE
  5
49
330
1F
100
AcDbEntity
  8
_U+30EC_U+30A4_U+30E4_U+30FC 1
 62
     7
420
 16777215
370
     9
100
AcDb2dPolyline
 66
     1
 10
0.0
 20
0.0
 30
0.0
  0
VERTEX
  5
4A
330
49
100
AcDbEntity
  8
_U+30EC_U+30A4_U+30E4_U+30FC 1
 62
     7
420
 16777215
370
     9
100
AcDbVertex
100
AcDb2dVertex
 10
84.81306942324117
 20
-113.3026619161186
 30
0.0
  0
VERTEX
  5
4B
330
49
100
AcDbEntity
  8
_U+30EC_U+30A4_U+30E4_U+30FC 1
 62
     7
420
 16777215
370
     9
100
AcDbVertex
100
AcDb2dVertex
 10
91.81281321321555
 20
-113.3026619161186
 30
0.0
  0
SEQEND
  5
4C
330
49
100
AcDbEntity
  8
_U+30EC_U+30A4_U+30E4_U+30FC 1
 62
     7
420
 16777215
370
     9
  0
POLYLINE
  5
4D
330
1F
100
AcDbEntity
  8
_U+30EC_U+30A4_U+30E4_U+30FC 1
 62
     7
420
 16777215
370
     9
100
AcDb2dPolyline
 66
     1
 10
0.0
 20
0.0
 30
0.0
  0
VERTEX
  5
4E
330
4D
100
AcDbEntity
  8
_U+30EC_U+30A4_U+30E4_U+30FC 1
 62
     7
420
 16777215
370
     9
100
AcDbVertex
100
AcDb2dVertex
 10
91.81281321321555
 20
-120.1446105255194
 30
0.0
  0
VERTEX
  5
4F
330
4D
100
AcDbEntity
  8
_U+30EC_U+30A4_U+30E4_U+30FC 1
 62
     7
420
 16777215
370
     9
100
AcDbVertex
100
AcDb2dVertex
 10
91.81281321321555
 20
-112.3028896941464
 30
0.0
  0
SEQEND
  5
50
330
4D
100
AcDbEntity
  8
_U+30EC_U+30A4_U+30E4_U+30FC 1
 62
     7
420
 16777215
370
     9
  0
INSERT
  5
52
330
1F
100
AcDbEntity
  8
_U+30EC_U+30A4_U+30E4_U+30FC 1
100
AcDbBlockReference
  2
block 2
 10
0.0
 20
0.0
 30
0.0
  0
POLYLINE
  5
57
330
1F
100
AcDbEntity
  8
_U+30EC_U+30A4_U+30E4_U+30FC 1
 62
     7
420
 16777215
370
    25
100
AcDb2dPolyline
 66
     1
 10
0.0
 20
0.0
 30
0.0
  0
VERTEX
  5
58
330
57
100
AcDbEntity
  8
_U+30EC_U+30A4_U+30E4_U+30FC 1
 62
     7
420
 16777215
370
    25
100
AcDbVertex
100
AcDb2dVertex
 10
84.71249033880432
 20
-139.9786944094501
 30
0.0
  0
VERTEX
  5
59
330
57
100
AcDbEntity
  8
_U+30EC_U+30A4_U+30E4_U+30FC 1
 62
     7
420
 16777215
370
    25
100
AcDbVertex
100
AcDb2dVertex
 10
91.71290654909771
 20
-139.9786944094501
 30
0.0
  0
SEQEND
  5
5A
330
57
100
AcDbEntity
  8
_U+30EC_U+30A4_U+30E4_U+30FC 1
 62
     7
420
 16777215
370
    25
  0
POLYLINE
  5
5B
330
1F
100
AcDbEntity
  8
_U+30EC_U+30A4_U+30E4_U+30FC 1
 62
     7
420
 16777215
370
    25
100
AcDb2dPolyline
 66
     1
 10
0.0
 20
0.0
 30
0.0
  0
VERTEX
  5
5C
330
5B
100
AcDbEntity
  8
_U+30EC_U+30A4_U+30E4_U+30FC 1
 62
     7
420
 16777215
370
    25
100
AcDbVertex
100
AcDb2dVertex
 10
84.71249033880432
 20
-124.4785208022137
 30
0.0
  0
VERTEX
  5
5D
330
5B
100
AcDbEntity
  8
_U+30EC_U+30A4_U+30E4_U+30FC 1
 62
     7
420
 16777215
370
    25
100
AcDbVertex
100
AcDb2dVertex
 10
91.71290654909771
 20
-124.4785208022137
 30
0.0
  0
SEQEND
  5
5E
330
5B
100
AcDbEntity
  8
_U+30EC_U+30A4_U+30E4_U+30FC 1
 62
     7
420
 16777215
370
    25
  0
POLYLINE
  5
5F
330
1F
100
AcDbEntity
  8
_U+30EC_U+30A4_U+30E4_U+30FC 1
 62
     7
420
 16777215
370
    25
100
AcDb2dPolyline
 66
     1
 10
0.0
 20
0.0
 30
0.0
  0
VERTEX
  5
60
330
5F
100
AcDbEntity
  8
_U+30EC_U+30A4_U+30E4_U+30FC 1
 62
     7
420
 16777215
370
    25
100
AcDbVertex
100
AcDb2dVertex
 10
84.71249033880432
 20
-140.978466631422
 30
0.0
  0
VERTEX
  5
61
330
5F
100
AcDbEntity
  8
_U+30EC_U+30A4_U+30E4_U+30FC 1
 62
     7
420
 16777215
370
    25
100
AcDbVertex
100
AcDb2dVertex
 10
99.71277745611512
 20
-140.978466631422
 30
0.0
  0
SEQEND
  5
62
330
5F
100
AcDbEntity
  8
_U+30EC_U+30A4_U+30E4_U+30FC 1
 62
     7
420
 16777215
370
    25
  0
POLYLINE
  5
63
330
1F
100
AcDbEntity
  8
_U+30EC_U+30A4_U+30E4_U+30FC 1
 62
     7
420
 16777215
370
    25
100
AcDb2dPolyline
 66
     1
 10
0.0
 20
0.0
 30
0.0
  0
VERTEX
  5
64
330
63
100
AcDbEntity
  8
_U+30EC_U+30A4_U+30E4_U+30FC 1
 62
     7
420
 16777215
370
    25
100
AcDbVertex
100
AcDb2dVertex
 10
83.71201258655086
 20
-116.4783321931026
 30
0.0
  0
VERTEX
  5
65
330
63
100
AcDbEntity
  8
_U+30EC_U+30A4_U+30E4_U+30FC 1
 62
     7
420
 16777215
370
    25
100
AcDbVertex
100
AcDb2dVertex
 10
83.71201258655086
 20
-139.9780241316721
 30
0.0
  0
SEQEND
  5
66
330
63
100
AcDbEntity
  8
_U+30EC_U+30A4_U+30E4_U+30FC 1
 62
     7
420
 16777215
370
    25
  0
POLYLINE
  5
67
330
1F
100
AcDbEntity
  8
_U+30EC_U+30A4_U+30E4_U+30FC 1
 62
     7
420
 16777215
370
    25
100
AcDb2dPolyline
 66
     1
 10
0.0
 20
0.0
 30
0.0
  0
VERTEX
  5
68
330
67
100
AcDbEntity
  8
_U+30EC_U+30A4_U+30E4_U+30FC 1
 62
     7
420
 16777215
370
    25
100
AcDbVertex
100
AcDb2dVertex
 10
84.71249033880432
 20
-117.4781044150748
 30
0.0
  0
VERTEX
  5
69
330
67
100
AcDbEntity
  8
_U+30EC_U+30A4_U+30E4_U+30FC 1
 62
     7
420
 16777215
370
    25
100
AcDbVertex
100
AcDb2dVertex
 10
84.71249033880432
 20
-123.4780783024638
 30
0.0
  0
SEQEND
  5
6A
330
67
100
AcDbEntity
  8
_U+30EC_U+30A4_U+30E4_U+30FC 1
 62
     7
420
 16777215
370
    25
  0
POLYLINE
  5
6B
330
1F
100
AcDbEntity
  8
_U+30EC_U+30A4_U+30E4_U+30FC 1
 62
     7
420
 16777215
370
    25
100
AcDb2dPolyline
 66
     1
 10
0.0
 20
0.0
 30
0.0
  0
VERTEX
  5
6C
330
6B
100
AcDbEntity
  8
_U+30EC_U+30A4_U+30E4_U+30FC 1
 62
     7
420
 16777215
370
    25
100
AcDbVertex
100
AcDb2dVertex
 10
84.71249033880432
 20
-123.4780783024638
 30
0.0
  0
VERTEX
  5
6D
330
6B
100
AcDbEntity
  8
_U+30EC_U+30A4_U+30E4_U+30FC 1
 62
     7
420
 16777215
370
    25
100
AcDbVertex
100
AcDb2dVertex
 10
90.71246407462112
 20
-123.4780783024638
 30
0.0
  0
SEQEND
  5
6E
330
6B
100
AcDbEntity
  8
_U+30EC_U+30A4_U+30E4_U+30FC 1
 62
     7
420
 16777215
370
    25
  0
POLYLINE
  5
6F
330
1F
100
AcDbEntity
  8
_U+30EC_U+30A4_U+30E4_U+30FC 1
 62
     7
420
 16777215
370
    25
100
AcDb2dPolyline
 66
     1
 10
0.0
 20
0.0
 30
0.0
  0
VERTEX
  5
70
330
6F
100
AcDbEntity
  8
_U+30EC_U+30A4_U+30E4_U+30FC 1
 62
     7
420
 16777215
370
    25
100
AcDbVertex
100
AcDb2dVertex
 10
84.71249033880432
 20
-124.4785208022137
 30
0.0
  0
VERTEX
  5
71
330
6F
100
AcDbEntity
  8
_U+30EC_U+30A4_U+30E4_U+30FC 1
 62
     7
420
 16777215
370
    25
100
AcDbVertex
100
AcDb2dVertex
 10
84.71249033880432
 20
-139.9786944094501
 30
0.0
  0
SEQEND
  5
72
330
6F
100
AcDbEntity
  8
_U+30EC_U+30A4_U+30E4_U+30FC 1
 62
     7
420
 16777215
370
    25
  0
POLYLINE
  5
73
330
1F
100
AcDbEntity
  8
_U+30EC_U+30A4_U+30E4_U+30FC 1
 62
     7
420
 16777215
370
    25
100
AcDb2dPolyline
 66
     1
 10
0.0
 20
0.0
 30
0.0
  0
VERTEX
  5
74
330
73
100
AcDbEntity
  8
_U+30EC_U+30A4_U+30E4_U+30FC 1
 62
     7
420
 16777215
370
    25
100
AcDbVertex
100
AcDb2dVertex
 10
92.05880515138422
 20
-140.1785077427334
 30
0.0
  0
VERTEX
  5
75
330
73
100
AcDbEntity
  8
_U+30EC_U+30A4_U+30E4_U+30FC 1
 62
     7
420
 16777215
370
    25
100
AcDbVertex
100
AcDb2dVertex
 10
98.91281858763487
 20
-140.1785077427334
 30
0.0
  0
SEQEND
  5
76
330
73
100
AcDbEntity
  8
_U+30EC_U+30A4_U+30E4_U+30FC 1
 62
     7
420
 16777215
370
    25
  0
POLYLINE
  5
77
330
1F
100
AcDbEntity
  8
_U+30EC_U+30A4_U+30E4_U+30FC 1
 62
     7
420
 16777215
370
    25
100
AcDb2dPolyline
 66
     1
 10
0.0
 20
0.0
 30
0.0
  0
VERTEX
  5
78
330
77
100
AcDbEntity
  8
_U+30EC_U+30A4_U+30E4_U+30FC 1
 62
     7
420
 16777215
370
    25
100
AcDbVertex
100
AcDb2dVertex
 10
91.71290654909771
 20
-139.9786944094501
 30
0.0
  0
VERTEX
  5
79
330
77
100
AcDbEntity
  8
_U+30EC_U+30A4_U+30E4_U+30FC 1
 62
     7
420
 16777215
370
    25
100
AcDbVertex
100
AcDb2dVertex
 10
92.05951070692177
 20
-140.1785077427334
 30
0.0
  0
SEQEND
  5
7A
330
77
100
AcDbEntity
  8
_U+30EC_U+30A4_U+30E4_U+30FC 1
 62
     7
420
 16777215
370
    25
  0
SPLINE
  5
7B
330
1F
100
AcDbEntity
  8
_U+30EC_U+30A4_U+30E4_U+30FC 1
 62
     7
420
 16777215
370
    25
100
AcDbSpline
210
0.0
220
0.0
230
1.0
 70
     8
 71
     3
 72
     8
 73
     4
 74
     0
 42
0.0000000001
 43
0.0000000001
 12
1.0
 22
0.0
 32
0.0
 13
1.0
 23
0.0
 33
0.0
 40
0.0
 40
0.0
 40
0.0
 40
0.0
 40
1.0
 40
1.0
 40
1.0
 40
1.0
 10
83.71201258655086
 20
-139.9786944094501
 30
0.0
 10
83.71201258655086
 20
-140.531285520423
 30
0.0
 10
84.15989924179098
 20
-140.978466631422
 30
0.0
 10
84.71249033880432
 20
-140.978466631422
 30
0.0
  0
SPLINE
  5
7C
330
1F
100
AcDbEntity
  8
_U+30EC_U+30A4_U+30E4_U+30FC 1
 62
     7
420
 16777215
370
     9
100
AcDbSpline
210
0.0
220
0.0
230
1.0
 70
    11
 71
     3
 72
    17
 73
    13
 74
     0
 42
0.0000000001
 43
0.0000000001
 12
1.0
 22
0.0
 32
0.0
 13
1.0
 23
0.0
 33
0.0
 40
0.0
 40
0.0
 40
0.0
 40
0.0
 40
1.0
 40
1.0
 40
1.0
 40
2.0
 40
2.0
 40
2.0
 40
3.0
 40
3.0
 40
3.0
 40
4.0
 40
4.0
 40
4.0
 40
4.0
 10
83.81262480620624
 20
-119.4783191367972
 30
0.0
 10
83.81262480620624
 20
-119.423215247922
 30
0.0
 10
83.76782202957148
 20
-119.3784124701553
 30
0.0
 10
83.71201258655086
 20
-119.3784124701553
 30
0.0
 10
83.65690869906778
 20
-119.3784124701553
 30
0.0
 10
83.61210592243302
 20
-119.423215247922
 30
0.0
 10
83.61210592243302
 20
-119.4783191367972
 30
0.0
 10
83.61210592243302
 20
-119.53345830345
 30
0.0
 10
83.65690869906778
 20
-119.5782258034389
 30
0.0
 10
83.71201258655086
 20
-119.5782258034389
 30
0.0
 10
83.76782202957148
 20
-119.5782258034389
 30
0.0
 10
83.81262480620624
 20
-119.53345830345
 30
0.0
 10
83.81262480620624
 20
-119.4783191367972
 30
0.0
  0
SPLINE
  5
7D
330
1F
100
AcDbEntity
  8
_U+30EC_U+30A4_U+30E4_U+30FC 1
 62
     7
420
 16777215
370
     9
100
AcDbSpline
210
0.0
220
0.0
230
1.0
 70
    11
 71
     3
 72
    17
 73
    13
 74
     0
 42
0.0000000001
 43
0.0000000001
 12
1.0
 22
0.0
 32
0.0
 13
1.0
 23
0.0
 33
0.0
 40
0.0
 40
0.0
 40
0.0
 40
0.0
 40
1.0
 40
1.0
 40
1.0
 40
2.0
 40
2.0
 40
2.0
 40
3.0
 40
3.0
 40
3.0
 40
4.0
 40
4.0
 40
4.0
 40
4.0
 10
84.81239700292215
 20
-119.4783191367972
 30
0.0
 10
84.81239700292215
 20
-119.423215247922
 30
0.0
 10
84.76759422628739
 20
-119.3784124701553
 30
0.0
 10
84.71249033880432
 20
-119.3784124701553
 30
0.0
 10
84.65735117354437
 20
-119.3784124701553
 30
0.0
 10
84.61258367468649
 20
-119.423215247922
 30
0.0
 10
84.61258367468649
 20
-119.4783191367972
 30
0.0
 10
84.61258367468649
 20
-119.53345830345
 30
0.0
 10
84.65735117354437
 20
-119.5782258034389
 30
0.0
 10
84.71249033880432
 20
-119.5782258034389
 30
0.0
 10
84.76759422628739
 20
-119.5782258034389
 30
0.0
 10
84.81239700292215
 20
-119.53345830345
 30
0.0
 10
84.81239700292215
 20
-119.4783191367972
 30
0.0
  0
SPLINE
  5
7E
330
1F
100
AcDbEntity
  8
_U+30EC_U+30A4_U+30E4_U+30FC 1
 62
     7
420
 16777215
370
     9
100
AcDbSpline
210
0.0
220
0.0
230
1.0
 70
    11
 71
     3
 72
    17
 73
    13
 74
     0
 42
0.0000000001
 43
0.0000000001
 12
1.0
 22
0.0
 32
0.0
 13
1.0
 23
0.0
 33
0.0
 40
0.0
 40
0.0
 40
0.0
 40
0.0
 40
1.0
 40
1.0
 40
1.0
 40
2.0
 40
2.0
 40
2.0
 40
3.0
 40
3.0
 40
3.0
 40
4.0
 40
4.0
 40
4.0
 40
4.0
 10
99.81268412023294
 20
-144.9789313526444
 30
0.0
 10
99.81268412023294
 20
-144.9237921859913
 30
0.0
 10
99.76788134359819
 20
-144.8790246860028
 30
0.0
 10
99.71277745611512
 20
-144.8790246860028
 30
0.0
 10
99.65763829085516
 20
-144.8790246860028
 30
0.0
 10
99.61287079199728
 20
-144.9237921859913
 30
0.0
 10
99.61287079199728
 20
-144.9789313526444
 30
0.0
 10
99.61287079199728
 20
-145.0340352415193
 30
0.0
 10
99.65763829085516
 20
-145.078838019286
 30
0.0
 10
99.71277745611512
 20
-145.078838019286
 30
0.0
 10
99.76788134359819
 20
-145.078838019286
 30
0.0
 10
99.81268412023294
 20
-145.0340352415193
 30
0.0
 10
99.81268412023294
 20
-144.9789313526444
 30
0.0
  0
SPLINE
  5
7F
330
1F
100
AcDbEntity
  8
_U+30EC_U+30A4_U+30E4_U+30FC 1
 62
     7
420
 16777215
370
     9
100
AcDbSpline
210
0.0
220
0.0
230
1.0
 70
    11
 71
     3
 72
    17
 73
    13
 74
     0
 42
0.0000000001
 43
0.0000000001
 12
1.0
 22
0.0
 32
0.0
 13
1.0
 23
0.0
 33
0.0
 40
0.0
 40
0.0
 40
0.0
 40
0.0
 40
1.0
 40
1.0
 40
1.0
 40
2.0
 40
2.0
 40
2.0
 40
3.0
 40
3.0
 40
3.0
 40
4.0
 40
4.0
 40
4.0
 40
4.0
 10
83.81262480620624
 20
-144.9789313526444
 30
0.0
 10
83.81262480620624
 20
-144.9237921859913
 30
0.0
 10
83.76782202957148
 20
-144.8790246860028
 30
0.0
 10
83.71201258655086
 20
-144.8790246860028
 30
0.0
 10
83.65690869906778
 20
-144.8790246860028
 30
0.0
 10
83.61210592243302
 20
-144.9237921859913
 30
0.0
 10
83.61210592243302
 20
-144.9789313526444
 30
0.0
 10
83.61210592243302
 20
-145.0340352415193
 30
0.0
 10
83.65690869906778
 20
-145.078838019286
 30
0.0
 10
83.71201258655086
 20
-145.078838019286
 30
0.0
 10
83.76782202957148
 20
-145.078838019286
 30
0.0
 10
83.81262480620624
 20
-145.0340352415193
 30
0.0
 10
83.81262480620624
 20
-144.9789313526444
 30
0.0
  0
SPLINE
  5
80
330
1F
100
AcDbEntity
  8
_U+30EC_U+30A4_U+30E4_U+30FC 1
 62
     7
420
 16777215
370
    25
100
AcDbSpline
210
0.0
220
0.0
230
1.0
 70
     8
 71
     3
 72
     8
 73
     4
 74
     0
 42
0.0000000001
 43
0.0000000001
 12
1.0
 22
0.0
 32
0.0
 13
1.0
 23
0.0
 33
0.0
 40
0.0
 40
0.0
 40
0.0
 40
0.0
 40
1.0
 40
1.0
 40
1.0
 40
1.0
 10
84.71249033880432
 20
-117.4781044150748
 30
0.0
 10
84.71249033880432
 20
-116.9261835818796
 30
0.0
 10
84.26463896134108
 20
-116.4783321931026
 30
0.0
 10
83.71201258655086
 20
-116.4783321931026
 30
0.0
  0
SPLINE
  5
81
330
1F
100
AcDbEntity
  8
_U+30EC_U+30A4_U+30E4_U+30FC 1
 62
     7
420
 16777215
370
    25
100
AcDbSpline
210
0.0
220
0.0
230
1.0
 70
     8
 71
     3
 72
     8
 73
     4
 74
     0
 42
0.0000000001
 43
0.0000000001
 12
1.0
 22
0.0
 32
0.0
 13
1.0
 23
0.0
 33
0.0
 40
0.0
 40
0.0
 40
0.0
 40
0.0
 40
1.0
 40
1.0
 40
1.0
 40
1.0
 10
91.71223627133703
 20
-124.4785208022137
 30
0.0
 10
91.71223627133703
 20
-123.9259296912408
 30
0.0
 10
91.26434961609691
 20
-123.4780783024638
 30
0.0
 10
90.71246407462112
 20
-123.4780783024638
 30
0.0
  0
SPLINE
  5
82
330
1F
100
AcDbEntity
  8
_U+30EC_U+30A4_U+30E4_U+30FC 1
 62
     7
420
 16777215
370
    25
100
AcDbSpline
210
0.0
220
0.0
230
1.0
 70
     8
 71
     3
 72
     8
 73
     4
 74
     0
 42
0.0000000001
 43
0.0000000001
 12
1.0
 22
0.0
 32
0.0
 13
1.0
 23
0.0
 33
0.0
 40
0.0
 40
0.0
 40
0.0
 40
0.0
 40
1.0
 40
1.0
 40
1.0
 40
1.0
 10
99.71277745611512
 20
-140.978466631422
 30
0.0
 10
99.71277745611512
 20
-140.5368241315327
 30
0.0
 10
99.35449635414452
 20
-140.1785077427334
 30
0.0
 10
98.91281858763487
 20
-140.1785077427334
 30
0.0
  0
SPLINE
  5
83
330
1F
100
AcDbEntity
  8
_U+30EC_U+30A4_U+30E4_U+30FC 1
 62
     7
420
 16777215
370
     9
100
AcDbSpline
210
0.0
220
0.0
230
1.0
 70
    11
 71
     3
 72
    17
 73
    13
 74
     0
 42
0.0000000001
 43
0.0000000001
 12
1.0
 22
0.0
 32
0.0
 13
1.0
 23
0.0
 33
0.0
 40
0.0
 40
0.0
 40
0.0
 40
0.0
 40
1.0
 40
1.0
 40
1.0
 40
2.0
 40
2.0
 40
2.0
 40
3.0
 40
3.0
 40
3.0
 40
4.0
 40
4.0
 40
4.0
 40
4.0
 10
79.81219546382125
 20
-116.4783321931026
 30
0.0
 10
79.81219546382125
 20
-116.4232283042276
 30
0.0
 10
79.7673926871865
 20
-116.3784255264609
 30
0.0
 10
79.71228879970343
 20
-116.3784255264609
 30
0.0
 10
79.65714963444347
 20
-116.3784255264609
 30
0.0
 10
79.61238213558559
 20
-116.4232283042276
 30
0.0
 10
79.61238213558559
 20
-116.4783321931026
 30
0.0
 10
79.61238213558559
 20
-116.5334713597556
 30
0.0
 10
79.65714963444347
 20
-116.5782388597442
 30
0.0
 10
79.71228879970343
 20
-116.5782388597442
 30
0.0
 10
79.7673926871865
 20
-116.5782388597442
 30
0.0
 10
79.81219546382125
 20
-116.5334713597556
 30
0.0
 10
79.81219546382125
 20
-116.4783321931026
 30
0.0
  0
SPLINE
  5
84
330
1F
100
AcDbEntity
  8
_U+30EC_U+30A4_U+30E4_U+30FC 1
 62
     7
420
 16777215
370
     9
100
AcDbSpline
210
0.0
220
0.0
230
1.0
 70
    11
 71
     3
 72
    17
 73
    13
 74
     0
 42
0.0000000001
 43
0.0000000001
 12
1.0
 22
0.0
 32
0.0
 13
1.0
 23
0.0
 33
0.0
 40
0.0
 40
0.0
 40
0.0
 40
0.0
 40
1.0
 40
1.0
 40
1.0
 40
2.0
 40
2.0
 40
2.0
 40
3.0
 40
3.0
 40
3.0
 40
4.0
 40
4.0
 40
4.0
 40
4.0
 10
79.81219546382125
 20
-140.877889687003
 30
0.0
 10
79.81219546382125
 20
-140.8227505203499
 30
0.0
 10
79.7673926871865
 20
-140.7779830203613
 30
0.0
 10
79.71228879970343
 20
-140.7779830203613
 30
0.0
 10
79.65714963444347
 20
-140.7779830203613
 30
0.0
 10
79.61238213558559
 20
-140.8227505203499
 30
0.0
 10
79.61238213558559
 20
-140.877889687003
 30
0.0
 10
79.61238213558559
 20
-140.9336991314334
 30
0.0
 10
79.65714963444347
 20
-140.978466631422
 30
0.0
 10
79.71228879970343
 20
-140.978466631422
 30
0.0
 10
79.7673926871865
 20
-140.978466631422
 30
0.0
 10
79.81219546382125
 20
-140.9336991314334
 30
0.0
 10
79.81219546382125
 20
-140.877889687003
 30
0.0
  0
SPLINE
  5
85
330
1F
100
AcDbEntity
  8
_U+30EC_U+30A4_U+30E4_U+30FC 1
 62
     7
420
 16777215
370
     9
100
AcDbSpline
210
0.0
220
0.0
230
1.0
 70
    11
 71
     3
 72
    17
 73
    13
 74
     0
 42
0.0000000001
 43
0.0000000001
 12
1.0
 22
0.0
 32
0.0
 13
1.0
 23
0.0
 33
0.0
 40
0.0
 40
0.0
 40
0.0
 40
0.0
 40
1.0
 40
1.0
 40
1.0
 40
2.0
 40
2.0
 40
2.0
 40
3.0
 40
3.0
 40
3.0
 40
4.0
 40
4.0
 40
4.0
 40
4.0
 10
103.8124431848573
 20
-116.4783321931026
 30
0.0
 10
103.8124431848573
 20
-116.4232283042276
 30
0.0
 10
103.7676404082225
 20
-116.3784255264609
 30
0.0
 10
103.7125365207394
 20
-116.3784255264609
 30
0.0
 10
103.6573999740858
 20
-116.3784255264609
 30
0.0
 10
103.6126298566216
 20
-116.4232283042276
 30
0.0
 10
103.6126298566216
 20
-116.4783321931026
 30
0.0
 10
103.6126298566216
 20
-116.5334713597556
 30
0.0
 10
103.6573999740858
 20
-116.5782388597442
 30
0.0
 10
103.7125365207394
 20
-116.5782388597442
 30
0.0
 10
103.7676404082225
 20
-116.5782388597442
 30
0.0
 10
103.8124431848573
 20
-116.5334713597556
 30
0.0
 10
103.8124431848573
 20
-116.4783321931026
 30
0.0
  0
SPLINE
  5
86
330
1F
100
AcDbEntity
  8
_U+30EC_U+30A4_U+30E4_U+30FC 1
 62
     7
420
 16777215
370
     9
100
AcDbSpline
210
0.0
220
0.0
230
1.0
 70
    11
 71
     3
 72
    17
 73
    13
 74
     0
 42
0.0000000001
 43
0.0000000001
 12
1.0
 22
0.0
 32
0.0
 13
1.0
 23
0.0
 33
0.0
 40
0.0
 40
0.0
 40
0.0
 40
0.0
 40
1.0
 40
1.0
 40
1.0
 40
2.0
 40
2.0
 40
2.0
 40
3.0
 40
3.0
 40
3.0
 40
4.0
 40
4.0
 40
4.0
 40
4.0
 10
103.8124431848573
 20
-124.4785208022137
 30
0.0
 10
103.8124431848573
 20
-124.4227113577833
 30
0.0
 10
103.7676404082225
 20
-124.3779438577944
 30
0.0
 10
103.7125365207394
 20
-124.3779438577944
 30
0.0
 10
103.6573999740858
 20
-124.3779438577944
 30
0.0
 10
103.6126298566216
 20
-124.4227113577833
 30
0.0
 10
103.6126298566216
 20
-124.4785208022137
 30
0.0
 10
103.6126298566216
 20
-124.5336599688665
 30
0.0
 10
103.6573999740858
 20
-124.5784274688553
 30
0.0
 10
103.7125365207394
 20
-124.5784274688553
 30
0.0
 10
103.7676404082225
 20
-124.5784274688553
 30
0.0
 10
103.8124431848573
 20
-124.5336599688665
 30
0.0
 10
103.8124431848573
 20
-124.4785208022137
 30
0.0
  0
SPLINE
  5
87
330
1F
100
AcDbEntity
  8
_U+30EC_U+30A4_U+30E4_U+30FC 1
 62
     7
420
 16777215
370
     9
100
AcDbSpline
210
0.0
220
0.0
230
1.0
 70
    11
 71
     3
 72
    17
 73
    13
 74
     0
 42
0.0000000001
 43
0.0000000001
 12
1.0
 22
0.0
 32
0.0
 13
1.0
 23
0.0
 33
0.0
 40
0.0
 40
0.0
 40
0.0
 40
0.0
 40
1.0
 40
1.0
 40
1.0
 40
2.0
 40
2.0
 40
2.0
 40
3.0
 40
3.0
 40
3.0
 40
4.0
 40
4.0
 40
4.0
 40
4.0
 10
103.8124431848573
 20
-139.8787877428078
 30
0.0
 10
103.8124431848573
 20
-139.8236838539329
 30
0.0
 10
103.7676404082225
 20
-139.7788810761662
 30
0.0
 10
103.7125365207394
 20
-139.7788810761662
 30
0.0
 10
103.6573999740858
 20
-139.7788810761662
 30
0.0
 10
103.6126298566216
 20
-139.8236838539329
 30
0.0
 10
103.6126298566216
 20
-139.8787877428078
 30
0.0
 10
103.6126298566216
 20
-139.9339269094609
 30
0.0
 10
103.6573999740858
 20
-139.9786944094501
 30
0.0
 10
103.7125365207394
 20
-139.9786944094501
 30
0.0
 10
103.7676404082225
 20
-139.9786944094501
 30
0.0
 10
103.8124431848573
 20
-139.9339269094609
 30
0.0
 10
103.8124431848573
 20
-139.8787877428078
 30
0.0
  0
POLYLINE
  5
88
330
1F
100
AcDbEntity
  8
_U+30EC_U+30A4_U+30E4_U+30FC 1
 62
     7
420
 16777215
370
     9
100
AcDb2dPolyline
 66
     1
 10
0.0
 20
0.0
 30
0.0
  0
VERTEX
  5
89
330
88
100
AcDbEntity
  8
_U+30EC_U+30A4_U+30E4_U+30FC 1
 62
     7
420
 16777215
370
     9
100
AcDbVertex
100
AcDb2dVertex
 10
84.71249033880432
 20
-119.4783191367972
 30
0.0
  0
VERTEX
  5
8A
330
88
100
AcDbEntity
  8
_U+30EC_U+30A4_U+30E4_U+30FC 1
 62
     7
420
 16777215
370
     9
100
AcDbVertex
100
AcDb2dVertex
 10
88.48280274261563
 20
-119.4783191367972
 30
0.0
  0
SEQEND
  5
8B
330
88
100
AcDbEntity
  8
_U+30EC_U+30A4_U+30E4_U+30FC 1
 62
     7
420
 16777215
370
     9
  0
POLYLINE
  5
8C
330
1F
100
AcDbEntity
  8
_U+30EC_U+30A4_U+30E4_U+30FC 1
 62
     7
420
 16777215
370
     9
100
AcDb2dPolyline
 66
     1
 10
0.0
 20
0.0
 30
0.0
  0
VERTEX
  5
8D
330
8C
100
AcDbEntity
  8
_U+30EC_U+30A4_U+30E4_U+30FC 1
 62
     7
420
 16777215
370
     9
100
AcDbVertex
100
AcDb2dVertex
 10
82.71227775709973
 20
-119.4783191367972
 30
0.0
  0
VERTEX
  5
8E
330
8C
100
AcDbEntity
  8
_U+30EC_U+30A4_U+30E4_U+30FC 1
 62
     7
420
 16777215
370
     9
100
AcDbVertex
100
AcDb2dVertex
 10
84.71249033880432
 20
-119.4783191367972
 30
0.0
  0
SEQEND
  5
8F
330
8C
100
AcDbEntity
  8
_U+30EC_U+30A4_U+30E4_U+30FC 1
 62
     7
420
 16777215
370
     9
  0
INSERT
  5
91
330
1F
100
AcDbEntity
  8
_U+30EC_U+30A4_U+30E4_U+30FC 1
100
AcDbBlockReference
  2
block 3
 10
0.0
 20
0.0
 30
0.0
  0
POLYLINE
  5
96
330
1F
100
AcDbEntity
  8
_U+30EC_U+30A4_U+30E4_U+30FC 1
 62
     7
420
 16777215
370
     9
100
AcDb2dPolyline
 66
     1
 10
0.0
 20
0.0
 30
0.0
  0
VERTEX
  5
97
330
96
100
AcDbEntity
  8
_U+30EC_U+30A4_U+30E4_U+30FC 1
 62
     7
420
 16777215
370
     9
100
AcDbVertex
100
AcDb2dVertex
 10
103.7125365207394
 20
-139.9786944094501
 30
0.0
  0
VERTEX
  5
98
330
96
100
AcDbEntity
  8
_U+30EC_U+30A4_U+30E4_U+30FC 1
 62
     7
420
 16777215
370
     9
100
AcDbVertex
100
AcDb2dVertex
 10
103.7125365207394
 20
-124.4785208022137
 30
0.0
  0
SEQEND
  5
99
330
96
100
AcDbEntity
  8
_U+30EC_U+30A4_U+30E4_U+30FC 1
 62
     7
420
 16777215
370
     9
  0
POLYLINE
  5
9A
330
1F
100
AcDbEntity
  8
_U+30EC_U+30A4_U+30E4_U+30FC 1
 62
     7
420
 16777215
370
     9
100
AcDb2dPolyline
 66
     1
 10
0.0
 20
0.0
 30
0.0
  0
VERTEX
  5
9B
330
9A
100
AcDbEntity
  8
_U+30EC_U+30A4_U+30E4_U+30FC 1
 62
     7
420
 16777215
370
     9
100
AcDbVertex
100
AcDb2dVertex
 10
97.25229362999839
 20
-139.8787877428078
 30
0.0
  0
VERTEX
  5
9C
330
9A
100
AcDbEntity
  8
_U+30EC_U+30A4_U+30E4_U+30FC 1
 62
     7
420
 16777215
370
     9
100
AcDbVertex
100
AcDb2dVertex
 10
104.7123087174553
 20
-139.8787877428078
 30
0.0
  0
SEQEND
  5
9D
330
9A
100
AcDbEntity
  8
_U+30EC_U+30A4_U+30E4_U+30FC 1
 62
     7
420
 16777215
370
     9
  0
POLYLINE
  5
9E
330
1F
100
AcDbEntity
  8
_U+30EC_U+30A4_U+30E4_U+30FC 1
 62
     7
420
 16777215
370
     9
100
AcDb2dPolyline
 66
     1
 10
0.0
 20
0.0
 30
0.0
  0
VERTEX
  5
9F
330
9E
100
AcDbEntity
  8
_U+30EC_U+30A4_U+30E4_U+30FC 1
 62
     7
420
 16777215
370
     9
100
AcDbVertex
100
AcDb2dVertex
 10
97.25229362999839
 20
-124.4785208022137
 30
0.0
  0
VERTEX
  5
A0
330
9E
100
AcDbEntity
  8
_U+30EC_U+30A4_U+30E4_U+30FC 1
 62
     7
420
 16777215
370
     9
100
AcDbVertex
100
AcDb2dVertex
 10
104.7123087174553
 20
-124.4785208022137
 30
0.0
  0
SEQEND
  5
A1
330
9E
100
AcDbEntity
  8
_U+30EC_U+30A4_U+30E4_U+30FC 1
 62
     7
420
 16777215
370
     9
  0
SPLINE
  5
A2
330
1F
100
AcDbEntity
  8
_U+30EC_U+30A4_U+30E4_U+30FC 1
 62
     7
420
 16777215
370
     9
100
AcDbSpline
210
0.0
220
0.0
230
1.0
 70
    11
 71
     3
 72
    17
 73
    13
 74
     0
 42
0.0000000001
 43
0.0000000001
 12
1.0
 22
0.0
 32
0.0
 13
1.0
 23
0.0
 33
0.0
 40
0.0
 40
0.0
 40
0.0
 40
0.0
 40
1.0
 40
1.0
 40
1.0
 40
2.0
 40
2.0
 40
2.0
 40
3.0
 40
3.0
 40
3.0
 40
4.0
 40
4.0
 40
4.0
 40
4.0
 10
103.8124431848573
 20
-123.4780783024638
 30
0.0
 10
103.8124431848573
 20
-123.4229744135886
 30
0.0
 10
103.7676404082225
 20
-123.3781716358222
 30
0.0
 10
103.7125365207394
 20
-123.3781716358222
 30
0.0
 10
103.6573999740858
 20
-123.3781716358222
 30
0.0
 10
103.6126298566216
 20
-123.4229744135886
 30
0.0
 10
103.6126298566216
 20
-123.4780783024638
 30
0.0
 10
103.6126298566216
 20
-123.5332174691166
 30
0.0
 10
103.6573999740858
 20
-123.5779849691054
 30
0.0
 10
103.7125365207394
 20
-123.5779849691054
 30
0.0
 10
103.7676404082225
 20
-123.5779849691054
 30
0.0
 10
103.8124431848573
 20
-123.5332174691166
 30
0.0
 10
103.8124431848573
 20
-123.4780783024638
 30
0.0
  0
POLYLINE
  5
A3
330
1F
100
AcDbEntity
  8
_U+30EC_U+30A4_U+30E4_U+30FC 1
 62
     7
420
 16777215
370
     9
100
AcDb2dPolyline
 66
     1
 10
0.0
 20
0.0
 30
0.0
  0
VERTEX
  5
A4
330
A3
100
AcDbEntity
  8
_U+30EC_U+30A4_U+30E4_U+30FC 1
 62
     7
420
 16777215
370
     9
100
AcDbVertex
100
AcDb2dVertex
 10
97.25229362999839
 20
-123.4780783024638
 30
0.0
  0
VERTEX
  5
A5
330
A3
100
AcDbEntity
  8
_U+30EC_U+30A4_U+30E4_U+30FC 1
 62
     7
420
 16777215
370
     9
100
AcDbVertex
100
AcDb2dVertex
 10
104.7123087174553
 20
-123.4780783024638
 30
0.0
  0
SEQEND
  5
A6
330
A3
100
AcDbEntity
  8
_U+30EC_U+30A4_U+30E4_U+30FC 1
 62
     7
420
 16777215
370
     9
  0
INSERT
  5
A8
330
1F
100
AcDbEntity
  8
_U+30EC_U+30A4_U+30E4_U+30FC 1
100
AcDbBlockReference
  2
block 4
 10
0.0
 20
0.0
 30
0.0
  0
POLYLINE
  5
B9
330
1F
100
AcDbEntity
  8
_U+30EC_U+30A4_U+30E4_U+30FC 1
 62
     7
420
 16777215
370
     9
100
AcDb2dPolyline
 66
     1
 10
0.0
 20
0.0
 30
0.0
  0
VERTEX
  5
BA
330
B9
100
AcDbEntity
  8
_U+30EC_U+30A4_U+30E4_U+30FC 1
 62
     7
420
 16777215
370
     9
100
AcDbVertex
100
AcDb2dVertex
 10
103.7125365207394
 20
-124.4785208022137
 30
0.0
  0
VERTEX
  5
BB
330
B9
100
AcDbEntity
  8
_U+30EC_U+30A4_U+30E4_U+30FC 1
 62
     7
420
 16777215
370
     9
100
AcDbVertex
100
AcDb2dVertex
 10
103.7125365207394
 20
-116.4783321931026
 30
0.0
  0
SEQEND
  5
BC
330
B9
100
AcDbEntity
  8
_U+30EC_U+30A4_U+30E4_U+30FC 1
 62
     7
420
 16777215
370
     9
  0
POLYLINE
  5
BD
330
1F
100
AcDbEntity
  8
_U+30EC_U+30A4_U+30E4_U+30FC 1
 62
     7
420
 16777215
370
     9
100
AcDb2dPolyline
 66
     1
 10
0.0
 20
0.0
 30
0.0
  0
VERTEX
  5
BE
330
BD
100
AcDbEntity
  8
_U+30EC_U+30A4_U+30E4_U+30FC 1
 62
     7
420
 16777215
370
     9
100
AcDbVertex
100
AcDb2dVertex
 10
86.25243585507259
 20
-116.4783321931026
 30
0.0
  0
VERTEX
  5
BF
330
BD
100
AcDbEntity
  8
_U+30EC_U+30A4_U+30E4_U+30FC 1
 62
     7
420
 16777215
370
     9
100
AcDbVertex
100
AcDb2dVertex
 10
104.7123087174553
 20
-116.4783321931026
 30
0.0
  0
SEQEND
  5
C0
330
BD
100
AcDbEntity
  8
_U+30EC_U+30A4_U+30E4_U+30FC 1
 62
     7
420
 16777215
370
     9
  0
INSERT
  5
C2
330
1F
100
AcDbEntity
  8
_U+30EC_U+30A4_U+30E4_U+30FC 1
100
AcDbBlockReference
  2
block 5
 10
0.0
 20
0.0
 30
0.0
  0
POLYLINE
  5
C7
330
1F
100
AcDbEntity
  8
_U+30EC_U+30A4_U+30E4_U+30FC 1
 62
     7
420
 16777215
370
     9
100
AcDb2dPolyline
 66
     1
 10
0.0
 20
0.0
 30
0.0
  0
VERTEX
  5
C8
330
C7
100
AcDbEntity
  8
_U+30EC_U+30A4_U+30E4_U+30FC 1
 62
     7
420
 16777215
370
     9
100
AcDbVertex
100
AcDb2dVertex
 10
79.71228879970343
 20
-140.978466631422
 30
0.0
  0
VERTEX
  5
C9
330
C7
100
AcDbEntity
  8
_U+30EC_U+30A4_U+30E4_U+30FC 1
 62
     7
420
 16777215
370
     9
100
AcDbVertex
100
AcDb2dVertex
 10
79.71228879970343
 20
-116.4783321931026
 30
0.0
  0
SEQEND
  5
CA
330
C7
100
AcDbEntity
  8
_U+30EC_U+30A4_U+30E4_U+30FC 1
 62
     7
420
 16777215
370
     9
  0
POLYLINE
  5
CB
330
1F
100
AcDbEntity
  8
_U+30EC_U+30A4_U+30E4_U+30FC 1
 62
     7
420
 16777215
370
     9
100
AcDb2dPolyline
 66
     1
 10
0.0
 20
0.0
 30
0.0
  0
VERTEX
  5
CC
330
CB
100
AcDbEntity
  8
_U+30EC_U+30A4_U+30E4_U+30FC 1
 62
     7
420
 16777215
370
     9
100
AcDbVertex
100
AcDb2dVertex
 10
82.17206707028258
 20
-140.877889687003
 30
0.0
  0
VERTEX
  5
CD
330
CB
100
AcDbEntity
  8
_U+30EC_U+30A4_U+30E4_U+30FC 1
 62
     7
420
 16777215
370
     9
100
AcDbVertex
100
AcDb2dVertex
 10
78.71251660298752
 20
-140.877889687003
 30
0.0
  0
SEQEND
  5
CE
330
CB
100
AcDbEntity
  8
_U+30EC_U+30A4_U+30E4_U+30FC 1
 62
     7
420
 16777215
370
     9
  0
POLYLINE
  5
CF
330
1F
100
AcDbEntity
  8
_U+30EC_U+30A4_U+30E4_U+30FC 1
 62
     7
420
 16777215
370
     9
100
AcDb2dPolyline
 66
     1
 10
0.0
 20
0.0
 30
0.0
  0
VERTEX
  5
D0
330
CF
100
AcDbEntity
  8
_U+30EC_U+30A4_U+30E4_U+30FC 1
 62
     7
420
 16777215
370
     9
100
AcDbVertex
100
AcDb2dVertex
 10
81.17229487356667
 20
-116.4783321931026
 30
0.0
  0
VERTEX
  5
D1
330
CF
100
AcDbEntity
  8
_U+30EC_U+30A4_U+30E4_U+30FC 1
 62
     7
420
 16777215
370
     9
100
AcDbVertex
100
AcDb2dVertex
 10
78.71251660298752
 20
-116.4783321931026
 30
0.0
  0
SEQEND
  5
D2
330
CF
100
AcDbEntity
  8
_U+30EC_U+30A4_U+30E4_U+30FC 1
 62
     7
420
 16777215
370
     9
  0
INSERT
  5
D4
330
1F
100
AcDbEntity
  8
_U+30EC_U+30A4_U+30E4_U+30FC 1
100
AcDbBlockReference
  2
block 6
 10
0.0
 20
0.0
 30
0.0
  0
POLYLINE
  5
F8
330
1F
100
AcDbEntity
  8
_U+30EC_U+30A4_U+30E4_U+30FC 1
 62
     7
420
 16777215
370
     9
100
AcDb2dPolyline
 66
     1
 10
0.0
 20
0.0
 30
0.0
  0
VERTEX
  5
F9
330
F8
100
AcDbEntity
  8
_U+30EC_U+30A4_U+30E4_U+30FC 1
 62
     7
420
 16777215
370
     9
100
AcDbVertex
100
AcDb2dVertex
 10
83.71201258655086
 20
-144.9789313526444
 30
0.0
  0
VERTEX
  5
FA
330
F8
100
AcDbEntity
  8
_U+30EC_U+30A4_U+30E4_U+30FC 1
 62
     7
420
 16777215
370
     9
100
AcDbVertex
100
AcDb2dVertex
 10
99.71277745611512
 20
-144.9789313526444
 30
0.0
  0
SEQEND
  5
FB
330
F8
100
AcDbEntity
  8
_U+30EC_U+30A4_U+30E4_U+30FC 1
 62
     7
420
 16777215
370
     9
  0
POLYLINE
  5
FC
330
1F
100
AcDbEntity
  8
_U+30EC_U+30A4_U+30E4_U+30FC 1
 62
     7
420
 16777215
370
     9
100
AcDb2dPolyline
 66
     1
 10
0.0
 20
0.0
 30
0.0
  0
VERTEX
  5
FD
330
FC
100
AcDbEntity
  8
_U+30EC_U+30A4_U+30E4_U+30FC 1
 62
     7
420
 16777215
370
     9
100
AcDbVertex
100
AcDb2dVertex
 10
83.71201258655086
 20
-142.5184474643701
 30
0.0
  0
VERTEX
  5
FE
330
FC
100
AcDbEntity
  8
_U+30EC_U+30A4_U+30E4_U+30FC 1
 62
     7
420
 16777215
370
     9
100
AcDbVertex
100
AcDb2dVertex
 10
83.71201258655086
 20
-145.9787035746163
 30
0.0
  0
SEQEND
  5
FF
330
FC
100
AcDbEntity
  8
_U+30EC_U+30A4_U+30E4_U+30FC 1
 62
     7
420
 16777215
370
     9
  0
POLYLINE
  5
100
330
1F
100
AcDbEntity
  8
_U+30EC_U+30A4_U+30E4_U+30FC 1
 62
     7
420
 16777215
370
     9
100
AcDb2dPolyline
 66
     1
 10
0.0
 20
0.0
 30
0.0
  0
VERTEX
  5
101
330
100
100
AcDbEntity
  8
_U+30EC_U+30A4_U+30E4_U+30FC 1
 62
     7
420
 16777215
370
     9
100
AcDbVertex
100
AcDb2dVertex
 10
99.71277745611512
 20
-143.51888996412
 30
0.0
  0
VERTEX
  5
102
330
100
100
AcDbEntity
  8
_U+30EC_U+30A4_U+30E4_U+30FC 1
 62
     7
420
 16777215
370
     9
100
AcDbVertex
100
AcDb2dVertex
 10
99.71277745611512
 20
-145.9787035746163
 30
0.0
  0
SEQEND
  5
103
330
100
100
AcDbEntity
  8
_U+30EC_U+30A4_U+30E4_U+30FC 1
 62
     7
420
 16777215
370
     9
  0
INSERT
  5
105
330
1F
100
AcDbEntity
  8
_U+30EC_U+30A4_U+30E4_U+30FC 1
100
AcDbBlockReference
  2
block 7
 10
0.0
 20
0.0
 30
0.0
  0
POLYLINE
  5
10D
330
1F
100
AcDbEntity
  8
_U+30EC_U+30A4_U+30E4_U+30FC 1
  6
AI-Linetype-1
 62
   251
420
  5855577
370
    25
100
AcDb2dPolyline
 66
     1
 10
0.0
 20
0.0
 30
0.0
  0
VERTEX
  5
10E
330
10D
100
AcDbEntity
  8
_U+30EC_U+30A4_U+30E4_U+30FC 1
  6
AI-Linetype-1
 62
   251
420
  5855577
370
    25
100
AcDbVertex
100
AcDb2dVertex
 10
83.49671231426585
 20
-115.9808449710049
 30
0.0
  0
VERTEX
  5
10F
330
10D
100
AcDbEntity
  8
_U+30EC_U+30A4_U+30E4_U+30FC 1
  6
AI-Linetype-1
 62
   251
420
  5855577
370
    25
100
AcDbVertex
100
AcDb2dVertex
 10
85.2902344907315
 20
-115.9808449710049
 30
0.0
  0
VERTEX
  5
110
330
10D
100
AcDbEntity
  8
_U+30EC_U+30A4_U+30E4_U+30FC 1
  6
AI-Linetype-1
 62
   251
420
  5855577
370
    25
100
AcDbVertex
100
AcDb2dVertex
 10
85.2902344907315
 20
-122.8600116359518
 30
0.0
  0
VERTEX
  5
111
330
10D
100
AcDbEntity
  8
_U+30EC_U+30A4_U+30E4_U+30FC 1
  6
AI-Linetype-1
 62
   251
420
  5855577
370
    25
100
AcDbVertex
100
AcDb2dVertex
 10
92.16940098189602
 20
-122.8600116359518
 30
0.0
  0
VERTEX
  5
112
330
10D
100
AcDbEntity
  8
_U+30EC_U+30A4_U+30E4_U+30FC 1
  6
AI-Linetype-1
 62
   251
420
  5855577
370
    25
100
AcDbVertex
100
AcDb2dVertex
 10
92.16940098189602
 20
-124.6121883021802
 30
0.0
  0
SEQEND
  5
114
330
10D
100
AcDbEntity
  8
_U+30EC_U+30A4_U+30E4_U+30FC 1
  6
AI-Linetype-1
 62
   251
420
  5855577
370
    25
  0
ENDSEC
  0
SECTION
  2
OBJECTS
  0
DICTIONARY
  5
C
330
0
100
AcDbDictionary
281
     1
  3
ACAD_GROUP
350
D
  3
ACAD_LAYOUT
350
1A
  3
ACAD_MATERIAL
350
3B
  3
ACAD_MLEADERSTYLE
350
116
  3
ACAD_MLINESTYLE
350
17
  3
ACAD_PLOTSETTINGS
350
19
  3
ACAD_PLOTSTYLENAME
350
E
  3
ACAD_TABLESTYLE
350
115
  3
ACAD_VISUALSTYLE
350
2A
  0
SUN
  5
3F
330
29
100
AcDbSun
 90
        1
290
     0
 63
     7
421
 16777215
 40
1.0
291
     1
 91
  2455826
 92
 54000000
292
     0
 70
     2
 71
   256
280
     1
  0
DICTIONARY
  5
D
102
{ACAD_REACTORS
330
C
102
}
330
C
100
AcDbDictionary
281
     1
  0
DICTIONARY
  5
1A
102
{ACAD_REACTORS
330
C
102
}
330
C
100
AcDbDictionary
281
     1
  3
Layout1
350
1E
  3
Layout2
350
26
  3
Model
350
22
  0
DICTIONARY
  5
3B
102
{ACAD_REACTORS
330
C
102
}
330
C
100
AcDbDictionary
281
     1
  3
ByBlock
350
3D
  3
ByLayer
350
3C
  3
Global
350
3E
  0
DICTIONARY
  5
116
102
{ACAD_REACTORS
330
C
102
}
330
C
100
AcDbDictionary
281
     1
  0
DICTIONARY
  5
17
102
{ACAD_REACTORS
330
C
102
}
330
C
100
AcDbDictionary
281
     1
  3
Standard
350
18
  0
DICTIONARY
  5
19
102
{ACAD_REACTORS
330
C
102
}
330
C
100
AcDbDictionary
281
     1
  0
ACDBDICTIONARYWDFLT
  5
E
102
{ACAD_REACTORS
330
C
102
}
330
C
100
AcDbDictionary
281
     1
  3
Normal
350
F
100
AcDbDictionaryWithDefault
340
F
  0
DICTIONARY
  5
115
102
{ACAD_REACTORS
330
C
102
}
330
C
100
AcDbDictionary
281
     1
  0
DICTIONARY
  5
2A
102
{ACAD_REACTORS
330
C
102
}
330
C
100
AcDbDictionary
281
     1
  3
2dWireframe
350
2F
  3
3D Hidden
350
31
  3
3dWireframe
350
30
  3
Basic
350
32
  3
Brighten
350
36
  3
ColorChange
350
3A
  3
Conceptual
350
34
  3
Dim
350
35
  3
Facepattern
350
39
  3
Flat
350
2B
  3
FlatWithEdges
350
2C
  3
Gouraud
350
2D
  3
GouraudWithEdges
350
2E
  3
Linepattern
350
38
  3
Realistic
350
33
  3
Thicken
350
37
  0
LAYOUT
  5
1E
102
{ACAD_REACTORS
330
1A
102
}
330
1A
100
AcDbPlotSettings
  1

  2
none_device
  4

  6

 40
0.0
 41
0.0
 42
0.0
 43
0.0
 44
0.0
 45
0.0
 46
0.0
 47
0.0
 48
0.0
 49
0.0
140
0.0
141
0.0
142
1.0
143
1.0
 70
   688
 72
     0
 73
     0
 74
     5
  7

 75
    16
 76
     0
 77
     2
 78
   300
147
1.0
148
0.0
149
0.0
100
AcDbLayout
  1
Layout1
 70
     1
 71
     1
 10
0.0
 20
0.0
 11
12.0
 21
9.0
 12
0.0
 22
0.0
 32
0.0
 14
1.000000000000000E+20
 24
1.000000000000000E+20
 34
1.000000000000000E+20
 15
-1.000000000000000E+20
 25
-1.000000000000000E+20
 35
-1.000000000000000E+20
146
0.0
 13
0.0
 23
0.0
 33
0.0
 16
1.0
 26
0.0
 36
0.0
 17
0.0
 27
1.0
 37
0.0
 76
     0
330
1B
  0
LAYOUT
  5
26
102
{ACAD_REACTORS
330
1A
102
}
330
1A
100
AcDbPlotSettings
  1

  2
none_device
  4

  6

 40
0.0
 41
0.0
 42
0.0
 43
0.0
 44
0.0
 45
0.0
 46
0.0
 47
0.0
 48
0.0
 49
0.0
140
0.0
141
0.0
142
1.0
143
1.0
 70
   688
 72
     0
 73
     0
 74
     5
  7

 75
    16
 76
     0
 77
     2
 78
   300
147
1.0
148
0.0
149
0.0
100
AcDbLayout
  1
Layout2
 70
     1
 71
     2
 10
0.0
 20
0.0
 11
0.0
 21
0.0
 12
0.0
 22
0.0
 32
0.0
 14
0.0
 24
0.0
 34
0.0
 15
0.0
 25
0.0
 35
0.0
146
0.0
 13
0.0
 23
0.0
 33
0.0
 16
1.0
 26
0.0
 36
0.0
 17
0.0
 27
1.0
 37
0.0
 76
     0
330
23
  0
LAYOUT
  5
22
102
{ACAD_REACTORS
330
1A
102
}
330
1A
100
AcDbPlotSettings
  1

  2
none_device
  4

  6

 40
0.0
 41
0.0
 42
0.0
 43
0.0
 44
0.0
 45
0.0
 46
0.0
 47
0.0
 48
0.0
 49
0.0
140
0.0
141
0.0
142
1.0
143
1.0
 70
  1712
 72
     0
 73
     0
 74
     0
  7

 75
     0
 76
     0
 77
     2
 78
   300
147
1.0
148
0.0
149
0.0
100
AcDbLayout
  1
Model
 70
     1
 71
     0
 10
0.0
 20
0.0
 11
12.0
 21
9.0
 12
0.0
 22
0.0
 32
0.0
 14
1.000000000000000E+20
 24
1.000000000000000E+20
 34
1.000000000000000E+20
 15
-1.000000000000000E+20
 25
-1.000000000000000E+20
 35
-1.000000000000000E+20
146
0.0
 13
0.0
 23
0.0
 33
0.0
 16
1.0
 26
0.0
 36
0.0
 17
0.0
 27
1.0
 37
0.0
 76
     0
330
1F
331
29
  0
MATERIAL
  5
3D
102
{ACAD_REACTORS
330
3B
102
}
330
3B
100
AcDbMaterial
  1
ByBlock
 72
     1
 94
      127
  0
MATERIAL
  5
3C
102
{ACAD_REACTORS
330
3B
102
}
330
3B
100
AcDbMaterial
  1
ByLayer
 72
     1
 94
      127
  0
MATERIAL
  5
3E
102
{ACAD_REACTORS
330
3B
102
}
330
3B
100
AcDbMaterial
  1
Global
 72
     1
 94
      127
  0
MLINESTYLE
  5
18
102
{ACAD_REACTORS
330
17
102
}
330
17
100
AcDbMlineStyle
  2
Standard
 70
     0
  3

 62
   256
 51
90.0
 52
90.0
 71
     2
 49
0.5
 62
   256
  6
BYLAYER
 49
-0.5
 62
   256
  6
BYLAYER
  0
ACDBPLACEHOLDER
  5
F
102
{ACAD_REACTORS
330
E
102
}
330
E
  0
VISUALSTYLE
  5
2F
102
{ACAD_REACTORS
330
2A
102
}
330
2A
100
AcDbVisualStyle
  2
2dWireframe
 70
     4
177
     2
291
     0
 71
     0
176
     1
 72
     2
176
     1
 73
     0
176
     1
 90
        0
176
     1
 40
-0.6
176
     1
 41
-30.0
176
     1
 62
     5
 63
     7
421
 16777215
176
     1
 74
     1
176
     1
 91
        4
176
     1
 64
     7
176
     1
 65
   257
176
     1
 75
     1
176
     1
175
     1
176
     1
 42
1.0
176
     1
 92
        0
176
     1
 66
   257
176
     1
 43
1.0
176
     1
 76
     1
176
     1
 77
     6
176
     1
 78
     2
176
     1
 67
     7
176
     1
 79
     5
176
     1
170
     0
176
     1
171
     0
176
     1
290
     0
176
     1
 93
        1
176
     1
 44
0.0
176
     1
173
     0
176
     1
  0
VISUALSTYLE
  5
31
102
{ACAD_REACTORS
330
2A
102
}
330
2A
100
AcDbVisualStyle
  2
3D Hidden
 70
     6
177
     2
291
     0
 71
     1
176
     1
 72
     2
176
     1
 73
     2
176
     1
 90
        0
176
     1
 40
-0.6
176
     1
 41
-30.0
176
     1
 62
     5
 63
     7
421
 16777215
176
     1
 74
     2
176
     1
 91
        2
176
     1
 64
     7
176
     1
 65
   257
176
     1
 75
     2
176
     1
175
     1
176
     1
 42
40.0
176
     1
 92
        0
176
     1
 66
   257
176
     1
 43
1.0
176
     1
 76
     1
176
     1
 77
     6
176
     1
 78
     2
176
     1
 67
     7
176
     1
 79
     3
176
     1
170
     0
176
     1
171
     0
176
     1
290
     0
176
     1
 93
        1
176
     1
 44
0.0
176
     1
173
     0
176
     1
  0
VISUALSTYLE
  5
30
102
{ACAD_REACTORS
330
2A
102
}
330
2A
100
AcDbVisualStyle
  2
3dWireframe
 70
     5
177
     2
291
     0
 71
     0
176
     1
 72
     2
176
     1
 73
     0
176
     1
 90
        0
176
     1
 40
-0.6
176
     1
 41
-30.0
176
     1
 62
     5
 63
     7
421
 16777215
176
     1
 74
     1
176
     1
 91
        4
176
     1
 64
     7
176
     1
 65
   257
176
     1
 75
     1
176
     1
175
     1
176
     1
 42
1.0
176
     1
 92
        0
176
     1
 66
   257
176
     1
 43
1.0
176
     1
 76
     1
176
     1
 77
     6
176
     1
 78
     2
176
     1
 67
     7
176
     1
 79
     5
176
     1
170
     0
176
     1
171
     0
176
     1
290
     0
176
     1
 93
        1
176
     1
 44
0.0
176
     1
173
     0
176
     1
  0
VISUALSTYLE
  5
32
102
{ACAD_REACTORS
330
2A
102
}
330
2A
100
AcDbVisualStyle
  2
Basic
 70
     7
177
     2
291
     1
 71
     1
176
     1
 72
     0
176
     1
 73
     1
176
     1
 90
        0
176
     1
 40
-0.6
176
     1
 41
-30.0
176
     1
 62
     5
 63
     7
421
 16777215
176
     1
 74
     0
176
     1
 91
        4
176
     1
 64
     7
176
     1
 65
   257
176
     1
 75
     1
176
     1
175
     1
176
     1
 42
1.0
176
     1
 92
        8
176
     1
 66
     7
176
     1
 43
1.0
176
     1
 76
     1
176
     1
 77
     6
176
     1
 78
     2
176
     1
 67
     7
176
     1
 79
     5
176
     1
170
     0
176
     1
171
     0
176
     1
290
     0
176
     1
 93
        1
176
     1
 44
0.0
176
     1
173
     0
176
     1
  0
VISUALSTYLE
  5
36
102
{ACAD_REACTORS
330
2A
102
}
330
2A
100
AcDbVisualStyle
  2
Brighten
 70
    12
177
     2
291
     1
 71
     2
176
     1
 72
     2
176
     1
 73
     0
176
     1
 90
        0
176
     1
 40
-0.6
176
     1
 41
-30.0
176
     1
 62
     5
 63
     7
421
 16777215
176
     1
 74
     1
176
     1
 91
        4
176
     1
 64
     7
176
     1
 65
   257
176
     1
 75
     1
176
     1
175
     1
176
     1
 42
1.0
176
     1
 92
        8
176
     1
 66
     7
176
     1
 43
1.0
176
     1
 76
     1
176
     1
 77
     6
176
     1
 78
     2
176
     1
 67
     7
176
     1
 79
     5
176
     1
170
     0
176
     1
171
     0
176
     1
290
     0
176
     1
 93
        1
176
     1
 44
50.0
176
     1
173
     0
176
     1
  0
VISUALSTYLE
  5
3A
102
{ACAD_REACTORS
330
2A
102
}
330
2A
100
AcDbVisualStyle
  2
ColorChange
 70
    16
177
     2
291
     1
 71
     2
176
     1
 72
     2
176
     1
 73
     3
176
     1
 90
        0
176
     1
 40
-0.6
176
     1
 41
-30.0
176
     1
 62
     5
 63
     8
421
  8421504
176
     1
 74
     1
176
     1
 91
        4
176
     1
 64
     7
176
     1
 65
   257
176
     1
 75
     1
176
     1
175
     1
176
     1
 42
1.0
176
     1
 92
        8
176
     1
 66
     8
424
  8421504
176
     1
 43
1.0
176
     1
 76
     1
176
     1
 77
     6
176
     1
 78
     2
176
     1
 67
     7
176
     1
 79
     5
176
     1
170
     0
176
     1
171
     0
176
     1
290
     0
176
     1
 93
        1
176
     1
 44
0.0
176
     1
173
     0
176
     1
  0
VISUALSTYLE
  5
34
102
{ACAD_REACTORS
330
2A
102
}
330
2A
100
AcDbVisualStyle
  2
Conceptual
 70
     9
177
     2
291
     0
 71
     3
176
     1
 72
     2
176
     1
 73
     0
176
     1
 90
        0
176
     1
 40
-0.6
176
     1
 41
-30.0
176
     1
 62
     5
 63
     7
421
 16777215
176
     1
 74
     2
176
     1
 91
        2
176
     1
 64
     7
176
     1
 65
   257
176
     1
 75
     1
176
     1
175
     1
176
     1
 42
40.0
176
     1
 92
        8
176
     1
 66
     7
176
     1
 43
1.0
176
     1
 76
     1
176
     1
 77
     6
176
     1
 78
     2
176
     1
 67
     7
176
     1
 79
     3
176
     1
170
     0
176
     1
171
     0
176
     1
290
     0
176
     1
 93
        1
176
     1
 44
0.0
176
     1
173
     0
176
     1
  0
VISUALSTYLE
  5
35
102
{ACAD_REACTORS
330
2A
102
}
330
2A
100
AcDbVisualStyle
  2
Dim
 70
    11
177
     2
291
     1
 71
     2
176
     1
 72
     2
176
     1
 73
     0
176
     1
 90
        0
176
     1
 40
-0.6
176
     1
 41
-30.0
176
     1
 62
     5
 63
     7
421
 16777215
176
     1
 74
     1
176
     1
 91
        4
176
     1
 64
     7
176
     1
 65
   257
176
     1
 75
     1
176
     1
175
     1
176
     1
 42
1.0
176
     1
 92
        8
176
     1
 66
     7
176
     1
 43
1.0
176
     1
 76
     1
176
     1
 77
     6
176
     1
 78
     2
176
     1
 67
     7
176
     1
 79
     5
176
     1
170
     0
176
     1
171
     0
176
     1
290
     0
176
     1
 93
        1
176
     1
 44
-50.0
176
     1
173
     0
176
     1
  0
VISUALSTYLE
  5
39
102
{ACAD_REACTORS
330
2A
102
}
330
2A
100
AcDbVisualStyle
  2
Facepattern
 70
    15
177
     2
291
     1
 71
     2
176
     1
 72
     2
176
     1
 73
     0
176
     1
 90
        0
176
     1
 40
-0.6
176
     1
 41
-30.0
176
     1
 62
     5
 63
     7
421
 16777215
176
     1
 74
     1
176
     1
 91
        4
176
     1
 64
     7
176
     1
 65
   257
176
     1
 75
     1
176
     1
175
     1
176
     1
 42
1.0
176
     1
 92
        8
176
     1
 66
     7
176
     1
 43
1.0
176
     1
 76
     1
176
     1
 77
     6
176
     1
 78
     2
176
     1
 67
     7
176
     1
 79
     5
176
     1
170
     0
176
     1
171
     0
176
     1
290
     0
176
     1
 93
        1
176
     1
 44
0.0
176
     1
173
     0
176
     1
  0
VISUALSTYLE
  5
2B
102
{ACAD_REACTORS
330
2A
102
}
330
2A
100
AcDbVisualStyle
  2
Flat
 70
     0
177
     2
291
     1
 71
     2
176
     1
 72
     1
176
     1
 73
     1
176
     1
 90
        2
176
     1
 40
-0.6
176
     1
 41
30.0
176
     1
 62
     5
 63
     7
421
 16777215
176
     1
 74
     0
176
     1
 91
        4
176
     1
 64
     7
176
     1
 65
   257
176
     1
 75
     1
176
     1
175
     1
176
     1
 42
1.0
176
     1
 92
        8
176
     1
 66
     7
176
     1
 43
1.0
176
     1
 76
     1
176
     1
 77
     6
176
     1
 78
     2
176
     1
 67
     7
176
     1
 79
     5
176
     1
170
     0
176
     1
171
     0
176
     1
290
     0
176
     1
 93
       13
176
     1
 44
0.0
176
     1
173
     0
176
     1
  0
VISUALSTYLE
  5
2C
102
{ACAD_REACTORS
330
2A
102
}
330
2A
100
AcDbVisualStyle
  2
FlatWithEdges
 70
     1
177
     2
291
     1
 71
     2
176
     1
 72
     1
176
     1
 73
     1
176
     1
 90
        2
176
     1
 40
-0.6
176
     1
 41
30.0
176
     1
 62
     5
 63
     7
421
 16777215
176
     1
 74
     1
176
     1
 91
        4
176
     1
 64
     7
176
     1
 65
   257
176
     1
 75
     1
176
     1
175
     1
176
     1
 42
1.0
176
     1
 92
        0
176
     1
 66
   257
176
     1
 43
1.0
176
     1
 76
     1
176
     1
 77
     6
176
     1
 78
     2
176
     1
 67
     7
176
     1
 79
     5
176
     1
170
     0
176
     1
171
     0
176
     1
290
     0
176
     1
 93
       13
176
     1
 44
0.0
176
     1
173
     0
176
     1
  0
VISUALSTYLE
  5
2D
102
{ACAD_REACTORS
330
2A
102
}
330
2A
100
AcDbVisualStyle
  2
Gouraud
 70
     2
177
     2
291
     1
 71
     2
176
     1
 72
     2
176
     1
 73
     1
176
     1
 90
        2
176
     1
 40
-0.6
176
     1
 41
30.0
176
     1
 62
     5
 63
     7
421
 16777215
176
     1
 74
     0
176
     1
 91
        4
176
     1
 64
     7
176
     1
 65
   257
176
     1
 75
     1
176
     1
175
     1
176
     1
 42
1.0
176
     1
 92
        0
176
     1
 66
     7
176
     1
 43
1.0
176
     1
 76
     1
176
     1
 77
     6
176
     1
 78
     2
176
     1
 67
     7
176
     1
 79
     5
176
     1
170
     0
176
     1
171
     0
176
     1
290
     0
176
     1
 93
       13
176
     1
 44
0.0
176
     1
173
     0
176
     1
  0
VISUALSTYLE
  5
2E
102
{ACAD_REACTORS
330
2A
102
}
330
2A
100
AcDbVisualStyle
  2
GouraudWithEdges
 70
     3
177
     2
291
     1
 71
     2
176
     1
 72
     2
176
     1
 73
     1
176
     1
 90
        2
176
     1
 40
-0.6
176
     1
 41
30.0
176
     1
 62
     5
 63
     7
421
 16777215
176
     1
 74
     1
176
     1
 91
        4
176
     1
 64
     7
176
     1
 65
   257
176
     1
 75
     1
176
     1
175
     1
176
     1
 42
1.0
176
     1
 92
        0
176
     1
 66
   257
176
     1
 43
1.0
176
     1
 76
     1
176
     1
 77
     6
176
     1
 78
     2
176
     1
 67
     7
176
     1
 79
     5
176
     1
170
     0
176
     1
171
     0
176
     1
290
     0
176
     1
 93
       13
176
     1
 44
0.0
176
     1
173
     0
176
     1
  0
VISUALSTYLE
  5
38
102
{ACAD_REACTORS
330
2A
102
}
330
2A
100
AcDbVisualStyle
  2
Linepattern
 70
    14
177
     2
291
     1
 71
     2
176
     1
 72
     2
176
     1
 73
     0
176
     1
 90
        0
176
     1
 40
-0.6
176
     1
 41
-30.0
176
     1
 62
     5
 63
     7
421
 16777215
176
     1
 74
     1
176
     1
 91
        4
176
     1
 64
     7
176
     1
 65
   257
176
     1
 75
     7
176
     1
175
     7
176
     1
 42
1.0
176
     1
 92
        8
176
     1
 66
     7
176
     1
 43
1.0
176
     1
 76
     1
176
     1
 77
     6
176
     1
 78
     2
176
     1
 67
     7
176
     1
 79
     5
176
     1
170
     0
176
     1
171
     0
176
     1
290
     0
176
     1
 93
        1
176
     1
 44
0.0
176
     1
173
     0
176
     1
  0
VISUALSTYLE
  5
33
102
{ACAD_REACTORS
330
2A
102
}
330
2A
100
AcDbVisualStyle
  2
Realistic
 70
     8
177
     2
291
     0
 71
     2
176
     1
 72
     2
176
     1
 73
     0
176
     1
 90
        0
176
     1
 40
-0.6
176
     1
 41
-30.0
176
     1
 62
     5
 63
     7
421
 16777215
176
     1
 74
     1
176
     1
 91
        0
176
     1
 64
     7
176
     1
 65
   257
176
     1
 75
     1
176
     1
175
     1
176
     1
 42
1.0
176
     1
 92
        8
176
     1
 66
     8
424
  7895160
176
     1
 43
1.0
176
     1
 76
     1
176
     1
 77
     6
176
     1
 78
     2
176
     1
 67
     7
176
     1
 79
     5
176
     1
170
     0
176
     1
171
     0
176
     1
290
     0
176
     1
 93
       13
176
     1
 44
0.0
176
     1
173
     0
176
     1
  0
VISUALSTYLE
  5
37
102
{ACAD_REACTORS
330
2A
102
}
330
2A
100
AcDbVisualStyle
  2
Thicken
 70
    13
177
     2
291
     1
 71
     2
176
     1
 72
     2
176
     1
 73
     0
176
     1
 90
        0
176
     1
 40
-0.6
176
     1
 41
-30.0
176
     1
 62
     5
 63
     7
421
 16777215
176
     1
 74
     1
176
     1
 91
        4
176
     1
 64
     7
176
     1
 65
   257
176
     1
 75
     1
176
     1
175
     1
176
     1
 42
1.0
176
     1
 92
       12
176
     1
 66
     7
176
     1
 43
1.0
176
     1
 76
     1
176
     1
 77
     6
176
     1
 78
     2
176
     1
 67
     7
176
     1
 79
     5
176
     1
170
     0
176
     1
171
     0
176
     1
290
     0
176
     1
 93
        1
176
     1
 44
0.0
176
     1
173
     0
176
     1
  0
ENDSEC
  0
EOF
