  0
SECTION
  2
HEADER
  9
$ACADVER
  1
AC1024
  9
$ACADMAINTVER
 70
     6
  9
$DWGCODEPAGE
  3
UNDEFINED
  9
$INSBASE
 10
0.0
 20
0.0
 30
0.0
  9
$EXTMIN
 10
1.000000000000000E+20
 20
1.000000000000000E+20
 30
1.000000000000000E+20
  9
$EXTMAX
 10
-1.000000000000000E+20
 20
-1.000000000000000E+20
 30
-1.000000000000000E+20
  9
$LIMMIN
 10
0.0
 20
0.0
  9
$LIMMAX
 10
12.0
 20
9.0
  9
$ORTHOMODE
 70
     0
  9
$REGENMODE
 70
     1
  9
$FILLMODE
 70
     1
  9
$QTEXTMODE
 70
     0
  9
$MIRRTEXT
 70
     1
  9
$LTSCALE
 40
1.0
  9
$ATTMODE
 70
     1
  9
$TEXTSIZE
 40
0.2
  9
$TRACEWID
 40
0.05
  9
$TEXTSTYLE
  7
Standard
  9
$CLAYER
  8
0
  9
$CELTYPE
  6
ByLayer
  9
$CECOLOR
 62
   256
  9
$CELTSCALE
 40
1.0
  9
$DISPSILH
 70
     0
  9
$DIMSCALE
 40
1.0
  9
$DIMASZ
 40
0.18
  9
$DIMEXO
 40
0.0625
  9
$DIMDLI
 40
0.38
  9
$DIMRND
 40
0.0
  9
$DIMDLE
 40
0.0
  9
$DIMEXE
 40
0.18
  9
$DIMTP
 40
0.0
  9
$DIMTM
 40
0.0
  9
$DIMTXT
 40
0.18
  9
$DIMCEN
 40
0.09
  9
$DIMTSZ
 40
0.0
  9
$DIMTOL
 70
     0
  9
$DIMLIM
 70
     0
  9
$DIMTIH
 70
     1
  9
$DIMTOH
 70
     1
  9
$DIMSE1
 70
     0
  9
$DIMSE2
 70
     0
  9
$DIMTAD
 70
     0
  9
$DIMZIN
 70
     0
  9
$DIMBLK
  1

  9
$DIMASO
 70
     1
  9
$DIMSHO
 70
     1
  9
$DIMPOST
  1

  9
$DIMAPOST
  1

  9
$DIMALT
 70
     0
  9
$DIMALTD
 70
     2
  9
$DIMALTF
 40
25.4
  9
$DIMLFAC
 40
1.0
  9
$DIMTOFL
 70
     0
  9
$DIMTVP
 40
0.0
  9
$DIMTIX
 70
     0
  9
$DIMSOXD
 70
     0
  9
$DIMSAH
 70
     0
  9
$DIMBLK1
  1

  9
$DIMBLK2
  1

  9
$DIMSTYLE
  2
Standard
  9
$DIMCLRD
 70
     0
  9
$DIMCLRE
 70
     0
  9
$DIMCLRT
 70
     0
  9
$DIMTFAC
 40
1.0
  9
$DIMGAP
 40
0.09
  9
$DIMJUST
 70
     0
  9
$DIMSD1
 70
     0
  9
$DIMSD2
 70
     0
  9
$DIMTOLJ
 70
     1
  9
$DIMTZIN
 70
     0
  9
$DIMALTZ
 70
     0
  9
$DIMALTTZ
 70
     0
  9
$DIMUPT
 70
     0
  9
$DIMDEC
 70
     4
  9
$DIMTDEC
 70
     4
  9
$DIMALTU
 70
     2
  9
$DIMALTTD
 70
     2
  9
$DIMTXSTY
  7
Standard
  9
$DIMAUNIT
 70
     0
  9
$DIMADEC
 70
     0
  9
$DIMALTRND
 40
0.0
  9
$DIMAZIN
 70
     0
  9
$DIMDSEP
 70
    46
  9
$DIMATFIT
 70
     3
  9
$DIMFRAC
 70
     0
  9
$DIMLDRBLK
  1

  9
$DIMLUNIT
 70
     2
  9
$DIMLWD
 70
    -2
  9
$DIMLWE
 70
    -2
  9
$DIMTMOVE
 70
     0
  9
$DIMFXL
 40
1.0
  9
$DIMFXLON
 70
     0
  9
$DIMJOGANG
 40
0.7853981633974483
  9
$DIMTFILL
 70
     0
  9
$DIMTFILLCLR
 70
     0
  9
$DIMARCSYM
 70
     0
  9
$DIMLTYPE
  6

  9
$DIMLTEX1
  6

  9
$DIMLTEX2
  6

  9
$DIMTXTDIRECTION
 70
     0
  9
$LUNITS
 70
     2
  9
$LUPREC
 70
     4
  9
$SKETCHINC
 40
0.1
  9
$FILLETRAD
 40
0.5
  9
$AUNITS
 70
     0
  9
$AUPREC
 70
     0
  9
$MENU
  1
.
  9
$ELEVATION
 40
0.0
  9
$PELEVATION
 40
0.0
  9
$THICKNESS
 40
0.0
  9
$LIMCHECK
 70
     0
  9
$CHAMFERA
 40
0.5
  9
$CHAMFERB
 40
0.5
  9
$CHAMFERC
 40
1.0
  9
$CHAMFERD
 40
0.0
  9
$SKPOLY
 70
     0
  9
$TDCREATE
 40
2457917.619050926
  9
$TDUCREATE
 40
2457917.244050926
  9
$TDUPDATE
 40
2457917.619050926
  9
$TDUUPDATE
 40
2457917.244050926
  9
$TDINDWG
 40
0.0000000116
  9
$TDUSRTIMER
 40
0.0000000116
  9
$USRTIMER
 70
     1
  9
$ANGBASE
 50
0.0
  9
$ANGDIR
 70
     0
  9
$PDMODE
 70
     0
  9
$PDSIZE
 40
0.0
  9
$PLINEWID
 40
0.0
  9
$SPLFRAME
 70
     0
  9
$SPLINETYPE
 70
     6
  9
$SPLINESEGS
 70
     8
  9
$HANDSEED
  5
115
  9
$SURFTAB1
 70
     6
  9
$SURFTAB2
 70
     6
  9
$SURFTYPE
 70
     6
  9
$SURFU
 70
     6
  9
$SURFV
 70
     6
  9
$UCSBASE
  2

  9
$UCSNAME
  2

  9
$UCSORG
 10
0.0
 20
0.0
 30
0.0
  9
$UCSXDIR
 10
1.0
 20
0.0
 30
0.0
  9
$UCSYDIR
 10
0.0
 20
1.0
 30
0.0
  9
$UCSORTHOREF
  2

  9
$UCSORTHOVIEW
 70
     0
  9
$UCSORGTOP
 10
0.0
 20
0.0
 30
0.0
  9
$UCSORGBOTTOM
 10
0.0
 20
0.0
 30
0.0
  9
$UCSORGLEFT
 10
0.0
 20
0.0
 30
0.0
  9
$UCSORGRIGHT
 10
0.0
 20
0.0
 30
0.0
  9
$UCSORGFRONT
 10
0.0
 20
0.0
 30
0.0
  9
$UCSORGBACK
 10
0.0
 20
0.0
 30
0.0
  9
$PUCSBASE
  2

  9
$PUCSNAME
  2

  9
$PUCSORG
 10
0.0
 20
0.0
 30
0.0
  9
$PUCSXDIR
 10
1.0
 20
0.0
 30
0.0
  9
$PUCSYDIR
 10
0.0
 20
1.0
 30
0.0
  9
$PUCSORTHOREF
  2

  9
$PUCSORTHOVIEW
 70
     0
  9
$PUCSORGTOP
 10
0.0
 20
0.0
 30
0.0
  9
$PUCSORGBOTTOM
 10
0.0
 20
0.0
 30
0.0
  9
$PUCSORGLEFT
 10
0.0
 20
0.0
 30
0.0
  9
$PUCSORGRIGHT
 10
0.0
 20
0.0
 30
0.0
  9
$PUCSORGFRONT
 10
0.0
 20
0.0
 30
0.0
  9
$PUCSORGBACK
 10
0.0
 20
0.0
 30
0.0
  9
$USERI1
 70
     0
  9
$USERI2
 70
     0
  9
$USERI3
 70
     0
  9
$USERI4
 70
     0
  9
$USERI5
 70
     0
  9
$USERR1
 40
0.0
  9
$USERR2
 40
0.0
  9
$USERR3
 40
0.0
  9
$USERR4
 40
0.0
  9
$USERR5
 40
0.0
  9
$WORLDVIEW
 70
     1
  9
$SHADEDGE
 70
     3
  9
$SHADEDIF
 70
    70
  9
$TILEMODE
 70
     1
  9
$MAXACTVP
 70
    64
  9
$PINSBASE
 10
0.0
 20
0.0
 30
0.0
  9
$PLIMCHECK
 70
     0
  9
$PEXTMIN
 10
1.000000000000000E+20
 20
1.000000000000000E+20
 30
1.000000000000000E+20
  9
$PEXTMAX
 10
-1.000000000000000E+20
 20
-1.000000000000000E+20
 30
-1.000000000000000E+20
  9
$PLIMMIN
 10
0.0
 20
0.0
  9
$PLIMMAX
 10
12.0
 20
9.0
  9
$UNITMODE
 70
     0
  9
$VISRETAIN
 70
     1
  9
$PLINEGEN
 70
     0
  9
$PSLTSCALE
 70
     1
  9
$TREEDEPTH
 70
  3020
  9
$CMLSTYLE
  2
Standard
  9
$CMLJUST
 70
     0
  9
$CMLSCALE
 40
1.0
  9
$PROXYGRAPHICS
 70
     1
  9
$MEASUREMENT
 70
     0
  9
$CELWEIGHT
370
    -1
  9
$ENDCAPS
280
     0
  9
$JOINSTYLE
280
     0
  9
$LWDISPLAY
290
     1
  9
$INSUNITS
 70
     1
  9
$HYPERLINKBASE
  1

  9
$STYLESHEET
  1

  9
$XEDIT
290
     1
  9
$CEPSNTYPE
380
     0
  9
$PSTYLEMODE
290
     1
  9
$FINGERPRINTGUID
  2
{A5B9ECF7-9495-7E6A-1826-185326D7B813}
  9
$VERSIONGUID
  2
{FAEB1C32-E019-11D5-929B-00C0DF256EC4}
  9
$EXTNAMES
290
     1
  9
$PSVPSCALE
 40
0.0
  9
$OLESTARTUP
290
     0
  9
$SORTENTS
280
   127
  9
$INDEXCTL
280
     0
  9
$HIDETEXT
280
     1
  9
$XCLIPFRAME
280
     2
  9
$HALOGAP
280
     0
  9
$OBSCOLOR
 70
   257
  9
$OBSLTYPE
280
     0
  9
$INTERSECTIONDISPLAY
280
     0
  9
$INTERSECTIONCOLOR
 70
   257
  9
$DIMASSOC
280
     2
  9
$PROJECTNAME
  1

  9
$CAMERADISPLAY
290
     0
  9
$LENSLENGTH
 40
50.0
  9
$CAMERAHEIGHT
 40
0.0
  9
$STEPSPERSEC
 40
2.0
  9
$STEPSIZE
 40
6.0
  9
$3DDWFPREC
 40
2.0
  9
$PSOLWIDTH
 40
0.25
  9
$PSOLHEIGHT
 40
4.0
  9
$LOFTANG1
 40
1.570796326794897
  9
$LOFTANG2
 40
1.570796326794897
  9
$LOFTMAG1
 40
0.0
  9
$LOFTMAG2
 40
0.0
  9
$LOFTPARAM
 70
     7
  9
$LOFTNORMALS
280
     1
  9
$LATITUDE
 40
37.795
  9
$LONGITUDE
 40
-122.394
  9
$NORTHDIRECTION
 40
0.0
  9
$TIMEZONE
 70
 -8000
  9
$LIGHTGLYPHDISPLAY
280
     1
  9
$TILEMODELIGHTSYNCH
280
     1
  9
$CMATERIAL
347
3C
  9
$SOLIDHIST
280
     1
  9
$SHOWHIST
280
     1
  9
$DWFFRAME
280
     2
  9
$DGNFRAME
280
     2
  9
$REALWORLDSCALE
290
     1
  9
$INTERFERECOLOR
 62
   256
  9
$CSHADOW
280
     0
  9
$SHADOWPLANELOCATION
 40
0.0
  0
ENDSEC
  0
SECTION
  2
CLASSES
  0
CLASS
  1
ACDBDICTIONARYWDFLT
  2
AcDbDictionaryWithDefault
  3
ObjectDBX Classes
 90
        0
 91
        4
280
     0
281
     0
  0
CLASS
  1
VISUALSTYLE
  2
AcDbVisualStyle
  3
ObjectDBX Classes
 90
     4095
 91
        4
280
     0
281
     0
  0
CLASS
  1
MATERIAL
  2
AcDbMaterial
  3
ObjectDBX Classes
 90
     1153
 91
        4
280
     0
281
     0
  0
CLASS
  1
SUN
  2
AcDbSun
  3
SCENEOE
 90
     1024
 91
        4
280
     0
281
     0
  0
ENDSEC
  0
SECTION
  2
TABLES
  0
TABLE
  2
VPORT
  5
8
330
0
100
AcDbSymbolTable
 70
     1
  0
VPORT
  5
29
330
8
100
AcDbSymbolTableRecord
100
AcDbViewportTableRecord
  2
*Active
 70
     0
 10
0.0
 20
0.0
 11
1.0
 21
1.0
 12
0.0
 22
0.0
 13
0.0
 23
0.0
 14
0.5
 24
0.5
 15
0.5
 25
0.5
 16
0.0
 26
0.0
 36
1.0
 17
91.00082462281999
 27
-128.4993055234307
 37
0.0
 40
256.9986110468615
 41
0.7081814508812795
 42
50.0
 43
0.0
 44
0.0
 50
0.0
 51
0.0
 71
     0
 72
   100
 73
     1
 74
     3
 75
     0
 76
     0
 77
     0
 78
     0
281
     0
 65
     1
110
0.0
120
0.0
130
0.0
111
1.0
121
0.0
131
0.0
112
0.0
122
1.0
132
0.0
 79
     0
146
0.0
 60
     3
 61
     5
292
     1
282
     1
141
0.0
142
0.0
 63
   250
361
3F
  0
ENDTAB
  0
TABLE
  2
LTYPE
  5
5
330
0
100
AcDbSymbolTable
 70
     2
  0
LTYPE
  5
14
330
5
100
AcDbSymbolTableRecord
100
AcDbLinetypeTableRecord
  2
ByBlock
 70
     0
  3

 72
    65
 73
     0
 40
0.0
  0
LTYPE
  5
15
330
5
100
AcDbSymbolTableRecord
100
AcDbLinetypeTableRecord
  2
ByLayer
 70
     0
  3

 72
    65
 73
     0
 40
0.0
  0
LTYPE
  5
16
330
5
100
AcDbSymbolTableRecord
100
AcDbLinetypeTableRecord
  2
Continuous
 70
     0
  3
Solid line
 72
    65
 73
     0
 40
0.0
  0
LTYPE
  5
47
330
5
100
AcDbSymbolTableRecord
100
AcDbLinetypeTableRecord
  2
AI-Linetype-1
 70
     0
  3
Adobe Illustrator Linetype No. 1
 72
    65
 73
     2
 40
1.411111110758333
 49
0.7055555553791667
 74
     0
 49
-0.7055555553791667
 74
     0
  0
ENDTAB
  0
TABLE
  2
LAYER
  5
2
330
0
100
AcDbSymbolTable
 70
     2
  0
LAYER
  5
10
330
2
100
AcDbSymbolTableRecord
100
AcDbLayerTableRecord
  2
0
 70
     0
 62
     7
  6
Continuous
370
    -3
390
F
347
3E
  0
LAYER
  5
40
330
2
100
AcDbSymbolTableRecord
100
AcDbLayerTableRecord
  2
_U+30EC_U+30A4_U+30E4_U+30FC 1
 70
     0
 62
     7
  6
Continuous
370
    -3
390
F
347
3E
  0
ENDTAB
  0
TABLE
  2
STYLE
  5
3
330
0
100
AcDbSymbolTable
 70
     1
  0
STYLE
  5
11
330
3
100
AcDbSymbolTableRecord
100
AcDbTextStyleTableRecord
  2
Standard
 70
     0
 40
0.0
 41
1.0
 50
0.0
 71
     0
 42
0.2
  3
txt
  4

  0
ENDTAB
  0
TABLE
  2
VIEW
  5
6
330
0
100
AcDbSymbolTable
 70
     0
  0
ENDTAB
  0
TABLE
  2
UCS
  5
7
330
0
100
AcDbSymbolTable
 70
     0
  0
ENDTAB
  0
TABLE
  2
APPID
  5
9
330
0
100
AcDbSymbolTable
 70
     1
  0
APPID
  5
12
330
9
100
AcDbSymbolTableRecord
100
AcDbRegAppTableRecord
  2
ACAD
 70
     0
  0
ENDTAB
  0
TABLE
  2
DIMSTYLE
  5
A
330
0
100
AcDbSymbolTable
 70
     1
100
AcDbDimStyleTable
  0
DIMSTYLE
105
27
330
A
100
AcDbSymbolTableRecord
100
AcDbDimStyleTableRecord
  2
Standard
 70
     0
178
     0
340
11
  0
ENDTAB
  0
TABLE
  2
BLOCK_RECORD
  5
1
330
0
100
AcDbSymbolTable
 70
     7
  0
BLOCK_RECORD
  5
1F
330
1
100
AcDbSymbolTableRecord
100
AcDbBlockTableRecord
  2
*Model_Space
340
22
 70
     0
280
     1
281
     0
  0
BLOCK_RECORD
  5
1B
330
1
100
AcDbSymbolTableRecord
100
AcDbBlockTableRecord
  2
*Paper_Space
340
1E
 70
     0
280
     1
281
     0
  0
BLOCK_RECORD
  5
23
330
1
100
AcDbSymbolTableRecord
100
AcDbBlockTableRecord
  2
*Paper_Space0
340
26
 70
     0
280
     1
281
     0
  0
BLOCK_RECORD
  5
59
330
1
100
AcDbSymbolTableRecord
100
AcDbBlockTableRecord
  2
block 2
340
0
102
{BLKREFS
331
5A
102
}
 70
     0
280
     1
281
     0
  0
BLOCK_RECORD
  5
98
330
1
100
AcDbSymbolTableRecord
100
AcDbBlockTableRecord
  2
block 3
340
0
102
{BLKREFS
331
99
102
}
 70
     0
280
     1
281
     0
  0
BLOCK_RECORD
  5
AF
330
1
100
AcDbSymbolTableRecord
100
AcDbBlockTableRecord
  2
block 4
340
0
102
{BLKREFS
331
B0
102
}
 70
     0
280
     1
281
     0
  0
BLOCK_RECORD
  5
DA
330
1
100
AcDbSymbolTableRecord
100
AcDbBlockTableRecord
  2
block 5
340
0
102
{BLKREFS
331
DB
102
}
 70
     0
280
     1
281
     0
  0
BLOCK_RECORD
  5
EC
330
1
100
AcDbSymbolTableRecord
100
AcDbBlockTableRecord
  2
block 6
340
0
102
{BLKREFS
331
ED
102
}
 70
     0
280
     1
281
     0
  0
BLOCK_RECORD
  5
10A
330
1
100
AcDbSymbolTableRecord
100
AcDbBlockTableRecord
  2
block 7
340
0
102
{BLKREFS
331
10B
102
}
 70
     0
280
     1
281
     0
  0
ENDTAB
  0
ENDSEC
  0
SECTION
  2
BLOCKS
  0
BLOCK
  5
20
330
1F
100
AcDbEntity
  8
0
100
AcDbBlockBegin
  2
*Model_Space
 70
     0
 10
0.0
 20
0.0
 30
0.0
  3
*Model_Space
  1

  0
ENDBLK
  5
21
330
1F
100
AcDbEntity
  8
0
100
AcDbBlockEnd
  0
BLOCK
  5
1C
330
1B
100
AcDbEntity
 67
     1
  8
0
100
AcDbBlockBegin
  2
*Paper_Space
 70
     0
 10
0.0
 20
0.0
 30
0.0
  3
*Paper_Space
  1

  0
ENDBLK
  5
1D
330
1B
100
AcDbEntity
 67
     1
  8
0
100
AcDbBlockEnd
  0
BLOCK
  5
24
330
23
100
AcDbEntity
  8
0
100
AcDbBlockBegin
  2
*Paper_Space0
 70
     0
 10
0.0
 20
0.0
 30
0.0
  3
*Paper_Space0
  1

  0
ENDBLK
  5
25
330
23
100
AcDbEntity
  8
0
100
AcDbBlockEnd
  0
BLOCK
  5
5B
330
59
100
AcDbEntity
  8
0
100
AcDbBlockBegin
  2
block 2
 70
     0
 10
0.0
 20
0.0
 30
0.0
  3
block 2
  1

  0
SPLINE
  5
5D
330
59
100
AcDbEntity
  8
_U+30EC_U+30A4_U+30E4_U+30FC 1
370
     0
100
AcDbSpline
210
0.0
220
0.0
230
1.0
 70
    11
 71
     3
 72
    26
 73
    22
 74
     0
 42
0.0000000001
 43
0.0000000001
 12
1.0
 22
0.0
 32
0.0
 13
1.0
 23
0.0
 33
0.0
 40
0.0
 40
0.0
 40
0.0
 40
0.0
 40
1.0
 40
1.0
 40
1.0
 40
2.0
 40
2.0
 40
2.0
 40
3.0
 40
3.0
 40
3.0
 40
4.0
 40
4.0
 40
4.0
 40
5.0
 40
5.0
 40
5.0
 40
6.0
 40
6.0
 40
6.0
 40
7.0
 40
7.0
 40
7.0
 40
7.0
 10
86.63657224396586
 20
-118.2773627091459
 30
0.0
 10
86.63657224396586
 20
-118.2773627091459
 30
0.0
 10
86.3833577258
 20
-118.2773627091459
 30
0.0
 10
86.3833577258
 20
-118.2773627091459
 30
0.0
 10
86.41057398013348
 20
-117.9685098988933
 30
0.0
 10
86.61624618060289
 20
-117.4501952831375
 30
0.0
 10
87.05032821174437
 20
-116.944627520677
 30
0.0
 10
87.05032821174437
 20
-116.944627520677
 30
0.0
 10
86.1551201499022
 20
-116.944627520677
 30
0.0
 10
86.1551201499022
 20
-116.944627520677
 30
0.0
 10
86.1551201499022
 20
-116.944627520677
 30
0.0
 10
86.1551201499022
 20
-116.7330986578827
 30
0.0
 10
86.1551201499022
 20
-116.7330986578827
 30
0.0
 10
86.1551201499022
 20
-116.7330986578827
 30
0.0
 10
87.30354272991023
 20
-116.7330986578827
 30
0.0
 10
87.30354272991023
 20
-116.7330986578827
 30
0.0
 10
87.30354272991023
 20
-116.7330986578827
 30
0.0
 10
87.30354272991023
 20
-116.944627520677
 30
0.0
 10
87.30354272991023
 20
-116.944627520677
 30
0.0
 10
86.95765514319115
 20
-117.2343600509866
 30
0.0
 10
86.67274574656098
 20
-117.8267442196753
 30
0.0
 10
86.63657224396586
 20
-118.2773627091459
 30
0.0
  0
HATCH
  5
5E
330
59
100
AcDbEntity
  8
_U+30EC_U+30A4_U+30E4_U+30FC 1
 62
     7
420
 16777215
100
AcDbHatch
 10
0.0
 20
0.0
 30
0.0
210
0.0
220
0.0
230
1.0
  2
SOLID
 70
     1
 71
     0
 91
        1
 92
        1
 93
        1
 72
     4
 94
        3
 73
     0
 74
     1
 95
       26
 96
       22
 40
0.0
 40
0.0
 40
0.0
 40
0.0
 40
1.0
 40
1.0
 40
1.0
 40
2.0
 40
2.0
 40
2.0
 40
3.0
 40
3.0
 40
3.0
 40
4.0
 40
4.0
 40
4.0
 40
5.0
 40
5.0
 40
5.0
 40
6.0
 40
6.0
 40
6.0
 40
7.0
 40
7.0
 40
7.0
 40
7.0
 10
86.63657224396586
 20
-118.2773627091459
 10
86.63657224396586
 20
-118.2773627091459
 10
86.3833577258
 20
-118.2773627091459
 10
86.3833577258
 20
-118.2773627091459
 10
86.41057398013348
 20
-117.9685098988933
 10
86.61624618060289
 20
-117.4501952831375
 10
87.05032821174437
 20
-116.944627520677
 10
87.05032821174437
 20
-116.944627520677
 10
86.1551201499022
 20
-116.944627520677
 10
86.1551201499022
 20
-116.944627520677
 10
86.1551201499022
 20
-116.944627520677
 10
86.1551201499022
 20
-116.7330986578827
 10
86.1551201499022
 20
-116.7330986578827
 10
86.1551201499022
 20
-116.7330986578827
 10
87.30354272991023
 20
-116.7330986578827
 10
87.30354272991023
 20
-116.7330986578827
 10
87.30354272991023
 20
-116.7330986578827
 10
87.30354272991023
 20
-116.944627520677
 10
87.30354272991023
 20
-116.944627520677
 10
86.95765514319115
 20
-117.2343600509866
 10
86.67274574656098
 20
-117.8267442196753
 10
86.63657224396586
 20
-118.2773627091459
 97
        0
 97
        0
 75
     2
 76
     1
 98
        0
  0
ENDBLK
  5
5C
330
59
100
AcDbEntity
  8
0
100
AcDbBlockEnd
  0
BLOCK
  5
9A
330
98
100
AcDbEntity
  8
0
100
AcDbBlockBegin
  2
block 3
 70
     0
 10
0.0
 20
0.0
 30
0.0
  3
block 3
  1

  0
SPLINE
  5
9C
330
98
100
AcDbEntity
  8
_U+30EC_U+30A4_U+30E4_U+30FC 1
370
     0
100
AcDbSpline
210
0.0
220
0.0
230
1.0
 70
    11
 71
     3
 72
    26
 73
    22
 74
     0
 42
0.0000000001
 43
0.0000000001
 12
1.0
 22
0.0
 32
0.0
 13
1.0
 23
0.0
 33
0.0
 40
0.0
 40
0.0
 40
0.0
 40
0.0
 40
1.0
 40
1.0
 40
1.0
 40
2.0
 40
2.0
 40
2.0
 40
3.0
 40
3.0
 40
3.0
 40
4.0
 40
4.0
 40
4.0
 40
5.0
 40
5.0
 40
5.0
 40
6.0
 40
6.0
 40
6.0
 40
7.0
 40
7.0
 40
7.0
 40
7.0
 10
86.19766707914503
 20
-124.5998019436764
 30
0.0
 10
86.19766707914503
 20
-124.5998019436764
 30
0.0
 10
86.19766707914503
 20
-123.4954765858796
 30
0.0
 10
86.19766707914503
 20
-123.4954765858796
 30
0.0
 10
86.19766707914503
 20
-123.4954765858796
 30
0.0
 10
85.84488930145545
 20
-123.4954765858796
 30
0.0
 10
85.84488930145545
 20
-123.4954765858796
 30
0.0
 10
85.84488930145545
 20
-123.4954765858796
 30
0.0
 10
85.84488930145545
 20
-123.3475097347881
 30
0.0
 10
85.84488930145545
 20
-123.3475097347881
 30
0.0
 10
86.19990639121045
 20
-123.3326958242016
 30
0.0
 10
86.2496880209723
 20
-123.1697428077492
 30
0.0
 10
86.28138289943661
 20
-123.0555378924132
 30
0.0
 10
86.28138289943661
 20
-123.0555378924132
 30
0.0
 10
86.43727347014416
 20
-123.0555378924132
 30
0.0
 10
86.43727347014416
 20
-123.0555378924132
 30
0.0
 10
86.43727347014416
 20
-123.0555378924132
 30
0.0
 10
86.43727347014416
 20
-124.5998019436764
 30
0.0
 10
86.43727347014416
 20
-124.5998019436764
 30
0.0
 10
86.43727347014416
 20
-124.5998019436764
 30
0.0
 10
86.19766707914503
 20
-124.5998019436764
 30
0.0
 10
86.19766707914503
 20
-124.5998019436764
 30
0.0
  0
HATCH
  5
9D
330
98
100
AcDbEntity
  8
_U+30EC_U+30A4_U+30E4_U+30FC 1
 62
     7
420
 16777215
100
AcDbHatch
 10
0.0
 20
0.0
 30
0.0
210
0.0
220
0.0
230
1.0
  2
SOLID
 70
     1
 71
     0
 91
        1
 92
        1
 93
        1
 72
     4
 94
        3
 73
     0
 74
     1
 95
       26
 96
       22
 40
0.0
 40
0.0
 40
0.0
 40
0.0
 40
1.0
 40
1.0
 40
1.0
 40
2.0
 40
2.0
 40
2.0
 40
3.0
 40
3.0
 40
3.0
 40
4.0
 40
4.0
 40
4.0
 40
5.0
 40
5.0
 40
5.0
 40
6.0
 40
6.0
 40
6.0
 40
7.0
 40
7.0
 40
7.0
 40
7.0
 10
86.19766707914503
 20
-124.5998019436764
 10
86.19766707914503
 20
-124.5998019436764
 10
86.19766707914503
 20
-123.4954765858796
 10
86.19766707914503
 20
-123.4954765858796
 10
86.19766707914503
 20
-123.4954765858796
 10
85.84488930145545
 20
-123.4954765858796
 10
85.84488930145545
 20
-123.4954765858796
 10
85.84488930145545
 20
-123.4954765858796
 10
85.84488930145545
 20
-123.3475097347881
 10
85.84488930145545
 20
-123.3475097347881
 10
86.19990639121045
 20
-123.3326958242016
 10
86.2496880209723
 20
-123.1697428077492
 10
86.28138289943661
 20
-123.0555378924132
 10
86.28138289943661
 20
-123.0555378924132
 10
86.43727347014416
 20
-123.0555378924132
 10
86.43727347014416
 20
-123.0555378924132
 10
86.43727347014416
 20
-123.0555378924132
 10
86.43727347014416
 20
-124.5998019436764
 10
86.43727347014416
 20
-124.5998019436764
 10
86.43727347014416
 20
-124.5998019436764
 10
86.19766707914503
 20
-124.5998019436764
 10
86.19766707914503
 20
-124.5998019436764
 97
        0
 97
        0
 75
     2
 76
     1
 98
        0
  0
ENDBLK
  5
9B
330
98
100
AcDbEntity
  8
0
100
AcDbBlockEnd
  0
BLOCK
  5
B1
330
AF
100
AcDbEntity
  8
0
100
AcDbBlockBegin
  2
block 4
 70
     0
 10
0.0
 20
0.0
 30
0.0
  3
block 4
  1

  0
POLYLINE
  5
B3
330
AF
100
AcDbEntity
  8
_U+30EC_U+30A4_U+30E4_U+30FC 1
370
     0
100
AcDb2dPolyline
 66
     1
 10
0.0
 20
0.0
 30
0.0
  0
VERTEX
  5
B4
330
B3
100
AcDbEntity
  8
_U+30EC_U+30A4_U+30E4_U+30FC 1
370
     0
100
AcDbVertex
100
AcDb2dVertex
 10
104.9696478687229
 20
-132.866653070082
 30
0.0
  0
VERTEX
  5
B5
330
B3
100
AcDbEntity
  8
_U+30EC_U+30A4_U+30E4_U+30FC 1
370
     0
100
AcDbVertex
100
AcDb2dVertex
 10
105.3165689840875
 20
-132.866653070082
 30
0.0
  0
VERTEX
  5
B6
330
B3
100
AcDbEntity
  8
_U+30EC_U+30A4_U+30E4_U+30FC 1
370
     0
100
AcDbVertex
100
AcDb2dVertex
 10
105.3165689840875
 20
-133.0995415248848
 30
0.0
  0
VERTEX
  5
B7
330
B3
100
AcDbEntity
  8
_U+30EC_U+30A4_U+30E4_U+30FC 1
370
     0
100
AcDbVertex
100
AcDb2dVertex
 10
104.9696478687229
 20
-133.0995415248848
 30
0.0
  0
VERTEX
  5
B8
330
B3
100
AcDbEntity
  8
_U+30EC_U+30A4_U+30E4_U+30FC 1
370
     0
100
AcDbVertex
100
AcDb2dVertex
 10
104.9696478687229
 20
-133.8006184561332
 30
0.0
  0
VERTEX
  5
B9
330
B3
100
AcDbEntity
  8
_U+30EC_U+30A4_U+30E4_U+30FC 1
370
     0
100
AcDbVertex
100
AcDb2dVertex
 10
104.7453721526331
 20
-133.8006184561332
 30
0.0
  0
VERTEX
  5
BA
330
B3
100
AcDbEntity
  8
_U+30EC_U+30A4_U+30E4_U+30FC 1
370
     0
100
AcDbVertex
100
AcDb2dVertex
 10
103.77213267805
 20
-133.074736837391
 30
0.0
  0
VERTEX
  5
BB
330
B3
100
AcDbEntity
  8
_U+30EC_U+30A4_U+30E4_U+30FC 1
370
     0
100
AcDbVertex
100
AcDb2dVertex
 10
103.77213267805
 20
-132.866653070082
 30
0.0
  0
VERTEX
  5
BC
330
B3
100
AcDbEntity
  8
_U+30EC_U+30A4_U+30E4_U+30FC 1
370
     0
100
AcDbVertex
100
AcDb2dVertex
 10
104.770865859224
 20
-132.866653070082
 30
0.0
  0
VERTEX
  5
BD
330
B3
100
AcDbEntity
  8
_U+30EC_U+30A4_U+30E4_U+30FC 1
370
     0
100
AcDbVertex
100
AcDb2dVertex
 10
104.770865859224
 20
-132.6451334303804
 30
0.0
  0
VERTEX
  5
BE
330
B3
100
AcDbEntity
  8
_U+30EC_U+30A4_U+30E4_U+30FC 1
370
     0
100
AcDbVertex
100
AcDb2dVertex
 10
104.9696478687229
 20
-132.6451334303804
 30
0.0
  0
VERTEX
  5
BF
330
B3
100
AcDbEntity
  8
_U+30EC_U+30A4_U+30E4_U+30FC 1
370
     0
100
AcDbVertex
100
AcDb2dVertex
 10
104.9696478687229
 20
-132.866653070082
 30
0.0
  0
SEQEND
  5
C0
330
B3
100
AcDbEntity
  8
_U+30EC_U+30A4_U+30E4_U+30FC 1
370
     0
  0
POLYLINE
  5
C1
330
AF
100
AcDbEntity
  8
_U+30EC_U+30A4_U+30E4_U+30FC 1
370
     0
100
AcDb2dPolyline
 66
     1
 10
0.0
 20
0.0
 30
0.0
  0
VERTEX
  5
C2
330
C1
100
AcDbEntity
  8
_U+30EC_U+30A4_U+30E4_U+30FC 1
370
     0
100
AcDbVertex
100
AcDb2dVertex
 10
104.1149196788324
 20
-133.0995415248848
 30
0.0
  0
VERTEX
  5
C3
330
C1
100
AcDbEntity
  8
_U+30EC_U+30A4_U+30E4_U+30FC 1
370
     0
100
AcDbVertex
100
AcDb2dVertex
 10
104.770865859224
 20
-133.5880560646933
 30
0.0
  0
VERTEX
  5
C4
330
C1
100
AcDbEntity
  8
_U+30EC_U+30A4_U+30E4_U+30FC 1
370
     0
100
AcDbVertex
100
AcDb2dVertex
 10
104.770865859224
 20
-133.0995415248848
 30
0.0
  0
VERTEX
  5
C5
330
C1
100
AcDbEntity
  8
_U+30EC_U+30A4_U+30E4_U+30FC 1
370
     0
100
AcDbVertex
100
AcDb2dVertex
 10
104.1149196788324
 20
-133.0995415248848
 30
0.0
  0
SEQEND
  5
C6
330
C1
100
AcDbEntity
  8
_U+30EC_U+30A4_U+30E4_U+30FC 1
370
     0
  0
HATCH
  5
C7
330
AF
100
AcDbEntity
  8
_U+30EC_U+30A4_U+30E4_U+30FC 1
 62
     7
420
 16777215
100
AcDbHatch
 10
0.0
 20
0.0
 30
0.0
210
0.0
220
0.0
230
1.0
  2
SOLID
 70
     1
 71
     0
 91
        2
 92
        1
 93
       11
 72
     1
 10
104.9696478687229
 20
-132.866653070082
 11
105.3165689840875
 21
-132.866653070082
 72
     1
 10
105.3165689840875
 20
-132.866653070082
 11
105.3165689840875
 21
-133.0995415248848
 72
     1
 10
105.3165689840875
 20
-133.0995415248848
 11
104.9696478687229
 21
-133.0995415248848
 72
     1
 10
104.9696478687229
 20
-133.0995415248848
 11
104.9696478687229
 21
-133.8006184561332
 72
     1
 10
104.9696478687229
 20
-133.8006184561332
 11
104.7453721526331
 21
-133.8006184561332
 72
     1
 10
104.7453721526331
 20
-133.8006184561332
 11
103.77213267805
 21
-133.074736837391
 72
     1
 10
103.77213267805
 20
-133.074736837391
 11
103.77213267805
 21
-132.866653070082
 72
     1
 10
103.77213267805
 20
-132.866653070082
 11
104.770865859224
 21
-132.866653070082
 72
     1
 10
104.770865859224
 20
-132.866653070082
 11
104.770865859224
 21
-132.6451334303804
 72
     1
 10
104.770865859224
 20
-132.6451334303804
 11
104.9696478687229
 21
-132.6451334303804
 72
     1
 10
104.9696478687229
 20
-132.6451334303804
 11
104.9696478687229
 21
-132.866653070082
 97
        0
 92
        1
 93
        3
 72
     1
 10
104.1149196788324
 20
-133.0995415248848
 11
104.770865859224
 21
-133.5880560646933
 72
     1
 10
104.770865859224
 20
-133.5880560646933
 11
104.770865859224
 21
-133.0995415248848
 72
     1
 10
104.770865859224
 20
-133.0995415248848
 11
104.1149196788324
 21
-133.0995415248848
 97
        0
 75
     2
 76
     1
 98
        0
  0
POLYLINE
  5
C8
330
AF
100
AcDbEntity
  8
_U+30EC_U+30A4_U+30E4_U+30FC 1
370
     0
100
AcDb2dPolyline
 66
     1
 10
0.0
 20
0.0
 30
0.0
  0
VERTEX
  5
C9
330
C8
100
AcDbEntity
  8
_U+30EC_U+30A4_U+30E4_U+30FC 1
370
     0
100
AcDbVertex
100
AcDb2dVertex
 10
105.3165689840875
 20
-132.4342935866831
 30
0.0
  0
VERTEX
  5
CA
330
C8
100
AcDbEntity
  8
_U+30EC_U+30A4_U+30E4_U+30FC 1
370
     0
100
AcDbVertex
100
AcDb2dVertex
 10
105.0647325041158
 20
-132.4342935866831
 30
0.0
  0
VERTEX
  5
CB
330
C8
100
AcDbEntity
  8
_U+30EC_U+30A4_U+30E4_U+30FC 1
370
     0
100
AcDbVertex
100
AcDb2dVertex
 10
105.0647325041158
 20
-132.1652316292851
 30
0.0
  0
VERTEX
  5
CC
330
C8
100
AcDbEntity
  8
_U+30EC_U+30A4_U+30E4_U+30FC 1
370
     0
100
AcDbVertex
100
AcDb2dVertex
 10
105.3165689840875
 20
-132.1652316292851
 30
0.0
  0
VERTEX
  5
CD
330
C8
100
AcDbEntity
  8
_U+30EC_U+30A4_U+30E4_U+30FC 1
370
     0
100
AcDbVertex
100
AcDb2dVertex
 10
105.3165689840875
 20
-132.4342935866831
 30
0.0
  0
SEQEND
  5
CE
330
C8
100
AcDbEntity
  8
_U+30EC_U+30A4_U+30E4_U+30FC 1
370
     0
  0
HATCH
  5
CF
330
AF
100
AcDbEntity
  8
_U+30EC_U+30A4_U+30E4_U+30FC 1
 62
     7
420
 16777215
100
AcDbHatch
 10
0.0
 20
0.0
 30
0.0
210
0.0
220
0.0
230
1.0
  2
SOLID
 70
     1
 71
     0
 91
        1
 92
        1
 93
        4
 72
     1
 10
105.3165689840875
 20
-132.4342935866831
 11
105.0647325041158
 21
-132.4342935866831
 72
     1
 10
105.0647325041158
 20
-132.4342935866831
 11
105.0647325041158
 21
-132.1652316292851
 72
     1
 10
105.0647325041158
 20
-132.1652316292851
 11
105.3165689840875
 21
-132.1652316292851
 72
     1
 10
105.3165689840875
 20
-132.1652316292851
 11
105.3165689840875
 21
-132.4342935866831
 97
        0
 75
     2
 76
     1
 98
        0
  0
SPLINE
  5
D0
330
AF
100
AcDbEntity
  8
_U+30EC_U+30A4_U+30E4_U+30FC 1
370
     0
100
AcDbSpline
210
0.0
220
0.0
230
1.0
 70
    11
 71
     3
 72
    53
 73
    49
 74
     0
 42
0.0000000001
 43
0.0000000001
 12
1.0
 22
0.0
 32
0.0
 13
1.0
 23
0.0
 33
0.0
 40
0.0
 40
0.0
 40
0.0
 40
0.0
 40
1.0
 40
1.0
 40
1.0
 40
2.0
 40
2.0
 40
2.0
 40
3.0
 40
3.0
 40
3.0
 40
4.0
 40
4.0
 40
4.0
 40
5.0
 40
5.0
 40
5.0
 40
6.0
 40
6.0
 40
6.0
 40
7.0
 40
7.0
 40
7.0
 40
8.0
 40
8.0
 40
8.0
 40
9.0
 40
9.0
 40
9.0
 40
10.0
 40
10.0
 40
10.0
 40
11.0
 40
11.0
 40
11.0
 40
12.0
 40
12.0
 40
12.0
 40
13.0
 40
13.0
 40
13.0
 40
14.0
 40
14.0
 40
14.0
 40
15.0
 40
15.0
 40
15.0
 40
16.0
 40
16.0
 40
16.0
 40
16.0
 10
105.3672118877207
 20
-131.3983533742685
 30
0.0
 10
105.3672118877207
 20
-131.48206919456
 30
0.0
 10
105.350330919843
 20
-131.5902451927969
 30
0.0
 10
105.2869411629144
 20
-131.6991102101308
 30
0.0
 10
105.1770426169349
 20
-131.8844563472372
 30
0.0
 10
105.0457844789469
 20
-131.9068494678914
 30
0.0
 10
104.9379529902586
 20
-131.9271755312543
 30
0.0
 10
104.9379529902586
 20
-131.9271755312543
 30
0.0
 10
104.9379529902586
 20
-131.6898084523206
 30
0.0
 10
104.9379529902586
 20
-131.6898084523206
 30
0.0
 10
105.1367349997575
 20
-131.6312418290714
 30
0.0
 10
105.1663628209306
 20
-131.4955050669525
 30
0.0
 10
105.1663628209306
 20
-131.3959418074288
 30
0.0
 10
105.1663628209306
 20
-131.2467691729175
 30
0.0
 10
105.0667995614069
 20
-131.0838161564652
 30
0.0
 10
104.8342556161525
 20
-131.0838161564652
 30
0.0
 10
104.5782850215985
 20
-131.0838161564652
 30
0.0
 10
104.5083495832479
 20
-131.2760524845421
 30
0.0
 10
104.5083495832479
 20
-131.4048990556904
 30
0.0
 10
104.5083495832479
 20
-131.4390055009944
 30
0.0
 10
104.5083495832479
 20
-131.5902451927969
 30
0.0
 10
104.6375406639448
 20
-131.6853298281898
 30
0.0
 10
104.6375406639448
 20
-131.6853298281898
 30
0.0
 10
104.6185926387759
 20
-131.8730875321359
 30
0.0
 10
104.6185926387759
 20
-131.8730875321359
 30
0.0
 10
104.6185926387759
 20
-131.8730875321359
 30
0.0
 10
103.77213267805
 20
-131.7442409609876
 30
0.0
 10
103.77213267805
 20
-131.7442409609876
 30
0.0
 10
103.77213267805
 20
-131.7442409609876
 30
0.0
 10
103.77213267805
 20
-130.9122504012997
 30
0.0
 10
103.77213267805
 20
-130.9122504012997
 30
0.0
 10
103.77213267805
 20
-130.9122504012997
 30
0.0
 10
103.9667805729666
 20
-130.9122504012997
 30
0.0
 10
103.9667805729666
 20
-130.9122504012997
 30
0.0
 10
103.9667805729666
 20
-130.9122504012997
 30
0.0
 10
103.9667805729666
 20
-131.5699191294339
 30
0.0
 10
103.9667805729666
 20
-131.5699191294339
 30
0.0
 10
103.9667805729666
 20
-131.5699191294339
 30
0.0
 10
104.3898382985553
 20
-131.640199077333
 30
0.0
 10
104.3898382985553
 20
-131.640199077333
 30
0.0
 10
104.3560763627999
 20
-131.5747422631133
 30
0.0
 10
104.3157687456224
 20
-131.4865478186909
 30
0.0
 10
104.3157687456224
 20
-131.3597683048337
 30
0.0
 10
104.3157687456224
 20
-131.0886392901445
 30
0.0
 10
104.5021484113745
 20
-130.8354247719786
 30
0.0
 10
104.8153075909837
 20
-130.8354247719786
 30
0.0
 10
105.1326008851752
 20
-130.8354247719786
 30
0.0
 10
105.3672118877207
 20
-131.0748589082035
 30
0.0
 10
105.3672118877207
 20
-131.3983533742685
 30
0.0
  0
HATCH
  5
D1
330
AF
100
AcDbEntity
  8
_U+30EC_U+30A4_U+30E4_U+30FC 1
 62
     7
420
 16777215
100
AcDbHatch
 10
0.0
 20
0.0
 30
0.0
210
0.0
220
0.0
230
1.0
  2
SOLID
 70
     1
 71
     0
 91
        1
 92
        1
 93
        1
 72
     4
 94
        3
 73
     0
 74
     1
 95
       53
 96
       49
 40
0.0
 40
0.0
 40
0.0
 40
0.0
 40
1.0
 40
1.0
 40
1.0
 40
2.0
 40
2.0
 40
2.0
 40
3.0
 40
3.0
 40
3.0
 40
4.0
 40
4.0
 40
4.0
 40
5.0
 40
5.0
 40
5.0
 40
6.0
 40
6.0
 40
6.0
 40
7.0
 40
7.0
 40
7.0
 40
8.0
 40
8.0
 40
8.0
 40
9.0
 40
9.0
 40
9.0
 40
10.0
 40
10.0
 40
10.0
 40
11.0
 40
11.0
 40
11.0
 40
12.0
 40
12.0
 40
12.0
 40
13.0
 40
13.0
 40
13.0
 40
14.0
 40
14.0
 40
14.0
 40
15.0
 40
15.0
 40
15.0
 40
16.0
 40
16.0
 40
16.0
 40
16.0
 10
105.3672118877207
 20
-131.3983533742685
 10
105.3672118877207
 20
-131.48206919456
 10
105.350330919843
 20
-131.5902451927969
 10
105.2869411629144
 20
-131.6991102101308
 10
105.1770426169349
 20
-131.8844563472372
 10
105.0457844789469
 20
-131.9068494678914
 10
104.9379529902586
 20
-131.9271755312543
 10
104.9379529902586
 20
-131.9271755312543
 10
104.9379529902586
 20
-131.6898084523206
 10
104.9379529902586
 20
-131.6898084523206
 10
105.1367349997575
 20
-131.6312418290714
 10
105.1663628209306
 20
-131.4955050669525
 10
105.1663628209306
 20
-131.3959418074288
 10
105.1663628209306
 20
-131.2467691729175
 10
105.0667995614069
 20
-131.0838161564652
 10
104.8342556161525
 20
-131.0838161564652
 10
104.5782850215985
 20
-131.0838161564652
 10
104.5083495832479
 20
-131.2760524845421
 10
104.5083495832479
 20
-131.4048990556904
 10
104.5083495832479
 20
-131.4390055009944
 10
104.5083495832479
 20
-131.5902451927969
 10
104.6375406639448
 20
-131.6853298281898
 10
104.6375406639448
 20
-131.6853298281898
 10
104.6185926387759
 20
-131.8730875321359
 10
104.6185926387759
 20
-131.8730875321359
 10
104.6185926387759
 20
-131.8730875321359
 10
103.77213267805
 20
-131.7442409609876
 10
103.77213267805
 20
-131.7442409609876
 10
103.77213267805
 20
-131.7442409609876
 10
103.77213267805
 20
-130.9122504012997
 10
103.77213267805
 20
-130.9122504012997
 10
103.77213267805
 20
-130.9122504012997
 10
103.9667805729666
 20
-130.9122504012997
 10
103.9667805729666
 20
-130.9122504012997
 10
103.9667805729666
 20
-130.9122504012997
 10
103.9667805729666
 20
-131.5699191294339
 10
103.9667805729666
 20
-131.5699191294339
 10
103.9667805729666
 20
-131.5699191294339
 10
104.3898382985553
 20
-131.640199077333
 10
104.3898382985553
 20
-131.640199077333
 10
104.3560763627999
 20
-131.5747422631133
 10
104.3157687456224
 20
-131.4865478186909
 10
104.3157687456224
 20
-131.3597683048337
 10
104.3157687456224
 20
-131.0886392901445
 10
104.5021484113745
 20
-130.8354247719786
 10
104.8153075909837
 20
-130.8354247719786
 10
105.1326008851752
 20
-130.8354247719786
 10
105.3672118877207
 20
-131.0748589082035
 10
105.3672118877207
 20
-131.3983533742685
 97
        0
 97
        0
 75
     2
 76
     1
 98
        0
  0
ENDBLK
  5
B2
330
AF
100
AcDbEntity
  8
0
100
AcDbBlockEnd
  0
BLOCK
  5
DC
330
DA
100
AcDbEntity
  8
0
100
AcDbBlockBegin
  2
block 5
 70
     0
 10
0.0
 20
0.0
 30
0.0
  3
block 5
  1

  0
SPLINE
  5
DE
330
DA
100
AcDbEntity
  8
_U+30EC_U+30A4_U+30E4_U+30FC 1
370
     0
100
AcDbSpline
210
0.0
220
0.0
230
1.0
 70
    11
 71
     3
 72
    26
 73
    22
 74
     0
 42
0.0000000001
 43
0.0000000001
 12
1.0
 22
0.0
 32
0.0
 13
1.0
 23
0.0
 33
0.0
 40
0.0
 40
0.0
 40
0.0
 40
0.0
 40
1.0
 40
1.0
 40
1.0
 40
2.0
 40
2.0
 40
2.0
 40
3.0
 40
3.0
 40
3.0
 40
4.0
 40
4.0
 40
4.0
 40
5.0
 40
5.0
 40
5.0
 40
6.0
 40
6.0
 40
6.0
 40
7.0
 40
7.0
 40
7.0
 40
7.0
 10
101.613780356541
 20
-126.1015190656968
 30
0.0
 10
101.613780356541
 20
-126.1015190656968
 30
0.0
 10
101.613780356541
 20
-126.3547335838627
 30
0.0
 10
101.613780356541
 20
-126.3547335838627
 30
0.0
 10
101.3047552915141
 20
-126.3276895843035
 30
0.0
 10
100.7866129305325
 20
-126.1220173838341
 30
0.0
 10
100.2808729132978
 20
-125.6879353526926
 30
0.0
 10
100.2808729132978
 20
-125.6879353526926
 30
0.0
 10
100.2808729132978
 20
-126.5831434145348
 30
0.0
 10
100.2808729132978
 20
-126.5831434145348
 30
0.0
 10
100.2808729132978
 20
-126.5831434145348
 30
0.0
 10
100.0693440505035
 20
-126.5831434145348
 30
0.0
 10
100.0693440505035
 20
-126.5831434145348
 30
0.0
 10
100.0693440505035
 20
-126.5831434145348
 30
0.0
 10
100.0693440505035
 20
-125.4347208345267
 30
0.0
 10
100.0693440505035
 20
-125.4347208345267
 30
0.0
 10
100.0693440505035
 20
-125.4347208345267
 30
0.0
 10
100.2808729132978
 20
-125.4347208345267
 30
0.0
 10
100.2808729132978
 20
-125.4347208345267
 30
0.0
 10
100.5709499531559
 20
-125.7806084212458
 30
0.0
 10
101.1631618670703
 20
-126.0653455631017
 30
0.0
 10
101.613780356541
 20
-126.1015190656968
 30
0.0
  0
HATCH
  5
DF
330
DA
100
AcDbEntity
  8
_U+30EC_U+30A4_U+30E4_U+30FC 1
 62
     7
420
 16777215
100
AcDbHatch
 10
0.0
 20
0.0
 30
0.0
210
0.0
220
0.0
230
1.0
  2
SOLID
 70
     1
 71
     0
 91
        1
 92
        1
 93
        1
 72
     4
 94
        3
 73
     0
 74
     1
 95
       26
 96
       22
 40
0.0
 40
0.0
 40
0.0
 40
0.0
 40
1.0
 40
1.0
 40
1.0
 40
2.0
 40
2.0
 40
2.0
 40
3.0
 40
3.0
 40
3.0
 40
4.0
 40
4.0
 40
4.0
 40
5.0
 40
5.0
 40
5.0
 40
6.0
 40
6.0
 40
6.0
 40
7.0
 40
7.0
 40
7.0
 40
7.0
 10
101.613780356541
 20
-126.1015190656968
 10
101.613780356541
 20
-126.1015190656968
 10
101.613780356541
 20
-126.3547335838627
 10
101.613780356541
 20
-126.3547335838627
 10
101.3047552915141
 20
-126.3276895843035
 10
100.7866129305325
 20
-126.1220173838341
 10
100.2808729132978
 20
-125.6879353526926
 10
100.2808729132978
 20
-125.6879353526926
 10
100.2808729132978
 20
-126.5831434145348
 10
100.2808729132978
 20
-126.5831434145348
 10
100.2808729132978
 20
-126.5831434145348
 10
100.0693440505035
 20
-126.5831434145348
 10
100.0693440505035
 20
-126.5831434145348
 10
100.0693440505035
 20
-126.5831434145348
 10
100.0693440505035
 20
-125.4347208345267
 10
100.0693440505035
 20
-125.4347208345267
 10
100.0693440505035
 20
-125.4347208345267
 10
100.2808729132978
 20
-125.4347208345267
 10
100.2808729132978
 20
-125.4347208345267
 10
100.5709499531559
 20
-125.7806084212458
 10
101.1631618670703
 20
-126.0653455631017
 10
101.613780356541
 20
-126.1015190656968
 97
        0
 97
        0
 75
     2
 76
     1
 98
        0
  0
ENDBLK
  5
DD
330
DA
100
AcDbEntity
  8
0
100
AcDbBlockEnd
  0
BLOCK
  5
EE
330
EC
100
AcDbEntity
  8
0
100
AcDbBlockBegin
  2
block 6
 70
     0
 10
0.0
 20
0.0
 30
0.0
  3
block 6
  1

  0
SPLINE
  5
F0
330
EC
100
AcDbEntity
  8
_U+30EC_U+30A4_U+30E4_U+30FC 1
370
     0
100
AcDbSpline
210
0.0
220
0.0
230
1.0
 70
    11
 71
     3
 72
    26
 73
    22
 74
     0
 42
0.0000000001
 43
0.0000000001
 12
1.0
 22
0.0
 32
0.0
 13
1.0
 23
0.0
 33
0.0
 40
0.0
 40
0.0
 40
0.0
 40
0.0
 40
1.0
 40
1.0
 40
1.0
 40
2.0
 40
2.0
 40
2.0
 40
3.0
 40
3.0
 40
3.0
 40
4.0
 40
4.0
 40
4.0
 40
5.0
 40
5.0
 40
5.0
 40
6.0
 40
6.0
 40
6.0
 40
7.0
 40
7.0
 40
7.0
 40
7.0
 10
77.61180011080539
 20
-130.4023762694827
 30
0.0
 10
77.61180011080539
 20
-130.4023762694827
 30
0.0
 10
76.50747475300855
 20
-130.4023762694827
 30
0.0
 10
76.50747475300855
 20
-130.4023762694827
 30
0.0
 10
76.50747475300855
 20
-130.4023762694827
 30
0.0
 10
76.50747475300855
 20
-130.7551540471723
 30
0.0
 10
76.50747475300855
 20
-130.7551540471723
 30
0.0
 10
76.50747475300855
 20
-130.7551540471723
 30
0.0
 10
76.35933564714281
 20
-130.7551540471723
 30
0.0
 10
76.35933564714281
 20
-130.7551540471723
 30
0.0
 10
76.3446939913305
 20
-130.3999647026431
 30
0.0
 10
76.18174097487818
 20
-130.3503553276555
 30
0.0
 10
76.06753605954215
 20
-130.3186604491912
 30
0.0
 10
76.06753605954215
 20
-130.3186604491912
 30
0.0
 10
76.06753605954215
 20
-130.1625976237094
 30
0.0
 10
76.06753605954215
 20
-130.1625976237094
 30
0.0
 10
76.06753605954215
 20
-130.1625976237094
 30
0.0
 10
77.61180011080539
 20
-130.1625976237094
 30
0.0
 10
77.61180011080539
 20
-130.1625976237094
 30
0.0
 10
77.61180011080539
 20
-130.1625976237094
 30
0.0
 10
77.61180011080539
 20
-130.4023762694827
 30
0.0
 10
77.61180011080539
 20
-130.4023762694827
 30
0.0
  0
HATCH
  5
F1
330
EC
100
AcDbEntity
  8
_U+30EC_U+30A4_U+30E4_U+30FC 1
 62
     7
420
 16777215
100
AcDbHatch
 10
0.0
 20
0.0
 30
0.0
210
0.0
220
0.0
230
1.0
  2
SOLID
 70
     1
 71
     0
 91
        1
 92
        1
 93
        1
 72
     4
 94
        3
 73
     0
 74
     1
 95
       26
 96
       22
 40
0.0
 40
0.0
 40
0.0
 40
0.0
 40
1.0
 40
1.0
 40
1.0
 40
2.0
 40
2.0
 40
2.0
 40
3.0
 40
3.0
 40
3.0
 40
4.0
 40
4.0
 40
4.0
 40
5.0
 40
5.0
 40
5.0
 40
6.0
 40
6.0
 40
6.0
 40
7.0
 40
7.0
 40
7.0
 40
7.0
 10
77.61180011080539
 20
-130.4023762694827
 10
77.61180011080539
 20
-130.4023762694827
 10
76.50747475300855
 20
-130.4023762694827
 10
76.50747475300855
 20
-130.4023762694827
 10
76.50747475300855
 20
-130.4023762694827
 10
76.50747475300855
 20
-130.7551540471723
 10
76.50747475300855
 20
-130.7551540471723
 10
76.50747475300855
 20
-130.7551540471723
 10
76.35933564714281
 20
-130.7551540471723
 10
76.35933564714281
 20
-130.7551540471723
 10
76.3446939913305
 20
-130.3999647026431
 10
76.18174097487818
 20
-130.3503553276555
 10
76.06753605954215
 20
-130.3186604491912
 10
76.06753605954215
 20
-130.3186604491912
 10
76.06753605954215
 20
-130.1625976237094
 10
76.06753605954215
 20
-130.1625976237094
 10
76.06753605954215
 20
-130.1625976237094
 10
77.61180011080539
 20
-130.1625976237094
 10
77.61180011080539
 20
-130.1625976237094
 10
77.61180011080539
 20
-130.1625976237094
 10
77.61180011080539
 20
-130.4023762694827
 10
77.61180011080539
 20
-130.4023762694827
 97
        0
 97
        0
 75
     2
 76
     1
 98
        0
  0
SPLINE
  5
F2
330
EC
100
AcDbEntity
  8
_U+30EC_U+30A4_U+30E4_U+30FC 1
370
     0
100
AcDbSpline
210
0.0
220
0.0
230
1.0
 70
    11
 71
     3
 72
    62
 73
    58
 74
     0
 42
0.0000000001
 43
0.0000000001
 12
1.0
 22
0.0
 32
0.0
 13
1.0
 23
0.0
 33
0.0
 40
0.0
 40
0.0
 40
0.0
 40
0.0
 40
1.0
 40
1.0
 40
1.0
 40
2.0
 40
2.0
 40
2.0
 40
3.0
 40
3.0
 40
3.0
 40
4.0
 40
4.0
 40
4.0
 40
5.0
 40
5.0
 40
5.0
 40
6.0
 40
6.0
 40
6.0
 40
7.0
 40
7.0
 40
7.0
 40
8.0
 40
8.0
 40
8.0
 40
9.0
 40
9.0
 40
9.0
 40
10.0
 40
10.0
 40
10.0
 40
11.0
 40
11.0
 40
11.0
 40
12.0
 40
12.0
 40
12.0
 40
13.0
 40
13.0
 40
13.0
 40
14.0
 40
14.0
 40
14.0
 40
15.0
 40
15.0
 40
15.0
 40
16.0
 40
16.0
 40
16.0
 40
17.0
 40
17.0
 40
17.0
 40
18.0
 40
18.0
 40
18.0
 40
19.0
 40
19.0
 40
19.0
 40
19.0
 10
77.66261526921282
 20
-129.1015082142524
 30
0.0
 10
77.66261526921282
 20
-129.2031385310673
 30
0.0
 10
77.64142793197854
 20
-129.4360269858702
 30
0.0
 10
77.45522052100078
 20
-129.5696966906979
 30
0.0
 10
77.3430826629559
 20
-129.6485893773101
 30
0.0
 10
77.24369165820644
 20
-129.6530680014409
 30
0.0
 10
77.15911456404356
 20
-129.6575466255717
 30
0.0
 10
77.15911456404356
 20
-129.6575466255717
 30
0.0
 10
77.15911456404356
 20
-129.4225911134777
 30
0.0
 10
77.15911456404356
 20
-129.4225911134777
 30
0.0
 10
77.23318411697643
 20
-129.420179546638
 30
0.0
 10
77.46796737429621
 20
-129.4091552410852
 30
0.0
 10
77.46796737429621
 20
-129.1059868383832
 30
0.0
 10
77.46796737429621
 20
-128.9592257707116
 30
0.0
 10
77.3982041907199
 20
-128.7962727542593
 30
0.0
 10
77.16962210527358
 20
-128.7962727542593
 30
0.0
 10
77.05335013264639
 20
-128.7962727542593
 30
0.0
 10
77.0046020315301
 20
-128.8369248809852
 30
0.0
 10
76.9729071530658
 20
-128.8710313262892
 30
0.0
 10
76.89883760013294
 20
-128.9499240129014
 30
0.0
 10
76.88626300161177
 20
-129.0742919599189
 30
0.0
 10
76.88626300161177
 20
-129.1332030927167
 30
0.0
 10
76.88626300161177
 20
-129.1535291560797
 30
0.0
 10
76.88833005890292
 20
-129.1921142255145
 30
0.0
 10
76.89246417348522
 20
-129.2213975371391
 30
0.0
 10
76.89246417348522
 20
-129.2213975371391
 30
0.0
 10
76.69798853334287
 20
-129.2213975371391
 30
0.0
 10
76.69798853334287
 20
-129.2213975371391
 30
0.0
 10
76.70418970521632
 20
-129.1807454104132
 30
0.0
 10
76.70642901728174
 20
-129.1356146595564
 30
0.0
 10
76.70642901728174
 20
-129.1287244685859
 30
0.0
 10
76.70642901728174
 20
-129.0584445206868
 30
0.0
 10
76.68524168004744
 20
-128.8462266387954
 30
0.0
 10
76.44821911066225
 20
-128.8462266387954
 30
0.0
 10
76.27062443839762
 20
-128.8462266387954
 30
0.0
 10
76.21550291063363
 20
-128.9860975154965
 30
0.0
 10
76.21550291063363
 20
-129.1039197810921
 30
0.0
 10
76.21550291063363
 20
-129.3864176108826
 30
0.0
 10
76.44821911066225
 20
-129.3953748591442
 30
0.0
 10
76.52022160630398
 20
-129.3998534832751
 30
0.0
 10
76.52022160630398
 20
-129.3998534832751
 30
0.0
 10
76.52022160630398
 20
-129.6168944988458
 30
0.0
 10
76.52022160630398
 20
-129.6168944988458
 30
0.0
 10
76.39533689496366
 20
-129.6079372505841
 30
0.0
 10
76.01878795842586
 20
-129.5786539389595
 30
0.0
 10
76.01878795842586
 20
-129.0901393991511
 30
0.0
 10
76.01878795842586
 20
-128.8507052629262
 30
0.0
 10
76.14573972705732
 20
-128.5928398658553
 30
0.0
 10
76.44184568401454
 20
-128.5928398658553
 30
0.0
 10
76.6280530949923
 20
-128.5928398658553
 30
0.0
 10
76.71056313186403
 20
-128.6944701826701
 30
0.0
 10
76.77188583150148
 20
-128.8007513783901
 30
0.0
 10
76.79944659538347
 20
-128.7352945641703
 30
0.0
 10
76.87988957496405
 20
-128.540818924028
 30
0.0
 10
77.1570475067524
 20
-128.540818924028
 30
0.0
 10
77.4955281381782
 20
-128.540818924028
 30
0.0
 10
77.66261526921282
 20
-128.8052300025209
 30
0.0
 10
77.66261526921282
 20
-129.1015082142524
 30
0.0
  0
HATCH
  5
F3
330
EC
100
AcDbEntity
  8
_U+30EC_U+30A4_U+30E4_U+30FC 1
 62
     7
420
 16777215
100
AcDbHatch
 10
0.0
 20
0.0
 30
0.0
210
0.0
220
0.0
230
1.0
  2
SOLID
 70
     1
 71
     0
 91
        1
 92
        1
 93
        1
 72
     4
 94
        3
 73
     0
 74
     1
 95
       62
 96
       58
 40
0.0
 40
0.0
 40
0.0
 40
0.0
 40
1.0
 40
1.0
 40
1.0
 40
2.0
 40
2.0
 40
2.0
 40
3.0
 40
3.0
 40
3.0
 40
4.0
 40
4.0
 40
4.0
 40
5.0
 40
5.0
 40
5.0
 40
6.0
 40
6.0
 40
6.0
 40
7.0
 40
7.0
 40
7.0
 40
8.0
 40
8.0
 40
8.0
 40
9.0
 40
9.0
 40
9.0
 40
10.0
 40
10.0
 40
10.0
 40
11.0
 40
11.0
 40
11.0
 40
12.0
 40
12.0
 40
12.0
 40
13.0
 40
13.0
 40
13.0
 40
14.0
 40
14.0
 40
14.0
 40
15.0
 40
15.0
 40
15.0
 40
16.0
 40
16.0
 40
16.0
 40
17.0
 40
17.0
 40
17.0
 40
18.0
 40
18.0
 40
18.0
 40
19.0
 40
19.0
 40
19.0
 40
19.0
 10
77.66261526921282
 20
-129.1015082142524
 10
77.66261526921282
 20
-129.2031385310673
 10
77.64142793197854
 20
-129.4360269858702
 10
77.45522052100078
 20
-129.5696966906979
 10
77.3430826629559
 20
-129.6485893773101
 10
77.24369165820644
 20
-129.6530680014409
 10
77.15911456404356
 20
-129.6575466255717
 10
77.15911456404356
 20
-129.6575466255717
 10
77.15911456404356
 20
-129.4225911134777
 10
77.15911456404356
 20
-129.4225911134777
 10
77.23318411697643
 20
-129.420179546638
 10
77.46796737429621
 20
-129.4091552410852
 10
77.46796737429621
 20
-129.1059868383832
 10
77.46796737429621
 20
-128.9592257707116
 10
77.3982041907199
 20
-128.7962727542593
 10
77.16962210527358
 20
-128.7962727542593
 10
77.05335013264639
 20
-128.7962727542593
 10
77.0046020315301
 20
-128.8369248809852
 10
76.9729071530658
 20
-128.8710313262892
 10
76.89883760013294
 20
-128.9499240129014
 10
76.88626300161177
 20
-129.0742919599189
 10
76.88626300161177
 20
-129.1332030927167
 10
76.88626300161177
 20
-129.1535291560797
 10
76.88833005890292
 20
-129.1921142255145
 10
76.89246417348522
 20
-129.2213975371391
 10
76.89246417348522
 20
-129.2213975371391
 10
76.69798853334287
 20
-129.2213975371391
 10
76.69798853334287
 20
-129.2213975371391
 10
76.70418970521632
 20
-129.1807454104132
 10
76.70642901728174
 20
-129.1356146595564
 10
76.70642901728174
 20
-129.1287244685859
 10
76.70642901728174
 20
-129.0584445206868
 10
76.68524168004744
 20
-128.8462266387954
 10
76.44821911066225
 20
-128.8462266387954
 10
76.27062443839762
 20
-128.8462266387954
 10
76.21550291063363
 20
-128.9860975154965
 10
76.21550291063363
 20
-129.1039197810921
 10
76.21550291063363
 20
-129.3864176108826
 10
76.44821911066225
 20
-129.3953748591442
 10
76.52022160630398
 20
-129.3998534832751
 10
76.52022160630398
 20
-129.3998534832751
 10
76.52022160630398
 20
-129.6168944988458
 10
76.52022160630398
 20
-129.6168944988458
 10
76.39533689496366
 20
-129.6079372505841
 10
76.01878795842586
 20
-129.5786539389595
 10
76.01878795842586
 20
-129.0901393991511
 10
76.01878795842586
 20
-128.8507052629262
 10
76.14573972705732
 20
-128.5928398658553
 10
76.44184568401454
 20
-128.5928398658553
 10
76.6280530949923
 20
-128.5928398658553
 10
76.71056313186403
 20
-128.6944701826701
 10
76.77188583150148
 20
-128.8007513783901
 10
76.79944659538347
 20
-128.7352945641703
 10
76.87988957496405
 20
-128.540818924028
 10
77.1570475067524
 20
-128.540818924028
 10
77.4955281381782
 20
-128.540818924028
 10
77.66261526921282
 20
-128.8052300025209
 10
77.66261526921282
 20
-129.1015082142524
 97
        0
 97
        0
 75
     2
 76
     1
 98
        0
  0
POLYLINE
  5
F4
330
EC
100
AcDbEntity
  8
_U+30EC_U+30A4_U+30E4_U+30FC 1
370
     0
100
AcDb2dPolyline
 66
     1
 10
0.0
 20
0.0
 30
0.0
  0
VERTEX
  5
F5
330
F4
100
AcDbEntity
  8
_U+30EC_U+30A4_U+30E4_U+30FC 1
370
     0
100
AcDbVertex
100
AcDb2dVertex
 10
77.61180011080539
 20
-128.3048298832884
 30
0.0
  0
VERTEX
  5
F6
330
F4
100
AcDbEntity
  8
_U+30EC_U+30A4_U+30E4_U+30FC 1
370
     0
100
AcDbVertex
100
AcDb2dVertex
 10
77.36013588560789
 20
-128.3048298832884
 30
0.0
  0
VERTEX
  5
F7
330
F4
100
AcDbEntity
  8
_U+30EC_U+30A4_U+30E4_U+30FC 1
370
     0
100
AcDbVertex
100
AcDb2dVertex
 10
77.36013588560789
 20
-128.0357679258904
 30
0.0
  0
VERTEX
  5
F8
330
F4
100
AcDbEntity
  8
_U+30EC_U+30A4_U+30E4_U+30FC 1
370
     0
100
AcDbVertex
100
AcDb2dVertex
 10
77.61180011080539
 20
-128.0357679258904
 30
0.0
  0
VERTEX
  5
F9
330
F4
100
AcDbEntity
  8
_U+30EC_U+30A4_U+30E4_U+30FC 1
370
     0
100
AcDbVertex
100
AcDb2dVertex
 10
77.61180011080539
 20
-128.3048298832884
 30
0.0
  0
SEQEND
  5
FA
330
F4
100
AcDbEntity
  8
_U+30EC_U+30A4_U+30E4_U+30FC 1
370
     0
  0
HATCH
  5
FB
330
EC
100
AcDbEntity
  8
_U+30EC_U+30A4_U+30E4_U+30FC 1
 62
     7
420
 16777215
100
AcDbHatch
 10
0.0
 20
0.0
 30
0.0
210
0.0
220
0.0
230
1.0
  2
SOLID
 70
     1
 71
     0
 91
        1
 92
        1
 93
        4
 72
     1
 10
77.61180011080539
 20
-128.3048298832884
 11
77.36013588560789
 21
-128.3048298832884
 72
     1
 10
77.36013588560789
 20
-128.3048298832884
 11
77.36013588560789
 21
-128.0357679258904
 72
     1
 10
77.36013588560789
 20
-128.0357679258904
 11
77.61180011080539
 21
-128.0357679258904
 72
     1
 10
77.61180011080539
 20
-128.0357679258904
 11
77.61180011080539
 21
-128.3048298832884
 97
        0
 75
     2
 76
     1
 98
        0
  0
SPLINE
  5
FC
330
EC
100
AcDbEntity
  8
_U+30EC_U+30A4_U+30E4_U+30FC 1
370
     0
100
AcDbSpline
210
0.0
220
0.0
230
1.0
 70
    11
 71
     3
 72
    53
 73
    49
 74
     0
 42
0.0000000001
 43
0.0000000001
 12
1.0
 22
0.0
 32
0.0
 13
1.0
 23
0.0
 33
0.0
 40
0.0
 40
0.0
 40
0.0
 40
0.0
 40
1.0
 40
1.0
 40
1.0
 40
2.0
 40
2.0
 40
2.0
 40
3.0
 40
3.0
 40
3.0
 40
4.0
 40
4.0
 40
4.0
 40
5.0
 40
5.0
 40
5.0
 40
6.0
 40
6.0
 40
6.0
 40
7.0
 40
7.0
 40
7.0
 40
8.0
 40
8.0
 40
8.0
 40
9.0
 40
9.0
 40
9.0
 40
10.0
 40
10.0
 40
10.0
 40
11.0
 40
11.0
 40
11.0
 40
12.0
 40
12.0
 40
12.0
 40
13.0
 40
13.0
 40
13.0
 40
14.0
 40
14.0
 40
14.0
 40
15.0
 40
15.0
 40
15.0
 40
16.0
 40
16.0
 40
16.0
 40
16.0
 10
77.66261526921282
 20
-127.269061925648
 30
0.0
 10
77.66261526921282
 20
-127.3527777459396
 30
0.0
 10
77.6457343013351
 20
-127.461298253725
 30
0.0
 10
77.58217228963224
 20
-127.5698187615103
 30
0.0
 10
77.47210148887851
 20
-127.7551648986168
 30
0.0
 10
77.34101560566475
 20
-127.7779025288194
 30
0.0
 10
77.23318411697643
 20
-127.7982285921824
 30
0.0
 10
77.23318411697643
 20
-127.7982285921824
 30
0.0
 10
77.23318411697643
 20
-127.5608615132487
 30
0.0
 10
77.23318411697643
 20
-127.5608615132487
 30
0.0
 10
77.43196612647534
 20
-127.5019503804509
 30
0.0
 10
77.4615939476485
 20
-127.3663858731063
 30
0.0
 10
77.4615939476485
 20
-127.2668226135826
 30
0.0
 10
77.4615939476485
 20
-127.1176499790713
 30
0.0
 10
77.36220294289903
 20
-126.9548692173932
 30
0.0
 10
77.12948674287041
 20
-126.9548692173932
 30
0.0
 10
76.87351614831634
 20
-126.9548692173932
 30
0.0
 10
76.80375296474004
 20
-127.1471055454702
 30
0.0
 10
76.80375296474004
 20
-127.2759521166185
 30
0.0
 10
76.80375296474004
 20
-127.3098863071482
 30
0.0
 10
76.80375296474004
 20
-127.461298253725
 30
0.0
 10
76.93277179066264
 20
-127.5562106343436
 30
0.0
 10
76.93277179066264
 20
-127.5562106343436
 30
0.0
 10
76.9136515107195
 20
-127.7439683382897
 30
0.0
 10
76.9136515107195
 20
-127.7439683382897
 30
0.0
 10
76.9136515107195
 20
-127.7439683382897
 30
0.0
 10
76.06753605954215
 20
-127.6149495123671
 30
0.0
 10
76.06753605954215
 20
-127.6149495123671
 30
0.0
 10
76.06753605954215
 20
-127.6149495123671
 30
0.0
 10
76.06753605954215
 20
-126.7829589526793
 30
0.0
 10
76.06753605954215
 20
-126.7829589526793
 30
0.0
 10
76.06753605954215
 20
-126.7829589526793
 30
0.0
 10
76.26218395445876
 20
-126.7829589526793
 30
0.0
 10
76.26218395445876
 20
-126.7829589526793
 30
0.0
 10
76.26218395445876
 20
-126.7829589526793
 30
0.0
 10
76.26218395445876
 20
-127.440972190362
 30
0.0
 10
76.26218395445876
 20
-127.440972190362
 30
0.0
 10
76.26218395445876
 20
-127.440972190362
 30
0.0
 10
76.68524168004744
 20
-127.5110798834868
 30
0.0
 10
76.68524168004744
 20
-127.5110798834868
 30
0.0
 10
76.65130748951773
 20
-127.4454508144928
 30
0.0
 10
76.61117212711457
 20
-127.3572563700704
 30
0.0
 10
76.61117212711457
 20
-127.2306491109875
 30
0.0
 10
76.61117212711457
 20
-126.9593478415241
 30
0.0
 10
76.79737953809233
 20
-126.7061333233582
 30
0.0
 10
77.11036646292727
 20
-126.7061333233582
 30
0.0
 10
77.42783201189305
 20
-126.7061333233582
 30
0.0
 10
77.66261526921282
 20
-126.9459119691316
 30
0.0
 10
77.66261526921282
 20
-127.269061925648
 30
0.0
  0
HATCH
  5
FD
330
EC
100
AcDbEntity
  8
_U+30EC_U+30A4_U+30E4_U+30FC 1
 62
     7
420
 16777215
100
AcDbHatch
 10
0.0
 20
0.0
 30
0.0
210
0.0
220
0.0
230
1.0
  2
SOLID
 70
     1
 71
     0
 91
        1
 92
        1
 93
        1
 72
     4
 94
        3
 73
     0
 74
     1
 95
       53
 96
       49
 40
0.0
 40
0.0
 40
0.0
 40
0.0
 40
1.0
 40
1.0
 40
1.0
 40
2.0
 40
2.0
 40
2.0
 40
3.0
 40
3.0
 40
3.0
 40
4.0
 40
4.0
 40
4.0
 40
5.0
 40
5.0
 40
5.0
 40
6.0
 40
6.0
 40
6.0
 40
7.0
 40
7.0
 40
7.0
 40
8.0
 40
8.0
 40
8.0
 40
9.0
 40
9.0
 40
9.0
 40
10.0
 40
10.0
 40
10.0
 40
11.0
 40
11.0
 40
11.0
 40
12.0
 40
12.0
 40
12.0
 40
13.0
 40
13.0
 40
13.0
 40
14.0
 40
14.0
 40
14.0
 40
15.0
 40
15.0
 40
15.0
 40
16.0
 40
16.0
 40
16.0
 40
16.0
 10
77.66261526921282
 20
-127.269061925648
 10
77.66261526921282
 20
-127.3527777459396
 10
77.6457343013351
 20
-127.461298253725
 10
77.58217228963224
 20
-127.5698187615103
 10
77.47210148887851
 20
-127.7551648986168
 10
77.34101560566475
 20
-127.7779025288194
 10
77.23318411697643
 20
-127.7982285921824
 10
77.23318411697643
 20
-127.7982285921824
 10
77.23318411697643
 20
-127.5608615132487
 10
77.23318411697643
 20
-127.5608615132487
 10
77.43196612647534
 20
-127.5019503804509
 10
77.4615939476485
 20
-127.3663858731063
 10
77.4615939476485
 20
-127.2668226135826
 10
77.4615939476485
 20
-127.1176499790713
 10
77.36220294289903
 20
-126.9548692173932
 10
77.12948674287041
 20
-126.9548692173932
 10
76.87351614831634
 20
-126.9548692173932
 10
76.80375296474004
 20
-127.1471055454702
 10
76.80375296474004
 20
-127.2759521166185
 10
76.80375296474004
 20
-127.3098863071482
 10
76.80375296474004
 20
-127.461298253725
 10
76.93277179066264
 20
-127.5562106343436
 10
76.93277179066264
 20
-127.5562106343436
 10
76.9136515107195
 20
-127.7439683382897
 10
76.9136515107195
 20
-127.7439683382897
 10
76.9136515107195
 20
-127.7439683382897
 10
76.06753605954215
 20
-127.6149495123671
 10
76.06753605954215
 20
-127.6149495123671
 10
76.06753605954215
 20
-127.6149495123671
 10
76.06753605954215
 20
-126.7829589526793
 10
76.06753605954215
 20
-126.7829589526793
 10
76.06753605954215
 20
-126.7829589526793
 10
76.26218395445876
 20
-126.7829589526793
 10
76.26218395445876
 20
-126.7829589526793
 10
76.26218395445876
 20
-126.7829589526793
 10
76.26218395445876
 20
-127.440972190362
 10
76.26218395445876
 20
-127.440972190362
 10
76.26218395445876
 20
-127.440972190362
 10
76.68524168004744
 20
-127.5110798834868
 10
76.68524168004744
 20
-127.5110798834868
 10
76.65130748951773
 20
-127.4454508144928
 10
76.61117212711457
 20
-127.3572563700704
 10
76.61117212711457
 20
-127.2306491109875
 10
76.61117212711457
 20
-126.9593478415241
 10
76.79737953809233
 20
-126.7061333233582
 10
77.11036646292727
 20
-126.7061333233582
 10
77.42783201189305
 20
-126.7061333233582
 10
77.66261526921282
 20
-126.9459119691316
 10
77.66261526921282
 20
-127.269061925648
 97
        0
 97
        0
 75
     2
 76
     1
 98
        0
  0
ENDBLK
  5
EF
330
EC
100
AcDbEntity
  8
0
100
AcDbBlockEnd
  0
BLOCK
  5
10C
330
10A
100
AcDbEntity
  8
0
100
AcDbBlockBegin
  2
block 7
 70
     0
 10
0.0
 20
0.0
 30
0.0
  3
block 7
  1

  0
SPLINE
  5
10E
330
10A
100
AcDbEntity
  8
_U+30EC_U+30A4_U+30E4_U+30FC 1
370
     0
100
AcDbSpline
210
0.0
220
0.0
230
1.0
 70
    11
 71
     3
 72
    26
 73
    22
 74
     0
 42
0.0000000001
 43
0.0000000001
 12
1.0
 22
0.0
 32
0.0
 13
1.0
 23
0.0
 33
0.0
 40
0.0
 40
0.0
 40
0.0
 40
0.0
 40
1.0
 40
1.0
 40
1.0
 40
2.0
 40
2.0
 40
2.0
 40
3.0
 40
3.0
 40
3.0
 40
4.0
 40
4.0
 40
4.0
 40
5.0
 40
5.0
 40
5.0
 40
6.0
 40
6.0
 40
6.0
 40
7.0
 40
7.0
 40
7.0
 40
7.0
 10
89.53200274454409
 20
-138.9527587543243
 30
0.0
 10
89.53200274454409
 20
-138.9527587543243
 30
0.0
 10
89.53200274454409
 20
-137.8486056513017
 30
0.0
 10
89.53200274454409
 20
-137.8486056513017
 30
0.0
 10
89.53200274454409
 20
-137.8486056513017
 30
0.0
 10
89.17956947640303
 20
-137.8486056513017
 30
0.0
 10
89.17956947640303
 20
-137.8486056513017
 30
0.0
 10
89.17956947640303
 20
-137.8486056513017
 30
0.0
 10
89.17956947640303
 20
-137.700466545436
 30
0.0
 10
89.17956947640303
 20
-137.700466545436
 30
0.0
 10
89.53441431138376
 20
-137.6856526348494
 30
0.0
 10
89.58402368637135
 20
-137.5226996183971
 30
0.0
 10
89.61571856483566
 20
-137.4083224482868
 30
0.0
 10
89.61571856483566
 20
-137.4083224482868
 30
0.0
 10
89.77178139031747
 20
-137.4083224482868
 30
0.0
 10
89.77178139031747
 20
-137.4083224482868
 30
0.0
 10
89.77178139031747
 20
-137.4083224482868
 30
0.0
 10
89.77178139031747
 20
-138.9527587543243
 30
0.0
 10
89.77178139031747
 20
-138.9527587543243
 30
0.0
 10
89.77178139031747
 20
-138.9527587543243
 30
0.0
 10
89.53200274454409
 20
-138.9527587543243
 30
0.0
 10
89.53200274454409
 20
-138.9527587543243
 30
0.0
  0
HATCH
  5
10F
330
10A
100
AcDbEntity
  8
_U+30EC_U+30A4_U+30E4_U+30FC 1
 62
     7
420
 16777215
100
AcDbHatch
 10
0.0
 20
0.0
 30
0.0
210
0.0
220
0.0
230
1.0
  2
SOLID
 70
     1
 71
     0
 91
        1
 92
        1
 93
        1
 72
     4
 94
        3
 73
     0
 74
     1
 95
       26
 96
       22
 40
0.0
 40
0.0
 40
0.0
 40
0.0
 40
1.0
 40
1.0
 40
1.0
 40
2.0
 40
2.0
 40
2.0
 40
3.0
 40
3.0
 40
3.0
 40
4.0
 40
4.0
 40
4.0
 40
5.0
 40
5.0
 40
5.0
 40
6.0
 40
6.0
 40
6.0
 40
7.0
 40
7.0
 40
7.0
 40
7.0
 10
89.53200274454409
 20
-138.9527587543243
 10
89.53200274454409
 20
-138.9527587543243
 10
89.53200274454409
 20
-137.8486056513017
 10
89.53200274454409
 20
-137.8486056513017
 10
89.53200274454409
 20
-137.8486056513017
 10
89.17956947640303
 20
-137.8486056513017
 10
89.17956947640303
 20
-137.8486056513017
 10
89.17956947640303
 20
-137.8486056513017
 10
89.17956947640303
 20
-137.700466545436
 10
89.17956947640303
 20
-137.700466545436
 10
89.53441431138376
 20
-137.6856526348494
 10
89.58402368637135
 20
-137.5226996183971
 10
89.61571856483566
 20
-137.4083224482868
 10
89.61571856483566
 20
-137.4083224482868
 10
89.77178139031747
 20
-137.4083224482868
 10
89.77178139031747
 20
-137.4083224482868
 10
89.77178139031747
 20
-137.4083224482868
 10
89.77178139031747
 20
-138.9527587543243
 10
89.77178139031747
 20
-138.9527587543243
 10
89.77178139031747
 20
-138.9527587543243
 10
89.53200274454409
 20
-138.9527587543243
 10
89.53200274454409
 20
-138.9527587543243
 97
        0
 97
        0
 75
     2
 76
     1
 98
        0
  0
SPLINE
  5
110
330
10A
100
AcDbEntity
  8
_U+30EC_U+30A4_U+30E4_U+30FC 1
370
     0
100
AcDbSpline
210
0.0
220
0.0
230
1.0
 70
    11
 71
     3
 72
    32
 73
    28
 74
     0
 42
0.0000000001
 43
0.0000000001
 12
1.0
 22
0.0
 32
0.0
 13
1.0
 23
0.0
 33
0.0
 40
0.0
 40
0.0
 40
0.0
 40
0.0
 40
1.0
 40
1.0
 40
1.0
 40
2.0
 40
2.0
 40
2.0
 40
3.0
 40
3.0
 40
3.0
 40
4.0
 40
4.0
 40
4.0
 40
5.0
 40
5.0
 40
5.0
 40
6.0
 40
6.0
 40
6.0
 40
7.0
 40
7.0
 40
7.0
 40
8.0
 40
8.0
 40
8.0
 40
9.0
 40
9.0
 40
9.0
 40
9.0
 10
90.84665118171543
 20
-139.0034016579575
 30
0.0
 10
90.2947468849784
 20
-139.0034016579575
 30
0.0
 10
90.28578963671676
 20
-138.4494303039293
 30
0.0
 10
90.28578963671676
 20
-138.2354898742953
 30
0.0
 10
90.28578963671676
 20
-138.0050129863321
 30
0.0
 10
90.30611570007973
 20
-137.3576795446536
 30
0.0
 10
90.88730330844137
 20
-137.3576795446536
 30
0.0
 10
91.07264944554781
 20
-137.3576795446536
 30
0.0
 10
91.33482121197532
 20
-137.4276149830042
 30
0.0
 10
91.37564559347554
 20
-137.7597221877823
 30
0.0
 10
91.37564559347554
 20
-137.7597221877823
 30
0.0
 10
91.1470635080292
 20
-137.7597221877823
 30
0.0
 10
91.1470635080292
 20
-137.7597221877823
 30
0.0
 10
91.13603920247641
 20
-137.7025336027272
 30
0.0
 10
91.10193275717243
 20
-137.5543944968614
 30
0.0
 10
90.88489174160169
 20
-137.5543944968614
 30
0.0
 10
90.57276609063807
 20
-137.5543944968614
 30
0.0
 10
90.53004690662097
 20
-137.8823675870572
 30
0.0
 10
90.51626652467996
 20
-138.0873507684296
 30
0.0
 10
90.61582978420368
 20
-138.0091471009144
 30
0.0
 10
90.68817678939394
 20
-137.9498914585681
 30
0.0
 10
90.88248017476202
 20
-137.9498914585681
 30
0.0
 10
91.07471650283897
 20
-137.9498914585681
 30
0.0
 10
91.39838322367818
 20
-138.0580674568049
 30
0.0
 10
91.39838322367818
 20
-138.4642442145159
 30
0.0
 10
91.39838322367818
 20
-138.7836045659986
 30
0.0
 10
91.18564857746401
 20
-139.0034016579575
 30
0.0
 10
90.84665118171543
 20
-139.0034016579575
 30
0.0
  0
SPLINE
  5
111
330
10A
100
AcDbEntity
  8
_U+30EC_U+30A4_U+30E4_U+30FC 1
370
     0
100
AcDbSpline
210
0.0
220
0.0
230
1.0
 70
    11
 71
     3
 72
    17
 73
    13
 74
     0
 42
0.0000000001
 43
0.0000000001
 12
1.0
 22
0.0
 32
0.0
 13
1.0
 23
0.0
 33
0.0
 40
0.0
 40
0.0
 40
0.0
 40
0.0
 40
1.0
 40
1.0
 40
1.0
 40
2.0
 40
2.0
 40
2.0
 40
3.0
 40
3.0
 40
3.0
 40
4.0
 40
4.0
 40
4.0
 40
4.0
 10
90.86456567823872
 20
-138.1445393534847
 30
0.0
 10
90.58413490573939
 20
-138.1445393534847
 30
0.0
 10
90.54348277901344
 20
-138.3560682162791
 30
0.0
 10
90.54348277901344
 20
-138.4725124436805
 30
0.0
 10
90.54348277901344
 20
-138.6482123134282
 30
0.0
 10
90.64511309582831
 20
-138.8111653298805
 30
0.0
 10
90.84182804803608
 20
-138.8111653298805
 30
0.0
 10
90.97067461918442
 20
-138.8111653298805
 30
0.0
 10
91.15843232313054
 20
-138.7519096875342
 30
0.0
 10
91.15843232313054
 20
-138.466311271807
 30
0.0
 10
91.15843232313054
 20
-138.2420355557173
 30
0.0
 10
91.00925968861922
 20
-138.1445393534847
 30
0.0
 10
90.86456567823872
 20
-138.1445393534847
 30
0.0
  0
HATCH
  5
112
330
10A
100
AcDbEntity
  8
_U+30EC_U+30A4_U+30E4_U+30FC 1
 62
     7
420
 16777215
100
AcDbHatch
 10
0.0
 20
0.0
 30
0.0
210
0.0
220
0.0
230
1.0
  2
SOLID
 70
     1
 71
     0
 91
        2
 92
        1
 93
        1
 72
     4
 94
        3
 73
     0
 74
     1
 95
       32
 96
       28
 40
0.0
 40
0.0
 40
0.0
 40
0.0
 40
1.0
 40
1.0
 40
1.0
 40
2.0
 40
2.0
 40
2.0
 40
3.0
 40
3.0
 40
3.0
 40
4.0
 40
4.0
 40
4.0
 40
5.0
 40
5.0
 40
5.0
 40
6.0
 40
6.0
 40
6.0
 40
7.0
 40
7.0
 40
7.0
 40
8.0
 40
8.0
 40
8.0
 40
9.0
 40
9.0
 40
9.0
 40
9.0
 10
90.84665118171543
 20
-139.0034016579575
 10
90.2947468849784
 20
-139.0034016579575
 10
90.28578963671676
 20
-138.4494303039293
 10
90.28578963671676
 20
-138.2354898742953
 10
90.28578963671676
 20
-138.0050129863321
 10
90.30611570007973
 20
-137.3576795446536
 10
90.88730330844137
 20
-137.3576795446536
 10
91.07264944554781
 20
-137.3576795446536
 10
91.33482121197532
 20
-137.4276149830042
 10
91.37564559347554
 20
-137.7597221877823
 10
91.37564559347554
 20
-137.7597221877823
 10
91.1470635080292
 20
-137.7597221877823
 10
91.1470635080292
 20
-137.7597221877823
 10
91.13603920247641
 20
-137.7025336027272
 10
91.10193275717243
 20
-137.5543944968614
 10
90.88489174160169
 20
-137.5543944968614
 10
90.57276609063807
 20
-137.5543944968614
 10
90.53004690662097
 20
-137.8823675870572
 10
90.51626652467996
 20
-138.0873507684296
 10
90.61582978420368
 20
-138.0091471009144
 10
90.68817678939394
 20
-137.9498914585681
 10
90.88248017476202
 20
-137.9498914585681
 10
91.07471650283897
 20
-137.9498914585681
 10
91.39838322367818
 20
-138.0580674568049
 10
91.39838322367818
 20
-138.4642442145159
 10
91.39838322367818
 20
-138.7836045659986
 10
91.18564857746401
 20
-139.0034016579575
 10
90.84665118171543
 20
-139.0034016579575
 97
        0
 97
        0
 92
        1
 93
        1
 72
     4
 94
        3
 73
     0
 74
     1
 95
       17
 96
       13
 40
0.0
 40
0.0
 40
0.0
 40
0.0
 40
1.0
 40
1.0
 40
1.0
 40
2.0
 40
2.0
 40
2.0
 40
3.0
 40
3.0
 40
3.0
 40
4.0
 40
4.0
 40
4.0
 40
4.0
 10
90.86456567823872
 20
-138.1445393534847
 10
90.58413490573939
 20
-138.1445393534847
 10
90.54348277901344
 20
-138.3560682162791
 10
90.54348277901344
 20
-138.4725124436805
 10
90.54348277901344
 20
-138.6482123134282
 10
90.64511309582831
 20
-138.8111653298805
 10
90.84182804803608
 20
-138.8111653298805
 10
90.97067461918442
 20
-138.8111653298805
 10
91.15843232313054
 20
-138.7519096875342
 10
91.15843232313054
 20
-138.466311271807
 10
91.15843232313054
 20
-138.2420355557173
 10
91.00925968861922
 20
-138.1445393534847
 10
90.86456567823872
 20
-138.1445393534847
 97
        0
 97
        0
 75
     2
 76
     1
 98
        0
  0
ENDBLK
  5
10D
330
10A
100
AcDbEntity
  8
0
100
AcDbBlockEnd
  0
ENDSEC
  0
SECTION
  2
ENTITIES
  0
POLYLINE
  5
41
330
1F
100
AcDbEntity
  8
_U+30EC_U+30A4_U+30E4_U+30FC 1
  6
AI-Linetype-1
 62
   251
420
  5855577
370
    25
100
AcDb2dPolyline
 66
     1
 10
0.0
 20
0.0
 30
0.0
  0
VERTEX
  5
42
330
41
100
AcDbEntity
  8
_U+30EC_U+30A4_U+30E4_U+30FC 1
  6
AI-Linetype-1
 62
   251
420
  5855577
370
    25
100
AcDbVertex
100
AcDb2dVertex
 10
81.81653763490846
 20
-121.324369969669
 30
0.0
  0
VERTEX
  5
43
330
41
100
AcDbEntity
  8
_U+30EC_U+30A4_U+30E4_U+30FC 1
  6
AI-Linetype-1
 62
   251
420
  5855577
370
    25
100
AcDbVertex
100
AcDb2dVertex
 10
84.1095931319633
 20
-121.324369969669
 30
0.0
  0
VERTEX
  5
44
330
41
100
AcDbEntity
  8
_U+30EC_U+30A4_U+30E4_U+30FC 1
  6
AI-Linetype-1
 62
   251
420
  5855577
370
    25
100
AcDbVertex
100
AcDb2dVertex
 10
84.1095931319633
 20
-128.2035366346159
 30
0.0
  0
VERTEX
  5
45
330
41
100
AcDbEntity
  8
_U+30EC_U+30A4_U+30E4_U+30FC 1
  6
AI-Linetype-1
 62
   251
420
  5855577
370
    25
100
AcDbVertex
100
AcDb2dVertex
 10
90.98893601201219
 20
-128.2035366346159
 30
0.0
  0
VERTEX
  5
46
330
41
100
AcDbEntity
  8
_U+30EC_U+30A4_U+30E4_U+30FC 1
  6
AI-Linetype-1
 62
   251
420
  5855577
370
    25
100
AcDbVertex
100
AcDb2dVertex
 10
90.98893601201219
 20
-130.0557963563748
 30
0.0
  0
SEQEND
  5
48
330
41
100
AcDbEntity
  8
_U+30EC_U+30A4_U+30E4_U+30FC 1
  6
AI-Linetype-1
 62
   251
420
  5855577
370
    25
  0
SPLINE
  5
49
330
1F
100
AcDbEntity
  8
_U+30EC_U+30A4_U+30E4_U+30FC 1
370
     0
100
AcDbSpline
210
0.0
220
0.0
230
1.0
 70
    11
 71
     3
 72
    44
 73
    40
 74
     0
 42
0.0000000001
 43
0.0000000001
 12
1.0
 22
0.0
 32
0.0
 13
1.0
 23
0.0
 33
0.0
 40
0.0
 40
0.0
 40
0.0
 40
0.0
 40
1.0
 40
1.0
 40
1.0
 40
2.0
 40
2.0
 40
2.0
 40
3.0
 40
3.0
 40
3.0
 40
4.0
 40
4.0
 40
4.0
 40
5.0
 40
5.0
 40
5.0
 40
6.0
 40
6.0
 40
6.0
 40
7.0
 40
7.0
 40
7.0
 40
8.0
 40
8.0
 40
8.0
 40
9.0
 40
9.0
 40
9.0
 40
10.0
 40
10.0
 40
10.0
 40
11.0
 40
11.0
 40
11.0
 40
12.0
 40
12.0
 40
12.0
 40
13.0
 40
13.0
 40
13.0
 40
13.0
 10
82.1598277572379
 20
-122.0929669139212
 30
0.0
 10
82.1598277572379
 20
-122.0929669139212
 30
0.0
 10
83.29894720139734
 20
-122.2903813583164
 30
0.0
 10
83.27707497918063
 20
-122.9473594137077
 30
0.0
 10
83.27707497918063
 20
-122.9473594137077
 30
0.0
 10
83.16753537821941
 20
-128.9940058010847
 30
0.0
 10
83.16753537821941
 20
-128.9940058010847
 30
0.0
 10
83.16753537821941
 20
-128.9940058010847
 30
0.0
 10
89.25778494506642
 20
-128.9940058010847
 30
0.0
 10
89.25778494506642
 20
-128.9940058010847
 30
0.0
 10
89.25778494506642
 20
-128.9940058010847
 30
0.0
 10
90.19966630992592
 20
-129.321983301003
 30
0.0
 10
90.19966630992592
 20
-130.0668383008167
 30
0.0
 10
90.19966630992592
 20
-130.0668383008167
 30
0.0
 10
83.14566315655519
 20
-130.0888869119223
 30
0.0
 10
83.14566315655519
 20
-130.0888869119223
 30
0.0
 10
83.14566315655519
 20
-130.0888869119223
 30
0.0
 10
83.2333305347472
 20
-134.5578405219163
 30
0.0
 10
83.2333305347472
 20
-134.5578405219163
 30
0.0
 10
83.2333305347472
 20
-134.5578405219163
 30
0.0
 10
90.1121444219163
 20
-134.492400244155
 30
0.0
 10
90.1121444219163
 20
-134.492400244155
 30
0.0
 10
90.1121444219163
 20
-134.492400244155
 30
0.0
 10
90.52831407931919
 20
-134.7769507996394
 30
0.0
 10
90.52831407931919
 20
-134.7769507996394
 30
0.0
 10
90.52831407931919
 20
-134.7769507996394
 30
0.0
 10
97.47482584654335
 20
-134.7769507996394
 30
0.0
 10
97.47482584654335
 20
-134.7769507996394
 30
0.0
 10
97.47482584654335
 20
-134.7769507996394
 30
0.0
 10
98.15420527365538
 20
-135.0394880217957
 30
0.0
 10
98.17625388420399
 20
-135.5659030216643
 30
0.0
 10
98.17625388420399
 20
-135.5659030216643
 30
0.0
 10
83.08001121378567
 20
-135.6100002438755
 30
0.0
 10
83.08001121378567
 20
-135.6100002438755
 30
0.0
 10
83.08001121378567
 20
-135.6100002438755
 30
0.0
 10
82.26957484557273
 20
-135.3908899661524
 30
0.0
 10
82.20378179169569
 20
-134.6019377441275
 30
0.0
 10
82.20378179169569
 20
-134.6019377441275
 30
0.0
 10
82.1598277572379
 20
-122.0929669139212
 30
0.0
 10
82.1598277572379
 20
-122.0929669139212
 30
0.0
  0
HATCH
  5
4A
330
1F
100
AcDbEntity
  8
_U+30EC_U+30A4_U+30E4_U+30FC 1
 62
   253
420
 11711154
100
AcDbHatch
 10
0.0
 20
0.0
 30
0.0
210
0.0
220
0.0
230
1.0
  2
SOLID
 70
     1
 71
     0
 91
        1
 92
        1
 93
        1
 72
     4
 94
        3
 73
     0
 74
     1
 95
       44
 96
       40
 40
0.0
 40
0.0
 40
0.0
 40
0.0
 40
1.0
 40
1.0
 40
1.0
 40
2.0
 40
2.0
 40
2.0
 40
3.0
 40
3.0
 40
3.0
 40
4.0
 40
4.0
 40
4.0
 40
5.0
 40
5.0
 40
5.0
 40
6.0
 40
6.0
 40
6.0
 40
7.0
 40
7.0
 40
7.0
 40
8.0
 40
8.0
 40
8.0
 40
9.0
 40
9.0
 40
9.0
 40
10.0
 40
10.0
 40
10.0
 40
11.0
 40
11.0
 40
11.0
 40
12.0
 40
12.0
 40
12.0
 40
13.0
 40
13.0
 40
13.0
 40
13.0
 10
82.1598277572379
 20
-122.0929669139212
 10
82.1598277572379
 20
-122.0929669139212
 10
83.29894720139734
 20
-122.2903813583164
 10
83.27707497918063
 20
-122.9473594137077
 10
83.27707497918063
 20
-122.9473594137077
 10
83.16753537821941
 20
-128.9940058010847
 10
83.16753537821941
 20
-128.9940058010847
 10
83.16753537821941
 20
-128.9940058010847
 10
89.25778494506642
 20
-128.9940058010847
 10
89.25778494506642
 20
-128.9940058010847
 10
89.25778494506642
 20
-128.9940058010847
 10
90.19966630992592
 20
-129.321983301003
 10
90.19966630992592
 20
-130.0668383008167
 10
90.19966630992592
 20
-130.0668383008167
 10
83.14566315655519
 20
-130.0888869119223
 10
83.14566315655519
 20
-130.0888869119223
 10
83.14566315655519
 20
-130.0888869119223
 10
83.2333305347472
 20
-134.5578405219163
 10
83.2333305347472
 20
-134.5578405219163
 10
83.2333305347472
 20
-134.5578405219163
 10
90.1121444219163
 20
-134.492400244155
 10
90.1121444219163
 20
-134.492400244155
 10
90.1121444219163
 20
-134.492400244155
 10
90.52831407931919
 20
-134.7769507996394
 10
90.52831407931919
 20
-134.7769507996394
 10
90.52831407931919
 20
-134.7769507996394
 10
97.47482584654335
 20
-134.7769507996394
 10
97.47482584654335
 20
-134.7769507996394
 10
97.47482584654335
 20
-134.7769507996394
 10
98.15420527365538
 20
-135.0394880217957
 10
98.17625388420399
 20
-135.5659030216643
 10
98.17625388420399
 20
-135.5659030216643
 10
83.08001121378567
 20
-135.6100002438755
 10
83.08001121378567
 20
-135.6100002438755
 10
83.08001121378567
 20
-135.6100002438755
 10
82.26957484557273
 20
-135.3908899661524
 10
82.20378179169569
 20
-134.6019377441275
 10
82.20378179169569
 20
-134.6019377441275
 10
82.1598277572379
 20
-122.0929669139212
 10
82.1598277572379
 20
-122.0929669139212
 97
        0
 97
        0
 75
     2
 76
     1
 98
        0
  0
SPLINE
  5
4B
330
1F
100
AcDbEntity
  8
_U+30EC_U+30A4_U+30E4_U+30FC 1
 62
     7
420
 16777215
370
     9
100
AcDbSpline
210
0.0
220
0.0
230
1.0
 70
    11
 71
     3
 72
    17
 73
    13
 74
     0
 42
0.0000000001
 43
0.0000000001
 12
1.0
 22
0.0
 32
0.0
 13
1.0
 23
0.0
 33
0.0
 40
0.0
 40
0.0
 40
0.0
 40
0.0
 40
1.0
 40
1.0
 40
1.0
 40
2.0
 40
2.0
 40
2.0
 40
3.0
 40
3.0
 40
3.0
 40
4.0
 40
4.0
 40
4.0
 40
4.0
 10
90.40773463795098
 20
-118.873199414726
 30
0.0
 10
90.40773463795098
 20
-118.8180602480733
 30
0.0
 10
90.36296942185368
 20
-118.7732927480844
 30
0.0
 10
90.30782797383314
 20
-118.7732927480844
 30
0.0
 10
90.25201853081252
 20
-118.7732927480844
 30
0.0
 10
90.20725103195463
 20
-118.8180602480733
 30
0.0
 10
90.20725103195463
 20
-118.873199414726
 30
0.0
 10
90.20725103195463
 20
-118.9283033036013
 30
0.0
 10
90.25201853081252
 20
-118.973106081368
 30
0.0
 10
90.30782797383314
 20
-118.973106081368
 30
0.0
 10
90.36296942185368
 20
-118.973106081368
 30
0.0
 10
90.40773463795098
 20
-118.9283033036013
 30
0.0
 10
90.40773463795098
 20
-118.873199414726
 30
0.0
  0
SPLINE
  5
4C
330
1F
100
AcDbEntity
  8
_U+30EC_U+30A4_U+30E4_U+30FC 1
 62
     7
420
 16777215
370
     9
100
AcDbSpline
210
0.0
220
0.0
230
1.0
 70
    11
 71
     3
 72
    17
 73
    13
 74
     0
 42
0.0000000001
 43
0.0000000001
 12
1.0
 22
0.0
 32
0.0
 13
1.0
 23
0.0
 33
0.0
 40
0.0
 40
0.0
 40
0.0
 40
0.0
 40
1.0
 40
1.0
 40
1.0
 40
2.0
 40
2.0
 40
2.0
 40
3.0
 40
3.0
 40
3.0
 40
4.0
 40
4.0
 40
4.0
 40
4.0
 10
83.40731842765759
 20
-118.873199414726
 30
0.0
 10
83.40731842765759
 20
-118.8180602480733
 30
0.0
 10
83.36251565102282
 20
-118.7732927480844
 30
0.0
 10
83.30741386806201
 20
-118.7732927480844
 30
0.0
 10
83.2522725982798
 20
-118.7732927480844
 30
0.0
 10
83.20750509942191
 20
-118.8180602480733
 30
0.0
 10
83.20750509942191
 20
-118.873199414726
 30
0.0
 10
83.20750509942191
 20
-118.9283033036013
 30
0.0
 10
83.2522725982798
 20
-118.973106081368
 30
0.0
 10
83.30741386806201
 20
-118.973106081368
 30
0.0
 10
83.36251565102282
 20
-118.973106081368
 30
0.0
 10
83.40731842765759
 20
-118.9283033036013
 30
0.0
 10
83.40731842765759
 20
-118.873199414726
 30
0.0
  0
POLYLINE
  5
4D
330
1F
100
AcDbEntity
  8
_U+30EC_U+30A4_U+30E4_U+30FC 1
 62
     7
420
 16777215
370
     9
100
AcDb2dPolyline
 66
     1
 10
0.0
 20
0.0
 30
0.0
  0
VERTEX
  5
4E
330
4D
100
AcDbEntity
  8
_U+30EC_U+30A4_U+30E4_U+30FC 1
 62
     7
420
 16777215
370
     9
100
AcDbVertex
100
AcDb2dVertex
 10
83.30741386806201
 20
-120.33324080325
 30
0.0
  0
VERTEX
  5
4F
330
4D
100
AcDbEntity
  8
_U+30EC_U+30A4_U+30E4_U+30FC 1
 62
     7
420
 16777215
370
     9
100
AcDbVertex
100
AcDb2dVertex
 10
83.30741386806201
 20
-117.8734271927538
 30
0.0
  0
SEQEND
  5
50
330
4D
100
AcDbEntity
  8
_U+30EC_U+30A4_U+30E4_U+30FC 1
 62
     7
420
 16777215
370
     9
  0
POLYLINE
  5
51
330
1F
100
AcDbEntity
  8
_U+30EC_U+30A4_U+30E4_U+30FC 1
 62
     7
420
 16777215
370
     9
100
AcDb2dPolyline
 66
     1
 10
0.0
 20
0.0
 30
0.0
  0
VERTEX
  5
52
330
51
100
AcDbEntity
  8
_U+30EC_U+30A4_U+30E4_U+30FC 1
 62
     7
420
 16777215
370
     9
100
AcDbVertex
100
AcDb2dVertex
 10
83.30808204130042
 20
-118.873199414726
 30
0.0
  0
VERTEX
  5
53
330
51
100
AcDbEntity
  8
_U+30EC_U+30A4_U+30E4_U+30FC 1
 62
     7
420
 16777215
370
     9
100
AcDbVertex
100
AcDb2dVertex
 10
90.30782797383314
 20
-118.873199414726
 30
0.0
  0
SEQEND
  5
54
330
51
100
AcDbEntity
  8
_U+30EC_U+30A4_U+30E4_U+30FC 1
 62
     7
420
 16777215
370
     9
  0
POLYLINE
  5
55
330
1F
100
AcDbEntity
  8
_U+30EC_U+30A4_U+30E4_U+30FC 1
 62
     7
420
 16777215
370
     9
100
AcDb2dPolyline
 66
     1
 10
0.0
 20
0.0
 30
0.0
  0
VERTEX
  5
56
330
55
100
AcDbEntity
  8
_U+30EC_U+30A4_U+30E4_U+30FC 1
 62
     7
420
 16777215
370
     9
100
AcDbVertex
100
AcDb2dVertex
 10
90.30782797383314
 20
-125.7151480241268
 30
0.0
  0
VERTEX
  5
57
330
55
100
AcDbEntity
  8
_U+30EC_U+30A4_U+30E4_U+30FC 1
 62
     7
420
 16777215
370
     9
100
AcDbVertex
100
AcDb2dVertex
 10
90.30782797383314
 20
-117.8734271927538
 30
0.0
  0
SEQEND
  5
58
330
55
100
AcDbEntity
  8
_U+30EC_U+30A4_U+30E4_U+30FC 1
 62
     7
420
 16777215
370
     9
  0
INSERT
  5
5A
330
1F
100
AcDbEntity
  8
_U+30EC_U+30A4_U+30E4_U+30FC 1
100
AcDbBlockReference
  2
block 2
 10
0.0
 20
0.0
 30
0.0
  0
POLYLINE
  5
5F
330
1F
100
AcDbEntity
  8
_U+30EC_U+30A4_U+30E4_U+30FC 1
 62
     7
420
 16777215
370
    25
100
AcDb2dPolyline
 66
     1
 10
0.0
 20
0.0
 30
0.0
  0
VERTEX
  5
60
330
5F
100
AcDbEntity
  8
_U+30EC_U+30A4_U+30E4_U+30FC 1
 62
     7
420
 16777215
370
    25
100
AcDbVertex
100
AcDb2dVertex
 10
83.20750509942191
 20
-134.5488799663628
 30
0.0
  0
VERTEX
  5
61
330
5F
100
AcDbEntity
  8
_U+30EC_U+30A4_U+30E4_U+30FC 1
 62
     7
420
 16777215
370
    25
100
AcDbVertex
100
AcDb2dVertex
 10
90.20756853194654
 20
-134.5488799663628
 30
0.0
  0
SEQEND
  5
62
330
5F
100
AcDbEntity
  8
_U+30EC_U+30A4_U+30E4_U+30FC 1
 62
     7
420
 16777215
370
    25
  0
POLYLINE
  5
63
330
1F
100
AcDbEntity
  8
_U+30EC_U+30A4_U+30E4_U+30FC 1
 62
     7
420
 16777215
370
    25
100
AcDb2dPolyline
 66
     1
 10
0.0
 20
0.0
 30
0.0
  0
VERTEX
  5
64
330
63
100
AcDbEntity
  8
_U+30EC_U+30A4_U+30E4_U+30FC 1
 62
     7
420
 16777215
370
    25
100
AcDbVertex
100
AcDb2dVertex
 10
83.20750509942191
 20
-130.0489171897097
 30
0.0
  0
VERTEX
  5
65
330
63
100
AcDbEntity
  8
_U+30EC_U+30A4_U+30E4_U+30FC 1
 62
     7
420
 16777215
370
    25
100
AcDbVertex
100
AcDb2dVertex
 10
90.20756853194654
 20
-130.0489171897097
 30
0.0
  0
SEQEND
  5
66
330
63
100
AcDbEntity
  8
_U+30EC_U+30A4_U+30E4_U+30FC 1
 62
     7
420
 16777215
370
    25
  0
POLYLINE
  5
67
330
1F
100
AcDbEntity
  8
_U+30EC_U+30A4_U+30E4_U+30FC 1
 62
     7
420
 16777215
370
    25
100
AcDb2dPolyline
 66
     1
 10
0.0
 20
0.0
 30
0.0
  0
VERTEX
  5
68
330
67
100
AcDbEntity
  8
_U+30EC_U+30A4_U+30E4_U+30FC 1
 62
     7
420
 16777215
370
    25
100
AcDbVertex
100
AcDb2dVertex
 10
83.20750509942191
 20
-135.5486521883354
 30
0.0
  0
VERTEX
  5
69
330
67
100
AcDbEntity
  8
_U+30EC_U+30A4_U+30E4_U+30FC 1
 62
     7
420
 16777215
370
    25
100
AcDbVertex
100
AcDb2dVertex
 10
98.21001471667601
 20
-135.5486521883354
 30
0.0
  0
SEQEND
  5
6A
330
67
100
AcDbEntity
  8
_U+30EC_U+30A4_U+30E4_U+30FC 1
 62
     7
420
 16777215
370
    25
  0
POLYLINE
  5
6B
330
1F
100
AcDbEntity
  8
_U+30EC_U+30A4_U+30E4_U+30FC 1
 62
     7
420
 16777215
370
    25
100
AcDb2dPolyline
 66
     1
 10
0.0
 20
0.0
 30
0.0
  0
VERTEX
  5
6C
330
6B
100
AcDbEntity
  8
_U+30EC_U+30A4_U+30E4_U+30FC 1
 62
     7
420
 16777215
370
    25
100
AcDbVertex
100
AcDb2dVertex
 10
82.20702734716845
 20
-122.04886969171
 30
0.0
  0
VERTEX
  5
6D
330
6B
100
AcDbEntity
  8
_U+30EC_U+30A4_U+30E4_U+30FC 1
 62
     7
420
 16777215
370
    25
100
AcDbVertex
100
AcDb2dVertex
 10
82.20702734716845
 20
-134.5488799663628
 30
0.0
  0
SEQEND
  5
6E
330
6B
100
AcDbEntity
  8
_U+30EC_U+30A4_U+30E4_U+30FC 1
 62
     7
420
 16777215
370
    25
  0
POLYLINE
  5
6F
330
1F
100
AcDbEntity
  8
_U+30EC_U+30A4_U+30E4_U+30FC 1
 62
     7
420
 16777215
370
    25
100
AcDb2dPolyline
 66
     1
 10
0.0
 20
0.0
 30
0.0
  0
VERTEX
  5
70
330
6F
100
AcDbEntity
  8
_U+30EC_U+30A4_U+30E4_U+30FC 1
 62
     7
420
 16777215
370
    25
100
AcDbVertex
100
AcDb2dVertex
 10
83.20750509942191
 20
-123.0486419136822
 30
0.0
  0
VERTEX
  5
71
330
6F
100
AcDbEntity
  8
_U+30EC_U+30A4_U+30E4_U+30FC 1
 62
     7
420
 16777215
370
    25
100
AcDbVertex
100
AcDb2dVertex
 10
83.20750509942191
 20
-129.0484394121823
 30
0.0
  0
SEQEND
  5
72
330
6F
100
AcDbEntity
  8
_U+30EC_U+30A4_U+30E4_U+30FC 1
 62
     7
420
 16777215
370
    25
  0
POLYLINE
  5
73
330
1F
100
AcDbEntity
  8
_U+30EC_U+30A4_U+30E4_U+30FC 1
 62
     7
420
 16777215
370
    25
100
AcDb2dPolyline
 66
     1
 10
0.0
 20
0.0
 30
0.0
  0
VERTEX
  5
74
330
73
100
AcDbEntity
  8
_U+30EC_U+30A4_U+30E4_U+30FC 1
 62
     7
420
 16777215
370
    25
100
AcDbVertex
100
AcDb2dVertex
 10
83.20750509942191
 20
-129.0484394121823
 30
0.0
  0
VERTEX
  5
75
330
73
100
AcDbEntity
  8
_U+30EC_U+30A4_U+30E4_U+30FC 1
 62
     7
420
 16777215
370
    25
100
AcDbVertex
100
AcDb2dVertex
 10
89.20747883523872
 20
-129.0484394121823
 30
0.0
  0
SEQEND
  5
76
330
73
100
AcDbEntity
  8
_U+30EC_U+30A4_U+30E4_U+30FC 1
 62
     7
420
 16777215
370
    25
  0
POLYLINE
  5
77
330
1F
100
AcDbEntity
  8
_U+30EC_U+30A4_U+30E4_U+30FC 1
 62
     7
420
 16777215
370
    25
100
AcDb2dPolyline
 66
     1
 10
0.0
 20
0.0
 30
0.0
  0
VERTEX
  5
78
330
77
100
AcDbEntity
  8
_U+30EC_U+30A4_U+30E4_U+30FC 1
 62
     7
420
 16777215
370
    25
100
AcDbVertex
100
AcDb2dVertex
 10
83.20750509942191
 20
-130.0489171897097
 30
0.0
  0
VERTEX
  5
79
330
77
100
AcDbEntity
  8
_U+30EC_U+30A4_U+30E4_U+30FC 1
 62
     7
420
 16777215
370
    25
100
AcDbVertex
100
AcDb2dVertex
 10
83.20750509942191
 20
-134.5488799663628
 30
0.0
  0
SEQEND
  5
7A
330
77
100
AcDbEntity
  8
_U+30EC_U+30A4_U+30E4_U+30FC 1
 62
     7
420
 16777215
370
    25
  0
POLYLINE
  5
7B
330
1F
100
AcDbEntity
  8
_U+30EC_U+30A4_U+30E4_U+30FC 1
 62
     7
420
 16777215
370
    25
100
AcDb2dPolyline
 66
     1
 10
0.0
 20
0.0
 30
0.0
  0
VERTEX
  5
7C
330
7B
100
AcDbEntity
  8
_U+30EC_U+30A4_U+30E4_U+30FC 1
 62
     7
420
 16777215
370
    25
100
AcDbVertex
100
AcDb2dVertex
 10
90.5538221995838
 20
-134.7486932996461
 30
0.0
  0
VERTEX
  5
7D
330
7B
100
AcDbEntity
  8
_U+30EC_U+30A4_U+30E4_U+30FC 1
 62
     7
420
 16777215
370
    25
100
AcDbVertex
100
AcDb2dVertex
 10
97.41005830898068
 20
-134.7486932996461
 30
0.0
  0
SEQEND
  5
7E
330
7B
100
AcDbEntity
  8
_U+30EC_U+30A4_U+30E4_U+30FC 1
 62
     7
420
 16777215
370
    25
  0
POLYLINE
  5
7F
330
1F
100
AcDbEntity
  8
_U+30EC_U+30A4_U+30E4_U+30FC 1
 62
     7
420
 16777215
370
    25
100
AcDb2dPolyline
 66
     1
 10
0.0
 20
0.0
 30
0.0
  0
VERTEX
  5
80
330
7F
100
AcDbEntity
  8
_U+30EC_U+30A4_U+30E4_U+30FC 1
 62
     7
420
 16777215
370
    25
100
AcDbVertex
100
AcDb2dVertex
 10
90.20756853194654
 20
-134.5488799663628
 30
0.0
  0
VERTEX
  5
81
330
7F
100
AcDbEntity
  8
_U+30EC_U+30A4_U+30E4_U+30FC 1
 62
     7
420
 16777215
370
    25
100
AcDbVertex
100
AcDb2dVertex
 10
90.55417497736157
 20
-134.7486932996461
 30
0.0
  0
SEQEND
  5
82
330
7F
100
AcDbEntity
  8
_U+30EC_U+30A4_U+30E4_U+30FC 1
 62
     7
420
 16777215
370
    25
  0
SPLINE
  5
83
330
1F
100
AcDbEntity
  8
_U+30EC_U+30A4_U+30E4_U+30FC 1
 62
     7
420
 16777215
370
    25
100
AcDbSpline
210
0.0
220
0.0
230
1.0
 70
     8
 71
     3
 72
     8
 73
     4
 74
     0
 42
0.0000000001
 43
0.0000000001
 12
1.0
 22
0.0
 32
0.0
 13
1.0
 23
0.0
 33
0.0
 40
0.0
 40
0.0
 40
0.0
 40
0.0
 40
1.0
 40
1.0
 40
1.0
 40
1.0
 10
82.20702734716845
 20
-134.5488799663628
 30
0.0
 10
82.20702734716845
 20
-135.1014710773356
 30
0.0
 10
82.65491400240857
 20
-135.5486521883354
 30
0.0
 10
83.20750509942191
 20
-135.5486521883354
 30
0.0
  0
SPLINE
  5
84
330
1F
100
AcDbEntity
  8
_U+30EC_U+30A4_U+30E4_U+30FC 1
 62
     7
420
 16777215
370
     9
100
AcDbSpline
210
0.0
220
0.0
230
1.0
 70
    11
 71
     3
 72
    17
 73
    13
 74
     0
 42
0.0000000001
 43
0.0000000001
 12
1.0
 22
0.0
 32
0.0
 13
1.0
 23
0.0
 33
0.0
 40
0.0
 40
0.0
 40
0.0
 40
0.0
 40
1.0
 40
1.0
 40
1.0
 40
2.0
 40
2.0
 40
2.0
 40
3.0
 40
3.0
 40
3.0
 40
4.0
 40
4.0
 40
4.0
 40
4.0
 10
82.30764164608979
 20
-125.0488566354043
 30
0.0
 10
82.30764164608979
 20
-124.9937527465294
 30
0.0
 10
82.26283886832307
 20
-124.9489499687627
 30
0.0
 10
82.20702734716845
 20
-124.9489499687627
 30
0.0
 10
82.15192345968538
 20
-124.9489499687627
 30
0.0
 10
82.10712068305061
 20
-124.9937527465294
 30
0.0
 10
82.10712068305061
 20
-125.0488566354043
 30
0.0
 10
82.10712068305061
 20
-125.1039958020574
 30
0.0
 10
82.15192345968538
 20
-125.1487633020463
 30
0.0
 10
82.20702734716845
 20
-125.1487633020463
 30
0.0
 10
82.26283886832307
 20
-125.1487633020463
 30
0.0
 10
82.30764164608979
 20
-125.1039958020574
 30
0.0
 10
82.30764164608979
 20
-125.0488566354043
 30
0.0
  0
SPLINE
  5
85
330
1F
100
AcDbEntity
  8
_U+30EC_U+30A4_U+30E4_U+30FC 1
 62
     7
420
 16777215
370
     9
100
AcDbSpline
210
0.0
220
0.0
230
1.0
 70
    11
 71
     3
 72
    17
 73
    13
 74
     0
 42
0.0000000001
 43
0.0000000001
 12
1.0
 22
0.0
 32
0.0
 13
1.0
 23
0.0
 33
0.0
 40
0.0
 40
0.0
 40
0.0
 40
0.0
 40
1.0
 40
1.0
 40
1.0
 40
2.0
 40
2.0
 40
2.0
 40
3.0
 40
3.0
 40
3.0
 40
4.0
 40
4.0
 40
4.0
 40
4.0
 10
83.30741386806201
 20
-125.0488566354043
 30
0.0
 10
83.30741386806201
 20
-124.9937527465294
 30
0.0
 10
83.26261109029562
 20
-124.9489499687627
 30
0.0
 10
83.20750509942191
 20
-124.9489499687627
 30
0.0
 10
83.15236593416196
 20
-124.9489499687627
 30
0.0
 10
83.10759843530408
 20
-124.9937527465294
 30
0.0
 10
83.10759843530408
 20
-125.0488566354043
 30
0.0
 10
83.10759843530408
 20
-125.1039958020574
 30
0.0
 10
83.15236593416196
 20
-125.1487633020463
 30
0.0
 10
83.20750509942191
 20
-125.1487633020463
 30
0.0
 10
83.26261109029562
 20
-125.1487633020463
 30
0.0
 10
83.30741386806201
 20
-125.1039958020574
 30
0.0
 10
83.30741386806201
 20
-125.0488566354043
 30
0.0
  0
SPLINE
  5
86
330
1F
100
AcDbEntity
  8
_U+30EC_U+30A4_U+30E4_U+30FC 1
 62
     7
420
 16777215
370
     9
100
AcDbSpline
210
0.0
220
0.0
230
1.0
 70
    11
 71
     3
 72
    17
 73
    13
 74
     0
 42
0.0000000001
 43
0.0000000001
 12
1.0
 22
0.0
 32
0.0
 13
1.0
 23
0.0
 33
0.0
 40
0.0
 40
0.0
 40
0.0
 40
0.0
 40
1.0
 40
1.0
 40
1.0
 40
2.0
 40
2.0
 40
2.0
 40
3.0
 40
3.0
 40
3.0
 40
4.0
 40
4.0
 40
4.0
 40
4.0
 10
98.30992138079384
 20
-139.5491169095571
 30
0.0
 10
98.30992138079384
 20
-139.493977742904
 30
0.0
 10
98.26515388193596
 20
-139.4492102429155
 30
0.0
 10
98.21001471667601
 20
-139.4492102429155
 30
0.0
 10
98.15491082919294
 20
-139.4492102429155
 30
0.0
 10
98.11010805255818
 20
-139.493977742904
 30
0.0
 10
98.11010805255818
 20
-139.5491169095571
 30
0.0
 10
98.11010805255818
 20
-139.604220798432
 30
0.0
 10
98.15491082919294
 20
-139.6490235761987
 30
0.0
 10
98.21001471667601
 20
-139.6490235761987
 30
0.0
 10
98.26515388193596
 20
-139.6490235761987
 30
0.0
 10
98.30992138079384
 20
-139.604220798432
 30
0.0
 10
98.30992138079384
 20
-139.5491169095571
 30
0.0
  0
SPLINE
  5
87
330
1F
100
AcDbEntity
  8
_U+30EC_U+30A4_U+30E4_U+30FC 1
 62
     7
420
 16777215
370
     9
100
AcDbSpline
210
0.0
220
0.0
230
1.0
 70
    11
 71
     3
 72
    17
 73
    13
 74
     0
 42
0.0000000001
 43
0.0000000001
 12
1.0
 22
0.0
 32
0.0
 13
1.0
 23
0.0
 33
0.0
 40
0.0
 40
0.0
 40
0.0
 40
0.0
 40
1.0
 40
1.0
 40
1.0
 40
2.0
 40
2.0
 40
2.0
 40
3.0
 40
3.0
 40
3.0
 40
4.0
 40
4.0
 40
4.0
 40
4.0
 10
82.30764164608979
 20
-139.5491169095571
 30
0.0
 10
82.30764164608979
 20
-139.493977742904
 30
0.0
 10
82.26283886832307
 20
-139.4492102429155
 30
0.0
 10
82.20702734716845
 20
-139.4492102429155
 30
0.0
 10
82.15192345968538
 20
-139.4492102429155
 30
0.0
 10
82.10712068305061
 20
-139.493977742904
 30
0.0
 10
82.10712068305061
 20
-139.5491169095571
 30
0.0
 10
82.10712068305061
 20
-139.604220798432
 30
0.0
 10
82.15192345968538
 20
-139.6490235761987
 30
0.0
 10
82.20702734716845
 20
-139.6490235761987
 30
0.0
 10
82.26283886832307
 20
-139.6490235761987
 30
0.0
 10
82.30764164608979
 20
-139.604220798432
 30
0.0
 10
82.30764164608979
 20
-139.5491169095571
 30
0.0
  0
SPLINE
  5
88
330
1F
100
AcDbEntity
  8
_U+30EC_U+30A4_U+30E4_U+30FC 1
 62
     7
420
 16777215
370
    25
100
AcDbSpline
210
0.0
220
0.0
230
1.0
 70
     8
 71
     3
 72
     8
 73
     4
 74
     0
 42
0.0000000001
 43
0.0000000001
 12
1.0
 22
0.0
 32
0.0
 13
1.0
 23
0.0
 33
0.0
 40
0.0
 40
0.0
 40
0.0
 40
0.0
 40
1.0
 40
1.0
 40
1.0
 40
1.0
 10
83.20750509942191
 20
-123.0486419136822
 30
0.0
 10
83.20750509942191
 20
-122.4967563582648
 30
0.0
 10
82.75961844418178
 20
-122.04886969171
 30
0.0
 10
82.20702734716845
 20
-122.04886969171
 30
0.0
  0
SPLINE
  5
89
330
1F
100
AcDbEntity
  8
_U+30EC_U+30A4_U+30E4_U+30FC 1
 62
     7
420
 16777215
370
    25
100
AcDbSpline
210
0.0
220
0.0
230
1.0
 70
     8
 71
     3
 72
     8
 73
     4
 74
     0
 42
0.0000000001
 43
0.0000000001
 12
1.0
 22
0.0
 32
0.0
 13
1.0
 23
0.0
 33
0.0
 40
0.0
 40
0.0
 40
0.0
 40
0.0
 40
1.0
 40
1.0
 40
1.0
 40
1.0
 10
90.20725103195463
 20
-130.0489171897097
 30
0.0
 10
90.20725103195463
 20
-129.4963260787369
 30
0.0
 10
89.75936664422672
 20
-129.0484394121823
 30
0.0
 10
89.20747883523872
 20
-129.0484394121823
 30
0.0
  0
SPLINE
  5
8A
330
1F
100
AcDbEntity
  8
_U+30EC_U+30A4_U+30E4_U+30FC 1
 62
     7
420
 16777215
370
    25
100
AcDbSpline
210
0.0
220
0.0
230
1.0
 70
     8
 71
     3
 72
     8
 73
     4
 74
     0
 42
0.0000000001
 43
0.0000000001
 12
1.0
 22
0.0
 32
0.0
 13
1.0
 23
0.0
 33
0.0
 40
0.0
 40
0.0
 40
0.0
 40
0.0
 40
1.0
 40
1.0
 40
1.0
 40
1.0
 10
98.21001471667601
 20
-135.5486521883354
 30
0.0
 10
98.21001471667601
 20
-135.1070096884453
 30
0.0
 10
97.85173608664819
 20
-134.7486932996461
 30
0.0
 10
97.41005830898068
 20
-134.7486932996461
 30
0.0
  0
SPLINE
  5
8B
330
1F
100
AcDbEntity
  8
_U+30EC_U+30A4_U+30E4_U+30FC 1
 62
     7
420
 16777215
370
     9
100
AcDbSpline
210
0.0
220
0.0
230
1.0
 70
    11
 71
     3
 72
    17
 73
    13
 74
     0
 42
0.0000000001
 43
0.0000000001
 12
1.0
 22
0.0
 32
0.0
 13
1.0
 23
0.0
 33
0.0
 40
0.0
 40
0.0
 40
0.0
 40
0.0
 40
1.0
 40
1.0
 40
1.0
 40
2.0
 40
2.0
 40
2.0
 40
3.0
 40
3.0
 40
3.0
 40
4.0
 40
4.0
 40
4.0
 40
4.0
 10
78.30717494666197
 20
-122.04886969171
 30
0.0
 10
78.30717494666197
 20
-121.993765802835
 30
0.0
 10
78.2624074478041
 20
-121.9489630250683
 30
0.0
 10
78.20726828254413
 20
-121.9489630250683
 30
0.0
 10
78.15216439506106
 20
-121.9489630250683
 30
0.0
 10
78.10736161842631
 20
-121.993765802835
 30
0.0
 10
78.10736161842631
 20
-122.04886969171
 30
0.0
 10
78.10736161842631
 20
-122.104008858363
 30
0.0
 10
78.15216439506106
 20
-122.1487763583516
 30
0.0
 10
78.20726828254413
 20
-122.1487763583516
 30
0.0
 10
78.2624074478041
 20
-122.1487763583516
 30
0.0
 10
78.30717494666197
 20
-122.104008858363
 30
0.0
 10
78.30717494666197
 20
-122.04886969171
 30
0.0
  0
SPLINE
  5
8C
330
1F
100
AcDbEntity
  8
_U+30EC_U+30A4_U+30E4_U+30FC 1
 62
     7
420
 16777215
370
     9
100
AcDbSpline
210
0.0
220
0.0
230
1.0
 70
    11
 71
     3
 72
    17
 73
    13
 74
     0
 42
0.0000000001
 43
0.0000000001
 12
1.0
 22
0.0
 32
0.0
 13
1.0
 23
0.0
 33
0.0
 40
0.0
 40
0.0
 40
0.0
 40
0.0
 40
1.0
 40
1.0
 40
1.0
 40
2.0
 40
2.0
 40
2.0
 40
3.0
 40
3.0
 40
3.0
 40
4.0
 40
4.0
 40
4.0
 40
4.0
 10
78.30717494666197
 20
-135.4480752439157
 30
0.0
 10
78.30717494666197
 20
-135.3929360772626
 30
0.0
 10
78.2624074478041
 20
-135.3481685772741
 30
0.0
 10
78.20726828254413
 20
-135.3481685772741
 30
0.0
 10
78.15216439506106
 20
-135.3481685772741
 30
0.0
 10
78.10736161842631
 20
-135.3929360772626
 30
0.0
 10
78.10736161842631
 20
-135.4480752439157
 30
0.0
 10
78.10736161842631
 20
-135.5038846883461
 30
0.0
 10
78.15216439506106
 20
-135.5486521883354
 30
0.0
 10
78.20726828254413
 20
-135.5486521883354
 30
0.0
 10
78.2624074478041
 20
-135.5486521883354
 30
0.0
 10
78.30717494666197
 20
-135.5038846883461
 30
0.0
 10
78.30717494666197
 20
-135.4480752439157
 30
0.0
  0
SPLINE
  5
8D
330
1F
100
AcDbEntity
  8
_U+30EC_U+30A4_U+30E4_U+30FC 1
 62
     7
420
 16777215
370
     9
100
AcDbSpline
210
0.0
220
0.0
230
1.0
 70
    11
 71
     3
 72
    17
 73
    13
 74
     0
 42
0.0000000001
 43
0.0000000001
 12
1.0
 22
0.0
 32
0.0
 13
1.0
 23
0.0
 33
0.0
 40
0.0
 40
0.0
 40
0.0
 40
0.0
 40
1.0
 40
1.0
 40
1.0
 40
2.0
 40
2.0
 40
2.0
 40
3.0
 40
3.0
 40
3.0
 40
4.0
 40
4.0
 40
4.0
 40
4.0
 10
102.3096804454182
 20
-122.04886969171
 30
0.0
 10
102.3096804454182
 20
-121.993765802835
 30
0.0
 10
102.2649129465603
 20
-121.9489630250683
 30
0.0
 10
102.2097737813003
 20
-121.9489630250683
 30
0.0
 10
102.1546698938172
 20
-121.9489630250683
 30
0.0
 10
102.1098671171825
 20
-121.993765802835
 30
0.0
 10
102.1098671171825
 20
-122.04886969171
 30
0.0
 10
102.1098671171825
 20
-122.104008858363
 30
0.0
 10
102.1546698938172
 20
-122.1487763583516
 30
0.0
 10
102.2097737813003
 20
-122.1487763583516
 30
0.0
 10
102.2649129465603
 20
-122.1487763583516
 30
0.0
 10
102.3096804454182
 20
-122.104008858363
 30
0.0
 10
102.3096804454182
 20
-122.04886969171
 30
0.0
  0
SPLINE
  5
8E
330
1F
100
AcDbEntity
  8
_U+30EC_U+30A4_U+30E4_U+30FC 1
 62
     7
420
 16777215
370
     9
100
AcDbSpline
210
0.0
220
0.0
230
1.0
 70
    11
 71
     3
 72
    17
 73
    13
 74
     0
 42
0.0000000001
 43
0.0000000001
 12
1.0
 22
0.0
 32
0.0
 13
1.0
 23
0.0
 33
0.0
 40
0.0
 40
0.0
 40
0.0
 40
0.0
 40
1.0
 40
1.0
 40
1.0
 40
2.0
 40
2.0
 40
2.0
 40
3.0
 40
3.0
 40
3.0
 40
4.0
 40
4.0
 40
4.0
 40
4.0
 10
102.3096804454182
 20
-130.0489171897097
 30
0.0
 10
102.3096804454182
 20
-129.9931077452793
 30
0.0
 10
102.2649129465603
 20
-129.9483049675132
 30
0.0
 10
102.2097737813003
 20
-129.9483049675132
 30
0.0
 10
102.1546698938172
 20
-129.9483049675132
 30
0.0
 10
102.1098671171825
 20
-129.9931077452793
 30
0.0
 10
102.1098671171825
 20
-130.0489171897097
 30
0.0
 10
102.1098671171825
 20
-130.1040210785853
 30
0.0
 10
102.1546698938172
 20
-130.148823856352
 30
0.0
 10
102.2097737813003
 20
-130.148823856352
 30
0.0
 10
102.2649129465603
 20
-130.148823856352
 30
0.0
 10
102.3096804454182
 20
-130.1040210785853
 30
0.0
 10
102.3096804454182
 20
-130.0489171897097
 30
0.0
  0
SPLINE
  5
8F
330
1F
100
AcDbEntity
  8
_U+30EC_U+30A4_U+30E4_U+30FC 1
 62
     7
420
 16777215
370
     9
100
AcDbSpline
210
0.0
220
0.0
230
1.0
 70
    11
 71
     3
 72
    17
 73
    13
 74
     0
 42
0.0000000001
 43
0.0000000001
 12
1.0
 22
0.0
 32
0.0
 13
1.0
 23
0.0
 33
0.0
 40
0.0
 40
0.0
 40
0.0
 40
0.0
 40
1.0
 40
1.0
 40
1.0
 40
2.0
 40
2.0
 40
2.0
 40
3.0
 40
3.0
 40
3.0
 40
4.0
 40
4.0
 40
4.0
 40
4.0
 10
102.3096804454182
 20
-134.4489732997212
 30
0.0
 10
102.3096804454182
 20
-134.3938694108462
 30
0.0
 10
102.2649129465603
 20
-134.3490666330795
 30
0.0
 10
102.2097737813003
 20
-134.3490666330795
 30
0.0
 10
102.1546698938172
 20
-134.3490666330795
 30
0.0
 10
102.1098671171825
 20
-134.3938694108462
 30
0.0
 10
102.1098671171825
 20
-134.4489732997212
 30
0.0
 10
102.1098671171825
 20
-134.5041124663742
 30
0.0
 10
102.1546698938172
 20
-134.5488799663628
 30
0.0
 10
102.2097737813003
 20
-134.5488799663628
 30
0.0
 10
102.2649129465603
 20
-134.5488799663628
 30
0.0
 10
102.3096804454182
 20
-134.5041124663742
 30
0.0
 10
102.3096804454182
 20
-134.4489732997212
 30
0.0
  0
POLYLINE
  5
90
330
1F
100
AcDbEntity
  8
_U+30EC_U+30A4_U+30E4_U+30FC 1
 62
     7
420
 16777215
370
     9
100
AcDb2dPolyline
 66
     1
 10
0.0
 20
0.0
 30
0.0
  0
VERTEX
  5
91
330
90
100
AcDbEntity
  8
_U+30EC_U+30A4_U+30E4_U+30FC 1
 62
     7
420
 16777215
370
     9
100
AcDbVertex
100
AcDb2dVertex
 10
83.20750509942191
 20
-125.0488566354043
 30
0.0
  0
VERTEX
  5
92
330
90
100
AcDbEntity
  8
_U+30EC_U+30A4_U+30E4_U+30FC 1
 62
     7
420
 16777215
370
     9
100
AcDbVertex
100
AcDb2dVertex
 10
86.97781750323323
 20
-125.0488566354043
 30
0.0
  0
SEQEND
  5
93
330
90
100
AcDbEntity
  8
_U+30EC_U+30A4_U+30E4_U+30FC 1
 62
     7
420
 16777215
370
     9
  0
POLYLINE
  5
94
330
1F
100
AcDbEntity
  8
_U+30EC_U+30A4_U+30E4_U+30FC 1
 62
     7
420
 16777215
370
     9
100
AcDb2dPolyline
 66
     1
 10
0.0
 20
0.0
 30
0.0
  0
VERTEX
  5
95
330
94
100
AcDbEntity
  8
_U+30EC_U+30A4_U+30E4_U+30FC 1
 62
     7
420
 16777215
370
     9
100
AcDbVertex
100
AcDb2dVertex
 10
81.20725515045254
 20
-125.0488566354043
 30
0.0
  0
VERTEX
  5
96
330
94
100
AcDbEntity
  8
_U+30EC_U+30A4_U+30E4_U+30FC 1
 62
     7
420
 16777215
370
     9
100
AcDbVertex
100
AcDb2dVertex
 10
83.20750509942191
 20
-125.0488566354043
 30
0.0
  0
SEQEND
  5
97
330
94
100
AcDbEntity
  8
_U+30EC_U+30A4_U+30E4_U+30FC 1
 62
     7
420
 16777215
370
     9
  0
INSERT
  5
99
330
1F
100
AcDbEntity
  8
_U+30EC_U+30A4_U+30E4_U+30FC 1
100
AcDbBlockReference
  2
block 3
 10
0.0
 20
0.0
 30
0.0
  0
POLYLINE
  5
9E
330
1F
100
AcDbEntity
  8
_U+30EC_U+30A4_U+30E4_U+30FC 1
 62
     7
420
 16777215
370
     9
100
AcDb2dPolyline
 66
     1
 10
0.0
 20
0.0
 30
0.0
  0
VERTEX
  5
9F
330
9E
100
AcDbEntity
  8
_U+30EC_U+30A4_U+30E4_U+30FC 1
 62
     7
420
 16777215
370
     9
100
AcDbVertex
100
AcDb2dVertex
 10
102.2097737813003
 20
-134.5488799663628
 30
0.0
  0
VERTEX
  5
A0
330
9E
100
AcDbEntity
  8
_U+30EC_U+30A4_U+30E4_U+30FC 1
 62
     7
420
 16777215
370
     9
100
AcDbVertex
100
AcDb2dVertex
 10
102.2097737813003
 20
-130.0489171897097
 30
0.0
  0
SEQEND
  5
A1
330
9E
100
AcDbEntity
  8
_U+30EC_U+30A4_U+30E4_U+30FC 1
 62
     7
420
 16777215
370
     9
  0
POLYLINE
  5
A2
330
1F
100
AcDbEntity
  8
_U+30EC_U+30A4_U+30E4_U+30FC 1
 62
     7
420
 16777215
370
     9
100
AcDb2dPolyline
 66
     1
 10
0.0
 20
0.0
 30
0.0
  0
VERTEX
  5
A3
330
A2
100
AcDbEntity
  8
_U+30EC_U+30A4_U+30E4_U+30FC 1
 62
     7
420
 16777215
370
     9
100
AcDbVertex
100
AcDb2dVertex
 10
95.74748477950038
 20
-134.4489732997212
 30
0.0
  0
VERTEX
  5
A4
330
A2
100
AcDbEntity
  8
_U+30EC_U+30A4_U+30E4_U+30FC 1
 62
     7
420
 16777215
370
     9
100
AcDbVertex
100
AcDb2dVertex
 10
103.2095459780162
 20
-134.4489732997212
 30
0.0
  0
SEQEND
  5
A5
330
A2
100
AcDbEntity
  8
_U+30EC_U+30A4_U+30E4_U+30FC 1
 62
     7
420
 16777215
370
     9
  0
POLYLINE
  5
A6
330
1F
100
AcDbEntity
  8
_U+30EC_U+30A4_U+30E4_U+30FC 1
 62
     7
420
 16777215
370
     9
100
AcDb2dPolyline
 66
     1
 10
0.0
 20
0.0
 30
0.0
  0
VERTEX
  5
A7
330
A6
100
AcDbEntity
  8
_U+30EC_U+30A4_U+30E4_U+30FC 1
 62
     7
420
 16777215
370
     9
100
AcDbVertex
100
AcDb2dVertex
 10
95.74748477950038
 20
-130.0489171897097
 30
0.0
  0
VERTEX
  5
A8
330
A6
100
AcDbEntity
  8
_U+30EC_U+30A4_U+30E4_U+30FC 1
 62
     7
420
 16777215
370
     9
100
AcDbVertex
100
AcDb2dVertex
 10
103.2095459780162
 20
-130.0489171897097
 30
0.0
  0
SEQEND
  5
A9
330
A6
100
AcDbEntity
  8
_U+30EC_U+30A4_U+30E4_U+30FC 1
 62
     7
420
 16777215
370
     9
  0
SPLINE
  5
AA
330
1F
100
AcDbEntity
  8
_U+30EC_U+30A4_U+30E4_U+30FC 1
 62
     7
420
 16777215
370
     9
100
AcDbSpline
210
0.0
220
0.0
230
1.0
 70
    11
 71
     3
 72
    17
 73
    13
 74
     0
 42
0.0000000001
 43
0.0000000001
 12
1.0
 22
0.0
 32
0.0
 13
1.0
 23
0.0
 33
0.0
 40
0.0
 40
0.0
 40
0.0
 40
0.0
 40
1.0
 40
1.0
 40
1.0
 40
2.0
 40
2.0
 40
2.0
 40
3.0
 40
3.0
 40
3.0
 40
4.0
 40
4.0
 40
4.0
 40
4.0
 10
102.3096804454182
 20
-129.0484394121823
 30
0.0
 10
102.3096804454182
 20
-128.9933355233074
 30
0.0
 10
102.2649129465603
 20
-128.9485327455407
 30
0.0
 10
102.2097737813003
 20
-128.9485327455407
 30
0.0
 10
102.1546698938172
 20
-128.9485327455407
 30
0.0
 10
102.1098671171825
 20
-128.9933355233074
 30
0.0
 10
102.1098671171825
 20
-129.0484394121823
 30
0.0
 10
102.1098671171825
 20
-129.1035785788354
 30
0.0
 10
102.1546698938172
 20
-129.1483460788239
 30
0.0
 10
102.2097737813003
 20
-129.1483460788239
 30
0.0
 10
102.2649129465603
 20
-129.1483460788239
 30
0.0
 10
102.3096804454182
 20
-129.1035785788354
 30
0.0
 10
102.3096804454182
 20
-129.0484394121823
 30
0.0
  0
POLYLINE
  5
AB
330
1F
100
AcDbEntity
  8
_U+30EC_U+30A4_U+30E4_U+30FC 1
 62
     7
420
 16777215
370
     9
100
AcDb2dPolyline
 66
     1
 10
0.0
 20
0.0
 30
0.0
  0
VERTEX
  5
AC
330
AB
100
AcDbEntity
  8
_U+30EC_U+30A4_U+30E4_U+30FC 1
 62
     7
420
 16777215
370
     9
100
AcDbVertex
100
AcDb2dVertex
 10
95.74748477950038
 20
-129.0484394121823
 30
0.0
  0
VERTEX
  5
AD
330
AB
100
AcDbEntity
  8
_U+30EC_U+30A4_U+30E4_U+30FC 1
 62
     7
420
 16777215
370
     9
100
AcDbVertex
100
AcDb2dVertex
 10
103.2095459780162
 20
-129.0484394121823
 30
0.0
  0
SEQEND
  5
AE
330
AB
100
AcDbEntity
  8
_U+30EC_U+30A4_U+30E4_U+30FC 1
 62
     7
420
 16777215
370
     9
  0
INSERT
  5
B0
330
1F
100
AcDbEntity
  8
_U+30EC_U+30A4_U+30E4_U+30FC 1
100
AcDbBlockReference
  2
block 4
 10
0.0
 20
0.0
 30
0.0
  0
POLYLINE
  5
D2
330
1F
100
AcDbEntity
  8
_U+30EC_U+30A4_U+30E4_U+30FC 1
 62
     7
420
 16777215
370
     9
100
AcDb2dPolyline
 66
     1
 10
0.0
 20
0.0
 30
0.0
  0
VERTEX
  5
D3
330
D2
100
AcDbEntity
  8
_U+30EC_U+30A4_U+30E4_U+30FC 1
 62
     7
420
 16777215
370
     9
100
AcDbVertex
100
AcDb2dVertex
 10
102.2097737813003
 20
-130.0489171897097
 30
0.0
  0
VERTEX
  5
D4
330
D2
100
AcDbEntity
  8
_U+30EC_U+30A4_U+30E4_U+30FC 1
 62
     7
420
 16777215
370
     9
100
AcDbVertex
100
AcDb2dVertex
 10
102.2097737813003
 20
-122.04886969171
 30
0.0
  0
SEQEND
  5
D5
330
D2
100
AcDbEntity
  8
_U+30EC_U+30A4_U+30E4_U+30FC 1
 62
     7
420
 16777215
370
     9
  0
POLYLINE
  5
D6
330
1F
100
AcDbEntity
  8
_U+30EC_U+30A4_U+30E4_U+30FC 1
 62
     7
420
 16777215
370
     9
100
AcDb2dPolyline
 66
     1
 10
0.0
 20
0.0
 30
0.0
  0
VERTEX
  5
D7
330
D6
100
AcDbEntity
  8
_U+30EC_U+30A4_U+30E4_U+30FC 1
 62
     7
420
 16777215
370
     9
100
AcDbVertex
100
AcDb2dVertex
 10
84.74745275659102
 20
-122.04886969171
 30
0.0
  0
VERTEX
  5
D8
330
D6
100
AcDbEntity
  8
_U+30EC_U+30A4_U+30E4_U+30FC 1
 62
     7
420
 16777215
370
     9
100
AcDbVertex
100
AcDb2dVertex
 10
103.2095459780162
 20
-122.04886969171
 30
0.0
  0
SEQEND
  5
D9
330
D6
100
AcDbEntity
  8
_U+30EC_U+30A4_U+30E4_U+30FC 1
 62
     7
420
 16777215
370
     9
  0
INSERT
  5
DB
330
1F
100
AcDbEntity
  8
_U+30EC_U+30A4_U+30E4_U+30FC 1
100
AcDbBlockReference
  2
block 5
 10
0.0
 20
0.0
 30
0.0
  0
POLYLINE
  5
E0
330
1F
100
AcDbEntity
  8
_U+30EC_U+30A4_U+30E4_U+30FC 1
 62
     7
420
 16777215
370
     9
100
AcDb2dPolyline
 66
     1
 10
0.0
 20
0.0
 30
0.0
  0
VERTEX
  5
E1
330
E0
100
AcDbEntity
  8
_U+30EC_U+30A4_U+30E4_U+30FC 1
 62
     7
420
 16777215
370
     9
100
AcDbVertex
100
AcDb2dVertex
 10
78.20726828254413
 20
-135.5486521883354
 30
0.0
  0
VERTEX
  5
E2
330
E0
100
AcDbEntity
  8
_U+30EC_U+30A4_U+30E4_U+30FC 1
 62
     7
420
 16777215
370
     9
100
AcDbVertex
100
AcDb2dVertex
 10
78.20726828254413
 20
-122.04886969171
 30
0.0
  0
SEQEND
  5
E3
330
E0
100
AcDbEntity
  8
_U+30EC_U+30A4_U+30E4_U+30FC 1
 62
     7
420
 16777215
370
     9
  0
POLYLINE
  5
E4
330
1F
100
AcDbEntity
  8
_U+30EC_U+30A4_U+30E4_U+30FC 1
 62
     7
420
 16777215
370
     9
100
AcDb2dPolyline
 66
     1
 10
0.0
 20
0.0
 30
0.0
  0
VERTEX
  5
E5
330
E4
100
AcDbEntity
  8
_U+30EC_U+30A4_U+30E4_U+30FC 1
 62
     7
420
 16777215
370
     9
100
AcDbVertex
100
AcDb2dVertex
 10
80.66708183090017
 20
-135.4480752439157
 30
0.0
  0
VERTEX
  5
E6
330
E4
100
AcDbEntity
  8
_U+30EC_U+30A4_U+30E4_U+30FC 1
 62
     7
420
 16777215
370
     9
100
AcDbVertex
100
AcDb2dVertex
 10
77.20753331403137
 20
-135.4480752439157
 30
0.0
  0
SEQEND
  5
E7
330
E4
100
AcDbEntity
  8
_U+30EC_U+30A4_U+30E4_U+30FC 1
 62
     7
420
 16777215
370
     9
  0
POLYLINE
  5
E8
330
1F
100
AcDbEntity
  8
_U+30EC_U+30A4_U+30E4_U+30FC 1
 62
     7
420
 16777215
370
     9
100
AcDb2dPolyline
 66
     1
 10
0.0
 20
0.0
 30
0.0
  0
VERTEX
  5
E9
330
E8
100
AcDbEntity
  8
_U+30EC_U+30A4_U+30E4_U+30FC 1
 62
     7
420
 16777215
370
     9
100
AcDbVertex
100
AcDb2dVertex
 10
79.66730963418426
 20
-122.04886969171
 30
0.0
  0
VERTEX
  5
EA
330
E8
100
AcDbEntity
  8
_U+30EC_U+30A4_U+30E4_U+30FC 1
 62
     7
420
 16777215
370
     9
100
AcDbVertex
100
AcDb2dVertex
 10
77.20753331403137
 20
-122.04886969171
 30
0.0
  0
SEQEND
  5
EB
330
E8
100
AcDbEntity
  8
_U+30EC_U+30A4_U+30E4_U+30FC 1
 62
     7
420
 16777215
370
     9
  0
INSERT
  5
ED
330
1F
100
AcDbEntity
  8
_U+30EC_U+30A4_U+30E4_U+30FC 1
100
AcDbBlockReference
  2
block 6
 10
0.0
 20
0.0
 30
0.0
  0
POLYLINE
  5
FE
330
1F
100
AcDbEntity
  8
_U+30EC_U+30A4_U+30E4_U+30FC 1
 62
     7
420
 16777215
370
     9
100
AcDb2dPolyline
 66
     1
 10
0.0
 20
0.0
 30
0.0
  0
VERTEX
  5
FF
330
FE
100
AcDbEntity
  8
_U+30EC_U+30A4_U+30E4_U+30FC 1
 62
     7
420
 16777215
370
     9
100
AcDbVertex
100
AcDb2dVertex
 10
82.20702734716845
 20
-139.5491169095571
 30
0.0
  0
VERTEX
  5
100
330
FE
100
AcDbEntity
  8
_U+30EC_U+30A4_U+30E4_U+30FC 1
 62
     7
420
 16777215
370
     9
100
AcDbVertex
100
AcDb2dVertex
 10
98.21001471667601
 20
-139.5491169095571
 30
0.0
  0
SEQEND
  5
101
330
FE
100
AcDbEntity
  8
_U+30EC_U+30A4_U+30E4_U+30FC 1
 62
     7
420
 16777215
370
     9
  0
POLYLINE
  5
102
330
1F
100
AcDbEntity
  8
_U+30EC_U+30A4_U+30E4_U+30FC 1
 62
     7
420
 16777215
370
     9
100
AcDb2dPolyline
 66
     1
 10
0.0
 20
0.0
 30
0.0
  0
VERTEX
  5
103
330
102
100
AcDbEntity
  8
_U+30EC_U+30A4_U+30E4_U+30FC 1
 62
     7
420
 16777215
370
     9
100
AcDbVertex
100
AcDb2dVertex
 10
82.20702734716845
 20
-137.0886330212835
 30
0.0
  0
VERTEX
  5
104
330
102
100
AcDbEntity
  8
_U+30EC_U+30A4_U+30E4_U+30FC 1
 62
     7
420
 16777215
370
     9
100
AcDbVertex
100
AcDb2dVertex
 10
82.20702734716845
 20
-140.5488891315296
 30
0.0
  0
SEQEND
  5
105
330
102
100
AcDbEntity
  8
_U+30EC_U+30A4_U+30E4_U+30FC 1
 62
     7
420
 16777215
370
     9
  0
POLYLINE
  5
106
330
1F
100
AcDbEntity
  8
_U+30EC_U+30A4_U+30E4_U+30FC 1
 62
     7
420
 16777215
370
     9
100
AcDb2dPolyline
 66
     1
 10
0.0
 20
0.0
 30
0.0
  0
VERTEX
  5
107
330
106
100
AcDbEntity
  8
_U+30EC_U+30A4_U+30E4_U+30FC 1
 62
     7
420
 16777215
370
     9
100
AcDbVertex
100
AcDb2dVertex
 10
98.21001471667601
 20
-138.0890755210334
 30
0.0
  0
VERTEX
  5
108
330
106
100
AcDbEntity
  8
_U+30EC_U+30A4_U+30E4_U+30FC 1
 62
     7
420
 16777215
370
     9
100
AcDbVertex
100
AcDb2dVertex
 10
98.21001471667601
 20
-140.5488891315296
 30
0.0
  0
SEQEND
  5
109
330
106
100
AcDbEntity
  8
_U+30EC_U+30A4_U+30E4_U+30FC 1
 62
     7
420
 16777215
370
     9
  0
INSERT
  5
10B
330
1F
100
AcDbEntity
  8
_U+30EC_U+30A4_U+30E4_U+30FC 1
100
AcDbBlockReference
  2
block 7
 10
0.0
 20
0.0
 30
0.0
  0
ENDSEC
  0
SECTION
  2
OBJECTS
  0
DICTIONARY
  5
C
330
0
100
AcDbDictionary
281
     1
  3
ACAD_GROUP
350
D
  3
ACAD_LAYOUT
350
1A
  3
ACAD_MATERIAL
350
3B
  3
ACAD_MLEADERSTYLE
350
114
  3
ACAD_MLINESTYLE
350
17
  3
ACAD_PLOTSETTINGS
350
19
  3
ACAD_PLOTSTYLENAME
350
E
  3
ACAD_TABLESTYLE
350
113
  3
ACAD_VISUALSTYLE
350
2A
  0
SUN
  5
3F
330
29
100
AcDbSun
 90
        1
290
     0
 63
     7
421
 16777215
 40
1.0
291
     1
 91
  2455826
 92
 54000000
292
     0
 70
     2
 71
   256
280
     1
  0
DICTIONARY
  5
D
102
{ACAD_REACTORS
330
C
102
}
330
C
100
AcDbDictionary
281
     1
  0
DICTIONARY
  5
1A
102
{ACAD_REACTORS
330
C
102
}
330
C
100
AcDbDictionary
281
     1
  3
Layout1
350
1E
  3
Layout2
350
26
  3
Model
350
22
  0
DICTIONARY
  5
3B
102
{ACAD_REACTORS
330
C
102
}
330
C
100
AcDbDictionary
281
     1
  3
ByBlock
350
3D
  3
ByLayer
350
3C
  3
Global
350
3E
  0
DICTIONARY
  5
114
102
{ACAD_REACTORS
330
C
102
}
330
C
100
AcDbDictionary
281
     1
  0
DICTIONARY
  5
17
102
{ACAD_REACTORS
330
C
102
}
330
C
100
AcDbDictionary
281
     1
  3
Standard
350
18
  0
DICTIONARY
  5
19
102
{ACAD_REACTORS
330
C
102
}
330
C
100
AcDbDictionary
281
     1
  0
ACDBDICTIONARYWDFLT
  5
E
102
{ACAD_REACTORS
330
C
102
}
330
C
100
AcDbDictionary
281
     1
  3
Normal
350
F
100
AcDbDictionaryWithDefault
340
F
  0
DICTIONARY
  5
113
102
{ACAD_REACTORS
330
C
102
}
330
C
100
AcDbDictionary
281
     1
  0
DICTIONARY
  5
2A
102
{ACAD_REACTORS
330
C
102
}
330
C
100
AcDbDictionary
281
     1
  3
2dWireframe
350
2F
  3
3D Hidden
350
31
  3
3dWireframe
350
30
  3
Basic
350
32
  3
Brighten
350
36
  3
ColorChange
350
3A
  3
Conceptual
350
34
  3
Dim
350
35
  3
Facepattern
350
39
  3
Flat
350
2B
  3
FlatWithEdges
350
2C
  3
Gouraud
350
2D
  3
GouraudWithEdges
350
2E
  3
Linepattern
350
38
  3
Realistic
350
33
  3
Thicken
350
37
  0
LAYOUT
  5
1E
102
{ACAD_REACTORS
330
1A
102
}
330
1A
100
AcDbPlotSettings
  1

  2
none_device
  4

  6

 40
0.0
 41
0.0
 42
0.0
 43
0.0
 44
0.0
 45
0.0
 46
0.0
 47
0.0
 48
0.0
 49
0.0
140
0.0
141
0.0
142
1.0
143
1.0
 70
   688
 72
     0
 73
     0
 74
     5
  7

 75
    16
 76
     0
 77
     2
 78
   300
147
1.0
148
0.0
149
0.0
100
AcDbLayout
  1
Layout1
 70
     1
 71
     1
 10
0.0
 20
0.0
 11
12.0
 21
9.0
 12
0.0
 22
0.0
 32
0.0
 14
1.000000000000000E+20
 24
1.000000000000000E+20
 34
1.000000000000000E+20
 15
-1.000000000000000E+20
 25
-1.000000000000000E+20
 35
-1.000000000000000E+20
146
0.0
 13
0.0
 23
0.0
 33
0.0
 16
1.0
 26
0.0
 36
0.0
 17
0.0
 27
1.0
 37
0.0
 76
     0
330
1B
  0
LAYOUT
  5
26
102
{ACAD_REACTORS
330
1A
102
}
330
1A
100
AcDbPlotSettings
  1

  2
none_device
  4

  6

 40
0.0
 41
0.0
 42
0.0
 43
0.0
 44
0.0
 45
0.0
 46
0.0
 47
0.0
 48
0.0
 49
0.0
140
0.0
141
0.0
142
1.0
143
1.0
 70
   688
 72
     0
 73
     0
 74
     5
  7

 75
    16
 76
     0
 77
     2
 78
   300
147
1.0
148
0.0
149
0.0
100
AcDbLayout
  1
Layout2
 70
     1
 71
     2
 10
0.0
 20
0.0
 11
0.0
 21
0.0
 12
0.0
 22
0.0
 32
0.0
 14
0.0
 24
0.0
 34
0.0
 15
0.0
 25
0.0
 35
0.0
146
0.0
 13
0.0
 23
0.0
 33
0.0
 16
1.0
 26
0.0
 36
0.0
 17
0.0
 27
1.0
 37
0.0
 76
     0
330
23
  0
LAYOUT
  5
22
102
{ACAD_REACTORS
330
1A
102
}
330
1A
100
AcDbPlotSettings
  1

  2
none_device
  4

  6

 40
0.0
 41
0.0
 42
0.0
 43
0.0
 44
0.0
 45
0.0
 46
0.0
 47
0.0
 48
0.0
 49
0.0
140
0.0
141
0.0
142
1.0
143
1.0
 70
  1712
 72
     0
 73
     0
 74
     0
  7

 75
     0
 76
     0
 77
     2
 78
   300
147
1.0
148
0.0
149
0.0
100
AcDbLayout
  1
Model
 70
     1
 71
     0
 10
0.0
 20
0.0
 11
12.0
 21
9.0
 12
0.0
 22
0.0
 32
0.0
 14
1.000000000000000E+20
 24
1.000000000000000E+20
 34
1.000000000000000E+20
 15
-1.000000000000000E+20
 25
-1.000000000000000E+20
 35
-1.000000000000000E+20
146
0.0
 13
0.0
 23
0.0
 33
0.0
 16
1.0
 26
0.0
 36
0.0
 17
0.0
 27
1.0
 37
0.0
 76
     0
330
1F
331
29
  0
MATERIAL
  5
3D
102
{ACAD_REACTORS
330
3B
102
}
330
3B
100
AcDbMaterial
  1
ByBlock
 72
     1
 94
      127
  0
MATERIAL
  5
3C
102
{ACAD_REACTORS
330
3B
102
}
330
3B
100
AcDbMaterial
  1
ByLayer
 72
     1
 94
      127
  0
MATERIAL
  5
3E
102
{ACAD_REACTORS
330
3B
102
}
330
3B
100
AcDbMaterial
  1
Global
 72
     1
 94
      127
  0
MLINESTYLE
  5
18
102
{ACAD_REACTORS
330
17
102
}
330
17
100
AcDbMlineStyle
  2
Standard
 70
     0
  3

 62
   256
 51
90.0
 52
90.0
 71
     2
 49
0.5
 62
   256
  6
BYLAYER
 49
-0.5
 62
   256
  6
BYLAYER
  0
ACDBPLACEHOLDER
  5
F
102
{ACAD_REACTORS
330
E
102
}
330
E
  0
VISUALSTYLE
  5
2F
102
{ACAD_REACTORS
330
2A
102
}
330
2A
100
AcDbVisualStyle
  2
2dWireframe
 70
     4
177
     2
291
     0
 71
     0
176
     1
 72
     2
176
     1
 73
     0
176
     1
 90
        0
176
     1
 40
-0.6
176
     1
 41
-30.0
176
     1
 62
     5
 63
     7
421
 16777215
176
     1
 74
     1
176
     1
 91
        4
176
     1
 64
     7
176
     1
 65
   257
176
     1
 75
     1
176
     1
175
     1
176
     1
 42
1.0
176
     1
 92
        0
176
     1
 66
   257
176
     1
 43
1.0
176
     1
 76
     1
176
     1
 77
     6
176
     1
 78
     2
176
     1
 67
     7
176
     1
 79
     5
176
     1
170
     0
176
     1
171
     0
176
     1
290
     0
176
     1
 93
        1
176
     1
 44
0.0
176
     1
173
     0
176
     1
  0
VISUALSTYLE
  5
31
102
{ACAD_REACTORS
330
2A
102
}
330
2A
100
AcDbVisualStyle
  2
3D Hidden
 70
     6
177
     2
291
     0
 71
     1
176
     1
 72
     2
176
     1
 73
     2
176
     1
 90
        0
176
     1
 40
-0.6
176
     1
 41
-30.0
176
     1
 62
     5
 63
     7
421
 16777215
176
     1
 74
     2
176
     1
 91
        2
176
     1
 64
     7
176
     1
 65
   257
176
     1
 75
     2
176
     1
175
     1
176
     1
 42
40.0
176
     1
 92
        0
176
     1
 66
   257
176
     1
 43
1.0
176
     1
 76
     1
176
     1
 77
     6
176
     1
 78
     2
176
     1
 67
     7
176
     1
 79
     3
176
     1
170
     0
176
     1
171
     0
176
     1
290
     0
176
     1
 93
        1
176
     1
 44
0.0
176
     1
173
     0
176
     1
  0
VISUALSTYLE
  5
30
102
{ACAD_REACTORS
330
2A
102
}
330
2A
100
AcDbVisualStyle
  2
3dWireframe
 70
     5
177
     2
291
     0
 71
     0
176
     1
 72
     2
176
     1
 73
     0
176
     1
 90
        0
176
     1
 40
-0.6
176
     1
 41
-30.0
176
     1
 62
     5
 63
     7
421
 16777215
176
     1
 74
     1
176
     1
 91
        4
176
     1
 64
     7
176
     1
 65
   257
176
     1
 75
     1
176
     1
175
     1
176
     1
 42
1.0
176
     1
 92
        0
176
     1
 66
   257
176
     1
 43
1.0
176
     1
 76
     1
176
     1
 77
     6
176
     1
 78
     2
176
     1
 67
     7
176
     1
 79
     5
176
     1
170
     0
176
     1
171
     0
176
     1
290
     0
176
     1
 93
        1
176
     1
 44
0.0
176
     1
173
     0
176
     1
  0
VISUALSTYLE
  5
32
102
{ACAD_REACTORS
330
2A
102
}
330
2A
100
AcDbVisualStyle
  2
Basic
 70
     7
177
     2
291
     1
 71
     1
176
     1
 72
     0
176
     1
 73
     1
176
     1
 90
        0
176
     1
 40
-0.6
176
     1
 41
-30.0
176
     1
 62
     5
 63
     7
421
 16777215
176
     1
 74
     0
176
     1
 91
        4
176
     1
 64
     7
176
     1
 65
   257
176
     1
 75
     1
176
     1
175
     1
176
     1
 42
1.0
176
     1
 92
        8
176
     1
 66
     7
176
     1
 43
1.0
176
     1
 76
     1
176
     1
 77
     6
176
     1
 78
     2
176
     1
 67
     7
176
     1
 79
     5
176
     1
170
     0
176
     1
171
     0
176
     1
290
     0
176
     1
 93
        1
176
     1
 44
0.0
176
     1
173
     0
176
     1
  0
VISUALSTYLE
  5
36
102
{ACAD_REACTORS
330
2A
102
}
330
2A
100
AcDbVisualStyle
  2
Brighten
 70
    12
177
     2
291
     1
 71
     2
176
     1
 72
     2
176
     1
 73
     0
176
     1
 90
        0
176
     1
 40
-0.6
176
     1
 41
-30.0
176
     1
 62
     5
 63
     7
421
 16777215
176
     1
 74
     1
176
     1
 91
        4
176
     1
 64
     7
176
     1
 65
   257
176
     1
 75
     1
176
     1
175
     1
176
     1
 42
1.0
176
     1
 92
        8
176
     1
 66
     7
176
     1
 43
1.0
176
     1
 76
     1
176
     1
 77
     6
176
     1
 78
     2
176
     1
 67
     7
176
     1
 79
     5
176
     1
170
     0
176
     1
171
     0
176
     1
290
     0
176
     1
 93
        1
176
     1
 44
50.0
176
     1
173
     0
176
     1
  0
VISUALSTYLE
  5
3A
102
{ACAD_REACTORS
330
2A
102
}
330
2A
100
AcDbVisualStyle
  2
ColorChange
 70
    16
177
     2
291
     1
 71
     2
176
     1
 72
     2
176
     1
 73
     3
176
     1
 90
        0
176
     1
 40
-0.6
176
     1
 41
-30.0
176
     1
 62
     5
 63
     8
421
  8421504
176
     1
 74
     1
176
     1
 91
        4
176
     1
 64
     7
176
     1
 65
   257
176
     1
 75
     1
176
     1
175
     1
176
     1
 42
1.0
176
     1
 92
        8
176
     1
 66
     8
424
  8421504
176
     1
 43
1.0
176
     1
 76
     1
176
     1
 77
     6
176
     1
 78
     2
176
     1
 67
     7
176
     1
 79
     5
176
     1
170
     0
176
     1
171
     0
176
     1
290
     0
176
     1
 93
        1
176
     1
 44
0.0
176
     1
173
     0
176
     1
  0
VISUALSTYLE
  5
34
102
{ACAD_REACTORS
330
2A
102
}
330
2A
100
AcDbVisualStyle
  2
Conceptual
 70
     9
177
     2
291
     0
 71
     3
176
     1
 72
     2
176
     1
 73
     0
176
     1
 90
        0
176
     1
 40
-0.6
176
     1
 41
-30.0
176
     1
 62
     5
 63
     7
421
 16777215
176
     1
 74
     2
176
     1
 91
        2
176
     1
 64
     7
176
     1
 65
   257
176
     1
 75
     1
176
     1
175
     1
176
     1
 42
40.0
176
     1
 92
        8
176
     1
 66
     7
176
     1
 43
1.0
176
     1
 76
     1
176
     1
 77
     6
176
     1
 78
     2
176
     1
 67
     7
176
     1
 79
     3
176
     1
170
     0
176
     1
171
     0
176
     1
290
     0
176
     1
 93
        1
176
     1
 44
0.0
176
     1
173
     0
176
     1
  0
VISUALSTYLE
  5
35
102
{ACAD_REACTORS
330
2A
102
}
330
2A
100
AcDbVisualStyle
  2
Dim
 70
    11
177
     2
291
     1
 71
     2
176
     1
 72
     2
176
     1
 73
     0
176
     1
 90
        0
176
     1
 40
-0.6
176
     1
 41
-30.0
176
     1
 62
     5
 63
     7
421
 16777215
176
     1
 74
     1
176
     1
 91
        4
176
     1
 64
     7
176
     1
 65
   257
176
     1
 75
     1
176
     1
175
     1
176
     1
 42
1.0
176
     1
 92
        8
176
     1
 66
     7
176
     1
 43
1.0
176
     1
 76
     1
176
     1
 77
     6
176
     1
 78
     2
176
     1
 67
     7
176
     1
 79
     5
176
     1
170
     0
176
     1
171
     0
176
     1
290
     0
176
     1
 93
        1
176
     1
 44
-50.0
176
     1
173
     0
176
     1
  0
VISUALSTYLE
  5
39
102
{ACAD_REACTORS
330
2A
102
}
330
2A
100
AcDbVisualStyle
  2
Facepattern
 70
    15
177
     2
291
     1
 71
     2
176
     1
 72
     2
176
     1
 73
     0
176
     1
 90
        0
176
     1
 40
-0.6
176
     1
 41
-30.0
176
     1
 62
     5
 63
     7
421
 16777215
176
     1
 74
     1
176
     1
 91
        4
176
     1
 64
     7
176
     1
 65
   257
176
     1
 75
     1
176
     1
175
     1
176
     1
 42
1.0
176
     1
 92
        8
176
     1
 66
     7
176
     1
 43
1.0
176
     1
 76
     1
176
     1
 77
     6
176
     1
 78
     2
176
     1
 67
     7
176
     1
 79
     5
176
     1
170
     0
176
     1
171
     0
176
     1
290
     0
176
     1
 93
        1
176
     1
 44
0.0
176
     1
173
     0
176
     1
  0
VISUALSTYLE
  5
2B
102
{ACAD_REACTORS
330
2A
102
}
330
2A
100
AcDbVisualStyle
  2
Flat
 70
     0
177
     2
291
     1
 71
     2
176
     1
 72
     1
176
     1
 73
     1
176
     1
 90
        2
176
     1
 40
-0.6
176
     1
 41
30.0
176
     1
 62
     5
 63
     7
421
 16777215
176
     1
 74
     0
176
     1
 91
        4
176
     1
 64
     7
176
     1
 65
   257
176
     1
 75
     1
176
     1
175
     1
176
     1
 42
1.0
176
     1
 92
        8
176
     1
 66
     7
176
     1
 43
1.0
176
     1
 76
     1
176
     1
 77
     6
176
     1
 78
     2
176
     1
 67
     7
176
     1
 79
     5
176
     1
170
     0
176
     1
171
     0
176
     1
290
     0
176
     1
 93
       13
176
     1
 44
0.0
176
     1
173
     0
176
     1
  0
VISUALSTYLE
  5
2C
102
{ACAD_REACTORS
330
2A
102
}
330
2A
100
AcDbVisualStyle
  2
FlatWithEdges
 70
     1
177
     2
291
     1
 71
     2
176
     1
 72
     1
176
     1
 73
     1
176
     1
 90
        2
176
     1
 40
-0.6
176
     1
 41
30.0
176
     1
 62
     5
 63
     7
421
 16777215
176
     1
 74
     1
176
     1
 91
        4
176
     1
 64
     7
176
     1
 65
   257
176
     1
 75
     1
176
     1
175
     1
176
     1
 42
1.0
176
     1
 92
        0
176
     1
 66
   257
176
     1
 43
1.0
176
     1
 76
     1
176
     1
 77
     6
176
     1
 78
     2
176
     1
 67
     7
176
     1
 79
     5
176
     1
170
     0
176
     1
171
     0
176
     1
290
     0
176
     1
 93
       13
176
     1
 44
0.0
176
     1
173
     0
176
     1
  0
VISUALSTYLE
  5
2D
102
{ACAD_REACTORS
330
2A
102
}
330
2A
100
AcDbVisualStyle
  2
Gouraud
 70
     2
177
     2
291
     1
 71
     2
176
     1
 72
     2
176
     1
 73
     1
176
     1
 90
        2
176
     1
 40
-0.6
176
     1
 41
30.0
176
     1
 62
     5
 63
     7
421
 16777215
176
     1
 74
     0
176
     1
 91
        4
176
     1
 64
     7
176
     1
 65
   257
176
     1
 75
     1
176
     1
175
     1
176
     1
 42
1.0
176
     1
 92
        0
176
     1
 66
     7
176
     1
 43
1.0
176
     1
 76
     1
176
     1
 77
     6
176
     1
 78
     2
176
     1
 67
     7
176
     1
 79
     5
176
     1
170
     0
176
     1
171
     0
176
     1
290
     0
176
     1
 93
       13
176
     1
 44
0.0
176
     1
173
     0
176
     1
  0
VISUALSTYLE
  5
2E
102
{ACAD_REACTORS
330
2A
102
}
330
2A
100
AcDbVisualStyle
  2
GouraudWithEdges
 70
     3
177
     2
291
     1
 71
     2
176
     1
 72
     2
176
     1
 73
     1
176
     1
 90
        2
176
     1
 40
-0.6
176
     1
 41
30.0
176
     1
 62
     5
 63
     7
421
 16777215
176
     1
 74
     1
176
     1
 91
        4
176
     1
 64
     7
176
     1
 65
   257
176
     1
 75
     1
176
     1
175
     1
176
     1
 42
1.0
176
     1
 92
        0
176
     1
 66
   257
176
     1
 43
1.0
176
     1
 76
     1
176
     1
 77
     6
176
     1
 78
     2
176
     1
 67
     7
176
     1
 79
     5
176
     1
170
     0
176
     1
171
     0
176
     1
290
     0
176
     1
 93
       13
176
     1
 44
0.0
176
     1
173
     0
176
     1
  0
VISUALSTYLE
  5
38
102
{ACAD_REACTORS
330
2A
102
}
330
2A
100
AcDbVisualStyle
  2
Linepattern
 70
    14
177
     2
291
     1
 71
     2
176
     1
 72
     2
176
     1
 73
     0
176
     1
 90
        0
176
     1
 40
-0.6
176
     1
 41
-30.0
176
     1
 62
     5
 63
     7
421
 16777215
176
     1
 74
     1
176
     1
 91
        4
176
     1
 64
     7
176
     1
 65
   257
176
     1
 75
     7
176
     1
175
     7
176
     1
 42
1.0
176
     1
 92
        8
176
     1
 66
     7
176
     1
 43
1.0
176
     1
 76
     1
176
     1
 77
     6
176
     1
 78
     2
176
     1
 67
     7
176
     1
 79
     5
176
     1
170
     0
176
     1
171
     0
176
     1
290
     0
176
     1
 93
        1
176
     1
 44
0.0
176
     1
173
     0
176
     1
  0
VISUALSTYLE
  5
33
102
{ACAD_REACTORS
330
2A
102
}
330
2A
100
AcDbVisualStyle
  2
Realistic
 70
     8
177
     2
291
     0
 71
     2
176
     1
 72
     2
176
     1
 73
     0
176
     1
 90
        0
176
     1
 40
-0.6
176
     1
 41
-30.0
176
     1
 62
     5
 63
     7
421
 16777215
176
     1
 74
     1
176
     1
 91
        0
176
     1
 64
     7
176
     1
 65
   257
176
     1
 75
     1
176
     1
175
     1
176
     1
 42
1.0
176
     1
 92
        8
176
     1
 66
     8
424
  7895160
176
     1
 43
1.0
176
     1
 76
     1
176
     1
 77
     6
176
     1
 78
     2
176
     1
 67
     7
176
     1
 79
     5
176
     1
170
     0
176
     1
171
     0
176
     1
290
     0
176
     1
 93
       13
176
     1
 44
0.0
176
     1
173
     0
176
     1
  0
VISUALSTYLE
  5
37
102
{ACAD_REACTORS
330
2A
102
}
330
2A
100
AcDbVisualStyle
  2
Thicken
 70
    13
177
     2
291
     1
 71
     2
176
     1
 72
     2
176
     1
 73
     0
176
     1
 90
        0
176
     1
 40
-0.6
176
     1
 41
-30.0
176
     1
 62
     5
 63
     7
421
 16777215
176
     1
 74
     1
176
     1
 91
        4
176
     1
 64
     7
176
     1
 65
   257
176
     1
 75
     1
176
     1
175
     1
176
     1
 42
1.0
176
     1
 92
       12
176
     1
 66
     7
176
     1
 43
1.0
176
     1
 76
     1
176
     1
 77
     6
176
     1
 78
     2
176
     1
 67
     7
176
     1
 79
     5
176
     1
170
     0
176
     1
171
     0
176
     1
290
     0
176
     1
 93
        1
176
     1
 44
0.0
176
     1
173
     0
176
     1
  0
ENDSEC
  0
EOF
