  0
SECTION
  2
HEADER
  9
$ACADVER
  1
AC1024
  9
$ACADMAINTVER
 70
     6
  9
$DWGCODEPAGE
  3
UNDEFINED
  9
$INSBASE
 10
0.0
 20
0.0
 30
0.0
  9
$EXTMIN
 10
1.000000000000000E+20
 20
1.000000000000000E+20
 30
1.000000000000000E+20
  9
$EXTMAX
 10
-1.000000000000000E+20
 20
-1.000000000000000E+20
 30
-1.000000000000000E+20
  9
$LIMMIN
 10
0.0
 20
0.0
  9
$LIMMAX
 10
12.0
 20
9.0
  9
$ORTHOMODE
 70
     0
  9
$REGENMODE
 70
     1
  9
$FILLMODE
 70
     1
  9
$QTEXTMODE
 70
     0
  9
$MIRRTEXT
 70
     1
  9
$LTSCALE
 40
1.0
  9
$ATTMODE
 70
     1
  9
$TEXTSIZE
 40
0.2
  9
$TRACEWID
 40
0.05
  9
$TEXTSTYLE
  7
Standard
  9
$CLAYER
  8
0
  9
$CELTYPE
  6
ByLayer
  9
$CECOLOR
 62
   256
  9
$CELTSCALE
 40
1.0
  9
$DISPSILH
 70
     0
  9
$DIMSCALE
 40
1.0
  9
$DIMASZ
 40
0.18
  9
$DIMEXO
 40
0.0625
  9
$DIMDLI
 40
0.38
  9
$DIMRND
 40
0.0
  9
$DIMDLE
 40
0.0
  9
$DIMEXE
 40
0.18
  9
$DIMTP
 40
0.0
  9
$DIMTM
 40
0.0
  9
$DIMTXT
 40
0.18
  9
$DIMCEN
 40
0.09
  9
$DIMTSZ
 40
0.0
  9
$DIMTOL
 70
     0
  9
$DIMLIM
 70
     0
  9
$DIMTIH
 70
     1
  9
$DIMTOH
 70
     1
  9
$DIMSE1
 70
     0
  9
$DIMSE2
 70
     0
  9
$DIMTAD
 70
     0
  9
$DIMZIN
 70
     0
  9
$DIMBLK
  1

  9
$DIMASO
 70
     1
  9
$DIMSHO
 70
     1
  9
$DIMPOST
  1

  9
$DIMAPOST
  1

  9
$DIMALT
 70
     0
  9
$DIMALTD
 70
     2
  9
$DIMALTF
 40
25.4
  9
$DIMLFAC
 40
1.0
  9
$DIMTOFL
 70
     0
  9
$DIMTVP
 40
0.0
  9
$DIMTIX
 70
     0
  9
$DIMSOXD
 70
     0
  9
$DIMSAH
 70
     0
  9
$DIMBLK1
  1

  9
$DIMBLK2
  1

  9
$DIMSTYLE
  2
Standard
  9
$DIMCLRD
 70
     0
  9
$DIMCLRE
 70
     0
  9
$DIMCLRT
 70
     0
  9
$DIMTFAC
 40
1.0
  9
$DIMGAP
 40
0.09
  9
$DIMJUST
 70
     0
  9
$DIMSD1
 70
     0
  9
$DIMSD2
 70
     0
  9
$DIMTOLJ
 70
     1
  9
$DIMTZIN
 70
     0
  9
$DIMALTZ
 70
     0
  9
$DIMALTTZ
 70
     0
  9
$DIMUPT
 70
     0
  9
$DIMDEC
 70
     4
  9
$DIMTDEC
 70
     4
  9
$DIMALTU
 70
     2
  9
$DIMALTTD
 70
     2
  9
$DIMTXSTY
  7
Standard
  9
$DIMAUNIT
 70
     0
  9
$DIMADEC
 70
     0
  9
$DIMALTRND
 40
0.0
  9
$DIMAZIN
 70
     0
  9
$DIMDSEP
 70
    46
  9
$DIMATFIT
 70
     3
  9
$DIMFRAC
 70
     0
  9
$DIMLDRBLK
  1

  9
$DIMLUNIT
 70
     2
  9
$DIMLWD
 70
    -2
  9
$DIMLWE
 70
    -2
  9
$DIMTMOVE
 70
     0
  9
$DIMFXL
 40
1.0
  9
$DIMFXLON
 70
     0
  9
$DIMJOGANG
 40
0.7853981633974483
  9
$DIMTFILL
 70
     0
  9
$DIMTFILLCLR
 70
     0
  9
$DIMARCSYM
 70
     0
  9
$DIMLTYPE
  6

  9
$DIMLTEX1
  6

  9
$DIMLTEX2
  6

  9
$DIMTXTDIRECTION
 70
     0
  9
$LUNITS
 70
     2
  9
$LUPREC
 70
     4
  9
$SKETCHINC
 40
0.1
  9
$FILLETRAD
 40
0.5
  9
$AUNITS
 70
     0
  9
$AUPREC
 70
     0
  9
$MENU
  1
.
  9
$ELEVATION
 40
0.0
  9
$PELEVATION
 40
0.0
  9
$THICKNESS
 40
0.0
  9
$LIMCHECK
 70
     0
  9
$CHAMFERA
 40
0.5
  9
$CHAMFERB
 40
0.5
  9
$CHAMFERC
 40
1.0
  9
$CHAMFERD
 40
0.0
  9
$SKPOLY
 70
     0
  9
$TDCREATE
 40
2457917.618969908
  9
$TDUCREATE
 40
2457917.243969908
  9
$TDUPDATE
 40
2457917.618969908
  9
$TDUUPDATE
 40
2457917.243969908
  9
$TDINDWG
 40
0.0000000116
  9
$TDUSRTIMER
 40
0.0000000116
  9
$USRTIMER
 70
     1
  9
$ANGBASE
 50
0.0
  9
$ANGDIR
 70
     0
  9
$PDMODE
 70
     0
  9
$PDSIZE
 40
0.0
  9
$PLINEWID
 40
0.0
  9
$SPLFRAME
 70
     0
  9
$SPLINETYPE
 70
     6
  9
$SPLINESEGS
 70
     8
  9
$HANDSEED
  5
102
  9
$SURFTAB1
 70
     6
  9
$SURFTAB2
 70
     6
  9
$SURFTYPE
 70
     6
  9
$SURFU
 70
     6
  9
$SURFV
 70
     6
  9
$UCSBASE
  2

  9
$UCSNAME
  2

  9
$UCSORG
 10
0.0
 20
0.0
 30
0.0
  9
$UCSXDIR
 10
1.0
 20
0.0
 30
0.0
  9
$UCSYDIR
 10
0.0
 20
1.0
 30
0.0
  9
$UCSORTHOREF
  2

  9
$UCSORTHOVIEW
 70
     0
  9
$UCSORGTOP
 10
0.0
 20
0.0
 30
0.0
  9
$UCSORGBOTTOM
 10
0.0
 20
0.0
 30
0.0
  9
$UCSORGLEFT
 10
0.0
 20
0.0
 30
0.0
  9
$UCSORGRIGHT
 10
0.0
 20
0.0
 30
0.0
  9
$UCSORGFRONT
 10
0.0
 20
0.0
 30
0.0
  9
$UCSORGBACK
 10
0.0
 20
0.0
 30
0.0
  9
$PUCSBASE
  2

  9
$PUCSNAME
  2

  9
$PUCSORG
 10
0.0
 20
0.0
 30
0.0
  9
$PUCSXDIR
 10
1.0
 20
0.0
 30
0.0
  9
$PUCSYDIR
 10
0.0
 20
1.0
 30
0.0
  9
$PUCSORTHOREF
  2

  9
$PUCSORTHOVIEW
 70
     0
  9
$PUCSORGTOP
 10
0.0
 20
0.0
 30
0.0
  9
$PUCSORGBOTTOM
 10
0.0
 20
0.0
 30
0.0
  9
$PUCSORGLEFT
 10
0.0
 20
0.0
 30
0.0
  9
$PUCSORGRIGHT
 10
0.0
 20
0.0
 30
0.0
  9
$PUCSORGFRONT
 10
0.0
 20
0.0
 30
0.0
  9
$PUCSORGBACK
 10
0.0
 20
0.0
 30
0.0
  9
$USERI1
 70
     0
  9
$USERI2
 70
     0
  9
$USERI3
 70
     0
  9
$USERI4
 70
     0
  9
$USERI5
 70
     0
  9
$USERR1
 40
0.0
  9
$USERR2
 40
0.0
  9
$USERR3
 40
0.0
  9
$USERR4
 40
0.0
  9
$USERR5
 40
0.0
  9
$WORLDVIEW
 70
     1
  9
$SHADEDGE
 70
     3
  9
$SHADEDIF
 70
    70
  9
$TILEMODE
 70
     1
  9
$MAXACTVP
 70
    64
  9
$PINSBASE
 10
0.0
 20
0.0
 30
0.0
  9
$PLIMCHECK
 70
     0
  9
$PEXTMIN
 10
1.000000000000000E+20
 20
1.000000000000000E+20
 30
1.000000000000000E+20
  9
$PEXTMAX
 10
-1.000000000000000E+20
 20
-1.000000000000000E+20
 30
-1.000000000000000E+20
  9
$PLIMMIN
 10
0.0
 20
0.0
  9
$PLIMMAX
 10
12.0
 20
9.0
  9
$UNITMODE
 70
     0
  9
$VISRETAIN
 70
     1
  9
$PLINEGEN
 70
     0
  9
$PSLTSCALE
 70
     1
  9
$TREEDEPTH
 70
  3020
  9
$CMLSTYLE
  2
Standard
  9
$CMLJUST
 70
     0
  9
$CMLSCALE
 40
1.0
  9
$PROXYGRAPHICS
 70
     1
  9
$MEASUREMENT
 70
     0
  9
$CELWEIGHT
370
    -1
  9
$ENDCAPS
280
     0
  9
$JOINSTYLE
280
     0
  9
$LWDISPLAY
290
     1
  9
$INSUNITS
 70
     1
  9
$HYPERLINKBASE
  1

  9
$STYLESHEET
  1

  9
$XEDIT
290
     1
  9
$CEPSNTYPE
380
     0
  9
$PSTYLEMODE
290
     1
  9
$FINGERPRINTGUID
  2
{7C9E8491-F387-6C5B-8100-1428CE3004FA}
  9
$VERSIONGUID
  2
{FAEB1C32-E019-11D5-929B-00C0DF256EC4}
  9
$EXTNAMES
290
     1
  9
$PSVPSCALE
 40
0.0
  9
$OLESTARTUP
290
     0
  9
$SORTENTS
280
   127
  9
$INDEXCTL
280
     0
  9
$HIDETEXT
280
     1
  9
$XCLIPFRAME
280
     2
  9
$HALOGAP
280
     0
  9
$OBSCOLOR
 70
   257
  9
$OBSLTYPE
280
     0
  9
$INTERSECTIONDISPLAY
280
     0
  9
$INTERSECTIONCOLOR
 70
   257
  9
$DIMASSOC
280
     2
  9
$PROJECTNAME
  1

  9
$CAMERADISPLAY
290
     0
  9
$LENSLENGTH
 40
50.0
  9
$CAMERAHEIGHT
 40
0.0
  9
$STEPSPERSEC
 40
2.0
  9
$STEPSIZE
 40
6.0
  9
$3DDWFPREC
 40
2.0
  9
$PSOLWIDTH
 40
0.25
  9
$PSOLHEIGHT
 40
4.0
  9
$LOFTANG1
 40
1.570796326794897
  9
$LOFTANG2
 40
1.570796326794897
  9
$LOFTMAG1
 40
0.0
  9
$LOFTMAG2
 40
0.0
  9
$LOFTPARAM
 70
     7
  9
$LOFTNORMALS
280
     1
  9
$LATITUDE
 40
37.795
  9
$LONGITUDE
 40
-122.394
  9
$NORTHDIRECTION
 40
0.0
  9
$TIMEZONE
 70
 -8000
  9
$LIGHTGLYPHDISPLAY
280
     1
  9
$TILEMODELIGHTSYNCH
280
     1
  9
$CMATERIAL
347
3C
  9
$SOLIDHIST
280
     1
  9
$SHOWHIST
280
     1
  9
$DWFFRAME
280
     2
  9
$DGNFRAME
280
     2
  9
$REALWORLDSCALE
290
     1
  9
$INTERFERECOLOR
 62
   256
  9
$CSHADOW
280
     0
  9
$SHADOWPLANELOCATION
 40
0.0
  0
ENDSEC
  0
SECTION
  2
CLASSES
  0
CLASS
  1
ACDBDICTIONARYWDFLT
  2
AcDbDictionaryWithDefault
  3
ObjectDBX Classes
 90
        0
 91
        4
280
     0
281
     0
  0
CLASS
  1
VISUALSTYLE
  2
AcDbVisualStyle
  3
ObjectDBX Classes
 90
     4095
 91
        4
280
     0
281
     0
  0
CLASS
  1
MATERIAL
  2
AcDbMaterial
  3
ObjectDBX Classes
 90
     1153
 91
        4
280
     0
281
     0
  0
CLASS
  1
SUN
  2
AcDbSun
  3
SCENEOE
 90
     1024
 91
        4
280
     0
281
     0
  0
ENDSEC
  0
SECTION
  2
TABLES
  0
TABLE
  2
VPORT
  5
8
330
0
100
AcDbSymbolTable
 70
     1
  0
VPORT
  5
29
330
8
100
AcDbSymbolTableRecord
100
AcDbViewportTableRecord
  2
*Active
 70
     0
 10
0.0
 20
0.0
 11
1.0
 21
1.0
 12
0.0
 22
0.0
 13
0.0
 23
0.0
 14
0.5
 24
0.5
 15
0.5
 25
0.5
 16
0.0
 26
0.0
 36
1.0
 17
91.00082462281999
 27
-128.4993055234307
 37
0.0
 40
256.9986110468615
 41
0.7081814508812795
 42
50.0
 43
0.0
 44
0.0
 50
0.0
 51
0.0
 71
     0
 72
   100
 73
     1
 74
     3
 75
     0
 76
     0
 77
     0
 78
     0
281
     0
 65
     1
110
0.0
120
0.0
130
0.0
111
1.0
121
0.0
131
0.0
112
0.0
122
1.0
132
0.0
 79
     0
146
0.0
 60
     3
 61
     5
292
     1
282
     1
141
0.0
142
0.0
 63
   250
361
3F
  0
ENDTAB
  0
TABLE
  2
LTYPE
  5
5
330
0
100
AcDbSymbolTable
 70
     2
  0
LTYPE
  5
14
330
5
100
AcDbSymbolTableRecord
100
AcDbLinetypeTableRecord
  2
ByBlock
 70
     0
  3

 72
    65
 73
     0
 40
0.0
  0
LTYPE
  5
15
330
5
100
AcDbSymbolTableRecord
100
AcDbLinetypeTableRecord
  2
ByLayer
 70
     0
  3

 72
    65
 73
     0
 40
0.0
  0
LTYPE
  5
16
330
5
100
AcDbSymbolTableRecord
100
AcDbLinetypeTableRecord
  2
Continuous
 70
     0
  3
Solid line
 72
    65
 73
     0
 40
0.0
  0
LTYPE
  5
47
330
5
100
AcDbSymbolTableRecord
100
AcDbLinetypeTableRecord
  2
AI-Linetype-1
 70
     0
  3
Adobe Illustrator Linetype No. 1
 72
    65
 73
     2
 40
1.411111110758333
 49
0.7055555553791667
 74
     0
 49
-0.7055555553791667
 74
     0
  0
ENDTAB
  0
TABLE
  2
LAYER
  5
2
330
0
100
AcDbSymbolTable
 70
     2
  0
LAYER
  5
10
330
2
100
AcDbSymbolTableRecord
100
AcDbLayerTableRecord
  2
0
 70
     0
 62
     7
  6
Continuous
370
    -3
390
F
347
3E
  0
LAYER
  5
40
330
2
100
AcDbSymbolTableRecord
100
AcDbLayerTableRecord
  2
_U+30EC_U+30A4_U+30E4_U+30FC 1
 70
     0
 62
     7
  6
Continuous
370
    -3
390
F
347
3E
  0
ENDTAB
  0
TABLE
  2
STYLE
  5
3
330
0
100
AcDbSymbolTable
 70
     1
  0
STYLE
  5
11
330
3
100
AcDbSymbolTableRecord
100
AcDbTextStyleTableRecord
  2
Standard
 70
     0
 40
0.0
 41
1.0
 50
0.0
 71
     0
 42
0.2
  3
txt
  4

  0
ENDTAB
  0
TABLE
  2
VIEW
  5
6
330
0
100
AcDbSymbolTable
 70
     0
  0
ENDTAB
  0
TABLE
  2
UCS
  5
7
330
0
100
AcDbSymbolTable
 70
     0
  0
ENDTAB
  0
TABLE
  2
APPID
  5
9
330
0
100
AcDbSymbolTable
 70
     1
  0
APPID
  5
12
330
9
100
AcDbSymbolTableRecord
100
AcDbRegAppTableRecord
  2
ACAD
 70
     0
  0
ENDTAB
  0
TABLE
  2
DIMSTYLE
  5
A
330
0
100
AcDbSymbolTable
 70
     1
100
AcDbDimStyleTable
  0
DIMSTYLE
105
27
330
A
100
AcDbSymbolTableRecord
100
AcDbDimStyleTableRecord
  2
Standard
 70
     0
178
     0
340
11
  0
ENDTAB
  0
TABLE
  2
BLOCK_RECORD
  5
1
330
0
100
AcDbSymbolTable
 70
     7
  0
BLOCK_RECORD
  5
1F
330
1
100
AcDbSymbolTableRecord
100
AcDbBlockTableRecord
  2
*Model_Space
340
22
 70
     0
280
     1
281
     0
  0
BLOCK_RECORD
  5
1B
330
1
100
AcDbSymbolTableRecord
100
AcDbBlockTableRecord
  2
*Paper_Space
340
1E
 70
     0
280
     1
281
     0
  0
BLOCK_RECORD
  5
23
330
1
100
AcDbSymbolTableRecord
100
AcDbBlockTableRecord
  2
*Paper_Space0
340
26
 70
     0
280
     1
281
     0
  0
BLOCK_RECORD
  5
84
330
1
100
AcDbSymbolTableRecord
100
AcDbBlockTableRecord
  2
block 2
340
0
102
{BLKREFS
331
85
102
}
 70
     0
280
     1
281
     0
  0
BLOCK_RECORD
  5
96
330
1
100
AcDbSymbolTableRecord
100
AcDbBlockTableRecord
  2
block 3
340
0
102
{BLKREFS
331
97
102
}
 70
     0
280
     1
281
     0
  0
BLOCK_RECORD
  5
AA
330
1
100
AcDbSymbolTableRecord
100
AcDbBlockTableRecord
  2
block 4
340
0
102
{BLKREFS
331
AB
102
}
 70
     0
280
     1
281
     0
  0
BLOCK_RECORD
  5
CD
330
1
100
AcDbSymbolTableRecord
100
AcDbBlockTableRecord
  2
block 5
340
0
102
{BLKREFS
331
CE
102
}
 70
     0
280
     1
281
     0
  0
BLOCK_RECORD
  5
E6
330
1
100
AcDbSymbolTableRecord
100
AcDbBlockTableRecord
  2
block 6
340
0
102
{BLKREFS
331
E7
102
}
 70
     0
280
     1
281
     0
  0
BLOCK_RECORD
  5
FA
330
1
100
AcDbSymbolTableRecord
100
AcDbBlockTableRecord
  2
block 7
340
0
102
{BLKREFS
331
FB
102
}
 70
     0
280
     1
281
     0
  0
ENDTAB
  0
ENDSEC
  0
SECTION
  2
BLOCKS
  0
BLOCK
  5
20
330
1F
100
AcDbEntity
  8
0
100
AcDbBlockBegin
  2
*Model_Space
 70
     0
 10
0.0
 20
0.0
 30
0.0
  3
*Model_Space
  1

  0
ENDBLK
  5
21
330
1F
100
AcDbEntity
  8
0
100
AcDbBlockEnd
  0
BLOCK
  5
1C
330
1B
100
AcDbEntity
 67
     1
  8
0
100
AcDbBlockBegin
  2
*Paper_Space
 70
     0
 10
0.0
 20
0.0
 30
0.0
  3
*Paper_Space
  1

  0
ENDBLK
  5
1D
330
1B
100
AcDbEntity
 67
     1
  8
0
100
AcDbBlockEnd
  0
BLOCK
  5
24
330
23
100
AcDbEntity
  8
0
100
AcDbBlockBegin
  2
*Paper_Space0
 70
     0
 10
0.0
 20
0.0
 30
0.0
  3
*Paper_Space0
  1

  0
ENDBLK
  5
25
330
23
100
AcDbEntity
  8
0
100
AcDbBlockEnd
  0
BLOCK
  5
86
330
84
100
AcDbEntity
  8
0
100
AcDbBlockBegin
  2
block 2
 70
     0
 10
0.0
 20
0.0
 30
0.0
  3
block 2
  1

  0
SPLINE
  5
88
330
84
100
AcDbEntity
  8
_U+30EC_U+30A4_U+30E4_U+30FC 1
370
     0
100
AcDbSpline
210
0.0
220
0.0
230
1.0
 70
    11
 71
     3
 72
    26
 73
    22
 74
     0
 42
0.0000000001
 43
0.0000000001
 12
1.0
 22
0.0
 32
0.0
 13
1.0
 23
0.0
 33
0.0
 40
0.0
 40
0.0
 40
0.0
 40
0.0
 40
1.0
 40
1.0
 40
1.0
 40
2.0
 40
2.0
 40
2.0
 40
3.0
 40
3.0
 40
3.0
 40
4.0
 40
4.0
 40
4.0
 40
5.0
 40
5.0
 40
5.0
 40
6.0
 40
6.0
 40
6.0
 40
7.0
 40
7.0
 40
7.0
 40
7.0
 10
89.13805607580576
 20
-123.3633571740203
 30
0.0
 10
89.13805607580576
 20
-123.3633571740203
 30
0.0
 10
89.13805607580576
 20
-122.2590318162234
 30
0.0
 10
89.13805607580576
 20
-122.2590318162234
 30
0.0
 10
89.13805607580576
 20
-122.2590318162234
 30
0.0
 10
88.78527829811618
 20
-122.2590318162234
 30
0.0
 10
88.78527829811618
 20
-122.2590318162234
 30
0.0
 10
88.78527829811618
 20
-122.2590318162234
 30
0.0
 10
88.78527829811618
 20
-122.111064965132
 30
0.0
 10
88.78527829811618
 20
-122.111064965132
 30
0.0
 10
89.14029538787118
 20
-122.0962510545454
 30
0.0
 10
89.19007701763304
 20
-121.9332980380931
 30
0.0
 10
89.22177189609734
 20
-121.819093122757
 30
0.0
 10
89.22177189609734
 20
-121.819093122757
 30
0.0
 10
89.37766246680489
 20
-121.819093122757
 30
0.0
 10
89.37766246680489
 20
-121.819093122757
 30
0.0
 10
89.37766246680489
 20
-121.819093122757
 30
0.0
 10
89.37766246680489
 20
-123.3633571740203
 30
0.0
 10
89.37766246680489
 20
-123.3633571740203
 30
0.0
 10
89.37766246680489
 20
-123.3633571740203
 30
0.0
 10
89.13805607580576
 20
-123.3633571740203
 30
0.0
 10
89.13805607580576
 20
-123.3633571740203
 30
0.0
  0
HATCH
  5
89
330
84
100
AcDbEntity
  8
_U+30EC_U+30A4_U+30E4_U+30FC 1
 62
   179
420
  2234388
100
AcDbHatch
 10
0.0
 20
0.0
 30
0.0
210
0.0
220
0.0
230
1.0
  2
SOLID
 70
     1
 71
     0
 91
        1
 92
        1
 93
        1
 72
     4
 94
        3
 73
     0
 74
     1
 95
       26
 96
       22
 40
0.0
 40
0.0
 40
0.0
 40
0.0
 40
1.0
 40
1.0
 40
1.0
 40
2.0
 40
2.0
 40
2.0
 40
3.0
 40
3.0
 40
3.0
 40
4.0
 40
4.0
 40
4.0
 40
5.0
 40
5.0
 40
5.0
 40
6.0
 40
6.0
 40
6.0
 40
7.0
 40
7.0
 40
7.0
 40
7.0
 10
89.13805607580576
 20
-123.3633571740203
 10
89.13805607580576
 20
-123.3633571740203
 10
89.13805607580576
 20
-122.2590318162234
 10
89.13805607580576
 20
-122.2590318162234
 10
89.13805607580576
 20
-122.2590318162234
 10
88.78527829811618
 20
-122.2590318162234
 10
88.78527829811618
 20
-122.2590318162234
 10
88.78527829811618
 20
-122.2590318162234
 10
88.78527829811618
 20
-122.111064965132
 10
88.78527829811618
 20
-122.111064965132
 10
89.14029538787118
 20
-122.0962510545454
 10
89.19007701763304
 20
-121.9332980380931
 10
89.22177189609734
 20
-121.819093122757
 10
89.22177189609734
 20
-121.819093122757
 10
89.37766246680489
 20
-121.819093122757
 10
89.37766246680489
 20
-121.819093122757
 10
89.37766246680489
 20
-121.819093122757
 10
89.37766246680489
 20
-123.3633571740203
 10
89.37766246680489
 20
-123.3633571740203
 10
89.37766246680489
 20
-123.3633571740203
 10
89.13805607580576
 20
-123.3633571740203
 10
89.13805607580576
 20
-123.3633571740203
 97
        0
 97
        0
 75
     2
 76
     1
 98
        0
  0
ENDBLK
  5
87
330
84
100
AcDbEntity
  8
0
100
AcDbBlockEnd
  0
BLOCK
  5
98
330
96
100
AcDbEntity
  8
0
100
AcDbBlockBegin
  2
block 3
 70
     0
 10
0.0
 20
0.0
 30
0.0
  3
block 3
  1

  0
SPLINE
  5
9A
330
96
100
AcDbEntity
  8
_U+30EC_U+30A4_U+30E4_U+30FC 1
370
     0
100
AcDbSpline
210
0.0
220
0.0
230
1.0
 70
    11
 71
     3
 72
    26
 73
    22
 74
     0
 42
0.0000000001
 43
0.0000000001
 12
1.0
 22
0.0
 32
0.0
 13
1.0
 23
0.0
 33
0.0
 40
0.0
 40
0.0
 40
0.0
 40
0.0
 40
1.0
 40
1.0
 40
1.0
 40
2.0
 40
2.0
 40
2.0
 40
3.0
 40
3.0
 40
3.0
 40
4.0
 40
4.0
 40
4.0
 40
5.0
 40
5.0
 40
5.0
 40
6.0
 40
6.0
 40
6.0
 40
7.0
 40
7.0
 40
7.0
 40
7.0
 10
90.97136363828147
 20
-139.7158474043072
 30
0.0
 10
90.97136363828147
 20
-139.7158474043072
 30
0.0
 10
90.97136363828147
 20
-138.6116943012846
 30
0.0
 10
90.97136363828147
 20
-138.6116943012846
 30
0.0
 10
90.97136363828147
 20
-138.6116943012846
 30
0.0
 10
90.6189303701404
 20
-138.6116943012846
 30
0.0
 10
90.6189303701404
 20
-138.6116943012846
 30
0.0
 10
90.6189303701404
 20
-138.6116943012846
 30
0.0
 10
90.6189303701404
 20
-138.4635551954188
 30
0.0
 10
90.6189303701404
 20
-138.4635551954188
 30
0.0
 10
90.97377520512114
 20
-138.4487412848323
 30
0.0
 10
91.02338458010874
 20
-138.2857882683799
 30
0.0
 10
91.05507945857303
 20
-138.1714110982697
 30
0.0
 10
91.05507945857303
 20
-138.1714110982697
 30
0.0
 10
91.21114228405486
 20
-138.1714110982697
 30
0.0
 10
91.21114228405486
 20
-138.1714110982697
 30
0.0
 10
91.21114228405486
 20
-138.1714110982697
 30
0.0
 10
91.21114228405486
 20
-139.7158474043072
 30
0.0
 10
91.21114228405486
 20
-139.7158474043072
 30
0.0
 10
91.21114228405486
 20
-139.7158474043072
 30
0.0
 10
90.97136363828147
 20
-139.7158474043072
 30
0.0
 10
90.97136363828147
 20
-139.7158474043072
 30
0.0
  0
HATCH
  5
9B
330
96
100
AcDbEntity
  8
_U+30EC_U+30A4_U+30E4_U+30FC 1
 62
   179
420
  2234388
100
AcDbHatch
 10
0.0
 20
0.0
 30
0.0
210
0.0
220
0.0
230
1.0
  2
SOLID
 70
     1
 71
     0
 91
        1
 92
        1
 93
        1
 72
     4
 94
        3
 73
     0
 74
     1
 95
       26
 96
       22
 40
0.0
 40
0.0
 40
0.0
 40
0.0
 40
1.0
 40
1.0
 40
1.0
 40
2.0
 40
2.0
 40
2.0
 40
3.0
 40
3.0
 40
3.0
 40
4.0
 40
4.0
 40
4.0
 40
5.0
 40
5.0
 40
5.0
 40
6.0
 40
6.0
 40
6.0
 40
7.0
 40
7.0
 40
7.0
 40
7.0
 10
90.97136363828147
 20
-139.7158474043072
 10
90.97136363828147
 20
-139.7158474043072
 10
90.97136363828147
 20
-138.6116943012846
 10
90.97136363828147
 20
-138.6116943012846
 10
90.97136363828147
 20
-138.6116943012846
 10
90.6189303701404
 20
-138.6116943012846
 10
90.6189303701404
 20
-138.6116943012846
 10
90.6189303701404
 20
-138.6116943012846
 10
90.6189303701404
 20
-138.4635551954188
 10
90.6189303701404
 20
-138.4635551954188
 10
90.97377520512114
 20
-138.4487412848323
 10
91.02338458010874
 20
-138.2857882683799
 10
91.05507945857303
 20
-138.1714110982697
 10
91.05507945857303
 20
-138.1714110982697
 10
91.21114228405486
 20
-138.1714110982697
 10
91.21114228405486
 20
-138.1714110982697
 10
91.21114228405486
 20
-138.1714110982697
 10
91.21114228405486
 20
-139.7158474043072
 10
91.21114228405486
 20
-139.7158474043072
 10
91.21114228405486
 20
-139.7158474043072
 10
90.97136363828147
 20
-139.7158474043072
 10
90.97136363828147
 20
-139.7158474043072
 97
        0
 97
        0
 75
     2
 76
     1
 98
        0
  0
SPLINE
  5
9C
330
96
100
AcDbEntity
  8
_U+30EC_U+30A4_U+30E4_U+30FC 1
370
     0
100
AcDbSpline
210
0.0
220
0.0
230
1.0
 70
    11
 71
     3
 72
    62
 73
    58
 74
     0
 42
0.0000000001
 43
0.0000000001
 12
1.0
 22
0.0
 32
0.0
 13
1.0
 23
0.0
 33
0.0
 40
0.0
 40
0.0
 40
0.0
 40
0.0
 40
1.0
 40
1.0
 40
1.0
 40
2.0
 40
2.0
 40
2.0
 40
3.0
 40
3.0
 40
3.0
 40
4.0
 40
4.0
 40
4.0
 40
5.0
 40
5.0
 40
5.0
 40
6.0
 40
6.0
 40
6.0
 40
7.0
 40
7.0
 40
7.0
 40
8.0
 40
8.0
 40
8.0
 40
9.0
 40
9.0
 40
9.0
 40
10.0
 40
10.0
 40
10.0
 40
11.0
 40
11.0
 40
11.0
 40
12.0
 40
12.0
 40
12.0
 40
13.0
 40
13.0
 40
13.0
 40
14.0
 40
14.0
 40
14.0
 40
15.0
 40
15.0
 40
15.0
 40
16.0
 40
16.0
 40
16.0
 40
17.0
 40
17.0
 40
17.0
 40
18.0
 40
18.0
 40
18.0
 40
19.0
 40
19.0
 40
19.0
 40
19.0
 10
92.27240394828607
 20
-139.7664903079403
 30
0.0
 10
92.1707736314712
 20
-139.7664903079403
 30
0.0
 10
91.93788517666832
 20
-139.7454752254803
 30
0.0
 10
91.80455998138915
 20
-139.5594400692768
 30
0.0
 10
91.7253227852284
 20
-139.4471299564577
 30
0.0
 10
91.72084416109757
 20
-139.3479112064825
 30
0.0
 10
91.71636553696675
 20
-139.2631618575453
 30
0.0
 10
91.71636553696675
 20
-139.2631618575453
 30
0.0
 10
91.95132104906078
 20
-139.2631618575453
 30
0.0
 10
91.95132104906078
 20
-139.2631618575453
 30
0.0
 10
91.95373261590046
 20
-139.3372314104782
 30
0.0
 10
91.96510143100178
 20
-139.5718424130237
 30
0.0
 10
92.26792532415524
 20
-139.5718424130237
 30
0.0
 10
92.41503090137542
 20
-139.5718424130237
 30
0.0
 10
92.57763940827921
 20
-139.5022514842217
 30
0.0
 10
92.57763940827921
 20
-139.2738416535496
 30
0.0
 10
92.57763940827921
 20
-139.1573974261482
 30
0.0
 10
92.53698728155325
 20
-139.1088215798061
 30
0.0
 10
92.50322534579782
 20
-139.0771267013418
 30
0.0
 10
92.42398814963707
 20
-139.003057148409
 30
0.0
 10
92.29962020261955
 20
-138.9903102951135
 30
0.0
 10
92.24070906982178
 20
-138.9903102951135
 30
0.0
 10
92.2203830064588
 20
-138.9903102951135
 30
0.0
 10
92.18214244657253
 20
-138.9923773524047
 30
0.0
 10
92.15251462539938
 20
-138.996511466987
 30
0.0
 10
92.15251462539938
 20
-138.996511466987
 30
0.0
 10
92.15251462539938
 20
-138.8018635720704
 30
0.0
 10
92.15251462539938
 20
-138.8018635720704
 30
0.0
 10
92.19316675212532
 20
-138.8084092534924
 30
0.0
 10
92.23864201253062
 20
-138.8104763107835
 30
0.0
 10
92.2451876939526
 20
-138.8104763107835
 30
0.0
 10
92.3154676418517
 20
-138.8104763107835
 30
0.0
 10
92.52803003329161
 20
-138.7891167187749
 30
0.0
 10
92.52803003329161
 20
-138.5524386589383
 30
0.0
 10
92.52803003329161
 20
-138.3746717318994
 30
0.0
 10
92.38781464704194
 20
-138.3195502041354
 30
0.0
 10
92.27033689099493
 20
-138.3195502041354
 30
0.0
 10
91.98749455165591
 20
-138.3195502041354
 30
0.0
 10
91.97853730339426
 20
-138.5524386589383
 30
0.0
 10
91.97405867926344
 20
-138.6240966450315
 30
0.0
 10
91.97405867926344
 20
-138.6240966450315
 30
0.0
 10
91.7570176636927
 20
-138.6240966450315
 30
0.0
 10
91.7570176636927
 20
-138.6240966450315
 30
0.0
 10
91.76597491195434
 20
-138.4993841884654
 30
0.0
 10
91.79525822357897
 20
-138.1228352519276
 30
0.0
 10
92.28377276338739
 20
-138.1228352519276
 30
0.0
 10
92.52355140916079
 20
-138.1228352519276
 30
0.0
 10
92.78124455145748
 20
-138.2499592753333
 30
0.0
 10
92.78124455145748
 20
-138.5458929775163
 30
0.0
 10
92.78124455145748
 20
-138.7322726432683
 30
0.0
 10
92.67926972509407
 20
-138.8146104253658
 30
0.0
 10
92.57316078414839
 20
-138.8759331250033
 30
0.0
 10
92.63861759836813
 20
-138.9034938888852
 30
0.0
 10
92.83326549328474
 20
-138.9837646136916
 30
0.0
 10
92.83326549328474
 20
-139.2610948002542
 30
0.0
 10
92.83326549328474
 20
-139.5994031769057
 30
0.0
 10
92.56868216001756
 20
-139.7664903079403
 30
0.0
 10
92.27240394828607
 20
-139.7664903079403
 30
0.0
  0
HATCH
  5
9D
330
96
100
AcDbEntity
  8
_U+30EC_U+30A4_U+30E4_U+30FC 1
 62
   179
420
  2234388
100
AcDbHatch
 10
0.0
 20
0.0
 30
0.0
210
0.0
220
0.0
230
1.0
  2
SOLID
 70
     1
 71
     0
 91
        1
 92
        1
 93
        1
 72
     4
 94
        3
 73
     0
 74
     1
 95
       62
 96
       58
 40
0.0
 40
0.0
 40
0.0
 40
0.0
 40
1.0
 40
1.0
 40
1.0
 40
2.0
 40
2.0
 40
2.0
 40
3.0
 40
3.0
 40
3.0
 40
4.0
 40
4.0
 40
4.0
 40
5.0
 40
5.0
 40
5.0
 40
6.0
 40
6.0
 40
6.0
 40
7.0
 40
7.0
 40
7.0
 40
8.0
 40
8.0
 40
8.0
 40
9.0
 40
9.0
 40
9.0
 40
10.0
 40
10.0
 40
10.0
 40
11.0
 40
11.0
 40
11.0
 40
12.0
 40
12.0
 40
12.0
 40
13.0
 40
13.0
 40
13.0
 40
14.0
 40
14.0
 40
14.0
 40
15.0
 40
15.0
 40
15.0
 40
16.0
 40
16.0
 40
16.0
 40
17.0
 40
17.0
 40
17.0
 40
18.0
 40
18.0
 40
18.0
 40
19.0
 40
19.0
 40
19.0
 40
19.0
 10
92.27240394828607
 20
-139.7664903079403
 10
92.1707736314712
 20
-139.7664903079403
 10
91.93788517666832
 20
-139.7454752254803
 10
91.80455998138915
 20
-139.5594400692768
 10
91.7253227852284
 20
-139.4471299564577
 10
91.72084416109757
 20
-139.3479112064825
 10
91.71636553696675
 20
-139.2631618575453
 10
91.71636553696675
 20
-139.2631618575453
 10
91.95132104906078
 20
-139.2631618575453
 10
91.95132104906078
 20
-139.2631618575453
 10
91.95373261590046
 20
-139.3372314104782
 10
91.96510143100178
 20
-139.5718424130237
 10
92.26792532415524
 20
-139.5718424130237
 10
92.41503090137542
 20
-139.5718424130237
 10
92.57763940827921
 20
-139.5022514842217
 10
92.57763940827921
 20
-139.2738416535496
 10
92.57763940827921
 20
-139.1573974261482
 10
92.53698728155325
 20
-139.1088215798061
 10
92.50322534579782
 20
-139.0771267013418
 10
92.42398814963707
 20
-139.003057148409
 10
92.29962020261955
 20
-138.9903102951135
 10
92.24070906982178
 20
-138.9903102951135
 10
92.2203830064588
 20
-138.9903102951135
 10
92.18214244657253
 20
-138.9923773524047
 10
92.15251462539938
 20
-138.996511466987
 10
92.15251462539938
 20
-138.996511466987
 10
92.15251462539938
 20
-138.8018635720704
 10
92.15251462539938
 20
-138.8018635720704
 10
92.19316675212532
 20
-138.8084092534924
 10
92.23864201253062
 20
-138.8104763107835
 10
92.2451876939526
 20
-138.8104763107835
 10
92.3154676418517
 20
-138.8104763107835
 10
92.52803003329161
 20
-138.7891167187749
 10
92.52803003329161
 20
-138.5524386589383
 10
92.52803003329161
 20
-138.3746717318994
 10
92.38781464704194
 20
-138.3195502041354
 10
92.27033689099493
 20
-138.3195502041354
 10
91.98749455165591
 20
-138.3195502041354
 10
91.97853730339426
 20
-138.5524386589383
 10
91.97405867926344
 20
-138.6240966450315
 10
91.97405867926344
 20
-138.6240966450315
 10
91.7570176636927
 20
-138.6240966450315
 10
91.7570176636927
 20
-138.6240966450315
 10
91.76597491195434
 20
-138.4993841884654
 10
91.79525822357897
 20
-138.1228352519276
 10
92.28377276338739
 20
-138.1228352519276
 10
92.52355140916079
 20
-138.1228352519276
 10
92.78124455145748
 20
-138.2499592753333
 10
92.78124455145748
 20
-138.5458929775163
 10
92.78124455145748
 20
-138.7322726432683
 10
92.67926972509407
 20
-138.8146104253658
 10
92.57316078414839
 20
-138.8759331250033
 10
92.63861759836813
 20
-138.9034938888852
 10
92.83326549328474
 20
-138.9837646136916
 10
92.83326549328474
 20
-139.2610948002542
 10
92.83326549328474
 20
-139.5994031769057
 10
92.56868216001756
 20
-139.7664903079403
 10
92.27240394828607
 20
-139.7664903079403
 97
        0
 97
        0
 75
     2
 76
     1
 98
        0
  0
ENDBLK
  5
99
330
96
100
AcDbEntity
  8
0
100
AcDbBlockEnd
  0
BLOCK
  5
AC
330
AA
100
AcDbEntity
  8
0
100
AcDbBlockBegin
  2
block 4
 70
     0
 10
0.0
 20
0.0
 30
0.0
  3
block 4
  1

  0
SPLINE
  5
AE
330
AA
100
AcDbEntity
  8
_U+30EC_U+30A4_U+30E4_U+30FC 1
370
     0
100
AcDbSpline
210
0.0
220
0.0
230
1.0
 70
    11
 71
     3
 72
    26
 73
    22
 74
     0
 42
0.0000000001
 43
0.0000000001
 12
1.0
 22
0.0
 32
0.0
 13
1.0
 23
0.0
 33
0.0
 40
0.0
 40
0.0
 40
0.0
 40
0.0
 40
1.0
 40
1.0
 40
1.0
 40
2.0
 40
2.0
 40
2.0
 40
3.0
 40
3.0
 40
3.0
 40
4.0
 40
4.0
 40
4.0
 40
5.0
 40
5.0
 40
5.0
 40
6.0
 40
6.0
 40
6.0
 40
7.0
 40
7.0
 40
7.0
 40
7.0
 10
80.55115557882054
 20
-129.9066270291553
 30
0.0
 10
80.55115557882054
 20
-129.9066270291553
 30
0.0
 10
79.44683022102372
 20
-129.9066270291553
 30
0.0
 10
79.44683022102372
 20
-129.9066270291553
 30
0.0
 10
79.44683022102372
 20
-129.9066270291553
 30
0.0
 10
79.44683022102372
 20
-130.2594048068449
 30
0.0
 10
79.44683022102372
 20
-130.2594048068449
 30
0.0
 10
79.44683022102372
 20
-130.2594048068449
 30
0.0
 10
79.29869111515796
 20
-130.2594048068449
 30
0.0
 10
79.29869111515796
 20
-130.2594048068449
 30
0.0
 10
79.28404945934565
 20
-129.9045599718641
 30
0.0
 10
79.12109644289335
 20
-129.854606087328
 30
0.0
 10
79.00689152755731
 20
-129.8229112088637
 30
0.0
 10
79.00689152755731
 20
-129.8229112088637
 30
0.0
 10
79.00689152755731
 20
-129.6671928929304
 30
0.0
 10
79.00689152755731
 20
-129.6671928929304
 30
0.0
 10
79.00689152755731
 20
-129.6671928929304
 30
0.0
 10
80.55115557882054
 20
-129.6671928929304
 30
0.0
 10
80.55115557882054
 20
-129.6671928929304
 30
0.0
 10
80.55115557882054
 20
-129.6671928929304
 30
0.0
 10
80.55115557882054
 20
-129.9066270291553
 30
0.0
 10
80.55115557882054
 20
-129.9066270291553
 30
0.0
  0
HATCH
  5
AF
330
AA
100
AcDbEntity
  8
_U+30EC_U+30A4_U+30E4_U+30FC 1
 62
   179
420
  2234388
100
AcDbHatch
 10
0.0
 20
0.0
 30
0.0
210
0.0
220
0.0
230
1.0
  2
SOLID
 70
     1
 71
     0
 91
        1
 92
        1
 93
        1
 72
     4
 94
        3
 73
     0
 74
     1
 95
       26
 96
       22
 40
0.0
 40
0.0
 40
0.0
 40
0.0
 40
1.0
 40
1.0
 40
1.0
 40
2.0
 40
2.0
 40
2.0
 40
3.0
 40
3.0
 40
3.0
 40
4.0
 40
4.0
 40
4.0
 40
5.0
 40
5.0
 40
5.0
 40
6.0
 40
6.0
 40
6.0
 40
7.0
 40
7.0
 40
7.0
 40
7.0
 10
80.55115557882054
 20
-129.9066270291553
 10
80.55115557882054
 20
-129.9066270291553
 10
79.44683022102372
 20
-129.9066270291553
 10
79.44683022102372
 20
-129.9066270291553
 10
79.44683022102372
 20
-129.9066270291553
 10
79.44683022102372
 20
-130.2594048068449
 10
79.44683022102372
 20
-130.2594048068449
 10
79.44683022102372
 20
-130.2594048068449
 10
79.29869111515796
 20
-130.2594048068449
 10
79.29869111515796
 20
-130.2594048068449
 10
79.28404945934565
 20
-129.9045599718641
 10
79.12109644289335
 20
-129.854606087328
 10
79.00689152755731
 20
-129.8229112088637
 10
79.00689152755731
 20
-129.8229112088637
 10
79.00689152755731
 20
-129.6671928929304
 10
79.00689152755731
 20
-129.6671928929304
 10
79.00689152755731
 20
-129.6671928929304
 10
80.55115557882054
 20
-129.6671928929304
 10
80.55115557882054
 20
-129.6671928929304
 10
80.55115557882054
 20
-129.6671928929304
 10
80.55115557882054
 20
-129.9066270291553
 10
80.55115557882054
 20
-129.9066270291553
 97
        0
 97
        0
 75
     2
 76
     1
 98
        0
  0
SPLINE
  5
B0
330
AA
100
AcDbEntity
  8
_U+30EC_U+30A4_U+30E4_U+30FC 1
370
     0
100
AcDbSpline
210
0.0
220
0.0
230
1.0
 70
    11
 71
     3
 72
    53
 73
    49
 74
     0
 42
0.0000000001
 43
0.0000000001
 12
1.0
 22
0.0
 32
0.0
 13
1.0
 23
0.0
 33
0.0
 40
0.0
 40
0.0
 40
0.0
 40
0.0
 40
1.0
 40
1.0
 40
1.0
 40
2.0
 40
2.0
 40
2.0
 40
3.0
 40
3.0
 40
3.0
 40
4.0
 40
4.0
 40
4.0
 40
5.0
 40
5.0
 40
5.0
 40
6.0
 40
6.0
 40
6.0
 40
7.0
 40
7.0
 40
7.0
 40
8.0
 40
8.0
 40
8.0
 40
9.0
 40
9.0
 40
9.0
 40
10.0
 40
10.0
 40
10.0
 40
11.0
 40
11.0
 40
11.0
 40
12.0
 40
12.0
 40
12.0
 40
13.0
 40
13.0
 40
13.0
 40
14.0
 40
14.0
 40
14.0
 40
15.0
 40
15.0
 40
15.0
 40
16.0
 40
16.0
 40
16.0
 40
16.0
 10
80.60197073722799
 20
-128.6171277890263
 30
0.0
 10
80.60197073722799
 20
-128.7008436093178
 30
0.0
 10
80.58508976935026
 20
-128.8093641171032
 30
0.0
 10
80.5215277576474
 20
-128.9178846248886
 30
0.0
 10
80.41145695689367
 20
-129.103230761995
 30
0.0
 10
80.28037107367992
 20
-129.1259683921977
 30
0.0
 10
80.1725395849916
 20
-129.1462944555606
 30
0.0
 10
80.1725395849916
 20
-129.1462944555606
 30
0.0
 10
80.1725395849916
 20
-128.9089273766269
 30
0.0
 10
80.1725395849916
 20
-128.9089273766269
 30
0.0
 10
80.37132159449051
 20
-128.8500162438292
 30
0.0
 10
80.40094941566366
 20
-128.7144517364846
 30
0.0
 10
80.40094941566366
 20
-128.6148884769609
 30
0.0
 10
80.40094941566366
 20
-128.4657158424496
 30
0.0
 10
80.3015584109142
 20
-128.3029350807715
 30
0.0
 10
80.06884221088558
 20
-128.3029350807715
 30
0.0
 10
79.8128716163315
 20
-128.3029350807715
 30
0.0
 10
79.74310843275519
 20
-128.4951714088484
 30
0.0
 10
79.74310843275519
 20
-128.6240179799968
 30
0.0
 10
79.74310843275519
 20
-128.6579521705265
 30
0.0
 10
79.74310843275519
 20
-128.8093641171032
 30
0.0
 10
79.8721272586778
 20
-128.9044487524961
 30
0.0
 10
79.8721272586778
 20
-128.9044487524961
 30
0.0
 10
79.85300697873467
 20
-129.0922064564422
 30
0.0
 10
79.85300697873467
 20
-129.0922064564422
 30
0.0
 10
79.85300697873467
 20
-129.0922064564422
 30
0.0
 10
79.00689152755731
 20
-128.9630153757454
 30
0.0
 10
79.00689152755731
 20
-128.9630153757454
 30
0.0
 10
79.00689152755731
 20
-128.9630153757454
 30
0.0
 10
79.00689152755731
 20
-128.1310248160575
 30
0.0
 10
79.00689152755731
 20
-128.1310248160575
 30
0.0
 10
79.00689152755731
 20
-128.1310248160575
 30
0.0
 10
79.20153942247393
 20
-128.1310248160575
 30
0.0
 10
79.20153942247393
 20
-128.1310248160575
 30
0.0
 10
79.20153942247393
 20
-128.1310248160575
 30
0.0
 10
79.20153942247393
 20
-128.7890380537403
 30
0.0
 10
79.20153942247393
 20
-128.7890380537403
 30
0.0
 10
79.20153942247393
 20
-128.7890380537403
 30
0.0
 10
79.6245971480626
 20
-128.8593180016393
 30
0.0
 10
79.6245971480626
 20
-128.8593180016393
 30
0.0
 10
79.5906629575329
 20
-128.7935166778711
 30
0.0
 10
79.55052759512974
 20
-128.7053222334487
 30
0.0
 10
79.55052759512974
 20
-128.5787149743657
 30
0.0
 10
79.55052759512974
 20
-128.3074137049023
 30
0.0
 10
79.73673500610748
 20
-128.0541991867365
 30
0.0
 10
80.04972193094244
 20
-128.0541991867365
 30
0.0
 10
80.36718747990821
 20
-128.0541991867365
 30
0.0
 10
80.60197073722799
 20
-128.2939778325099
 30
0.0
 10
80.60197073722799
 20
-128.6171277890263
 30
0.0
  0
HATCH
  5
B1
330
AA
100
AcDbEntity
  8
_U+30EC_U+30A4_U+30E4_U+30FC 1
 62
   179
420
  2234388
100
AcDbHatch
 10
0.0
 20
0.0
 30
0.0
210
0.0
220
0.0
230
1.0
  2
SOLID
 70
     1
 71
     0
 91
        1
 92
        1
 93
        1
 72
     4
 94
        3
 73
     0
 74
     1
 95
       53
 96
       49
 40
0.0
 40
0.0
 40
0.0
 40
0.0
 40
1.0
 40
1.0
 40
1.0
 40
2.0
 40
2.0
 40
2.0
 40
3.0
 40
3.0
 40
3.0
 40
4.0
 40
4.0
 40
4.0
 40
5.0
 40
5.0
 40
5.0
 40
6.0
 40
6.0
 40
6.0
 40
7.0
 40
7.0
 40
7.0
 40
8.0
 40
8.0
 40
8.0
 40
9.0
 40
9.0
 40
9.0
 40
10.0
 40
10.0
 40
10.0
 40
11.0
 40
11.0
 40
11.0
 40
12.0
 40
12.0
 40
12.0
 40
13.0
 40
13.0
 40
13.0
 40
14.0
 40
14.0
 40
14.0
 40
15.0
 40
15.0
 40
15.0
 40
16.0
 40
16.0
 40
16.0
 40
16.0
 10
80.60197073722799
 20
-128.6171277890263
 10
80.60197073722799
 20
-128.7008436093178
 10
80.58508976935026
 20
-128.8093641171032
 10
80.5215277576474
 20
-128.9178846248886
 10
80.41145695689367
 20
-129.103230761995
 10
80.28037107367992
 20
-129.1259683921977
 10
80.1725395849916
 20
-129.1462944555606
 10
80.1725395849916
 20
-129.1462944555606
 10
80.1725395849916
 20
-128.9089273766269
 10
80.1725395849916
 20
-128.9089273766269
 10
80.37132159449051
 20
-128.8500162438292
 10
80.40094941566366
 20
-128.7144517364846
 10
80.40094941566366
 20
-128.6148884769609
 10
80.40094941566366
 20
-128.4657158424496
 10
80.3015584109142
 20
-128.3029350807715
 10
80.06884221088558
 20
-128.3029350807715
 10
79.8128716163315
 20
-128.3029350807715
 10
79.74310843275519
 20
-128.4951714088484
 10
79.74310843275519
 20
-128.6240179799968
 10
79.74310843275519
 20
-128.6579521705265
 10
79.74310843275519
 20
-128.8093641171032
 10
79.8721272586778
 20
-128.9044487524961
 10
79.8721272586778
 20
-128.9044487524961
 10
79.85300697873467
 20
-129.0922064564422
 10
79.85300697873467
 20
-129.0922064564422
 10
79.85300697873467
 20
-129.0922064564422
 10
79.00689152755731
 20
-128.9630153757454
 10
79.00689152755731
 20
-128.9630153757454
 10
79.00689152755731
 20
-128.9630153757454
 10
79.00689152755731
 20
-128.1310248160575
 10
79.00689152755731
 20
-128.1310248160575
 10
79.00689152755731
 20
-128.1310248160575
 10
79.20153942247393
 20
-128.1310248160575
 10
79.20153942247393
 20
-128.1310248160575
 10
79.20153942247393
 20
-128.1310248160575
 10
79.20153942247393
 20
-128.7890380537403
 10
79.20153942247393
 20
-128.7890380537403
 10
79.20153942247393
 20
-128.7890380537403
 10
79.6245971480626
 20
-128.8593180016393
 10
79.6245971480626
 20
-128.8593180016393
 10
79.5906629575329
 20
-128.7935166778711
 10
79.55052759512974
 20
-128.7053222334487
 10
79.55052759512974
 20
-128.5787149743657
 10
79.55052759512974
 20
-128.3074137049023
 10
79.73673500610748
 20
-128.0541991867365
 10
80.04972193094244
 20
-128.0541991867365
 10
80.36718747990821
 20
-128.0541991867365
 10
80.60197073722799
 20
-128.2939778325099
 10
80.60197073722799
 20
-128.6171277890263
 97
        0
 97
        0
 75
     2
 76
     1
 98
        0
  0
POLYLINE
  5
B2
330
AA
100
AcDbEntity
  8
_U+30EC_U+30A4_U+30E4_U+30FC 1
370
     0
100
AcDb2dPolyline
 66
     1
 10
0.0
 20
0.0
 30
0.0
  0
VERTEX
  5
B3
330
B2
100
AcDbEntity
  8
_U+30EC_U+30A4_U+30E4_U+30FC 1
370
     0
100
AcDbVertex
100
AcDb2dVertex
 10
80.55115557882054
 20
-127.8092528977352
 30
0.0
  0
VERTEX
  5
B4
330
B2
100
AcDbEntity
  8
_U+30EC_U+30A4_U+30E4_U+30FC 1
370
     0
100
AcDbVertex
100
AcDb2dVertex
 10
80.29949135362305
 20
-127.8092528977352
 30
0.0
  0
VERTEX
  5
B5
330
B2
100
AcDbEntity
  8
_U+30EC_U+30A4_U+30E4_U+30FC 1
370
     0
100
AcDbVertex
100
AcDb2dVertex
 10
80.29949135362305
 20
-127.5401909403372
 30
0.0
  0
VERTEX
  5
B6
330
B2
100
AcDbEntity
  8
_U+30EC_U+30A4_U+30E4_U+30FC 1
370
     0
100
AcDbVertex
100
AcDb2dVertex
 10
80.55115557882054
 20
-127.5401909403372
 30
0.0
  0
VERTEX
  5
B7
330
B2
100
AcDbEntity
  8
_U+30EC_U+30A4_U+30E4_U+30FC 1
370
     0
100
AcDbVertex
100
AcDb2dVertex
 10
80.55115557882054
 20
-127.8092528977352
 30
0.0
  0
SEQEND
  5
B8
330
B2
100
AcDbEntity
  8
_U+30EC_U+30A4_U+30E4_U+30FC 1
370
     0
  0
HATCH
  5
B9
330
AA
100
AcDbEntity
  8
_U+30EC_U+30A4_U+30E4_U+30FC 1
 62
   179
420
  2234388
100
AcDbHatch
 10
0.0
 20
0.0
 30
0.0
210
0.0
220
0.0
230
1.0
  2
SOLID
 70
     1
 71
     0
 91
        1
 92
        1
 93
        4
 72
     1
 10
80.55115557882054
 20
-127.8092528977352
 11
80.29949135362305
 21
-127.8092528977352
 72
     1
 10
80.29949135362305
 20
-127.8092528977352
 11
80.29949135362305
 21
-127.5401909403372
 72
     1
 10
80.29949135362305
 20
-127.5401909403372
 11
80.55115557882054
 21
-127.5401909403372
 72
     1
 10
80.55115557882054
 20
-127.5401909403372
 11
80.55115557882054
 21
-127.8092528977352
 97
        0
 75
     2
 76
     1
 98
        0
  0
SPLINE
  5
BA
330
AA
100
AcDbEntity
  8
_U+30EC_U+30A4_U+30E4_U+30FC 1
370
     0
100
AcDbSpline
210
0.0
220
0.0
230
1.0
 70
    11
 71
     3
 72
    53
 73
    49
 74
     0
 42
0.0000000001
 43
0.0000000001
 12
1.0
 22
0.0
 32
0.0
 13
1.0
 23
0.0
 33
0.0
 40
0.0
 40
0.0
 40
0.0
 40
0.0
 40
1.0
 40
1.0
 40
1.0
 40
2.0
 40
2.0
 40
2.0
 40
3.0
 40
3.0
 40
3.0
 40
4.0
 40
4.0
 40
4.0
 40
5.0
 40
5.0
 40
5.0
 40
6.0
 40
6.0
 40
6.0
 40
7.0
 40
7.0
 40
7.0
 40
8.0
 40
8.0
 40
8.0
 40
9.0
 40
9.0
 40
9.0
 40
10.0
 40
10.0
 40
10.0
 40
11.0
 40
11.0
 40
11.0
 40
12.0
 40
12.0
 40
12.0
 40
13.0
 40
13.0
 40
13.0
 40
14.0
 40
14.0
 40
14.0
 40
15.0
 40
15.0
 40
15.0
 40
16.0
 40
16.0
 40
16.0
 40
16.0
 10
80.60197073722799
 20
-126.7734849400948
 30
0.0
 10
80.60197073722799
 20
-126.8572007603864
 30
0.0
 10
80.58508976935026
 20
-126.9657212681718
 30
0.0
 10
80.5215277576474
 20
-127.0742417759571
 30
0.0
 10
80.41145695689367
 20
-127.2595879130636
 30
0.0
 10
80.28037107367992
 20
-127.282153288492
 30
0.0
 10
80.1725395849916
 20
-127.3026516066292
 30
0.0
 10
80.1725395849916
 20
-127.3026516066292
 30
0.0
 10
80.1725395849916
 20
-127.0651122729212
 30
0.0
 10
80.1725395849916
 20
-127.0651122729212
 30
0.0
 10
80.37132159449051
 20
-127.0063733948977
 30
0.0
 10
80.40094941566366
 20
-126.8708088875531
 30
0.0
 10
80.40094941566366
 20
-126.7712456280294
 30
0.0
 10
80.40094941566366
 20
-126.6220729935181
 30
0.0
 10
80.3015584109142
 20
-126.45929223184
 30
0.0
 10
80.06884221088558
 20
-126.45929223184
 30
0.0
 10
79.8128716163315
 20
-126.45929223184
 30
0.0
 10
79.74310843275519
 20
-126.651528559917
 30
0.0
 10
79.74310843275519
 20
-126.7803751310653
 30
0.0
 10
79.74310843275519
 20
-126.814309321595
 30
0.0
 10
79.74310843275519
 20
-126.9657212681718
 30
0.0
 10
79.8721272586778
 20
-127.0606336487904
 30
0.0
 10
79.8721272586778
 20
-127.0606336487904
 30
0.0
 10
79.85300697873467
 20
-127.2483913527365
 30
0.0
 10
79.85300697873467
 20
-127.2483913527365
 30
0.0
 10
79.85300697873467
 20
-127.2483913527365
 30
0.0
 10
79.00689152755731
 20
-127.1195447815882
 30
0.0
 10
79.00689152755731
 20
-127.1195447815882
 30
0.0
 10
79.00689152755731
 20
-127.1195447815882
 30
0.0
 10
79.00689152755731
 20
-126.2875542219003
 30
0.0
 10
79.00689152755731
 20
-126.2875542219003
 30
0.0
 10
79.00689152755731
 20
-126.2875542219003
 30
0.0
 10
79.20153942247393
 20
-126.2875542219003
 30
0.0
 10
79.20153942247393
 20
-126.2875542219003
 30
0.0
 10
79.20153942247393
 20
-126.2875542219003
 30
0.0
 10
79.20153942247393
 20
-126.9453952048088
 30
0.0
 10
79.20153942247393
 20
-126.9453952048088
 30
0.0
 10
79.20153942247393
 20
-126.9453952048088
 30
0.0
 10
79.6245971480626
 20
-127.0155028979336
 30
0.0
 10
79.6245971480626
 20
-127.0155028979336
 30
0.0
 10
79.5906629575329
 20
-126.9498738289396
 30
0.0
 10
79.55052759512974
 20
-126.8616793845172
 30
0.0
 10
79.55052759512974
 20
-126.7350721254343
 30
0.0
 10
79.55052759512974
 20
-126.4637708559709
 30
0.0
 10
79.73673500610748
 20
-126.210556337805
 30
0.0
 10
80.04972193094244
 20
-126.210556337805
 30
0.0
 10
80.36718747990821
 20
-126.210556337805
 30
0.0
 10
80.60197073722799
 20
-126.4501627288041
 30
0.0
 10
80.60197073722799
 20
-126.7734849400948
 30
0.0
  0
HATCH
  5
BB
330
AA
100
AcDbEntity
  8
_U+30EC_U+30A4_U+30E4_U+30FC 1
 62
   179
420
  2234388
100
AcDbHatch
 10
0.0
 20
0.0
 30
0.0
210
0.0
220
0.0
230
1.0
  2
SOLID
 70
     1
 71
     0
 91
        1
 92
        1
 93
        1
 72
     4
 94
        3
 73
     0
 74
     1
 95
       53
 96
       49
 40
0.0
 40
0.0
 40
0.0
 40
0.0
 40
1.0
 40
1.0
 40
1.0
 40
2.0
 40
2.0
 40
2.0
 40
3.0
 40
3.0
 40
3.0
 40
4.0
 40
4.0
 40
4.0
 40
5.0
 40
5.0
 40
5.0
 40
6.0
 40
6.0
 40
6.0
 40
7.0
 40
7.0
 40
7.0
 40
8.0
 40
8.0
 40
8.0
 40
9.0
 40
9.0
 40
9.0
 40
10.0
 40
10.0
 40
10.0
 40
11.0
 40
11.0
 40
11.0
 40
12.0
 40
12.0
 40
12.0
 40
13.0
 40
13.0
 40
13.0
 40
14.0
 40
14.0
 40
14.0
 40
15.0
 40
15.0
 40
15.0
 40
16.0
 40
16.0
 40
16.0
 40
16.0
 10
80.60197073722799
 20
-126.7734849400948
 10
80.60197073722799
 20
-126.8572007603864
 10
80.58508976935026
 20
-126.9657212681718
 10
80.5215277576474
 20
-127.0742417759571
 10
80.41145695689367
 20
-127.2595879130636
 10
80.28037107367992
 20
-127.282153288492
 10
80.1725395849916
 20
-127.3026516066292
 10
80.1725395849916
 20
-127.3026516066292
 10
80.1725395849916
 20
-127.0651122729212
 10
80.1725395849916
 20
-127.0651122729212
 10
80.37132159449051
 20
-127.0063733948977
 10
80.40094941566366
 20
-126.8708088875531
 10
80.40094941566366
 20
-126.7712456280294
 10
80.40094941566366
 20
-126.6220729935181
 10
80.3015584109142
 20
-126.45929223184
 10
80.06884221088558
 20
-126.45929223184
 10
79.8128716163315
 20
-126.45929223184
 10
79.74310843275519
 20
-126.651528559917
 10
79.74310843275519
 20
-126.7803751310653
 10
79.74310843275519
 20
-126.814309321595
 10
79.74310843275519
 20
-126.9657212681718
 10
79.8721272586778
 20
-127.0606336487904
 10
79.8721272586778
 20
-127.0606336487904
 10
79.85300697873467
 20
-127.2483913527365
 10
79.85300697873467
 20
-127.2483913527365
 10
79.85300697873467
 20
-127.2483913527365
 10
79.00689152755731
 20
-127.1195447815882
 10
79.00689152755731
 20
-127.1195447815882
 10
79.00689152755731
 20
-127.1195447815882
 10
79.00689152755731
 20
-126.2875542219003
 10
79.00689152755731
 20
-126.2875542219003
 10
79.00689152755731
 20
-126.2875542219003
 10
79.20153942247393
 20
-126.2875542219003
 10
79.20153942247393
 20
-126.2875542219003
 10
79.20153942247393
 20
-126.2875542219003
 10
79.20153942247393
 20
-126.9453952048088
 10
79.20153942247393
 20
-126.9453952048088
 10
79.20153942247393
 20
-126.9453952048088
 10
79.6245971480626
 20
-127.0155028979336
 10
79.6245971480626
 20
-127.0155028979336
 10
79.5906629575329
 20
-126.9498738289396
 10
79.55052759512974
 20
-126.8616793845172
 10
79.55052759512974
 20
-126.7350721254343
 10
79.55052759512974
 20
-126.4637708559709
 10
79.73673500610748
 20
-126.210556337805
 10
80.04972193094244
 20
-126.210556337805
 10
80.36718747990821
 20
-126.210556337805
 10
80.60197073722799
 20
-126.4501627288041
 10
80.60197073722799
 20
-126.7734849400948
 97
        0
 97
        0
 75
     2
 76
     1
 98
        0
  0
ENDBLK
  5
AD
330
AA
100
AcDbEntity
  8
0
100
AcDbBlockEnd
  0
BLOCK
  5
CF
330
CD
100
AcDbEntity
  8
0
100
AcDbBlockBegin
  2
block 5
 70
     0
 10
0.0
 20
0.0
 30
0.0
  3
block 5
  1

  0
SPLINE
  5
D1
330
CD
100
AcDbEntity
  8
_U+30EC_U+30A4_U+30E4_U+30FC 1
370
     0
100
AcDbSpline
210
0.0
220
0.0
230
1.0
 70
    11
 71
     3
 72
    32
 73
    28
 74
     0
 42
0.0000000001
 43
0.0000000001
 12
1.0
 22
0.0
 32
0.0
 13
1.0
 23
0.0
 33
0.0
 40
0.0
 40
0.0
 40
0.0
 40
0.0
 40
1.0
 40
1.0
 40
1.0
 40
2.0
 40
2.0
 40
2.0
 40
3.0
 40
3.0
 40
3.0
 40
4.0
 40
4.0
 40
4.0
 40
5.0
 40
5.0
 40
5.0
 40
6.0
 40
6.0
 40
6.0
 40
7.0
 40
7.0
 40
7.0
 40
8.0
 40
8.0
 40
8.0
 40
9.0
 40
9.0
 40
9.0
 40
9.0
 10
101.6024115414397
 20
-132.8322021152294
 30
0.0
 10
101.6024115414397
 20
-133.3841064119665
 30
0.0
 10
101.0484401874115
 20
-133.3930636602281
 30
0.0
 10
100.8344997577775
 20
-133.3930636602281
 30
0.0
 10
100.6040228698143
 20
-133.3930636602281
 30
0.0
 10
99.95668942813583
 20
-133.3727375968652
 30
0.0
 10
99.95668942813583
 20
-132.7915499885035
 30
0.0
 10
99.95668942813583
 20
-132.6062038513971
 30
0.0
 10
100.0266248664864
 20
-132.3440320849695
 30
0.0
 10
100.3587320712645
 20
-132.3033799582436
 30
0.0
 10
100.3587320712645
 20
-132.3033799582436
 30
0.0
 10
100.3587320712645
 20
-132.5317897889157
 30
0.0
 10
100.3587320712645
 20
-132.5317897889157
 30
0.0
 10
100.3015434862093
 20
-132.5428140944685
 30
0.0
 10
100.1534043803436
 20
-132.5769205397724
 30
0.0
 10
100.1534043803436
 20
-132.7939615553432
 30
0.0
 10
100.1534043803436
 20
-133.1060872063068
 30
0.0
 10
100.4813774705394
 20
-133.1488063903239
 30
0.0
 10
100.6863606519117
 20
-133.1625867722649
 30
0.0
 10
100.6081569843966
 20
-133.0630235127412
 30
0.0
 10
100.5489013420503
 20
-132.9906765075509
 30
0.0
 10
100.5489013420503
 20
-132.7963731221829
 30
0.0
 10
100.5489013420503
 20
-132.6041367941059
 30
0.0
 10
100.6570773402871
 20
-132.280642328041
 30
0.0
 10
101.0632540979981
 20
-132.280642328041
 30
0.0
 10
101.3826144494807
 20
-132.280642328041
 30
0.0
 10
101.6024115414397
 20
-132.4932047194809
 30
0.0
 10
101.6024115414397
 20
-132.8322021152294
 30
0.0
  0
SPLINE
  5
D2
330
CD
100
AcDbEntity
  8
_U+30EC_U+30A4_U+30E4_U+30FC 1
370
     0
100
AcDbSpline
210
0.0
220
0.0
230
1.0
 70
    11
 71
     3
 72
    17
 73
    13
 74
     0
 42
0.0000000001
 43
0.0000000001
 12
1.0
 22
0.0
 32
0.0
 13
1.0
 23
0.0
 33
0.0
 40
0.0
 40
0.0
 40
0.0
 40
0.0
 40
1.0
 40
1.0
 40
1.0
 40
2.0
 40
2.0
 40
2.0
 40
3.0
 40
3.0
 40
3.0
 40
4.0
 40
4.0
 40
4.0
 40
4.0
 10
100.7435492369669
 20
-132.8142876187061
 30
0.0
 10
100.7435492369669
 20
-133.0947183912055
 30
0.0
 10
100.9550780997612
 20
-133.1353705179314
 30
0.0
 10
101.0715223271627
 20
-133.1353705179314
 30
0.0
 10
101.2472221969104
 20
-133.1353705179314
 30
0.0
 10
101.4101752133627
 20
-133.0337402011166
 30
0.0
 10
101.4101752133627
 20
-132.8370252489088
 30
0.0
 10
101.4101752133627
 20
-132.7081786777605
 30
0.0
 10
101.3509195710164
 20
-132.5204209738143
 30
0.0
 10
101.0653211552892
 20
-132.5204209738143
 30
0.0
 10
100.8410454391995
 20
-132.5204209738143
 30
0.0
 10
100.7435492369669
 20
-132.6695936083257
 30
0.0
 10
100.7435492369669
 20
-132.8142876187061
 30
0.0
  0
HATCH
  5
D3
330
CD
100
AcDbEntity
  8
_U+30EC_U+30A4_U+30E4_U+30FC 1
 62
   179
420
  2234388
100
AcDbHatch
 10
0.0
 20
0.0
 30
0.0
210
0.0
220
0.0
230
1.0
  2
SOLID
 70
     1
 71
     0
 91
        2
 92
        1
 93
        1
 72
     4
 94
        3
 73
     0
 74
     1
 95
       32
 96
       28
 40
0.0
 40
0.0
 40
0.0
 40
0.0
 40
1.0
 40
1.0
 40
1.0
 40
2.0
 40
2.0
 40
2.0
 40
3.0
 40
3.0
 40
3.0
 40
4.0
 40
4.0
 40
4.0
 40
5.0
 40
5.0
 40
5.0
 40
6.0
 40
6.0
 40
6.0
 40
7.0
 40
7.0
 40
7.0
 40
8.0
 40
8.0
 40
8.0
 40
9.0
 40
9.0
 40
9.0
 40
9.0
 10
101.6024115414397
 20
-132.8322021152294
 10
101.6024115414397
 20
-133.3841064119665
 10
101.0484401874115
 20
-133.3930636602281
 10
100.8344997577775
 20
-133.3930636602281
 10
100.6040228698143
 20
-133.3930636602281
 10
99.95668942813583
 20
-133.3727375968652
 10
99.95668942813583
 20
-132.7915499885035
 10
99.95668942813583
 20
-132.6062038513971
 10
100.0266248664864
 20
-132.3440320849695
 10
100.3587320712645
 20
-132.3033799582436
 10
100.3587320712645
 20
-132.3033799582436
 10
100.3587320712645
 20
-132.5317897889157
 10
100.3587320712645
 20
-132.5317897889157
 10
100.3015434862093
 20
-132.5428140944685
 10
100.1534043803436
 20
-132.5769205397724
 10
100.1534043803436
 20
-132.7939615553432
 10
100.1534043803436
 20
-133.1060872063068
 10
100.4813774705394
 20
-133.1488063903239
 10
100.6863606519117
 20
-133.1625867722649
 10
100.6081569843966
 20
-133.0630235127412
 10
100.5489013420503
 20
-132.9906765075509
 10
100.5489013420503
 20
-132.7963731221829
 10
100.5489013420503
 20
-132.6041367941059
 10
100.6570773402871
 20
-132.280642328041
 10
101.0632540979981
 20
-132.280642328041
 10
101.3826144494807
 20
-132.280642328041
 10
101.6024115414397
 20
-132.4932047194809
 10
101.6024115414397
 20
-132.8322021152294
 97
        0
 97
        0
 92
        1
 93
        1
 72
     4
 94
        3
 73
     0
 74
     1
 95
       17
 96
       13
 40
0.0
 40
0.0
 40
0.0
 40
0.0
 40
1.0
 40
1.0
 40
1.0
 40
2.0
 40
2.0
 40
2.0
 40
3.0
 40
3.0
 40
3.0
 40
4.0
 40
4.0
 40
4.0
 40
4.0
 10
100.7435492369669
 20
-132.8142876187061
 10
100.7435492369669
 20
-133.0947183912055
 10
100.9550780997612
 20
-133.1353705179314
 10
101.0715223271627
 20
-133.1353705179314
 10
101.2472221969104
 20
-133.1353705179314
 10
101.4101752133627
 20
-133.0337402011166
 10
101.4101752133627
 20
-132.8370252489088
 10
101.4101752133627
 20
-132.7081786777605
 10
101.3509195710164
 20
-132.5204209738143
 10
101.0653211552892
 20
-132.5204209738143
 10
100.8410454391995
 20
-132.5204209738143
 10
100.7435492369669
 20
-132.6695936083257
 10
100.7435492369669
 20
-132.8142876187061
 97
        0
 97
        0
 75
     2
 76
     1
 98
        0
  0
POLYLINE
  5
D4
330
CD
100
AcDbEntity
  8
_U+30EC_U+30A4_U+30E4_U+30FC 1
370
     0
100
AcDb2dPolyline
 66
     1
 10
0.0
 20
0.0
 30
0.0
  0
VERTEX
  5
D5
330
D4
100
AcDbEntity
  8
_U+30EC_U+30A4_U+30E4_U+30FC 1
370
     0
100
AcDbVertex
100
AcDb2dVertex
 10
101.5517686378065
 20
-132.0494764209807
 30
0.0
  0
VERTEX
  5
D6
330
D4
100
AcDbEntity
  8
_U+30EC_U+30A4_U+30E4_U+30FC 1
370
     0
100
AcDbVertex
100
AcDb2dVertex
 10
101.2999321578347
 20
-132.0494764209807
 30
0.0
  0
VERTEX
  5
D7
330
D4
100
AcDbEntity
  8
_U+30EC_U+30A4_U+30E4_U+30FC 1
370
     0
100
AcDbVertex
100
AcDb2dVertex
 10
101.2999321578347
 20
-131.7804144635827
 30
0.0
  0
VERTEX
  5
D8
330
D4
100
AcDbEntity
  8
_U+30EC_U+30A4_U+30E4_U+30FC 1
370
     0
100
AcDbVertex
100
AcDb2dVertex
 10
101.5517686378065
 20
-131.7804144635827
 30
0.0
  0
VERTEX
  5
D9
330
D4
100
AcDbEntity
  8
_U+30EC_U+30A4_U+30E4_U+30FC 1
370
     0
100
AcDbVertex
100
AcDb2dVertex
 10
101.5517686378065
 20
-132.0494764209807
 30
0.0
  0
SEQEND
  5
DA
330
D4
100
AcDbEntity
  8
_U+30EC_U+30A4_U+30E4_U+30FC 1
370
     0
  0
HATCH
  5
DB
330
CD
100
AcDbEntity
  8
_U+30EC_U+30A4_U+30E4_U+30FC 1
 62
   179
420
  2234388
100
AcDbHatch
 10
0.0
 20
0.0
 30
0.0
210
0.0
220
0.0
230
1.0
  2
SOLID
 70
     1
 71
     0
 91
        1
 92
        1
 93
        4
 72
     1
 10
101.5517686378065
 20
-132.0494764209807
 11
101.2999321578347
 21
-132.0494764209807
 72
     1
 10
101.2999321578347
 20
-132.0494764209807
 11
101.2999321578347
 21
-131.7804144635827
 72
     1
 10
101.2999321578347
 20
-131.7804144635827
 11
101.5517686378065
 21
-131.7804144635827
 72
     1
 10
101.5517686378065
 20
-131.7804144635827
 11
101.5517686378065
 21
-132.0494764209807
 97
        0
 75
     2
 76
     1
 98
        0
  0
SPLINE
  5
DC
330
CD
100
AcDbEntity
  8
_U+30EC_U+30A4_U+30E4_U+30FC 1
370
     0
100
AcDbSpline
210
0.0
220
0.0
230
1.0
 70
    11
 71
     3
 72
    53
 73
    49
 74
     0
 42
0.0000000001
 43
0.0000000001
 12
1.0
 22
0.0
 32
0.0
 13
1.0
 23
0.0
 33
0.0
 40
0.0
 40
0.0
 40
0.0
 40
0.0
 40
1.0
 40
1.0
 40
1.0
 40
2.0
 40
2.0
 40
2.0
 40
3.0
 40
3.0
 40
3.0
 40
4.0
 40
4.0
 40
4.0
 40
5.0
 40
5.0
 40
5.0
 40
6.0
 40
6.0
 40
6.0
 40
7.0
 40
7.0
 40
7.0
 40
8.0
 40
8.0
 40
8.0
 40
9.0
 40
9.0
 40
9.0
 40
10.0
 40
10.0
 40
10.0
 40
11.0
 40
11.0
 40
11.0
 40
12.0
 40
12.0
 40
12.0
 40
13.0
 40
13.0
 40
13.0
 40
14.0
 40
14.0
 40
14.0
 40
15.0
 40
15.0
 40
15.0
 40
16.0
 40
16.0
 40
16.0
 40
16.0
 10
101.6024115414397
 20
-131.0135362085661
 30
0.0
 10
101.6024115414397
 20
-131.0972520288576
 30
0.0
 10
101.585530573562
 20
-131.2054280270945
 30
0.0
 10
101.5221408166334
 20
-131.3142930444284
 30
0.0
 10
101.4122422706539
 20
-131.4996391815348
 30
0.0
 10
101.2809841326659
 20
-131.5220323021889
 30
0.0
 10
101.1731526439775
 20
-131.5423583655519
 30
0.0
 10
101.1731526439775
 20
-131.5423583655519
 30
0.0
 10
101.1731526439775
 20
-131.3049912866182
 30
0.0
 10
101.1731526439775
 20
-131.3049912866182
 30
0.0
 10
101.3719346534765
 20
-131.2464246633689
 30
0.0
 10
101.4015624746496
 20
-131.1106879012501
 30
0.0
 10
101.4015624746496
 20
-131.0111246417264
 30
0.0
 10
101.4015624746496
 20
-130.8619520072151
 30
0.0
 10
101.3019992151259
 20
-130.6993435003113
 30
0.0
 10
101.0694552698715
 20
-130.6993435003113
 30
0.0
 10
100.8134846753175
 20
-130.6993435003113
 30
0.0
 10
100.7435492369669
 20
-130.8915798283882
 30
0.0
 10
100.7435492369669
 20
-131.020081889988
 30
0.0
 10
100.7435492369669
 20
-131.054188335292
 30
0.0
 10
100.7435492369669
 20
-131.2054280270945
 30
0.0
 10
100.8727403176638
 20
-131.3005126624874
 30
0.0
 10
100.8727403176638
 20
-131.3005126624874
 30
0.0
 10
100.8537922924949
 20
-131.4882703664335
 30
0.0
 10
100.8537922924949
 20
-131.4882703664335
 30
0.0
 10
100.8537922924949
 20
-131.4882703664335
 30
0.0
 10
100.007332331769
 20
-131.3594237952852
 30
0.0
 10
100.007332331769
 20
-131.3594237952852
 30
0.0
 10
100.007332331769
 20
-131.3594237952852
 30
0.0
 10
100.007332331769
 20
-130.5274332355973
 30
0.0
 10
100.007332331769
 20
-130.5274332355973
 30
0.0
 10
100.007332331769
 20
-130.5274332355973
 30
0.0
 10
100.2019802266856
 20
-130.5274332355973
 30
0.0
 10
100.2019802266856
 20
-130.5274332355973
 30
0.0
 10
100.2019802266856
 20
-130.5274332355973
 30
0.0
 10
100.2019802266856
 20
-131.1851019637315
 30
0.0
 10
100.2019802266856
 20
-131.1851019637315
 30
0.0
 10
100.2019802266856
 20
-131.1851019637315
 30
0.0
 10
100.6250379522743
 20
-131.2553819116306
 30
0.0
 10
100.6250379522743
 20
-131.2553819116306
 30
0.0
 10
100.5912760165188
 20
-131.1899250974108
 30
0.0
 10
100.5509683993414
 20
-131.1017306529885
 30
0.0
 10
100.5509683993414
 20
-130.9749511391313
 30
0.0
 10
100.5509683993414
 20
-130.7038221244421
 30
0.0
 10
100.7373480650934
 20
-130.4506076062762
 30
0.0
 10
101.0505072447027
 20
-130.4506076062762
 30
0.0
 10
101.3678005388942
 20
-130.4506076062762
 30
0.0
 10
101.6024115414397
 20
-130.6900417425011
 30
0.0
 10
101.6024115414397
 20
-131.0135362085661
 30
0.0
  0
HATCH
  5
DD
330
CD
100
AcDbEntity
  8
_U+30EC_U+30A4_U+30E4_U+30FC 1
 62
   179
420
  2234388
100
AcDbHatch
 10
0.0
 20
0.0
 30
0.0
210
0.0
220
0.0
230
1.0
  2
SOLID
 70
     1
 71
     0
 91
        1
 92
        1
 93
        1
 72
     4
 94
        3
 73
     0
 74
     1
 95
       53
 96
       49
 40
0.0
 40
0.0
 40
0.0
 40
0.0
 40
1.0
 40
1.0
 40
1.0
 40
2.0
 40
2.0
 40
2.0
 40
3.0
 40
3.0
 40
3.0
 40
4.0
 40
4.0
 40
4.0
 40
5.0
 40
5.0
 40
5.0
 40
6.0
 40
6.0
 40
6.0
 40
7.0
 40
7.0
 40
7.0
 40
8.0
 40
8.0
 40
8.0
 40
9.0
 40
9.0
 40
9.0
 40
10.0
 40
10.0
 40
10.0
 40
11.0
 40
11.0
 40
11.0
 40
12.0
 40
12.0
 40
12.0
 40
13.0
 40
13.0
 40
13.0
 40
14.0
 40
14.0
 40
14.0
 40
15.0
 40
15.0
 40
15.0
 40
16.0
 40
16.0
 40
16.0
 40
16.0
 10
101.6024115414397
 20
-131.0135362085661
 10
101.6024115414397
 20
-131.0972520288576
 10
101.585530573562
 20
-131.2054280270945
 10
101.5221408166334
 20
-131.3142930444284
 10
101.4122422706539
 20
-131.4996391815348
 10
101.2809841326659
 20
-131.5220323021889
 10
101.1731526439775
 20
-131.5423583655519
 10
101.1731526439775
 20
-131.5423583655519
 10
101.1731526439775
 20
-131.3049912866182
 10
101.1731526439775
 20
-131.3049912866182
 10
101.3719346534765
 20
-131.2464246633689
 10
101.4015624746496
 20
-131.1106879012501
 10
101.4015624746496
 20
-131.0111246417264
 10
101.4015624746496
 20
-130.8619520072151
 10
101.3019992151259
 20
-130.6993435003113
 10
101.0694552698715
 20
-130.6993435003113
 10
100.8134846753175
 20
-130.6993435003113
 10
100.7435492369669
 20
-130.8915798283882
 10
100.7435492369669
 20
-131.020081889988
 10
100.7435492369669
 20
-131.054188335292
 10
100.7435492369669
 20
-131.2054280270945
 10
100.8727403176638
 20
-131.3005126624874
 10
100.8727403176638
 20
-131.3005126624874
 10
100.8537922924949
 20
-131.4882703664335
 10
100.8537922924949
 20
-131.4882703664335
 10
100.8537922924949
 20
-131.4882703664335
 10
100.007332331769
 20
-131.3594237952852
 10
100.007332331769
 20
-131.3594237952852
 10
100.007332331769
 20
-131.3594237952852
 10
100.007332331769
 20
-130.5274332355973
 10
100.007332331769
 20
-130.5274332355973
 10
100.007332331769
 20
-130.5274332355973
 10
100.2019802266856
 20
-130.5274332355973
 10
100.2019802266856
 20
-130.5274332355973
 10
100.2019802266856
 20
-130.5274332355973
 10
100.2019802266856
 20
-131.1851019637315
 10
100.2019802266856
 20
-131.1851019637315
 10
100.2019802266856
 20
-131.1851019637315
 10
100.6250379522743
 20
-131.2553819116306
 10
100.6250379522743
 20
-131.2553819116306
 10
100.5912760165188
 20
-131.1899250974108
 10
100.5509683993414
 20
-131.1017306529885
 10
100.5509683993414
 20
-130.9749511391313
 10
100.5509683993414
 20
-130.7038221244421
 10
100.7373480650934
 20
-130.4506076062762
 10
101.0505072447027
 20
-130.4506076062762
 10
101.3678005388942
 20
-130.4506076062762
 10
101.6024115414397
 20
-130.6900417425011
 10
101.6024115414397
 20
-131.0135362085661
 97
        0
 97
        0
 75
     2
 76
     1
 98
        0
  0
ENDBLK
  5
D0
330
CD
100
AcDbEntity
  8
0
100
AcDbBlockEnd
  0
BLOCK
  5
E8
330
E6
100
AcDbEntity
  8
0
100
AcDbBlockBegin
  2
block 6
 70
     0
 10
0.0
 20
0.0
 30
0.0
  3
block 6
  1

  0
SPLINE
  5
EA
330
E6
100
AcDbEntity
  8
_U+30EC_U+30A4_U+30E4_U+30FC 1
370
     0
100
AcDbSpline
210
0.0
220
0.0
230
1.0
 70
    11
 71
     3
 72
    26
 73
    22
 74
     0
 42
0.0000000001
 43
0.0000000001
 12
1.0
 22
0.0
 32
0.0
 13
1.0
 23
0.0
 33
0.0
 40
0.0
 40
0.0
 40
0.0
 40
0.0
 40
1.0
 40
1.0
 40
1.0
 40
2.0
 40
2.0
 40
2.0
 40
3.0
 40
3.0
 40
3.0
 40
4.0
 40
4.0
 40
4.0
 40
5.0
 40
5.0
 40
5.0
 40
6.0
 40
6.0
 40
6.0
 40
7.0
 40
7.0
 40
7.0
 40
7.0
 10
101.5517686378065
 20
-124.8650742960407
 30
0.0
 10
101.5517686378065
 20
-124.8650742960407
 30
0.0
 10
101.5517686378065
 20
-125.1182888142066
 30
0.0
 10
101.5517686378065
 20
-125.1182888142066
 30
0.0
 10
101.2427435727796
 20
-125.0912448146473
 30
0.0
 10
100.724601211798
 20
-124.8855726141779
 30
0.0
 10
100.2188611945633
 20
-124.4514905830364
 30
0.0
 10
100.2188611945633
 20
-124.4514905830364
 30
0.0
 10
100.2188611945633
 20
-125.3466986448786
 30
0.0
 10
100.2188611945633
 20
-125.3466986448786
 30
0.0
 10
100.2188611945633
 20
-125.3466986448786
 30
0.0
 10
100.007332331769
 20
-125.3466986448786
 30
0.0
 10
100.007332331769
 20
-125.3466986448786
 30
0.0
 10
100.007332331769
 20
-125.3466986448786
 30
0.0
 10
100.007332331769
 20
-124.1982760648706
 30
0.0
 10
100.007332331769
 20
-124.1982760648706
 30
0.0
 10
100.007332331769
 20
-124.1982760648706
 30
0.0
 10
100.2188611945633
 20
-124.1982760648706
 30
0.0
 10
100.2188611945633
 20
-124.1982760648706
 30
0.0
 10
100.5089382344214
 20
-124.5441636515897
 30
0.0
 10
101.1011501483358
 20
-124.8289007934456
 30
0.0
 10
101.5517686378065
 20
-124.8650742960407
 30
0.0
  0
HATCH
  5
EB
330
E6
100
AcDbEntity
  8
_U+30EC_U+30A4_U+30E4_U+30FC 1
 62
   179
420
  2234388
100
AcDbHatch
 10
0.0
 20
0.0
 30
0.0
210
0.0
220
0.0
230
1.0
  2
SOLID
 70
     1
 71
     0
 91
        1
 92
        1
 93
        1
 72
     4
 94
        3
 73
     0
 74
     1
 95
       26
 96
       22
 40
0.0
 40
0.0
 40
0.0
 40
0.0
 40
1.0
 40
1.0
 40
1.0
 40
2.0
 40
2.0
 40
2.0
 40
3.0
 40
3.0
 40
3.0
 40
4.0
 40
4.0
 40
4.0
 40
5.0
 40
5.0
 40
5.0
 40
6.0
 40
6.0
 40
6.0
 40
7.0
 40
7.0
 40
7.0
 40
7.0
 10
101.5517686378065
 20
-124.8650742960407
 10
101.5517686378065
 20
-124.8650742960407
 10
101.5517686378065
 20
-125.1182888142066
 10
101.5517686378065
 20
-125.1182888142066
 10
101.2427435727796
 20
-125.0912448146473
 10
100.724601211798
 20
-124.8855726141779
 10
100.2188611945633
 20
-124.4514905830364
 10
100.2188611945633
 20
-124.4514905830364
 10
100.2188611945633
 20
-125.3466986448786
 10
100.2188611945633
 20
-125.3466986448786
 10
100.2188611945633
 20
-125.3466986448786
 10
100.007332331769
 20
-125.3466986448786
 10
100.007332331769
 20
-125.3466986448786
 10
100.007332331769
 20
-125.3466986448786
 10
100.007332331769
 20
-124.1982760648706
 10
100.007332331769
 20
-124.1982760648706
 10
100.007332331769
 20
-124.1982760648706
 10
100.2188611945633
 20
-124.1982760648706
 10
100.2188611945633
 20
-124.1982760648706
 10
100.5089382344214
 20
-124.5441636515897
 10
101.1011501483358
 20
-124.8289007934456
 10
101.5517686378065
 20
-124.8650742960407
 97
        0
 97
        0
 75
     2
 76
     1
 98
        0
  0
ENDBLK
  5
E9
330
E6
100
AcDbEntity
  8
0
100
AcDbBlockEnd
  0
BLOCK
  5
FC
330
FA
100
AcDbEntity
  8
0
100
AcDbBlockBegin
  2
block 7
 70
     0
 10
0.0
 20
0.0
 30
0.0
  3
block 7
  1

  0
SPLINE
  5
FE
330
FA
100
AcDbEntity
  8
_U+30EC_U+30A4_U+30E4_U+30FC 1
370
     0
100
AcDbSpline
210
0.0
220
0.0
230
1.0
 70
    11
 71
     3
 72
    26
 73
    22
 74
     0
 42
0.0000000001
 43
0.0000000001
 12
1.0
 22
0.0
 32
0.0
 13
1.0
 23
0.0
 33
0.0
 40
0.0
 40
0.0
 40
0.0
 40
0.0
 40
1.0
 40
1.0
 40
1.0
 40
2.0
 40
2.0
 40
2.0
 40
3.0
 40
3.0
 40
3.0
 40
4.0
 40
4.0
 40
4.0
 40
5.0
 40
5.0
 40
5.0
 40
6.0
 40
6.0
 40
6.0
 40
7.0
 40
7.0
 40
7.0
 40
7.0
 10
89.57661673107808
 20
-117.692040986202
 30
0.0
 10
89.57661673107808
 20
-117.692040986202
 30
0.0
 10
89.32340221291221
 20
-117.692040986202
 30
0.0
 10
89.32340221291221
 20
-117.692040986202
 30
0.0
 10
89.35061846724568
 20
-117.3831881759493
 30
0.0
 10
89.5562906677151
 20
-116.8648735601935
 30
0.0
 10
89.99037269885658
 20
-116.3593057977331
 30
0.0
 10
89.99037269885658
 20
-116.3593057977331
 30
0.0
 10
89.0951646370144
 20
-116.3593057977331
 30
0.0
 10
89.0951646370144
 20
-116.3593057977331
 30
0.0
 10
89.0951646370144
 20
-116.3593057977331
 30
0.0
 10
89.0951646370144
 20
-116.1477769349388
 30
0.0
 10
89.0951646370144
 20
-116.1477769349388
 30
0.0
 10
89.0951646370144
 20
-116.1477769349388
 30
0.0
 10
90.24358721702244
 20
-116.1477769349388
 30
0.0
 10
90.24358721702244
 20
-116.1477769349388
 30
0.0
 10
90.24358721702244
 20
-116.1477769349388
 30
0.0
 10
90.24358721702244
 20
-116.3593057977331
 30
0.0
 10
90.24358721702244
 20
-116.3593057977331
 30
0.0
 10
89.89769963030335
 20
-116.6490383280426
 30
0.0
 10
89.6127902336732
 20
-117.2414224967313
 30
0.0
 10
89.57661673107808
 20
-117.692040986202
 30
0.0
  0
HATCH
  5
FF
330
FA
100
AcDbEntity
  8
_U+30EC_U+30A4_U+30E4_U+30FC 1
 62
     7
420
 16777215
100
AcDbHatch
 10
0.0
 20
0.0
 30
0.0
210
0.0
220
0.0
230
1.0
  2
SOLID
 70
     1
 71
     0
 91
        1
 92
        1
 93
        1
 72
     4
 94
        3
 73
     0
 74
     1
 95
       26
 96
       22
 40
0.0
 40
0.0
 40
0.0
 40
0.0
 40
1.0
 40
1.0
 40
1.0
 40
2.0
 40
2.0
 40
2.0
 40
3.0
 40
3.0
 40
3.0
 40
4.0
 40
4.0
 40
4.0
 40
5.0
 40
5.0
 40
5.0
 40
6.0
 40
6.0
 40
6.0
 40
7.0
 40
7.0
 40
7.0
 40
7.0
 10
89.57661673107808
 20
-117.692040986202
 10
89.57661673107808
 20
-117.692040986202
 10
89.32340221291221
 20
-117.692040986202
 10
89.32340221291221
 20
-117.692040986202
 10
89.35061846724568
 20
-117.3831881759493
 10
89.5562906677151
 20
-116.8648735601935
 10
89.99037269885658
 20
-116.3593057977331
 10
89.99037269885658
 20
-116.3593057977331
 10
89.0951646370144
 20
-116.3593057977331
 10
89.0951646370144
 20
-116.3593057977331
 10
89.0951646370144
 20
-116.3593057977331
 10
89.0951646370144
 20
-116.1477769349388
 10
89.0951646370144
 20
-116.1477769349388
 10
89.0951646370144
 20
-116.1477769349388
 10
90.24358721702244
 20
-116.1477769349388
 10
90.24358721702244
 20
-116.1477769349388
 10
90.24358721702244
 20
-116.1477769349388
 10
90.24358721702244
 20
-116.3593057977331
 10
90.24358721702244
 20
-116.3593057977331
 10
89.89769963030335
 20
-116.6490383280426
 10
89.6127902336732
 20
-117.2414224967313
 10
89.57661673107808
 20
-117.692040986202
 97
        0
 97
        0
 75
     2
 76
     1
 98
        0
  0
ENDBLK
  5
FD
330
FA
100
AcDbEntity
  8
0
100
AcDbBlockEnd
  0
ENDSEC
  0
SECTION
  2
ENTITIES
  0
POLYLINE
  5
41
330
1F
100
AcDbEntity
  8
_U+30EC_U+30A4_U+30E4_U+30FC 1
  6
AI-Linetype-1
 62
   251
420
  5855577
370
    25
100
AcDb2dPolyline
 66
     1
 10
0.0
 20
0.0
 30
0.0
  0
VERTEX
  5
42
330
41
100
AcDbEntity
  8
_U+30EC_U+30A4_U+30E4_U+30FC 1
  6
AI-Linetype-1
 62
   251
420
  5855577
370
    25
100
AcDbVertex
100
AcDb2dVertex
 10
84.56866284247367
 20
-120.122209136636
 30
0.0
  0
VERTEX
  5
43
330
41
100
AcDbEntity
  8
_U+30EC_U+30A4_U+30E4_U+30FC 1
  6
AI-Linetype-1
 62
   251
420
  5855577
370
    25
100
AcDbVertex
100
AcDb2dVertex
 10
86.86171833952851
 20
-120.122209136636
 30
0.0
  0
VERTEX
  5
44
330
41
100
AcDbEntity
  8
_U+30EC_U+30A4_U+30E4_U+30FC 1
  6
AI-Linetype-1
 62
   251
420
  5855577
370
    25
100
AcDbVertex
100
AcDb2dVertex
 10
86.86171833952851
 20
-127.0013758015829
 30
0.0
  0
VERTEX
  5
45
330
41
100
AcDbEntity
  8
_U+30EC_U+30A4_U+30E4_U+30FC 1
  6
AI-Linetype-1
 62
   251
420
  5855577
370
    25
100
AcDbVertex
100
AcDb2dVertex
 10
93.7410612195774
 20
-127.0013758015829
 30
0.0
  0
VERTEX
  5
46
330
41
100
AcDbEntity
  8
_U+30EC_U+30A4_U+30E4_U+30FC 1
  6
AI-Linetype-1
 62
   251
420
  5855577
370
    25
100
AcDbVertex
100
AcDb2dVertex
 10
93.7410612195774
 20
-128.8534591344532
 30
0.0
  0
SEQEND
  5
48
330
41
100
AcDbEntity
  8
_U+30EC_U+30A4_U+30E4_U+30FC 1
  6
AI-Linetype-1
 62
   251
420
  5855577
370
    25
  0
SPLINE
  5
49
330
1F
100
AcDbEntity
  8
_U+30EC_U+30A4_U+30E4_U+30FC 1
370
     0
100
AcDbSpline
210
0.0
220
0.0
230
1.0
 70
    11
 71
     3
 72
    44
 73
    40
 74
     0
 42
0.0000000001
 43
0.0000000001
 12
1.0
 22
0.0
 32
0.0
 13
1.0
 23
0.0
 33
0.0
 40
0.0
 40
0.0
 40
0.0
 40
0.0
 40
1.0
 40
1.0
 40
1.0
 40
2.0
 40
2.0
 40
2.0
 40
3.0
 40
3.0
 40
3.0
 40
4.0
 40
4.0
 40
4.0
 40
5.0
 40
5.0
 40
5.0
 40
6.0
 40
6.0
 40
6.0
 40
7.0
 40
7.0
 40
7.0
 40
8.0
 40
8.0
 40
8.0
 40
9.0
 40
9.0
 40
9.0
 40
10.0
 40
10.0
 40
10.0
 40
11.0
 40
11.0
 40
11.0
 40
12.0
 40
12.0
 40
12.0
 40
13.0
 40
13.0
 40
13.0
 40
13.0
 10
97.34736723868397
 20
-135.5121396883441
 30
0.0
 10
97.34736723868397
 20
-135.5121396883441
 30
0.0
 10
93.4936934481105
 20
-135.5121396883441
 30
0.0
 10
93.4936934481105
 20
-135.5121396883441
 30
0.0
 10
93.4936934481105
 20
-135.5121396883441
 30
0.0
 10
93.14779719893501
 20
-135.3119735772831
 30
0.0
 10
93.14779719893501
 20
-135.3119735772831
 30
0.0
 10
93.14779719893501
 20
-135.3119735772831
 30
0.0
 10
86.147555024415
 20
-135.3119735772831
 30
0.0
 10
86.147555024415
 20
-135.3119735772831
 30
0.0
 10
86.147555024415
 20
-135.3119735772831
 30
0.0
 10
86.147555024415
 20
-128.8121135789078
 30
0.0
 10
86.147555024415
 20
-128.8121135789078
 30
0.0
 10
86.147555024415
 20
-128.8121135789078
 30
0.0
 10
93.14779719893501
 20
-128.8121135789078
 30
0.0
 10
93.14779719893501
 20
-128.8121135789078
 30
0.0
 10
93.14779719893501
 20
-128.2598752457127
 30
0.0
 10
92.69994346836074
 20
-127.812023856936
 30
0.0
 10
92.14735237134741
 20
-127.812023856936
 30
0.0
 10
92.14735237134741
 20
-127.812023856936
 30
0.0
 10
86.147555024415
 20
-127.812023856936
 30
0.0
 10
86.147555024415
 20
-127.812023856936
 30
0.0
 10
86.147555024415
 20
-127.812023856936
 30
0.0
 10
86.147555024415
 20
-121.8120146917691
 30
0.0
 10
86.147555024415
 20
-121.8120146917691
 30
0.0
 10
86.147555024415
 20
-121.2601291363518
 30
0.0
 10
85.70002114694364
 20
-120.8122777475747
 30
0.0
 10
85.1474300499303
 20
-120.8122777475747
 30
0.0
 10
85.1474300499303
 20
-120.8122777475747
 30
0.0
 10
85.1474300499303
 20
-135.3119735772831
 30
0.0
 10
85.1474300499303
 20
-135.3119735772831
 30
0.0
 10
85.1474300499303
 20
-135.8645646882559
 30
0.0
 10
85.59528142739356
 20
-136.3120985770334
 30
0.0
 10
86.147555024415
 20
-136.3120985770334
 30
0.0
 10
86.147555024415
 20
-136.3120985770334
 30
0.0
 10
98.14732610716422
 20
-136.3120985770334
 30
0.0
 10
98.14732610716422
 20
-136.3120985770334
 30
0.0
 10
98.14732610716422
 20
-135.8704207993659
 30
0.0
 10
97.78904500519361
 20
-135.5121396883441
 30
0.0
 10
97.34736723868397
 20
-135.5121396883441
 30
0.0
  0
HATCH
  5
4A
330
1F
100
AcDbEntity
  8
_U+30EC_U+30A4_U+30E4_U+30FC 1
 62
   253
420
 11711154
100
AcDbHatch
 10
0.0
 20
0.0
 30
0.0
210
0.0
220
0.0
230
1.0
  2
SOLID
 70
     1
 71
     0
 91
        1
 92
        1
 93
        1
 72
     4
 94
        3
 73
     0
 74
     1
 95
       44
 96
       40
 40
0.0
 40
0.0
 40
0.0
 40
0.0
 40
1.0
 40
1.0
 40
1.0
 40
2.0
 40
2.0
 40
2.0
 40
3.0
 40
3.0
 40
3.0
 40
4.0
 40
4.0
 40
4.0
 40
5.0
 40
5.0
 40
5.0
 40
6.0
 40
6.0
 40
6.0
 40
7.0
 40
7.0
 40
7.0
 40
8.0
 40
8.0
 40
8.0
 40
9.0
 40
9.0
 40
9.0
 40
10.0
 40
10.0
 40
10.0
 40
11.0
 40
11.0
 40
11.0
 40
12.0
 40
12.0
 40
12.0
 40
13.0
 40
13.0
 40
13.0
 40
13.0
 10
97.34736723868397
 20
-135.5121396883441
 10
97.34736723868397
 20
-135.5121396883441
 10
93.4936934481105
 20
-135.5121396883441
 10
93.4936934481105
 20
-135.5121396883441
 10
93.4936934481105
 20
-135.5121396883441
 10
93.14779719893501
 20
-135.3119735772831
 10
93.14779719893501
 20
-135.3119735772831
 10
93.14779719893501
 20
-135.3119735772831
 10
86.147555024415
 20
-135.3119735772831
 10
86.147555024415
 20
-135.3119735772831
 10
86.147555024415
 20
-135.3119735772831
 10
86.147555024415
 20
-128.8121135789078
 10
86.147555024415
 20
-128.8121135789078
 10
86.147555024415
 20
-128.8121135789078
 10
93.14779719893501
 20
-128.8121135789078
 10
93.14779719893501
 20
-128.8121135789078
 10
93.14779719893501
 20
-128.2598752457127
 10
92.69994346836074
 20
-127.812023856936
 10
92.14735237134741
 20
-127.812023856936
 10
92.14735237134741
 20
-127.812023856936
 10
86.147555024415
 20
-127.812023856936
 10
86.147555024415
 20
-127.812023856936
 10
86.147555024415
 20
-127.812023856936
 10
86.147555024415
 20
-121.8120146917691
 10
86.147555024415
 20
-121.8120146917691
 10
86.147555024415
 20
-121.2601291363518
 10
85.70002114694364
 20
-120.8122777475747
 10
85.1474300499303
 20
-120.8122777475747
 10
85.1474300499303
 20
-120.8122777475747
 10
85.1474300499303
 20
-135.3119735772831
 10
85.1474300499303
 20
-135.3119735772831
 10
85.1474300499303
 20
-135.8645646882559
 10
85.59528142739356
 20
-136.3120985770334
 10
86.147555024415
 20
-136.3120985770334
 10
86.147555024415
 20
-136.3120985770334
 10
98.14732610716422
 20
-136.3120985770334
 10
98.14732610716422
 20
-136.3120985770334
 10
98.14732610716422
 20
-135.8704207993659
 10
97.78904500519361
 20
-135.5121396883441
 10
97.34736723868397
 20
-135.5121396883441
 97
        0
 97
        0
 75
     2
 76
     1
 98
        0
  0
POLYLINE
  5
4B
330
1F
100
AcDbEntity
  8
_U+30EC_U+30A4_U+30E4_U+30FC 1
 62
   179
420
  2234388
370
    25
100
AcDb2dPolyline
 66
     1
 10
0.0
 20
0.0
 30
0.0
  0
VERTEX
  5
4C
330
4B
100
AcDbEntity
  8
_U+30EC_U+30A4_U+30E4_U+30FC 1
 62
   179
420
  2234388
370
    25
100
AcDbVertex
100
AcDb2dVertex
 10
86.147555024415
 20
-135.3119735772831
 30
0.0
  0
VERTEX
  5
4D
330
4B
100
AcDbEntity
  8
_U+30EC_U+30A4_U+30E4_U+30FC 1
 62
   179
420
  2234388
370
    25
100
AcDbVertex
100
AcDb2dVertex
 10
93.14779719893501
 20
-135.3119735772831
 30
0.0
  0
SEQEND
  5
4E
330
4B
100
AcDbEntity
  8
_U+30EC_U+30A4_U+30E4_U+30FC 1
 62
   179
420
  2234388
370
    25
  0
POLYLINE
  5
4F
330
1F
100
AcDbEntity
  8
_U+30EC_U+30A4_U+30E4_U+30FC 1
 62
   179
420
  2234388
370
    25
100
AcDb2dPolyline
 66
     1
 10
0.0
 20
0.0
 30
0.0
  0
VERTEX
  5
50
330
4F
100
AcDbEntity
  8
_U+30EC_U+30A4_U+30E4_U+30FC 1
 62
   179
420
  2234388
370
    25
100
AcDbVertex
100
AcDb2dVertex
 10
86.147555024415
 20
-128.8121135789078
 30
0.0
  0
VERTEX
  5
51
330
4F
100
AcDbEntity
  8
_U+30EC_U+30A4_U+30E4_U+30FC 1
 62
   179
420
  2234388
370
    25
100
AcDbVertex
100
AcDb2dVertex
 10
93.14779719893501
 20
-128.8121135789078
 30
0.0
  0
SEQEND
  5
52
330
4F
100
AcDbEntity
  8
_U+30EC_U+30A4_U+30E4_U+30FC 1
 62
   179
420
  2234388
370
    25
  0
POLYLINE
  5
53
330
1F
100
AcDbEntity
  8
_U+30EC_U+30A4_U+30E4_U+30FC 1
 62
   179
420
  2234388
370
    25
100
AcDb2dPolyline
 66
     1
 10
0.0
 20
0.0
 30
0.0
  0
VERTEX
  5
54
330
53
100
AcDbEntity
  8
_U+30EC_U+30A4_U+30E4_U+30FC 1
 62
   179
420
  2234388
370
    25
100
AcDbVertex
100
AcDb2dVertex
 10
86.147555024415
 20
-136.3120985770334
 30
0.0
  0
VERTEX
  5
55
330
53
100
AcDbEntity
  8
_U+30EC_U+30A4_U+30E4_U+30FC 1
 62
   179
420
  2234388
370
    25
100
AcDbVertex
100
AcDb2dVertex
 10
98.14732610716422
 20
-136.3120985770334
 30
0.0
  0
SEQEND
  5
56
330
53
100
AcDbEntity
  8
_U+30EC_U+30A4_U+30E4_U+30FC 1
 62
   179
420
  2234388
370
    25
  0
POLYLINE
  5
57
330
1F
100
AcDbEntity
  8
_U+30EC_U+30A4_U+30E4_U+30FC 1
 62
   179
420
  2234388
370
    25
100
AcDb2dPolyline
 66
     1
 10
0.0
 20
0.0
 30
0.0
  0
VERTEX
  5
58
330
57
100
AcDbEntity
  8
_U+30EC_U+30A4_U+30E4_U+30FC 1
 62
   179
420
  2234388
370
    25
100
AcDbVertex
100
AcDb2dVertex
 10
85.1474300499303
 20
-120.8122777475747
 30
0.0
  0
VERTEX
  5
59
330
57
100
AcDbEntity
  8
_U+30EC_U+30A4_U+30E4_U+30FC 1
 62
   179
420
  2234388
370
    25
100
AcDbVertex
100
AcDb2dVertex
 10
85.1474300499303
 20
-135.3119735772831
 30
0.0
  0
SEQEND
  5
5A
330
57
100
AcDbEntity
  8
_U+30EC_U+30A4_U+30E4_U+30FC 1
 62
   179
420
  2234388
370
    25
  0
POLYLINE
  5
5B
330
1F
100
AcDbEntity
  8
_U+30EC_U+30A4_U+30E4_U+30FC 1
 62
   179
420
  2234388
370
    25
100
AcDb2dPolyline
 66
     1
 10
0.0
 20
0.0
 30
0.0
  0
VERTEX
  5
5C
330
5B
100
AcDbEntity
  8
_U+30EC_U+30A4_U+30E4_U+30FC 1
 62
   179
420
  2234388
370
    25
100
AcDbVertex
100
AcDb2dVertex
 10
86.147555024415
 20
-121.8120146917691
 30
0.0
  0
VERTEX
  5
5D
330
5B
100
AcDbEntity
  8
_U+30EC_U+30A4_U+30E4_U+30FC 1
 62
   179
420
  2234388
370
    25
100
AcDbVertex
100
AcDb2dVertex
 10
86.147555024415
 20
-127.812023856936
 30
0.0
  0
SEQEND
  5
5E
330
5B
100
AcDbEntity
  8
_U+30EC_U+30A4_U+30E4_U+30FC 1
 62
   179
420
  2234388
370
    25
  0
POLYLINE
  5
5F
330
1F
100
AcDbEntity
  8
_U+30EC_U+30A4_U+30E4_U+30FC 1
 62
   179
420
  2234388
370
    25
100
AcDb2dPolyline
 66
     1
 10
0.0
 20
0.0
 30
0.0
  0
VERTEX
  5
60
330
5F
100
AcDbEntity
  8
_U+30EC_U+30A4_U+30E4_U+30FC 1
 62
   179
420
  2234388
370
    25
100
AcDbVertex
100
AcDb2dVertex
 10
86.147555024415
 20
-127.812023856936
 30
0.0
  0
VERTEX
  5
61
330
5F
100
AcDbEntity
  8
_U+30EC_U+30A4_U+30E4_U+30FC 1
 62
   179
420
  2234388
370
    25
100
AcDbVertex
100
AcDb2dVertex
 10
92.14735237134741
 20
-127.812023856936
 30
0.0
  0
SEQEND
  5
62
330
5F
100
AcDbEntity
  8
_U+30EC_U+30A4_U+30E4_U+30FC 1
 62
   179
420
  2234388
370
    25
  0
POLYLINE
  5
63
330
1F
100
AcDbEntity
  8
_U+30EC_U+30A4_U+30E4_U+30FC 1
 62
   179
420
  2234388
370
    25
100
AcDb2dPolyline
 66
     1
 10
0.0
 20
0.0
 30
0.0
  0
VERTEX
  5
64
330
63
100
AcDbEntity
  8
_U+30EC_U+30A4_U+30E4_U+30FC 1
 62
   179
420
  2234388
370
    25
100
AcDbVertex
100
AcDb2dVertex
 10
86.147555024415
 20
-128.8121135789078
 30
0.0
  0
VERTEX
  5
65
330
63
100
AcDbEntity
  8
_U+30EC_U+30A4_U+30E4_U+30FC 1
 62
   179
420
  2234388
370
    25
100
AcDbVertex
100
AcDb2dVertex
 10
86.147555024415
 20
-135.3119735772831
 30
0.0
  0
SEQEND
  5
66
330
63
100
AcDbEntity
  8
_U+30EC_U+30A4_U+30E4_U+30FC 1
 62
   179
420
  2234388
370
    25
  0
POLYLINE
  5
67
330
1F
100
AcDbEntity
  8
_U+30EC_U+30A4_U+30E4_U+30FC 1
 62
   179
420
  2234388
370
    25
100
AcDb2dPolyline
 66
     1
 10
0.0
 20
0.0
 30
0.0
  0
VERTEX
  5
68
330
67
100
AcDbEntity
  8
_U+30EC_U+30A4_U+30E4_U+30FC 1
 62
   179
420
  2234388
370
    25
100
AcDbVertex
100
AcDb2dVertex
 10
93.4936934481105
 20
-135.5121396883441
 30
0.0
  0
VERTEX
  5
69
330
67
100
AcDbEntity
  8
_U+30EC_U+30A4_U+30E4_U+30FC 1
 62
   179
420
  2234388
370
    25
100
AcDbVertex
100
AcDb2dVertex
 10
97.34736723868397
 20
-135.5121396883441
 30
0.0
  0
SEQEND
  5
6A
330
67
100
AcDbEntity
  8
_U+30EC_U+30A4_U+30E4_U+30FC 1
 62
   179
420
  2234388
370
    25
  0
POLYLINE
  5
6B
330
1F
100
AcDbEntity
  8
_U+30EC_U+30A4_U+30E4_U+30FC 1
 62
   179
420
  2234388
370
    25
100
AcDb2dPolyline
 66
     1
 10
0.0
 20
0.0
 30
0.0
  0
VERTEX
  5
6C
330
6B
100
AcDbEntity
  8
_U+30EC_U+30A4_U+30E4_U+30FC 1
 62
   179
420
  2234388
370
    25
100
AcDbVertex
100
AcDb2dVertex
 10
93.14779719893501
 20
-135.3119735772831
 30
0.0
  0
VERTEX
  5
6D
330
6B
100
AcDbEntity
  8
_U+30EC_U+30A4_U+30E4_U+30FC 1
 62
   179
420
  2234388
370
    25
100
AcDbVertex
100
AcDb2dVertex
 10
93.4936934481105
 20
-135.5121396883441
 30
0.0
  0
SEQEND
  5
6E
330
6B
100
AcDbEntity
  8
_U+30EC_U+30A4_U+30E4_U+30FC 1
 62
   179
420
  2234388
370
    25
  0
SPLINE
  5
6F
330
1F
100
AcDbEntity
  8
_U+30EC_U+30A4_U+30E4_U+30FC 1
 62
   179
420
  2234388
370
    25
100
AcDbSpline
210
0.0
220
0.0
230
1.0
 70
     8
 71
     3
 72
     8
 73
     4
 74
     0
 42
0.0000000001
 43
0.0000000001
 12
1.0
 22
0.0
 32
0.0
 13
1.0
 23
0.0
 33
0.0
 40
0.0
 40
0.0
 40
0.0
 40
0.0
 40
1.0
 40
1.0
 40
1.0
 40
1.0
 10
85.1474300499303
 20
-135.3119735772831
 30
0.0
 10
85.1474300499303
 20
-135.8645646882559
 30
0.0
 10
85.59528142739356
 20
-136.3120985770334
 30
0.0
 10
86.147555024415
 20
-136.3120985770334
 30
0.0
  0
SPLINE
  5
70
330
1F
100
AcDbEntity
  8
_U+30EC_U+30A4_U+30E4_U+30FC 1
 62
   179
420
  2234388
370
     9
100
AcDbSpline
210
0.0
220
0.0
230
1.0
 70
    11
 71
     3
 72
    17
 73
    13
 74
     0
 42
0.0000000001
 43
0.0000000001
 12
1.0
 22
0.0
 32
0.0
 13
1.0
 23
0.0
 33
0.0
 40
0.0
 40
0.0
 40
0.0
 40
0.0
 40
1.0
 40
1.0
 40
1.0
 40
2.0
 40
2.0
 40
2.0
 40
3.0
 40
3.0
 40
3.0
 40
4.0
 40
4.0
 40
4.0
 40
4.0
 10
85.24733886757696
 20
-123.8122646912691
 30
0.0
 10
85.24733886757696
 20
-123.7571255246163
 30
0.0
 10
85.20253608981056
 20
-123.7123580246274
 30
0.0
 10
85.1474300499303
 20
-123.7123580246274
 30
0.0
 10
85.09229088467036
 20
-123.7123580246274
 30
0.0
 10
85.04752338581247
 20
-123.7571255246163
 30
0.0
 10
85.04752338581247
 20
-123.8122646912691
 30
0.0
 10
85.04752338581247
 20
-123.8673685801443
 30
0.0
 10
85.09229088467036
 20
-123.9121713579107
 30
0.0
 10
85.1474300499303
 20
-123.9121713579107
 30
0.0
 10
85.20253608981056
 20
-123.9121713579107
 30
0.0
 10
85.24733886757696
 20
-123.8673685801443
 30
0.0
 10
85.24733886757696
 20
-123.8122646912691
 30
0.0
  0
SPLINE
  5
71
330
1F
100
AcDbEntity
  8
_U+30EC_U+30A4_U+30E4_U+30FC 1
 62
   179
420
  2234388
370
     9
100
AcDbSpline
210
0.0
220
0.0
230
1.0
 70
    11
 71
     3
 72
    17
 73
    13
 74
     0
 42
0.0000000001
 43
0.0000000001
 12
1.0
 22
0.0
 32
0.0
 13
1.0
 23
0.0
 33
0.0
 40
0.0
 40
0.0
 40
0.0
 40
0.0
 40
1.0
 40
1.0
 40
1.0
 40
2.0
 40
2.0
 40
2.0
 40
3.0
 40
3.0
 40
3.0
 40
4.0
 40
4.0
 40
4.0
 40
4.0
 10
86.24746386732694
 20
-123.8122646912691
 30
0.0
 10
86.24746386732694
 20
-123.7571255246163
 30
0.0
 10
86.20266108956055
 20
-123.7123580246274
 30
0.0
 10
86.147555024415
 20
-123.7123580246274
 30
0.0
 10
86.09206308138627
 20
-123.7123580246274
 30
0.0
 10
86.04729558252838
 20
-123.7571255246163
 30
0.0
 10
86.04729558252838
 20
-123.8122646912691
 30
0.0
 10
86.04729558252838
 20
-123.8673685801443
 30
0.0
 10
86.09206308138627
 20
-123.9121713579107
 30
0.0
 10
86.147555024415
 20
-123.9121713579107
 30
0.0
 10
86.20266108956055
 20
-123.9121713579107
 30
0.0
 10
86.24746386732694
 20
-123.8673685801443
 30
0.0
 10
86.24746386732694
 20
-123.8122646912691
 30
0.0
  0
SPLINE
  5
72
330
1F
100
AcDbEntity
  8
_U+30EC_U+30A4_U+30E4_U+30FC 1
 62
   179
420
  2234388
370
     9
100
AcDbSpline
210
0.0
220
0.0
230
1.0
 70
    11
 71
     3
 72
    17
 73
    13
 74
     0
 42
0.0000000001
 43
0.0000000001
 12
1.0
 22
0.0
 32
0.0
 13
1.0
 23
0.0
 33
0.0
 40
0.0
 40
0.0
 40
0.0
 40
0.0
 40
1.0
 40
1.0
 40
1.0
 40
2.0
 40
2.0
 40
2.0
 40
3.0
 40
3.0
 40
3.0
 40
4.0
 40
4.0
 40
4.0
 40
4.0
 10
98.24723277128206
 20
-140.3122105204774
 30
0.0
 10
98.24723277128206
 20
-140.2570713538249
 30
0.0
 10
98.20242999464729
 20
-140.2122685760582
 30
0.0
 10
98.14732610716422
 20
-140.2122685760582
 30
0.0
 10
98.09218694190427
 20
-140.2122685760582
 30
0.0
 10
98.04741944304638
 20
-140.2570713538249
 30
0.0
 10
98.04741944304638
 20
-140.3122105204774
 30
0.0
 10
98.04741944304638
 20
-140.3673144093529
 30
0.0
 10
98.09218694190427
 20
-140.412117187119
 30
0.0
 10
98.14732610716422
 20
-140.412117187119
 30
0.0
 10
98.20242999464729
 20
-140.412117187119
 30
0.0
 10
98.24723277128206
 20
-140.3673144093529
 30
0.0
 10
98.24723277128206
 20
-140.3122105204774
 30
0.0
  0
SPLINE
  5
73
330
1F
100
AcDbEntity
  8
_U+30EC_U+30A4_U+30E4_U+30FC 1
 62
   179
420
  2234388
370
     9
100
AcDbSpline
210
0.0
220
0.0
230
1.0
 70
    11
 71
     3
 72
    17
 73
    13
 74
     0
 42
0.0000000001
 43
0.0000000001
 12
1.0
 22
0.0
 32
0.0
 13
1.0
 23
0.0
 33
0.0
 40
0.0
 40
0.0
 40
0.0
 40
0.0
 40
1.0
 40
1.0
 40
1.0
 40
2.0
 40
2.0
 40
2.0
 40
3.0
 40
3.0
 40
3.0
 40
4.0
 40
4.0
 40
4.0
 40
4.0
 10
85.24733886757696
 20
-140.3122105204774
 30
0.0
 10
85.24733886757696
 20
-140.2570713538249
 30
0.0
 10
85.20253608981056
 20
-140.2122685760582
 30
0.0
 10
85.1474300499303
 20
-140.2122685760582
 30
0.0
 10
85.09229088467036
 20
-140.2122685760582
 30
0.0
 10
85.04752338581247
 20
-140.2570713538249
 30
0.0
 10
85.04752338581247
 20
-140.3122105204774
 30
0.0
 10
85.04752338581247
 20
-140.3673144093529
 30
0.0
 10
85.09229088467036
 20
-140.412117187119
 30
0.0
 10
85.1474300499303
 20
-140.412117187119
 30
0.0
 10
85.20253608981056
 20
-140.412117187119
 30
0.0
 10
85.24733886757696
 20
-140.3673144093529
 30
0.0
 10
85.24733886757696
 20
-140.3122105204774
 30
0.0
  0
SPLINE
  5
74
330
1F
100
AcDbEntity
  8
_U+30EC_U+30A4_U+30E4_U+30FC 1
 62
   179
420
  2234388
370
    25
100
AcDbSpline
210
0.0
220
0.0
230
1.0
 70
     8
 71
     3
 72
     8
 73
     4
 74
     0
 42
0.0000000001
 43
0.0000000001
 12
1.0
 22
0.0
 32
0.0
 13
1.0
 23
0.0
 33
0.0
 40
0.0
 40
0.0
 40
0.0
 40
0.0
 40
1.0
 40
1.0
 40
1.0
 40
1.0
 10
86.147555024415
 20
-121.8120146917691
 30
0.0
 10
86.147555024415
 20
-121.2601291363518
 30
0.0
 10
85.70002114694364
 20
-120.8122777475747
 30
0.0
 10
85.1474300499303
 20
-120.8122777475747
 30
0.0
  0
SPLINE
  5
75
330
1F
100
AcDbEntity
  8
_U+30EC_U+30A4_U+30E4_U+30FC 1
 62
   179
420
  2234388
370
    25
100
AcDbSpline
210
0.0
220
0.0
230
1.0
 70
     8
 71
     3
 72
     8
 73
     4
 74
     0
 42
0.0000000001
 43
0.0000000001
 12
1.0
 22
0.0
 32
0.0
 13
1.0
 23
0.0
 33
0.0
 40
0.0
 40
0.0
 40
0.0
 40
0.0
 40
1.0
 40
1.0
 40
1.0
 40
1.0
 10
93.14779719893501
 20
-128.8121135789078
 30
0.0
 10
93.14779719893501
 20
-128.2598752457127
 30
0.0
 10
92.69994346836074
 20
-127.812023856936
 30
0.0
 10
92.14735237134741
 20
-127.812023856936
 30
0.0
  0
SPLINE
  5
76
330
1F
100
AcDbEntity
  8
_U+30EC_U+30A4_U+30E4_U+30FC 1
 62
   179
420
  2234388
370
    25
100
AcDbSpline
210
0.0
220
0.0
230
1.0
 70
     8
 71
     3
 72
     8
 73
     4
 74
     0
 42
0.0000000001
 43
0.0000000001
 12
1.0
 22
0.0
 32
0.0
 13
1.0
 23
0.0
 33
0.0
 40
0.0
 40
0.0
 40
0.0
 40
0.0
 40
1.0
 40
1.0
 40
1.0
 40
1.0
 10
98.14732610716422
 20
-136.3120985770334
 30
0.0
 10
98.14732610716422
 20
-135.8704207993659
 30
0.0
 10
97.78904500519361
 20
-135.5121396883441
 30
0.0
 10
97.34736723868397
 20
-135.5121396883441
 30
0.0
  0
SPLINE
  5
77
330
1F
100
AcDbEntity
  8
_U+30EC_U+30A4_U+30E4_U+30FC 1
 62
   179
420
  2234388
370
     9
100
AcDbSpline
210
0.0
220
0.0
230
1.0
 70
    11
 71
     3
 72
    17
 73
    13
 74
     0
 42
0.0000000001
 43
0.0000000001
 12
1.0
 22
0.0
 32
0.0
 13
1.0
 23
0.0
 33
0.0
 40
0.0
 40
0.0
 40
0.0
 40
0.0
 40
1.0
 40
1.0
 40
1.0
 40
2.0
 40
2.0
 40
2.0
 40
3.0
 40
3.0
 40
3.0
 40
4.0
 40
4.0
 40
4.0
 40
4.0
 10
81.24757764942383
 20
-120.8122777475747
 30
0.0
 10
81.24757764942383
 20
-120.757138580922
 30
0.0
 10
81.20281015056594
 20
-120.7123710809331
 30
0.0
 10
81.147670985306
 20
-120.7123710809331
 30
0.0
 10
81.09221432005414
 20
-120.7123710809331
 30
0.0
 10
81.04741154341939
 20
-120.757138580922
 30
0.0
 10
81.04741154341939
 20
-120.8122777475747
 30
0.0
 10
81.04741154341939
 20
-120.86738163645
 30
0.0
 10
81.09221432005414
 20
-120.9121844142164
 30
0.0
 10
81.147670985306
 20
-120.9121844142164
 30
0.0
 10
81.20281015056594
 20
-120.9121844142164
 30
0.0
 10
81.24757764942383
 20
-120.86738163645
 30
0.0
 10
81.24757764942383
 20
-120.8122777475747
 30
0.0
  0
SPLINE
  5
78
330
1F
100
AcDbEntity
  8
_U+30EC_U+30A4_U+30E4_U+30FC 1
 62
   179
420
  2234388
370
     9
100
AcDbSpline
210
0.0
220
0.0
230
1.0
 70
    11
 71
     3
 72
    17
 73
    13
 74
     0
 42
0.0000000001
 43
0.0000000001
 12
1.0
 22
0.0
 32
0.0
 13
1.0
 23
0.0
 33
0.0
 40
0.0
 40
0.0
 40
0.0
 40
0.0
 40
1.0
 40
1.0
 40
1.0
 40
2.0
 40
2.0
 40
2.0
 40
3.0
 40
3.0
 40
3.0
 40
4.0
 40
4.0
 40
4.0
 40
4.0
 10
81.24757764942383
 20
-136.3120985770334
 30
0.0
 10
81.24757764942383
 20
-136.2569594103803
 30
0.0
 10
81.20281015056594
 20
-136.2121919103917
 30
0.0
 10
81.147670985306
 20
-136.2121919103917
 30
0.0
 10
81.09221432005414
 20
-136.2121919103917
 30
0.0
 10
81.04741154341939
 20
-136.2569594103803
 30
0.0
 10
81.04741154341939
 20
-136.3120985770334
 30
0.0
 10
81.04741154341939
 20
-136.367555243686
 30
0.0
 10
81.09221432005414
 20
-136.4123580214527
 30
0.0
 10
81.147670985306
 20
-136.4123580214527
 30
0.0
 10
81.20281015056594
 20
-136.4123580214527
 30
0.0
 10
81.24757764942383
 20
-136.367555243686
 30
0.0
 10
81.24757764942383
 20
-136.3120985770334
 30
0.0
  0
SPLINE
  5
79
330
1F
100
AcDbEntity
  8
_U+30EC_U+30A4_U+30E4_U+30FC 1
 62
   179
420
  2234388
370
     9
100
AcDbSpline
210
0.0
220
0.0
230
1.0
 70
    11
 71
     3
 72
    17
 73
    13
 74
     0
 42
0.0000000001
 43
0.0000000001
 12
1.0
 22
0.0
 32
0.0
 13
1.0
 23
0.0
 33
0.0
 40
0.0
 40
0.0
 40
0.0
 40
0.0
 40
1.0
 40
1.0
 40
1.0
 40
2.0
 40
2.0
 40
2.0
 40
3.0
 40
3.0
 40
3.0
 40
4.0
 40
4.0
 40
4.0
 40
4.0
 10
102.247662113667
 20
-135.3119735772831
 30
0.0
 10
102.247662113667
 20
-135.2568696884081
 30
0.0
 10
102.2028971966718
 20
-135.2120669106414
 30
0.0
 10
102.1477554495492
 20
-135.2120669106414
 30
0.0
 10
102.0919460065286
 20
-135.2120669106414
 30
0.0
 10
102.0471785076707
 20
-135.2568696884081
 30
0.0
 10
102.0471785076707
 20
-135.3119735772831
 30
0.0
 10
102.0471785076707
 20
-135.3674655217139
 30
0.0
 10
102.0919460065286
 20
-135.4122330217025
 30
0.0
 10
102.1477554495492
 20
-135.4122330217025
 30
0.0
 10
102.2028971966718
 20
-135.4122330217025
 30
0.0
 10
102.247662113667
 20
-135.3674655217139
 30
0.0
 10
102.247662113667
 20
-135.3119735772831
 30
0.0
  0
SPLINE
  5
7A
330
1F
100
AcDbEntity
  8
_U+30EC_U+30A4_U+30E4_U+30FC 1
 62
   179
420
  2234388
370
     9
100
AcDbSpline
210
0.0
220
0.0
230
1.0
 70
    11
 71
     3
 72
    17
 73
    13
 74
     0
 42
0.0000000001
 43
0.0000000001
 12
1.0
 22
0.0
 32
0.0
 13
1.0
 23
0.0
 33
0.0
 40
0.0
 40
0.0
 40
0.0
 40
0.0
 40
1.0
 40
1.0
 40
1.0
 40
2.0
 40
2.0
 40
2.0
 40
3.0
 40
3.0
 40
3.0
 40
4.0
 40
4.0
 40
4.0
 40
4.0
 10
102.247662113667
 20
-128.8121135789078
 30
0.0
 10
102.247662113667
 20
-128.7570096900328
 30
0.0
 10
102.2028971966718
 20
-128.7122069122665
 30
0.0
 10
102.1477554495492
 20
-128.7122069122665
 30
0.0
 10
102.0919460065286
 20
-128.7122069122665
 30
0.0
 10
102.0471785076707
 20
-128.7570096900328
 30
0.0
 10
102.0471785076707
 20
-128.8121135789078
 30
0.0
 10
102.0471785076707
 20
-128.8675702455611
 30
0.0
 10
102.0919460065286
 20
-128.9123730233272
 30
0.0
 10
102.1477554495492
 20
-128.9123730233272
 30
0.0
 10
102.2028971966718
 20
-128.9123730233272
 30
0.0
 10
102.247662113667
 20
-128.8675702455611
 30
0.0
 10
102.247662113667
 20
-128.8121135789078
 30
0.0
  0
SPLINE
  5
7B
330
1F
100
AcDbEntity
  8
_U+30EC_U+30A4_U+30E4_U+30FC 1
 62
   179
420
  2234388
370
     9
100
AcDbSpline
210
0.0
220
0.0
230
1.0
 70
    11
 71
     3
 72
    17
 73
    13
 74
     0
 42
0.0000000001
 43
0.0000000001
 12
1.0
 22
0.0
 32
0.0
 13
1.0
 23
0.0
 33
0.0
 40
0.0
 40
0.0
 40
0.0
 40
0.0
 40
1.0
 40
1.0
 40
1.0
 40
2.0
 40
2.0
 40
2.0
 40
3.0
 40
3.0
 40
3.0
 40
4.0
 40
4.0
 40
4.0
 40
4.0
 10
102.247662113667
 20
-120.8122777475747
 30
0.0
 10
102.247662113667
 20
-120.757138580922
 30
0.0
 10
102.2028971966718
 20
-120.7123710809331
 30
0.0
 10
102.1477554495492
 20
-120.7123710809331
 30
0.0
 10
102.0919460065286
 20
-120.7123710809331
 30
0.0
 10
102.0471785076707
 20
-120.757138580922
 30
0.0
 10
102.0471785076707
 20
-120.8122777475747
 30
0.0
 10
102.0471785076707
 20
-120.86738163645
 30
0.0
 10
102.0919460065286
 20
-120.9121844142164
 30
0.0
 10
102.1477554495492
 20
-120.9121844142164
 30
0.0
 10
102.2028971966718
 20
-120.9121844142164
 30
0.0
 10
102.247662113667
 20
-120.86738163645
 30
0.0
 10
102.247662113667
 20
-120.8122777475747
 30
0.0
  0
POLYLINE
  5
7C
330
1F
100
AcDbEntity
  8
_U+30EC_U+30A4_U+30E4_U+30FC 1
 62
   179
420
  2234388
370
     9
100
AcDb2dPolyline
 66
     1
 10
0.0
 20
0.0
 30
0.0
  0
VERTEX
  5
7D
330
7C
100
AcDbEntity
  8
_U+30EC_U+30A4_U+30E4_U+30FC 1
 62
   179
420
  2234388
370
     9
100
AcDbVertex
100
AcDb2dVertex
 10
86.147555024415
 20
-123.8122646912691
 30
0.0
  0
VERTEX
  5
7E
330
7C
100
AcDbEntity
  8
_U+30EC_U+30A4_U+30E4_U+30FC 1
 62
   179
420
  2234388
370
     9
100
AcDbVertex
100
AcDb2dVertex
 10
89.91786742822632
 20
-123.8122646912691
 30
0.0
  0
SEQEND
  5
7F
330
7C
100
AcDbEntity
  8
_U+30EC_U+30A4_U+30E4_U+30FC 1
 62
   179
420
  2234388
370
     9
  0
POLYLINE
  5
80
330
1F
100
AcDbEntity
  8
_U+30EC_U+30A4_U+30E4_U+30FC 1
 62
   179
420
  2234388
370
     9
100
AcDb2dPolyline
 66
     1
 10
0.0
 20
0.0
 30
0.0
  0
VERTEX
  5
81
330
80
100
AcDbEntity
  8
_U+30EC_U+30A4_U+30E4_U+30FC 1
 62
   179
420
  2234388
370
     9
100
AcDbVertex
100
AcDb2dVertex
 10
84.1476578532144
 20
-123.8122646912691
 30
0.0
  0
VERTEX
  5
82
330
80
100
AcDbEntity
  8
_U+30EC_U+30A4_U+30E4_U+30FC 1
 62
   179
420
  2234388
370
     9
100
AcDbVertex
100
AcDb2dVertex
 10
86.147555024415
 20
-123.8122646912691
 30
0.0
  0
SEQEND
  5
83
330
80
100
AcDbEntity
  8
_U+30EC_U+30A4_U+30E4_U+30FC 1
 62
   179
420
  2234388
370
     9
  0
INSERT
  5
85
330
1F
100
AcDbEntity
  8
_U+30EC_U+30A4_U+30E4_U+30FC 1
100
AcDbBlockReference
  2
block 2
 10
0.0
 20
0.0
 30
0.0
  0
POLYLINE
  5
8A
330
1F
100
AcDbEntity
  8
_U+30EC_U+30A4_U+30E4_U+30FC 1
 62
   179
420
  2234388
370
     9
100
AcDb2dPolyline
 66
     1
 10
0.0
 20
0.0
 30
0.0
  0
VERTEX
  5
8B
330
8A
100
AcDbEntity
  8
_U+30EC_U+30A4_U+30E4_U+30FC 1
 62
   179
420
  2234388
370
     9
100
AcDbVertex
100
AcDb2dVertex
 10
85.1474300499303
 20
-140.3122105204774
 30
0.0
  0
VERTEX
  5
8C
330
8A
100
AcDbEntity
  8
_U+30EC_U+30A4_U+30E4_U+30FC 1
 62
   179
420
  2234388
370
     9
100
AcDbVertex
100
AcDb2dVertex
 10
98.14732610716422
 20
-140.3122105204774
 30
0.0
  0
SEQEND
  5
8D
330
8A
100
AcDbEntity
  8
_U+30EC_U+30A4_U+30E4_U+30FC 1
 62
   179
420
  2234388
370
     9
  0
POLYLINE
  5
8E
330
1F
100
AcDbEntity
  8
_U+30EC_U+30A4_U+30E4_U+30FC 1
 62
   179
420
  2234388
370
     9
100
AcDb2dPolyline
 66
     1
 10
0.0
 20
0.0
 30
0.0
  0
VERTEX
  5
8F
330
8E
100
AcDbEntity
  8
_U+30EC_U+30A4_U+30E4_U+30FC 1
 62
   179
420
  2234388
370
     9
100
AcDbVertex
100
AcDb2dVertex
 10
85.1474300499303
 20
-137.8520441322034
 30
0.0
  0
VERTEX
  5
90
330
8E
100
AcDbEntity
  8
_U+30EC_U+30A4_U+30E4_U+30FC 1
 62
   179
420
  2234388
370
     9
100
AcDbVertex
100
AcDb2dVertex
 10
85.1474300499303
 20
-141.3123002424495
 30
0.0
  0
SEQEND
  5
91
330
8E
100
AcDbEntity
  8
_U+30EC_U+30A4_U+30E4_U+30FC 1
 62
   179
420
  2234388
370
     9
  0
POLYLINE
  5
92
330
1F
100
AcDbEntity
  8
_U+30EC_U+30A4_U+30E4_U+30FC 1
 62
   179
420
  2234388
370
     9
100
AcDb2dPolyline
 66
     1
 10
0.0
 20
0.0
 30
0.0
  0
VERTEX
  5
93
330
92
100
AcDbEntity
  8
_U+30EC_U+30A4_U+30E4_U+30FC 1
 62
   179
420
  2234388
370
     9
100
AcDbVertex
100
AcDb2dVertex
 10
98.14732610716422
 20
-137.8520441322034
 30
0.0
  0
VERTEX
  5
94
330
92
100
AcDbEntity
  8
_U+30EC_U+30A4_U+30E4_U+30FC 1
 62
   179
420
  2234388
370
     9
100
AcDbVertex
100
AcDb2dVertex
 10
98.14732610716422
 20
-141.3123002424495
 30
0.0
  0
SEQEND
  5
95
330
92
100
AcDbEntity
  8
_U+30EC_U+30A4_U+30E4_U+30FC 1
 62
   179
420
  2234388
370
     9
  0
INSERT
  5
97
330
1F
100
AcDbEntity
  8
_U+30EC_U+30A4_U+30E4_U+30FC 1
100
AcDbBlockReference
  2
block 3
 10
0.0
 20
0.0
 30
0.0
  0
POLYLINE
  5
9E
330
1F
100
AcDbEntity
  8
_U+30EC_U+30A4_U+30E4_U+30FC 1
 62
   179
420
  2234388
370
     9
100
AcDb2dPolyline
 66
     1
 10
0.0
 20
0.0
 30
0.0
  0
VERTEX
  5
9F
330
9E
100
AcDbEntity
  8
_U+30EC_U+30A4_U+30E4_U+30FC 1
 62
   179
420
  2234388
370
     9
100
AcDbVertex
100
AcDb2dVertex
 10
81.147670985306
 20
-136.3120985770334
 30
0.0
  0
VERTEX
  5
A0
330
9E
100
AcDbEntity
  8
_U+30EC_U+30A4_U+30E4_U+30FC 1
 62
   179
420
  2234388
370
     9
100
AcDbVertex
100
AcDb2dVertex
 10
81.147670985306
 20
-120.8122777475747
 30
0.0
  0
SEQEND
  5
A1
330
9E
100
AcDbEntity
  8
_U+30EC_U+30A4_U+30E4_U+30FC 1
 62
   179
420
  2234388
370
     9
  0
POLYLINE
  5
A2
330
1F
100
AcDbEntity
  8
_U+30EC_U+30A4_U+30E4_U+30FC 1
 62
   179
420
  2234388
370
     9
100
AcDb2dPolyline
 66
     1
 10
0.0
 20
0.0
 30
0.0
  0
VERTEX
  5
A3
330
A2
100
AcDbEntity
  8
_U+30EC_U+30A4_U+30E4_U+30FC 1
 62
   179
420
  2234388
370
     9
100
AcDbVertex
100
AcDb2dVertex
 10
83.60748453366203
 20
-136.3120985770334
 30
0.0
  0
VERTEX
  5
A4
330
A2
100
AcDbEntity
  8
_U+30EC_U+30A4_U+30E4_U+30FC 1
 62
   179
420
  2234388
370
     9
100
AcDbVertex
100
AcDb2dVertex
 10
80.1475460108213
 20
-136.3120985770334
 30
0.0
  0
SEQEND
  5
A5
330
A2
100
AcDbEntity
  8
_U+30EC_U+30A4_U+30E4_U+30FC 1
 62
   179
420
  2234388
370
     9
  0
POLYLINE
  5
A6
330
1F
100
AcDbEntity
  8
_U+30EC_U+30A4_U+30E4_U+30FC 1
 62
   179
420
  2234388
370
     9
100
AcDb2dPolyline
 66
     1
 10
0.0
 20
0.0
 30
0.0
  0
VERTEX
  5
A7
330
A6
100
AcDbEntity
  8
_U+30EC_U+30A4_U+30E4_U+30FC 1
 62
   179
420
  2234388
370
     9
100
AcDbVertex
100
AcDb2dVertex
 10
82.60771233694612
 20
-120.8122777475747
 30
0.0
  0
VERTEX
  5
A8
330
A6
100
AcDbEntity
  8
_U+30EC_U+30A4_U+30E4_U+30FC 1
 62
   179
420
  2234388
370
     9
100
AcDbVertex
100
AcDb2dVertex
 10
80.1475460108213
 20
-120.8122777475747
 30
0.0
  0
SEQEND
  5
A9
330
A6
100
AcDbEntity
  8
_U+30EC_U+30A4_U+30E4_U+30FC 1
 62
   179
420
  2234388
370
     9
  0
INSERT
  5
AB
330
1F
100
AcDbEntity
  8
_U+30EC_U+30A4_U+30E4_U+30FC 1
100
AcDbBlockReference
  2
block 4
 10
0.0
 20
0.0
 30
0.0
  0
POLYLINE
  5
BC
330
1F
100
AcDbEntity
  8
_U+30EC_U+30A4_U+30E4_U+30FC 1
 62
   179
420
  2234388
370
     9
100
AcDb2dPolyline
 66
     1
 10
0.0
 20
0.0
 30
0.0
  0
VERTEX
  5
BD
330
BC
100
AcDbEntity
  8
_U+30EC_U+30A4_U+30E4_U+30FC 1
 62
   179
420
  2234388
370
     9
100
AcDbVertex
100
AcDb2dVertex
 10
102.1477554495492
 20
-135.3119735772831
 30
0.0
  0
VERTEX
  5
BE
330
BC
100
AcDbEntity
  8
_U+30EC_U+30A4_U+30E4_U+30FC 1
 62
   179
420
  2234388
370
     9
100
AcDbVertex
100
AcDb2dVertex
 10
102.1477554495492
 20
-128.8121135789078
 30
0.0
  0
SEQEND
  5
BF
330
BC
100
AcDbEntity
  8
_U+30EC_U+30A4_U+30E4_U+30FC 1
 62
   179
420
  2234388
370
     9
  0
POLYLINE
  5
C0
330
1F
100
AcDbEntity
  8
_U+30EC_U+30A4_U+30E4_U+30FC 1
 62
   179
420
  2234388
370
     9
100
AcDb2dPolyline
 66
     1
 10
0.0
 20
0.0
 30
0.0
  0
VERTEX
  5
C1
330
C0
100
AcDbEntity
  8
_U+30EC_U+30A4_U+30E4_U+30FC 1
 62
   179
420
  2234388
370
     9
100
AcDbVertex
100
AcDb2dVertex
 10
95.68751255880818
 20
-135.3119735772831
 30
0.0
  0
VERTEX
  5
C2
330
C0
100
AcDbEntity
  8
_U+30EC_U+30A4_U+30E4_U+30FC 1
 62
   179
420
  2234388
370
     9
100
AcDbVertex
100
AcDb2dVertex
 10
103.1475276462651
 20
-135.3119735772831
 30
0.0
  0
SEQEND
  5
C3
330
C0
100
AcDbEntity
  8
_U+30EC_U+30A4_U+30E4_U+30FC 1
 62
   179
420
  2234388
370
     9
  0
POLYLINE
  5
C4
330
1F
100
AcDbEntity
  8
_U+30EC_U+30A4_U+30E4_U+30FC 1
 62
   179
420
  2234388
370
     9
100
AcDb2dPolyline
 66
     1
 10
0.0
 20
0.0
 30
0.0
  0
VERTEX
  5
C5
330
C4
100
AcDbEntity
  8
_U+30EC_U+30A4_U+30E4_U+30FC 1
 62
   179
420
  2234388
370
     9
100
AcDbVertex
100
AcDb2dVertex
 10
95.68751255880818
 20
-128.8121135789078
 30
0.0
  0
VERTEX
  5
C6
330
C4
100
AcDbEntity
  8
_U+30EC_U+30A4_U+30E4_U+30FC 1
 62
   179
420
  2234388
370
     9
100
AcDbVertex
100
AcDb2dVertex
 10
103.1475276462651
 20
-128.8121135789078
 30
0.0
  0
SEQEND
  5
C7
330
C4
100
AcDbEntity
  8
_U+30EC_U+30A4_U+30E4_U+30FC 1
 62
   179
420
  2234388
370
     9
  0
SPLINE
  5
C8
330
1F
100
AcDbEntity
  8
_U+30EC_U+30A4_U+30E4_U+30FC 1
 62
   179
420
  2234388
370
     9
100
AcDbSpline
210
0.0
220
0.0
230
1.0
 70
    11
 71
     3
 72
    17
 73
    13
 74
     0
 42
0.0000000001
 43
0.0000000001
 12
1.0
 22
0.0
 32
0.0
 13
1.0
 23
0.0
 33
0.0
 40
0.0
 40
0.0
 40
0.0
 40
0.0
 40
1.0
 40
1.0
 40
1.0
 40
2.0
 40
2.0
 40
2.0
 40
3.0
 40
3.0
 40
3.0
 40
4.0
 40
4.0
 40
4.0
 40
4.0
 10
102.247662113667
 20
-127.812023856936
 30
0.0
 10
102.247662113667
 20
-127.7568846902829
 30
0.0
 10
102.2028971966718
 20
-127.7121171902943
 30
0.0
 10
102.1477554495492
 20
-127.7121171902943
 30
0.0
 10
102.0919460065286
 20
-127.7121171902943
 30
0.0
 10
102.0471785076707
 20
-127.7568846902829
 30
0.0
 10
102.0471785076707
 20
-127.812023856936
 30
0.0
 10
102.0471785076707
 20
-127.8674805235886
 30
0.0
 10
102.0919460065286
 20
-127.9122480235775
 30
0.0
 10
102.1477554495492
 20
-127.9122480235775
 30
0.0
 10
102.2028971966718
 20
-127.9122480235775
 30
0.0
 10
102.247662113667
 20
-127.8674805235886
 30
0.0
 10
102.247662113667
 20
-127.812023856936
 30
0.0
  0
POLYLINE
  5
C9
330
1F
100
AcDbEntity
  8
_U+30EC_U+30A4_U+30E4_U+30FC 1
 62
   179
420
  2234388
370
     9
100
AcDb2dPolyline
 66
     1
 10
0.0
 20
0.0
 30
0.0
  0
VERTEX
  5
CA
330
C9
100
AcDbEntity
  8
_U+30EC_U+30A4_U+30E4_U+30FC 1
 62
   179
420
  2234388
370
     9
100
AcDbVertex
100
AcDb2dVertex
 10
95.68751255880818
 20
-127.812023856936
 30
0.0
  0
VERTEX
  5
CB
330
C9
100
AcDbEntity
  8
_U+30EC_U+30A4_U+30E4_U+30FC 1
 62
   179
420
  2234388
370
     9
100
AcDbVertex
100
AcDb2dVertex
 10
103.1475276462651
 20
-127.812023856936
 30
0.0
  0
SEQEND
  5
CC
330
C9
100
AcDbEntity
  8
_U+30EC_U+30A4_U+30E4_U+30FC 1
 62
   179
420
  2234388
370
     9
  0
INSERT
  5
CE
330
1F
100
AcDbEntity
  8
_U+30EC_U+30A4_U+30E4_U+30FC 1
100
AcDbBlockReference
  2
block 5
 10
0.0
 20
0.0
 30
0.0
  0
POLYLINE
  5
DE
330
1F
100
AcDbEntity
  8
_U+30EC_U+30A4_U+30E4_U+30FC 1
 62
   179
420
  2234388
370
     9
100
AcDb2dPolyline
 66
     1
 10
0.0
 20
0.0
 30
0.0
  0
VERTEX
  5
DF
330
DE
100
AcDbEntity
  8
_U+30EC_U+30A4_U+30E4_U+30FC 1
 62
   179
420
  2234388
370
     9
100
AcDbVertex
100
AcDb2dVertex
 10
102.1477554495492
 20
-128.8121135789078
 30
0.0
  0
VERTEX
  5
E0
330
DE
100
AcDbEntity
  8
_U+30EC_U+30A4_U+30E4_U+30FC 1
 62
   179
420
  2234388
370
     9
100
AcDbVertex
100
AcDb2dVertex
 10
102.1477554495492
 20
-120.8122777475747
 30
0.0
  0
SEQEND
  5
E1
330
DE
100
AcDbEntity
  8
_U+30EC_U+30A4_U+30E4_U+30FC 1
 62
   179
420
  2234388
370
     9
  0
POLYLINE
  5
E2
330
1F
100
AcDbEntity
  8
_U+30EC_U+30A4_U+30E4_U+30FC 1
 62
   179
420
  2234388
370
     9
100
AcDb2dPolyline
 66
     1
 10
0.0
 20
0.0
 30
0.0
  0
VERTEX
  5
E3
330
E2
100
AcDbEntity
  8
_U+30EC_U+30A4_U+30E4_U+30FC 1
 62
   179
420
  2234388
370
     9
100
AcDbVertex
100
AcDb2dVertex
 10
87.68750275585595
 20
-120.8122777475747
 30
0.0
  0
VERTEX
  5
E4
330
E2
100
AcDbEntity
  8
_U+30EC_U+30A4_U+30E4_U+30FC 1
 62
   179
420
  2234388
370
     9
100
AcDbVertex
100
AcDb2dVertex
 10
103.1475276462651
 20
-120.8122777475747
 30
0.0
  0
SEQEND
  5
E5
330
E2
100
AcDbEntity
  8
_U+30EC_U+30A4_U+30E4_U+30FC 1
 62
   179
420
  2234388
370
     9
  0
INSERT
  5
E7
330
1F
100
AcDbEntity
  8
_U+30EC_U+30A4_U+30E4_U+30FC 1
100
AcDbBlockReference
  2
block 6
 10
0.0
 20
0.0
 30
0.0
  0
SPLINE
  5
EC
330
1F
100
AcDbEntity
  8
_U+30EC_U+30A4_U+30E4_U+30FC 1
 62
     7
420
 16777215
370
     9
100
AcDbSpline
210
0.0
220
0.0
230
1.0
 70
    11
 71
     3
 72
    17
 73
    13
 74
     0
 42
0.0000000001
 43
0.0000000001
 12
1.0
 22
0.0
 32
0.0
 13
1.0
 23
0.0
 33
0.0
 40
0.0
 40
0.0
 40
0.0
 40
0.0
 40
1.0
 40
1.0
 40
1.0
 40
2.0
 40
2.0
 40
2.0
 40
3.0
 40
3.0
 40
3.0
 40
4.0
 40
4.0
 40
4.0
 40
4.0
 10
93.34760817405967
 20
-118.2876941370949
 30
0.0
 10
93.34760817405967
 20
-118.2325902482197
 30
0.0
 10
93.30284067520178
 20
-118.1877874704529
 30
0.0
 10
93.24770150994183
 20
-118.1877874704529
 30
0.0
 10
93.19189442114622
 20
-118.1877874704529
 30
0.0
 10
93.14712456806332
 20
-118.2325902482197
 30
0.0
 10
93.14712456806332
 20
-118.2876941370949
 30
0.0
 10
93.14712456806332
 20
-118.3428333037476
 30
0.0
 10
93.19189442114622
 20
-118.3876008037365
 30
0.0
 10
93.24770150994183
 20
-118.3876008037365
 30
0.0
 10
93.30284067520178
 20
-118.3876008037365
 30
0.0
 10
93.34760817405967
 20
-118.3428333037476
 30
0.0
 10
93.34760817405967
 20
-118.2876941370949
 30
0.0
  0
SPLINE
  5
ED
330
1F
100
AcDbEntity
  8
_U+30EC_U+30A4_U+30E4_U+30FC 1
 62
     7
420
 16777215
370
     9
100
AcDbSpline
210
0.0
220
0.0
230
1.0
 70
    11
 71
     3
 72
    17
 73
    13
 74
     0
 42
0.0000000001
 43
0.0000000001
 12
1.0
 22
0.0
 32
0.0
 13
1.0
 23
0.0
 33
0.0
 40
0.0
 40
0.0
 40
0.0
 40
0.0
 40
1.0
 40
1.0
 40
1.0
 40
2.0
 40
2.0
 40
2.0
 40
3.0
 40
3.0
 40
3.0
 40
4.0
 40
4.0
 40
4.0
 40
4.0
 10
86.34736835265066
 20
-118.2876941370949
 30
0.0
 10
86.34736835265066
 20
-118.2325902482197
 30
0.0
 10
86.3025655760159
 20
-118.1877874704529
 30
0.0
 10
86.24746386732694
 20
-118.1877874704529
 30
0.0
 10
86.19232252327288
 20
-118.1877874704529
 30
0.0
 10
86.147555024415
 20
-118.2325902482197
 30
0.0
 10
86.147555024415
 20
-118.2876941370949
 30
0.0
 10
86.147555024415
 20
-118.3428333037476
 30
0.0
 10
86.19232252327288
 20
-118.3876008037365
 30
0.0
 10
86.24746386732694
 20
-118.3876008037365
 30
0.0
 10
86.3025655760159
 20
-118.3876008037365
 30
0.0
 10
86.34736835265066
 20
-118.3428333037476
 30
0.0
 10
86.34736835265066
 20
-118.2876941370949
 30
0.0
  0
POLYLINE
  5
EE
330
1F
100
AcDbEntity
  8
_U+30EC_U+30A4_U+30E4_U+30FC 1
 62
     7
420
 16777215
370
     9
100
AcDb2dPolyline
 66
     1
 10
0.0
 20
0.0
 30
0.0
  0
VERTEX
  5
EF
330
EE
100
AcDbEntity
  8
_U+30EC_U+30A4_U+30E4_U+30FC 1
 62
     7
420
 16777215
370
     9
100
AcDbVertex
100
AcDb2dVertex
 10
86.24746386732694
 20
-119.7477355256186
 30
0.0
  0
VERTEX
  5
F0
330
EE
100
AcDbEntity
  8
_U+30EC_U+30A4_U+30E4_U+30FC 1
 62
     7
420
 16777215
370
     9
100
AcDbVertex
100
AcDb2dVertex
 10
86.24746386732694
 20
-117.2879219151223
 30
0.0
  0
SEQEND
  5
F1
330
EE
100
AcDbEntity
  8
_U+30EC_U+30A4_U+30E4_U+30FC 1
 62
     7
420
 16777215
370
     9
  0
POLYLINE
  5
F2
330
1F
100
AcDbEntity
  8
_U+30EC_U+30A4_U+30E4_U+30FC 1
 62
     7
420
 16777215
370
     9
100
AcDb2dPolyline
 66
     1
 10
0.0
 20
0.0
 30
0.0
  0
VERTEX
  5
F3
330
F2
100
AcDbEntity
  8
_U+30EC_U+30A4_U+30E4_U+30FC 1
 62
     7
420
 16777215
370
     9
100
AcDbVertex
100
AcDb2dVertex
 10
86.2481319662935
 20
-118.2876941370949
 30
0.0
  0
VERTEX
  5
F4
330
F2
100
AcDbEntity
  8
_U+30EC_U+30A4_U+30E4_U+30FC 1
 62
     7
420
 16777215
370
     9
100
AcDbVertex
100
AcDb2dVertex
 10
93.24770150994183
 20
-118.2876941370949
 30
0.0
  0
SEQEND
  5
F5
330
F2
100
AcDbEntity
  8
_U+30EC_U+30A4_U+30E4_U+30FC 1
 62
     7
420
 16777215
370
     9
  0
POLYLINE
  5
F6
330
1F
100
AcDbEntity
  8
_U+30EC_U+30A4_U+30E4_U+30FC 1
 62
     7
420
 16777215
370
     9
100
AcDb2dPolyline
 66
     1
 10
0.0
 20
0.0
 30
0.0
  0
VERTEX
  5
F7
330
F6
100
AcDbEntity
  8
_U+30EC_U+30A4_U+30E4_U+30FC 1
 62
     7
420
 16777215
370
     9
100
AcDbVertex
100
AcDb2dVertex
 10
93.24770150994183
 20
-125.1296427464953
 30
0.0
  0
VERTEX
  5
F8
330
F6
100
AcDbEntity
  8
_U+30EC_U+30A4_U+30E4_U+30FC 1
 62
     7
420
 16777215
370
     9
100
AcDbVertex
100
AcDb2dVertex
 10
93.24770150994183
 20
-117.2879219151223
 30
0.0
  0
SEQEND
  5
F9
330
F6
100
AcDbEntity
  8
_U+30EC_U+30A4_U+30E4_U+30FC 1
 62
     7
420
 16777215
370
     9
  0
INSERT
  5
FB
330
1F
100
AcDbEntity
  8
_U+30EC_U+30A4_U+30E4_U+30FC 1
100
AcDbBlockReference
  2
block 7
 10
0.0
 20
0.0
 30
0.0
  0
ENDSEC
  0
SECTION
  2
OBJECTS
  0
DICTIONARY
  5
C
330
0
100
AcDbDictionary
281
     1
  3
ACAD_GROUP
350
D
  3
ACAD_LAYOUT
350
1A
  3
ACAD_MATERIAL
350
3B
  3
ACAD_MLEADERSTYLE
350
101
  3
ACAD_MLINESTYLE
350
17
  3
ACAD_PLOTSETTINGS
350
19
  3
ACAD_PLOTSTYLENAME
350
E
  3
ACAD_TABLESTYLE
350
100
  3
ACAD_VISUALSTYLE
350
2A
  0
SUN
  5
3F
330
29
100
AcDbSun
 90
        1
290
     0
 63
     7
421
 16777215
 40
1.0
291
     1
 91
  2455826
 92
 54000000
292
     0
 70
     2
 71
   256
280
     1
  0
DICTIONARY
  5
D
102
{ACAD_REACTORS
330
C
102
}
330
C
100
AcDbDictionary
281
     1
  0
DICTIONARY
  5
1A
102
{ACAD_REACTORS
330
C
102
}
330
C
100
AcDbDictionary
281
     1
  3
Layout1
350
1E
  3
Layout2
350
26
  3
Model
350
22
  0
DICTIONARY
  5
3B
102
{ACAD_REACTORS
330
C
102
}
330
C
100
AcDbDictionary
281
     1
  3
ByBlock
350
3D
  3
ByLayer
350
3C
  3
Global
350
3E
  0
DICTIONARY
  5
101
102
{ACAD_REACTORS
330
C
102
}
330
C
100
AcDbDictionary
281
     1
  0
DICTIONARY
  5
17
102
{ACAD_REACTORS
330
C
102
}
330
C
100
AcDbDictionary
281
     1
  3
Standard
350
18
  0
DICTIONARY
  5
19
102
{ACAD_REACTORS
330
C
102
}
330
C
100
AcDbDictionary
281
     1
  0
ACDBDICTIONARYWDFLT
  5
E
102
{ACAD_REACTORS
330
C
102
}
330
C
100
AcDbDictionary
281
     1
  3
Normal
350
F
100
AcDbDictionaryWithDefault
340
F
  0
DICTIONARY
  5
100
102
{ACAD_REACTORS
330
C
102
}
330
C
100
AcDbDictionary
281
     1
  0
DICTIONARY
  5
2A
102
{ACAD_REACTORS
330
C
102
}
330
C
100
AcDbDictionary
281
     1
  3
2dWireframe
350
2F
  3
3D Hidden
350
31
  3
3dWireframe
350
30
  3
Basic
350
32
  3
Brighten
350
36
  3
ColorChange
350
3A
  3
Conceptual
350
34
  3
Dim
350
35
  3
Facepattern
350
39
  3
Flat
350
2B
  3
FlatWithEdges
350
2C
  3
Gouraud
350
2D
  3
GouraudWithEdges
350
2E
  3
Linepattern
350
38
  3
Realistic
350
33
  3
Thicken
350
37
  0
LAYOUT
  5
1E
102
{ACAD_REACTORS
330
1A
102
}
330
1A
100
AcDbPlotSettings
  1

  2
none_device
  4

  6

 40
0.0
 41
0.0
 42
0.0
 43
0.0
 44
0.0
 45
0.0
 46
0.0
 47
0.0
 48
0.0
 49
0.0
140
0.0
141
0.0
142
1.0
143
1.0
 70
   688
 72
     0
 73
     0
 74
     5
  7

 75
    16
 76
     0
 77
     2
 78
   300
147
1.0
148
0.0
149
0.0
100
AcDbLayout
  1
Layout1
 70
     1
 71
     1
 10
0.0
 20
0.0
 11
12.0
 21
9.0
 12
0.0
 22
0.0
 32
0.0
 14
1.000000000000000E+20
 24
1.000000000000000E+20
 34
1.000000000000000E+20
 15
-1.000000000000000E+20
 25
-1.000000000000000E+20
 35
-1.000000000000000E+20
146
0.0
 13
0.0
 23
0.0
 33
0.0
 16
1.0
 26
0.0
 36
0.0
 17
0.0
 27
1.0
 37
0.0
 76
     0
330
1B
  0
LAYOUT
  5
26
102
{ACAD_REACTORS
330
1A
102
}
330
1A
100
AcDbPlotSettings
  1

  2
none_device
  4

  6

 40
0.0
 41
0.0
 42
0.0
 43
0.0
 44
0.0
 45
0.0
 46
0.0
 47
0.0
 48
0.0
 49
0.0
140
0.0
141
0.0
142
1.0
143
1.0
 70
   688
 72
     0
 73
     0
 74
     5
  7

 75
    16
 76
     0
 77
     2
 78
   300
147
1.0
148
0.0
149
0.0
100
AcDbLayout
  1
Layout2
 70
     1
 71
     2
 10
0.0
 20
0.0
 11
0.0
 21
0.0
 12
0.0
 22
0.0
 32
0.0
 14
0.0
 24
0.0
 34
0.0
 15
0.0
 25
0.0
 35
0.0
146
0.0
 13
0.0
 23
0.0
 33
0.0
 16
1.0
 26
0.0
 36
0.0
 17
0.0
 27
1.0
 37
0.0
 76
     0
330
23
  0
LAYOUT
  5
22
102
{ACAD_REACTORS
330
1A
102
}
330
1A
100
AcDbPlotSettings
  1

  2
none_device
  4

  6

 40
0.0
 41
0.0
 42
0.0
 43
0.0
 44
0.0
 45
0.0
 46
0.0
 47
0.0
 48
0.0
 49
0.0
140
0.0
141
0.0
142
1.0
143
1.0
 70
  1712
 72
     0
 73
     0
 74
     0
  7

 75
     0
 76
     0
 77
     2
 78
   300
147
1.0
148
0.0
149
0.0
100
AcDbLayout
  1
Model
 70
     1
 71
     0
 10
0.0
 20
0.0
 11
12.0
 21
9.0
 12
0.0
 22
0.0
 32
0.0
 14
1.000000000000000E+20
 24
1.000000000000000E+20
 34
1.000000000000000E+20
 15
-1.000000000000000E+20
 25
-1.000000000000000E+20
 35
-1.000000000000000E+20
146
0.0
 13
0.0
 23
0.0
 33
0.0
 16
1.0
 26
0.0
 36
0.0
 17
0.0
 27
1.0
 37
0.0
 76
     0
330
1F
331
29
  0
MATERIAL
  5
3D
102
{ACAD_REACTORS
330
3B
102
}
330
3B
100
AcDbMaterial
  1
ByBlock
 72
     1
 94
      127
  0
MATERIAL
  5
3C
102
{ACAD_REACTORS
330
3B
102
}
330
3B
100
AcDbMaterial
  1
ByLayer
 72
     1
 94
      127
  0
MATERIAL
  5
3E
102
{ACAD_REACTORS
330
3B
102
}
330
3B
100
AcDbMaterial
  1
Global
 72
     1
 94
      127
  0
MLINESTYLE
  5
18
102
{ACAD_REACTORS
330
17
102
}
330
17
100
AcDbMlineStyle
  2
Standard
 70
     0
  3

 62
   256
 51
90.0
 52
90.0
 71
     2
 49
0.5
 62
   256
  6
BYLAYER
 49
-0.5
 62
   256
  6
BYLAYER
  0
ACDBPLACEHOLDER
  5
F
102
{ACAD_REACTORS
330
E
102
}
330
E
  0
VISUALSTYLE
  5
2F
102
{ACAD_REACTORS
330
2A
102
}
330
2A
100
AcDbVisualStyle
  2
2dWireframe
 70
     4
177
     2
291
     0
 71
     0
176
     1
 72
     2
176
     1
 73
     0
176
     1
 90
        0
176
     1
 40
-0.6
176
     1
 41
-30.0
176
     1
 62
     5
 63
     7
421
 16777215
176
     1
 74
     1
176
     1
 91
        4
176
     1
 64
     7
176
     1
 65
   257
176
     1
 75
     1
176
     1
175
     1
176
     1
 42
1.0
176
     1
 92
        0
176
     1
 66
   257
176
     1
 43
1.0
176
     1
 76
     1
176
     1
 77
     6
176
     1
 78
     2
176
     1
 67
     7
176
     1
 79
     5
176
     1
170
     0
176
     1
171
     0
176
     1
290
     0
176
     1
 93
        1
176
     1
 44
0.0
176
     1
173
     0
176
     1
  0
VISUALSTYLE
  5
31
102
{ACAD_REACTORS
330
2A
102
}
330
2A
100
AcDbVisualStyle
  2
3D Hidden
 70
     6
177
     2
291
     0
 71
     1
176
     1
 72
     2
176
     1
 73
     2
176
     1
 90
        0
176
     1
 40
-0.6
176
     1
 41
-30.0
176
     1
 62
     5
 63
     7
421
 16777215
176
     1
 74
     2
176
     1
 91
        2
176
     1
 64
     7
176
     1
 65
   257
176
     1
 75
     2
176
     1
175
     1
176
     1
 42
40.0
176
     1
 92
        0
176
     1
 66
   257
176
     1
 43
1.0
176
     1
 76
     1
176
     1
 77
     6
176
     1
 78
     2
176
     1
 67
     7
176
     1
 79
     3
176
     1
170
     0
176
     1
171
     0
176
     1
290
     0
176
     1
 93
        1
176
     1
 44
0.0
176
     1
173
     0
176
     1
  0
VISUALSTYLE
  5
30
102
{ACAD_REACTORS
330
2A
102
}
330
2A
100
AcDbVisualStyle
  2
3dWireframe
 70
     5
177
     2
291
     0
 71
     0
176
     1
 72
     2
176
     1
 73
     0
176
     1
 90
        0
176
     1
 40
-0.6
176
     1
 41
-30.0
176
     1
 62
     5
 63
     7
421
 16777215
176
     1
 74
     1
176
     1
 91
        4
176
     1
 64
     7
176
     1
 65
   257
176
     1
 75
     1
176
     1
175
     1
176
     1
 42
1.0
176
     1
 92
        0
176
     1
 66
   257
176
     1
 43
1.0
176
     1
 76
     1
176
     1
 77
     6
176
     1
 78
     2
176
     1
 67
     7
176
     1
 79
     5
176
     1
170
     0
176
     1
171
     0
176
     1
290
     0
176
     1
 93
        1
176
     1
 44
0.0
176
     1
173
     0
176
     1
  0
VISUALSTYLE
  5
32
102
{ACAD_REACTORS
330
2A
102
}
330
2A
100
AcDbVisualStyle
  2
Basic
 70
     7
177
     2
291
     1
 71
     1
176
     1
 72
     0
176
     1
 73
     1
176
     1
 90
        0
176
     1
 40
-0.6
176
     1
 41
-30.0
176
     1
 62
     5
 63
     7
421
 16777215
176
     1
 74
     0
176
     1
 91
        4
176
     1
 64
     7
176
     1
 65
   257
176
     1
 75
     1
176
     1
175
     1
176
     1
 42
1.0
176
     1
 92
        8
176
     1
 66
     7
176
     1
 43
1.0
176
     1
 76
     1
176
     1
 77
     6
176
     1
 78
     2
176
     1
 67
     7
176
     1
 79
     5
176
     1
170
     0
176
     1
171
     0
176
     1
290
     0
176
     1
 93
        1
176
     1
 44
0.0
176
     1
173
     0
176
     1
  0
VISUALSTYLE
  5
36
102
{ACAD_REACTORS
330
2A
102
}
330
2A
100
AcDbVisualStyle
  2
Brighten
 70
    12
177
     2
291
     1
 71
     2
176
     1
 72
     2
176
     1
 73
     0
176
     1
 90
        0
176
     1
 40
-0.6
176
     1
 41
-30.0
176
     1
 62
     5
 63
     7
421
 16777215
176
     1
 74
     1
176
     1
 91
        4
176
     1
 64
     7
176
     1
 65
   257
176
     1
 75
     1
176
     1
175
     1
176
     1
 42
1.0
176
     1
 92
        8
176
     1
 66
     7
176
     1
 43
1.0
176
     1
 76
     1
176
     1
 77
     6
176
     1
 78
     2
176
     1
 67
     7
176
     1
 79
     5
176
     1
170
     0
176
     1
171
     0
176
     1
290
     0
176
     1
 93
        1
176
     1
 44
50.0
176
     1
173
     0
176
     1
  0
VISUALSTYLE
  5
3A
102
{ACAD_REACTORS
330
2A
102
}
330
2A
100
AcDbVisualStyle
  2
ColorChange
 70
    16
177
     2
291
     1
 71
     2
176
     1
 72
     2
176
     1
 73
     3
176
     1
 90
        0
176
     1
 40
-0.6
176
     1
 41
-30.0
176
     1
 62
     5
 63
     8
421
  8421504
176
     1
 74
     1
176
     1
 91
        4
176
     1
 64
     7
176
     1
 65
   257
176
     1
 75
     1
176
     1
175
     1
176
     1
 42
1.0
176
     1
 92
        8
176
     1
 66
     8
424
  8421504
176
     1
 43
1.0
176
     1
 76
     1
176
     1
 77
     6
176
     1
 78
     2
176
     1
 67
     7
176
     1
 79
     5
176
     1
170
     0
176
     1
171
     0
176
     1
290
     0
176
     1
 93
        1
176
     1
 44
0.0
176
     1
173
     0
176
     1
  0
VISUALSTYLE
  5
34
102
{ACAD_REACTORS
330
2A
102
}
330
2A
100
AcDbVisualStyle
  2
Conceptual
 70
     9
177
     2
291
     0
 71
     3
176
     1
 72
     2
176
     1
 73
     0
176
     1
 90
        0
176
     1
 40
-0.6
176
     1
 41
-30.0
176
     1
 62
     5
 63
     7
421
 16777215
176
     1
 74
     2
176
     1
 91
        2
176
     1
 64
     7
176
     1
 65
   257
176
     1
 75
     1
176
     1
175
     1
176
     1
 42
40.0
176
     1
 92
        8
176
     1
 66
     7
176
     1
 43
1.0
176
     1
 76
     1
176
     1
 77
     6
176
     1
 78
     2
176
     1
 67
     7
176
     1
 79
     3
176
     1
170
     0
176
     1
171
     0
176
     1
290
     0
176
     1
 93
        1
176
     1
 44
0.0
176
     1
173
     0
176
     1
  0
VISUALSTYLE
  5
35
102
{ACAD_REACTORS
330
2A
102
}
330
2A
100
AcDbVisualStyle
  2
Dim
 70
    11
177
     2
291
     1
 71
     2
176
     1
 72
     2
176
     1
 73
     0
176
     1
 90
        0
176
     1
 40
-0.6
176
     1
 41
-30.0
176
     1
 62
     5
 63
     7
421
 16777215
176
     1
 74
     1
176
     1
 91
        4
176
     1
 64
     7
176
     1
 65
   257
176
     1
 75
     1
176
     1
175
     1
176
     1
 42
1.0
176
     1
 92
        8
176
     1
 66
     7
176
     1
 43
1.0
176
     1
 76
     1
176
     1
 77
     6
176
     1
 78
     2
176
     1
 67
     7
176
     1
 79
     5
176
     1
170
     0
176
     1
171
     0
176
     1
290
     0
176
     1
 93
        1
176
     1
 44
-50.0
176
     1
173
     0
176
     1
  0
VISUALSTYLE
  5
39
102
{ACAD_REACTORS
330
2A
102
}
330
2A
100
AcDbVisualStyle
  2
Facepattern
 70
    15
177
     2
291
     1
 71
     2
176
     1
 72
     2
176
     1
 73
     0
176
     1
 90
        0
176
     1
 40
-0.6
176
     1
 41
-30.0
176
     1
 62
     5
 63
     7
421
 16777215
176
     1
 74
     1
176
     1
 91
        4
176
     1
 64
     7
176
     1
 65
   257
176
     1
 75
     1
176
     1
175
     1
176
     1
 42
1.0
176
     1
 92
        8
176
     1
 66
     7
176
     1
 43
1.0
176
     1
 76
     1
176
     1
 77
     6
176
     1
 78
     2
176
     1
 67
     7
176
     1
 79
     5
176
     1
170
     0
176
     1
171
     0
176
     1
290
     0
176
     1
 93
        1
176
     1
 44
0.0
176
     1
173
     0
176
     1
  0
VISUALSTYLE
  5
2B
102
{ACAD_REACTORS
330
2A
102
}
330
2A
100
AcDbVisualStyle
  2
Flat
 70
     0
177
     2
291
     1
 71
     2
176
     1
 72
     1
176
     1
 73
     1
176
     1
 90
        2
176
     1
 40
-0.6
176
     1
 41
30.0
176
     1
 62
     5
 63
     7
421
 16777215
176
     1
 74
     0
176
     1
 91
        4
176
     1
 64
     7
176
     1
 65
   257
176
     1
 75
     1
176
     1
175
     1
176
     1
 42
1.0
176
     1
 92
        8
176
     1
 66
     7
176
     1
 43
1.0
176
     1
 76
     1
176
     1
 77
     6
176
     1
 78
     2
176
     1
 67
     7
176
     1
 79
     5
176
     1
170
     0
176
     1
171
     0
176
     1
290
     0
176
     1
 93
       13
176
     1
 44
0.0
176
     1
173
     0
176
     1
  0
VISUALSTYLE
  5
2C
102
{ACAD_REACTORS
330
2A
102
}
330
2A
100
AcDbVisualStyle
  2
FlatWithEdges
 70
     1
177
     2
291
     1
 71
     2
176
     1
 72
     1
176
     1
 73
     1
176
     1
 90
        2
176
     1
 40
-0.6
176
     1
 41
30.0
176
     1
 62
     5
 63
     7
421
 16777215
176
     1
 74
     1
176
     1
 91
        4
176
     1
 64
     7
176
     1
 65
   257
176
     1
 75
     1
176
     1
175
     1
176
     1
 42
1.0
176
     1
 92
        0
176
     1
 66
   257
176
     1
 43
1.0
176
     1
 76
     1
176
     1
 77
     6
176
     1
 78
     2
176
     1
 67
     7
176
     1
 79
     5
176
     1
170
     0
176
     1
171
     0
176
     1
290
     0
176
     1
 93
       13
176
     1
 44
0.0
176
     1
173
     0
176
     1
  0
VISUALSTYLE
  5
2D
102
{ACAD_REACTORS
330
2A
102
}
330
2A
100
AcDbVisualStyle
  2
Gouraud
 70
     2
177
     2
291
     1
 71
     2
176
     1
 72
     2
176
     1
 73
     1
176
     1
 90
        2
176
     1
 40
-0.6
176
     1
 41
30.0
176
     1
 62
     5
 63
     7
421
 16777215
176
     1
 74
     0
176
     1
 91
        4
176
     1
 64
     7
176
     1
 65
   257
176
     1
 75
     1
176
     1
175
     1
176
     1
 42
1.0
176
     1
 92
        0
176
     1
 66
     7
176
     1
 43
1.0
176
     1
 76
     1
176
     1
 77
     6
176
     1
 78
     2
176
     1
 67
     7
176
     1
 79
     5
176
     1
170
     0
176
     1
171
     0
176
     1
290
     0
176
     1
 93
       13
176
     1
 44
0.0
176
     1
173
     0
176
     1
  0
VISUALSTYLE
  5
2E
102
{ACAD_REACTORS
330
2A
102
}
330
2A
100
AcDbVisualStyle
  2
GouraudWithEdges
 70
     3
177
     2
291
     1
 71
     2
176
     1
 72
     2
176
     1
 73
     1
176
     1
 90
        2
176
     1
 40
-0.6
176
     1
 41
30.0
176
     1
 62
     5
 63
     7
421
 16777215
176
     1
 74
     1
176
     1
 91
        4
176
     1
 64
     7
176
     1
 65
   257
176
     1
 75
     1
176
     1
175
     1
176
     1
 42
1.0
176
     1
 92
        0
176
     1
 66
   257
176
     1
 43
1.0
176
     1
 76
     1
176
     1
 77
     6
176
     1
 78
     2
176
     1
 67
     7
176
     1
 79
     5
176
     1
170
     0
176
     1
171
     0
176
     1
290
     0
176
     1
 93
       13
176
     1
 44
0.0
176
     1
173
     0
176
     1
  0
VISUALSTYLE
  5
38
102
{ACAD_REACTORS
330
2A
102
}
330
2A
100
AcDbVisualStyle
  2
Linepattern
 70
    14
177
     2
291
     1
 71
     2
176
     1
 72
     2
176
     1
 73
     0
176
     1
 90
        0
176
     1
 40
-0.6
176
     1
 41
-30.0
176
     1
 62
     5
 63
     7
421
 16777215
176
     1
 74
     1
176
     1
 91
        4
176
     1
 64
     7
176
     1
 65
   257
176
     1
 75
     7
176
     1
175
     7
176
     1
 42
1.0
176
     1
 92
        8
176
     1
 66
     7
176
     1
 43
1.0
176
     1
 76
     1
176
     1
 77
     6
176
     1
 78
     2
176
     1
 67
     7
176
     1
 79
     5
176
     1
170
     0
176
     1
171
     0
176
     1
290
     0
176
     1
 93
        1
176
     1
 44
0.0
176
     1
173
     0
176
     1
  0
VISUALSTYLE
  5
33
102
{ACAD_REACTORS
330
2A
102
}
330
2A
100
AcDbVisualStyle
  2
Realistic
 70
     8
177
     2
291
     0
 71
     2
176
     1
 72
     2
176
     1
 73
     0
176
     1
 90
        0
176
     1
 40
-0.6
176
     1
 41
-30.0
176
     1
 62
     5
 63
     7
421
 16777215
176
     1
 74
     1
176
     1
 91
        0
176
     1
 64
     7
176
     1
 65
   257
176
     1
 75
     1
176
     1
175
     1
176
     1
 42
1.0
176
     1
 92
        8
176
     1
 66
     8
424
  7895160
176
     1
 43
1.0
176
     1
 76
     1
176
     1
 77
     6
176
     1
 78
     2
176
     1
 67
     7
176
     1
 79
     5
176
     1
170
     0
176
     1
171
     0
176
     1
290
     0
176
     1
 93
       13
176
     1
 44
0.0
176
     1
173
     0
176
     1
  0
VISUALSTYLE
  5
37
102
{ACAD_REACTORS
330
2A
102
}
330
2A
100
AcDbVisualStyle
  2
Thicken
 70
    13
177
     2
291
     1
 71
     2
176
     1
 72
     2
176
     1
 73
     0
176
     1
 90
        0
176
     1
 40
-0.6
176
     1
 41
-30.0
176
     1
 62
     5
 63
     7
421
 16777215
176
     1
 74
     1
176
     1
 91
        4
176
     1
 64
     7
176
     1
 65
   257
176
     1
 75
     1
176
     1
175
     1
176
     1
 42
1.0
176
     1
 92
       12
176
     1
 66
     7
176
     1
 43
1.0
176
     1
 76
     1
176
     1
 77
     6
176
     1
 78
     2
176
     1
 67
     7
176
     1
 79
     5
176
     1
170
     0
176
     1
171
     0
176
     1
290
     0
176
     1
 93
        1
176
     1
 44
0.0
176
     1
173
     0
176
     1
  0
ENDSEC
  0
EOF
