  0
SECTION
  2
HEADER
  9
$ACADVER
  1
AC1024
  9
$ACADMAINTVER
 70
     6
  9
$DWGCODEPAGE
  3
UNDEFINED
  9
$INSBASE
 10
0.0
 20
0.0
 30
0.0
  9
$EXTMIN
 10
1.000000000000000E+20
 20
1.000000000000000E+20
 30
1.000000000000000E+20
  9
$EXTMAX
 10
-1.000000000000000E+20
 20
-1.000000000000000E+20
 30
-1.000000000000000E+20
  9
$LIMMIN
 10
0.0
 20
0.0
  9
$LIMMAX
 10
12.0
 20
9.0
  9
$ORTHOMODE
 70
     0
  9
$REGENMODE
 70
     1
  9
$FILLMODE
 70
     1
  9
$QTEXTMODE
 70
     0
  9
$MIRRTEXT
 70
     1
  9
$LTSCALE
 40
1.0
  9
$ATTMODE
 70
     1
  9
$TEXTSIZE
 40
0.2
  9
$TRACEWID
 40
0.05
  9
$TEXTSTYLE
  7
Standard
  9
$CLAYER
  8
0
  9
$CELTYPE
  6
ByLayer
  9
$CECOLOR
 62
   256
  9
$CELTSCALE
 40
1.0
  9
$DISPSILH
 70
     0
  9
$DIMSCALE
 40
1.0
  9
$DIMASZ
 40
0.18
  9
$DIMEXO
 40
0.0625
  9
$DIMDLI
 40
0.38
  9
$DIMRND
 40
0.0
  9
$DIMDLE
 40
0.0
  9
$DIMEXE
 40
0.18
  9
$DIMTP
 40
0.0
  9
$DIMTM
 40
0.0
  9
$DIMTXT
 40
0.18
  9
$DIMCEN
 40
0.09
  9
$DIMTSZ
 40
0.0
  9
$DIMTOL
 70
     0
  9
$DIMLIM
 70
     0
  9
$DIMTIH
 70
     1
  9
$DIMTOH
 70
     1
  9
$DIMSE1
 70
     0
  9
$DIMSE2
 70
     0
  9
$DIMTAD
 70
     0
  9
$DIMZIN
 70
     0
  9
$DIMBLK
  1

  9
$DIMASO
 70
     1
  9
$DIMSHO
 70
     1
  9
$DIMPOST
  1

  9
$DIMAPOST
  1

  9
$DIMALT
 70
     0
  9
$DIMALTD
 70
     2
  9
$DIMALTF
 40
25.4
  9
$DIMLFAC
 40
1.0
  9
$DIMTOFL
 70
     0
  9
$DIMTVP
 40
0.0
  9
$DIMTIX
 70
     0
  9
$DIMSOXD
 70
     0
  9
$DIMSAH
 70
     0
  9
$DIMBLK1
  1

  9
$DIMBLK2
  1

  9
$DIMSTYLE
  2
Standard
  9
$DIMCLRD
 70
     0
  9
$DIMCLRE
 70
     0
  9
$DIMCLRT
 70
     0
  9
$DIMTFAC
 40
1.0
  9
$DIMGAP
 40
0.09
  9
$DIMJUST
 70
     0
  9
$DIMSD1
 70
     0
  9
$DIMSD2
 70
     0
  9
$DIMTOLJ
 70
     1
  9
$DIMTZIN
 70
     0
  9
$DIMALTZ
 70
     0
  9
$DIMALTTZ
 70
     0
  9
$DIMUPT
 70
     0
  9
$DIMDEC
 70
     4
  9
$DIMTDEC
 70
     4
  9
$DIMALTU
 70
     2
  9
$DIMALTTD
 70
     2
  9
$DIMTXSTY
  7
Standard
  9
$DIMAUNIT
 70
     0
  9
$DIMADEC
 70
     0
  9
$DIMALTRND
 40
0.0
  9
$DIMAZIN
 70
     0
  9
$DIMDSEP
 70
    46
  9
$DIMATFIT
 70
     3
  9
$DIMFRAC
 70
     0
  9
$DIMLDRBLK
  1

  9
$DIMLUNIT
 70
     2
  9
$DIMLWD
 70
    -2
  9
$DIMLWE
 70
    -2
  9
$DIMTMOVE
 70
     0
  9
$DIMFXL
 40
1.0
  9
$DIMFXLON
 70
     0
  9
$DIMJOGANG
 40
0.7853981633974483
  9
$DIMTFILL
 70
     0
  9
$DIMTFILLCLR
 70
     0
  9
$DIMARCSYM
 70
     0
  9
$DIMLTYPE
  6

  9
$DIMLTEX1
  6

  9
$DIMLTEX2
  6

  9
$DIMTXTDIRECTION
 70
     0
  9
$LUNITS
 70
     2
  9
$LUPREC
 70
     4
  9
$SKETCHINC
 40
0.1
  9
$FILLETRAD
 40
0.5
  9
$AUNITS
 70
     0
  9
$AUPREC
 70
     0
  9
$MENU
  1
.
  9
$ELEVATION
 40
0.0
  9
$PELEVATION
 40
0.0
  9
$THICKNESS
 40
0.0
  9
$LIMCHECK
 70
     0
  9
$CHAMFERA
 40
0.5
  9
$CHAMFERB
 40
0.5
  9
$CHAMFERC
 40
1.0
  9
$CHAMFERD
 40
0.0
  9
$SKPOLY
 70
     0
  9
$TDCREATE
 40
2457917.618923599
  9
$TDUCREATE
 40
2457917.243923611
  9
$TDUPDATE
 40
2457917.618923599
  9
$TDUUPDATE
 40
2457917.243923611
  9
$TDINDWG
 40
0.0000000116
  9
$TDUSRTIMER
 40
0.0000000116
  9
$USRTIMER
 70
     1
  9
$ANGBASE
 50
0.0
  9
$ANGDIR
 70
     0
  9
$PDMODE
 70
     0
  9
$PDSIZE
 40
0.0
  9
$PLINEWID
 40
0.0
  9
$SPLFRAME
 70
     0
  9
$SPLINETYPE
 70
     6
  9
$SPLINESEGS
 70
     8
  9
$HANDSEED
  5
DA
  9
$SURFTAB1
 70
     6
  9
$SURFTAB2
 70
     6
  9
$SURFTYPE
 70
     6
  9
$SURFU
 70
     6
  9
$SURFV
 70
     6
  9
$UCSBASE
  2

  9
$UCSNAME
  2

  9
$UCSORG
 10
0.0
 20
0.0
 30
0.0
  9
$UCSXDIR
 10
1.0
 20
0.0
 30
0.0
  9
$UCSYDIR
 10
0.0
 20
1.0
 30
0.0
  9
$UCSORTHOREF
  2

  9
$UCSORTHOVIEW
 70
     0
  9
$UCSORGTOP
 10
0.0
 20
0.0
 30
0.0
  9
$UCSORGBOTTOM
 10
0.0
 20
0.0
 30
0.0
  9
$UCSORGLEFT
 10
0.0
 20
0.0
 30
0.0
  9
$UCSORGRIGHT
 10
0.0
 20
0.0
 30
0.0
  9
$UCSORGFRONT
 10
0.0
 20
0.0
 30
0.0
  9
$UCSORGBACK
 10
0.0
 20
0.0
 30
0.0
  9
$PUCSBASE
  2

  9
$PUCSNAME
  2

  9
$PUCSORG
 10
0.0
 20
0.0
 30
0.0
  9
$PUCSXDIR
 10
1.0
 20
0.0
 30
0.0
  9
$PUCSYDIR
 10
0.0
 20
1.0
 30
0.0
  9
$PUCSORTHOREF
  2

  9
$PUCSORTHOVIEW
 70
     0
  9
$PUCSORGTOP
 10
0.0
 20
0.0
 30
0.0
  9
$PUCSORGBOTTOM
 10
0.0
 20
0.0
 30
0.0
  9
$PUCSORGLEFT
 10
0.0
 20
0.0
 30
0.0
  9
$PUCSORGRIGHT
 10
0.0
 20
0.0
 30
0.0
  9
$PUCSORGFRONT
 10
0.0
 20
0.0
 30
0.0
  9
$PUCSORGBACK
 10
0.0
 20
0.0
 30
0.0
  9
$USERI1
 70
     0
  9
$USERI2
 70
     0
  9
$USERI3
 70
     0
  9
$USERI4
 70
     0
  9
$USERI5
 70
     0
  9
$USERR1
 40
0.0
  9
$USERR2
 40
0.0
  9
$USERR3
 40
0.0
  9
$USERR4
 40
0.0
  9
$USERR5
 40
0.0
  9
$WORLDVIEW
 70
     1
  9
$SHADEDGE
 70
     3
  9
$SHADEDIF
 70
    70
  9
$TILEMODE
 70
     1
  9
$MAXACTVP
 70
    64
  9
$PINSBASE
 10
0.0
 20
0.0
 30
0.0
  9
$PLIMCHECK
 70
     0
  9
$PEXTMIN
 10
1.000000000000000E+20
 20
1.000000000000000E+20
 30
1.000000000000000E+20
  9
$PEXTMAX
 10
-1.000000000000000E+20
 20
-1.000000000000000E+20
 30
-1.000000000000000E+20
  9
$PLIMMIN
 10
0.0
 20
0.0
  9
$PLIMMAX
 10
12.0
 20
9.0
  9
$UNITMODE
 70
     0
  9
$VISRETAIN
 70
     1
  9
$PLINEGEN
 70
     0
  9
$PSLTSCALE
 70
     1
  9
$TREEDEPTH
 70
  3020
  9
$CMLSTYLE
  2
Standard
  9
$CMLJUST
 70
     0
  9
$CMLSCALE
 40
1.0
  9
$PROXYGRAPHICS
 70
     1
  9
$MEASUREMENT
 70
     0
  9
$CELWEIGHT
370
    -1
  9
$ENDCAPS
280
     0
  9
$JOINSTYLE
280
     0
  9
$LWDISPLAY
290
     1
  9
$INSUNITS
 70
     1
  9
$HYPERLINKBASE
  1

  9
$STYLESHEET
  1

  9
$XEDIT
290
     1
  9
$CEPSNTYPE
380
     0
  9
$PSTYLEMODE
290
     1
  9
$FINGERPRINTGUID
  2
{B6E18614-A893-CB55-E79F-8D1E4AE6E956}
  9
$VERSIONGUID
  2
{FAEB1C32-E019-11D5-929B-00C0DF256EC4}
  9
$EXTNAMES
290
     1
  9
$PSVPSCALE
 40
0.0
  9
$OLESTARTUP
290
     0
  9
$SORTENTS
280
   127
  9
$INDEXCTL
280
     0
  9
$HIDETEXT
280
     1
  9
$XCLIPFRAME
280
     2
  9
$HALOGAP
280
     0
  9
$OBSCOLOR
 70
   257
  9
$OBSLTYPE
280
     0
  9
$INTERSECTIONDISPLAY
280
     0
  9
$INTERSECTIONCOLOR
 70
   257
  9
$DIMASSOC
280
     2
  9
$PROJECTNAME
  1

  9
$CAMERADISPLAY
290
     0
  9
$LENSLENGTH
 40
50.0
  9
$CAMERAHEIGHT
 40
0.0
  9
$STEPSPERSEC
 40
2.0
  9
$STEPSIZE
 40
6.0
  9
$3DDWFPREC
 40
2.0
  9
$PSOLWIDTH
 40
0.25
  9
$PSOLHEIGHT
 40
4.0
  9
$LOFTANG1
 40
1.570796326794897
  9
$LOFTANG2
 40
1.570796326794897
  9
$LOFTMAG1
 40
0.0
  9
$LOFTMAG2
 40
0.0
  9
$LOFTPARAM
 70
     7
  9
$LOFTNORMALS
280
     1
  9
$LATITUDE
 40
37.795
  9
$LONGITUDE
 40
-122.394
  9
$NORTHDIRECTION
 40
0.0
  9
$TIMEZONE
 70
 -8000
  9
$LIGHTGLYPHDISPLAY
280
     1
  9
$TILEMODELIGHTSYNCH
280
     1
  9
$CMATERIAL
347
3C
  9
$SOLIDHIST
280
     1
  9
$SHOWHIST
280
     1
  9
$DWFFRAME
280
     2
  9
$DGNFRAME
280
     2
  9
$REALWORLDSCALE
290
     1
  9
$INTERFERECOLOR
 62
   256
  9
$CSHADOW
280
     0
  9
$SHADOWPLANELOCATION
 40
0.0
  0
ENDSEC
  0
SECTION
  2
CLASSES
  0
CLASS
  1
ACDBDICTIONARYWDFLT
  2
AcDbDictionaryWithDefault
  3
ObjectDBX Classes
 90
        0
 91
        4
280
     0
281
     0
  0
CLASS
  1
VISUALSTYLE
  2
AcDbVisualStyle
  3
ObjectDBX Classes
 90
     4095
 91
        4
280
     0
281
     0
  0
CLASS
  1
MATERIAL
  2
AcDbMaterial
  3
ObjectDBX Classes
 90
     1153
 91
        4
280
     0
281
     0
  0
CLASS
  1
SUN
  2
AcDbSun
  3
SCENEOE
 90
     1024
 91
        4
280
     0
281
     0
  0
ENDSEC
  0
SECTION
  2
TABLES
  0
TABLE
  2
VPORT
  5
8
330
0
100
AcDbSymbolTable
 70
     1
  0
VPORT
  5
29
330
8
100
AcDbSymbolTableRecord
100
AcDbViewportTableRecord
  2
*Active
 70
     0
 10
0.0
 20
0.0
 11
1.0
 21
1.0
 12
0.0
 22
0.0
 13
0.0
 23
0.0
 14
0.5
 24
0.5
 15
0.5
 25
0.5
 16
0.0
 26
0.0
 36
1.0
 17
91.00082462281999
 27
-128.4993055234307
 37
0.0
 40
256.9986110468615
 41
0.7081814508812795
 42
50.0
 43
0.0
 44
0.0
 50
0.0
 51
0.0
 71
     0
 72
   100
 73
     1
 74
     3
 75
     0
 76
     0
 77
     0
 78
     0
281
     0
 65
     1
110
0.0
120
0.0
130
0.0
111
1.0
121
0.0
131
0.0
112
0.0
122
1.0
132
0.0
 79
     0
146
0.0
 60
     3
 61
     5
292
     1
282
     1
141
0.0
142
0.0
 63
   250
361
3F
  0
ENDTAB
  0
TABLE
  2
LTYPE
  5
5
330
0
100
AcDbSymbolTable
 70
     2
  0
LTYPE
  5
14
330
5
100
AcDbSymbolTableRecord
100
AcDbLinetypeTableRecord
  2
ByBlock
 70
     0
  3

 72
    65
 73
     0
 40
0.0
  0
LTYPE
  5
15
330
5
100
AcDbSymbolTableRecord
100
AcDbLinetypeTableRecord
  2
ByLayer
 70
     0
  3

 72
    65
 73
     0
 40
0.0
  0
LTYPE
  5
16
330
5
100
AcDbSymbolTableRecord
100
AcDbLinetypeTableRecord
  2
Continuous
 70
     0
  3
Solid line
 72
    65
 73
     0
 40
0.0
  0
LTYPE
  5
D6
330
5
100
AcDbSymbolTableRecord
100
AcDbLinetypeTableRecord
  2
AI-Linetype-1
 70
     0
  3
Adobe Illustrator Linetype No. 1
 72
    65
 73
     2
 40
1.411111110758333
 49
0.7055555553791667
 74
     0
 49
-0.7055555553791667
 74
     0
  0
ENDTAB
  0
TABLE
  2
LAYER
  5
2
330
0
100
AcDbSymbolTable
 70
     2
  0
LAYER
  5
10
330
2
100
AcDbSymbolTableRecord
100
AcDbLayerTableRecord
  2
0
 70
     0
 62
     7
  6
Continuous
370
    -3
390
F
347
3E
  0
LAYER
  5
40
330
2
100
AcDbSymbolTableRecord
100
AcDbLayerTableRecord
  2
_U+30EC_U+30A4_U+30E4_U+30FC 1
 70
     0
 62
     7
  6
Continuous
370
    -3
390
F
347
3E
  0
ENDTAB
  0
TABLE
  2
STYLE
  5
3
330
0
100
AcDbSymbolTable
 70
     1
  0
STYLE
  5
11
330
3
100
AcDbSymbolTableRecord
100
AcDbTextStyleTableRecord
  2
Standard
 70
     0
 40
0.0
 41
1.0
 50
0.0
 71
     0
 42
0.2
  3
txt
  4

  0
ENDTAB
  0
TABLE
  2
VIEW
  5
6
330
0
100
AcDbSymbolTable
 70
     0
  0
ENDTAB
  0
TABLE
  2
UCS
  5
7
330
0
100
AcDbSymbolTable
 70
     0
  0
ENDTAB
  0
TABLE
  2
APPID
  5
9
330
0
100
AcDbSymbolTable
 70
     1
  0
APPID
  5
12
330
9
100
AcDbSymbolTableRecord
100
AcDbRegAppTableRecord
  2
ACAD
 70
     0
  0
ENDTAB
  0
TABLE
  2
DIMSTYLE
  5
A
330
0
100
AcDbSymbolTable
 70
     1
100
AcDbDimStyleTable
  0
DIMSTYLE
105
27
330
A
100
AcDbSymbolTableRecord
100
AcDbDimStyleTableRecord
  2
Standard
 70
     0
178
     0
340
11
  0
ENDTAB
  0
TABLE
  2
BLOCK_RECORD
  5
1
330
0
100
AcDbSymbolTable
 70
     7
  0
BLOCK_RECORD
  5
1F
330
1
100
AcDbSymbolTableRecord
100
AcDbBlockTableRecord
  2
*Model_Space
340
22
 70
     0
280
     1
281
     0
  0
BLOCK_RECORD
  5
1B
330
1
100
AcDbSymbolTableRecord
100
AcDbBlockTableRecord
  2
*Paper_Space
340
1E
 70
     0
280
     1
281
     0
  0
BLOCK_RECORD
  5
23
330
1
100
AcDbSymbolTableRecord
100
AcDbBlockTableRecord
  2
*Paper_Space0
340
26
 70
     0
280
     1
281
     0
  0
BLOCK_RECORD
  5
5D
330
1
100
AcDbSymbolTableRecord
100
AcDbBlockTableRecord
  2
block 2
340
0
102
{BLKREFS
331
5E
102
}
 70
     0
280
     1
281
     0
  0
BLOCK_RECORD
  5
72
330
1
100
AcDbSymbolTableRecord
100
AcDbBlockTableRecord
  2
block 3
340
0
102
{BLKREFS
331
73
102
}
 70
     0
280
     1
281
     0
  0
BLOCK_RECORD
  5
83
330
1
100
AcDbSymbolTableRecord
100
AcDbBlockTableRecord
  2
block 4
340
0
102
{BLKREFS
331
84
102
}
 70
     0
280
     1
281
     0
  0
BLOCK_RECORD
  5
95
330
1
100
AcDbSymbolTableRecord
100
AcDbBlockTableRecord
  2
block 5
340
0
102
{BLKREFS
331
96
102
}
 70
     0
280
     1
281
     0
  0
BLOCK_RECORD
  5
A9
330
1
100
AcDbSymbolTableRecord
100
AcDbBlockTableRecord
  2
block 6
340
0
102
{BLKREFS
331
AA
102
}
 70
     0
280
     1
281
     0
  0
BLOCK_RECORD
  5
C7
330
1
100
AcDbSymbolTableRecord
100
AcDbBlockTableRecord
  2
block 7
340
0
102
{BLKREFS
331
C8
102
}
 70
     0
280
     1
281
     0
  0
ENDTAB
  0
ENDSEC
  0
SECTION
  2
BLOCKS
  0
BLOCK
  5
20
330
1F
100
AcDbEntity
  8
0
100
AcDbBlockBegin
  2
*Model_Space
 70
     0
 10
0.0
 20
0.0
 30
0.0
  3
*Model_Space
  1

  0
ENDBLK
  5
21
330
1F
100
AcDbEntity
  8
0
100
AcDbBlockEnd
  0
BLOCK
  5
1C
330
1B
100
AcDbEntity
 67
     1
  8
0
100
AcDbBlockBegin
  2
*Paper_Space
 70
     0
 10
0.0
 20
0.0
 30
0.0
  3
*Paper_Space
  1

  0
ENDBLK
  5
1D
330
1B
100
AcDbEntity
 67
     1
  8
0
100
AcDbBlockEnd
  0
BLOCK
  5
24
330
23
100
AcDbEntity
  8
0
100
AcDbBlockBegin
  2
*Paper_Space0
 70
     0
 10
0.0
 20
0.0
 30
0.0
  3
*Paper_Space0
  1

  0
ENDBLK
  5
25
330
23
100
AcDbEntity
  8
0
100
AcDbBlockEnd
  0
BLOCK
  5
5F
330
5D
100
AcDbEntity
  8
0
100
AcDbBlockBegin
  2
block 2
 70
     0
 10
0.0
 20
0.0
 30
0.0
  3
block 2
  1

  0
SPLINE
  5
61
330
5D
100
AcDbEntity
  8
_U+30EC_U+30A4_U+30E4_U+30FC 1
370
     0
100
AcDbSpline
210
0.0
220
0.0
230
1.0
 70
    11
 71
     3
 72
    26
 73
    22
 74
     0
 42
0.0000000001
 43
0.0000000001
 12
1.0
 22
0.0
 32
0.0
 13
1.0
 23
0.0
 33
0.0
 40
0.0
 40
0.0
 40
0.0
 40
0.0
 40
1.0
 40
1.0
 40
1.0
 40
2.0
 40
2.0
 40
2.0
 40
3.0
 40
3.0
 40
3.0
 40
4.0
 40
4.0
 40
4.0
 40
5.0
 40
5.0
 40
5.0
 40
6.0
 40
6.0
 40
6.0
 40
7.0
 40
7.0
 40
7.0
 40
7.0
 10
77.01407604411455
 20
-139.700688984172
 30
0.0
 10
77.01407604411455
 20
-139.700688984172
 30
0.0
 10
77.01407604411455
 20
-138.5965358811495
 30
0.0
 10
77.01407604411455
 20
-138.5965358811495
 30
0.0
 10
77.01407604411455
 20
-138.5965358811495
 30
0.0
 10
76.6840358966276
 20
-138.5965358811495
 30
0.0
 10
76.6840358966276
 20
-138.5965358811495
 30
0.0
 10
76.6840358966276
 20
-138.5965358811495
 30
0.0
 10
76.6840358966276
 20
-138.4483967752838
 30
0.0
 10
76.6840358966276
 20
-138.4483967752838
 30
0.0
 10
77.01614310140569
 20
-138.4335828646972
 30
0.0
 10
77.06265189045656
 20
-138.2706298482449
 30
0.0
 10
77.09227971162971
 20
-138.1562526781346
 30
0.0
 10
77.09227971162971
 20
-138.1562526781346
 30
0.0
 10
77.23835176020431
 20
-138.1562526781346
 30
0.0
 10
77.23835176020431
 20
-138.1562526781346
 30
0.0
 10
77.23835176020431
 20
-138.1562526781346
 30
0.0
 10
77.23835176020431
 20
-139.700688984172
 30
0.0
 10
77.23835176020431
 20
-139.700688984172
 30
0.0
 10
77.23835176020431
 20
-139.700688984172
 30
0.0
 10
77.01407604411455
 20
-139.700688984172
 30
0.0
 10
77.01407604411455
 20
-139.700688984172
 30
0.0
  0
HATCH
  5
62
330
5D
100
AcDbEntity
  8
_U+30EC_U+30A4_U+30E4_U+30FC 1
 62
   179
420
  2234388
100
AcDbHatch
 10
0.0
 20
0.0
 30
0.0
210
0.0
220
0.0
230
1.0
  2
SOLID
 70
     1
 71
     0
 91
        1
 92
        1
 93
        1
 72
     4
 94
        3
 73
     0
 74
     1
 95
       26
 96
       22
 40
0.0
 40
0.0
 40
0.0
 40
0.0
 40
1.0
 40
1.0
 40
1.0
 40
2.0
 40
2.0
 40
2.0
 40
3.0
 40
3.0
 40
3.0
 40
4.0
 40
4.0
 40
4.0
 40
5.0
 40
5.0
 40
5.0
 40
6.0
 40
6.0
 40
6.0
 40
7.0
 40
7.0
 40
7.0
 40
7.0
 10
77.01407604411455
 20
-139.700688984172
 10
77.01407604411455
 20
-139.700688984172
 10
77.01407604411455
 20
-138.5965358811495
 10
77.01407604411455
 20
-138.5965358811495
 10
77.01407604411455
 20
-138.5965358811495
 10
76.6840358966276
 20
-138.5965358811495
 10
76.6840358966276
 20
-138.5965358811495
 10
76.6840358966276
 20
-138.5965358811495
 10
76.6840358966276
 20
-138.4483967752838
 10
76.6840358966276
 20
-138.4483967752838
 10
77.01614310140569
 20
-138.4335828646972
 10
77.06265189045656
 20
-138.2706298482449
 10
77.09227971162971
 20
-138.1562526781346
 10
77.09227971162971
 20
-138.1562526781346
 10
77.23835176020431
 20
-138.1562526781346
 10
77.23835176020431
 20
-138.1562526781346
 10
77.23835176020431
 20
-138.1562526781346
 10
77.23835176020431
 20
-139.700688984172
 10
77.23835176020431
 20
-139.700688984172
 10
77.23835176020431
 20
-139.700688984172
 10
77.01407604411455
 20
-139.700688984172
 10
77.01407604411455
 20
-139.700688984172
 97
        0
 97
        0
 75
     2
 76
     1
 98
        0
  0
SPLINE
  5
63
330
5D
100
AcDbEntity
  8
_U+30EC_U+30A4_U+30E4_U+30FC 1
370
     0
100
AcDbSpline
210
0.0
220
0.0
230
1.0
 70
    11
 71
     3
 72
    44
 73
    40
 74
     0
 42
0.0000000001
 43
0.0000000001
 12
1.0
 22
0.0
 32
0.0
 13
1.0
 23
0.0
 33
0.0
 40
0.0
 40
0.0
 40
0.0
 40
0.0
 40
1.0
 40
1.0
 40
1.0
 40
2.0
 40
2.0
 40
2.0
 40
3.0
 40
3.0
 40
3.0
 40
4.0
 40
4.0
 40
4.0
 40
5.0
 40
5.0
 40
5.0
 40
6.0
 40
6.0
 40
6.0
 40
7.0
 40
7.0
 40
7.0
 40
8.0
 40
8.0
 40
8.0
 40
9.0
 40
9.0
 40
9.0
 40
10.0
 40
10.0
 40
10.0
 40
11.0
 40
11.0
 40
11.0
 40
12.0
 40
12.0
 40
12.0
 40
13.0
 40
13.0
 40
13.0
 40
13.0
 10
78.75367700939144
 20
-139.700688984172
 30
0.0
 10
78.73025036009174
 20
-139.6562472524123
 30
0.0
 10
78.70923527763172
 20
-139.603537291488
 30
0.0
 10
78.7069959655663
 20
-139.3727158939763
 30
0.0
 10
78.70286185098401
 20
-139.1294921527176
 30
0.0
 10
78.6436062086377
 20
-139.0595567143671
 30
0.0
 10
78.46583928159882
 20
-139.0595567143671
 30
0.0
 10
78.46583928159882
 20
-139.0595567143671
 30
0.0
 10
78.05759546659671
 20
-139.0595567143671
 30
0.0
 10
78.05759546659671
 20
-139.0595567143671
 30
0.0
 10
78.05759546659671
 20
-139.0595567143671
 30
0.0
 10
78.05759546659671
 20
-139.700688984172
 30
0.0
 10
78.05759546659671
 20
-139.700688984172
 30
0.0
 10
78.05759546659671
 20
-139.700688984172
 30
0.0
 10
77.82281220927693
 20
-139.700688984172
 30
0.0
 10
77.82281220927693
 20
-139.700688984172
 30
0.0
 10
77.82281220927693
 20
-139.700688984172
 30
0.0
 10
77.82281220927693
 20
-138.1562526781346
 30
0.0
 10
77.82281220927693
 20
-138.1562526781346
 30
0.0
 10
77.82281220927693
 20
-138.1562526781346
 30
0.0
 10
78.49753416006313
 20
-138.1562526781346
 30
0.0
 10
78.49753416006313
 20
-138.1562526781346
 30
0.0
 10
78.80431991302461
 20
-138.1562526781346
 30
0.0
 10
78.9715792988335
 20
-138.3278184333
 30
0.0
 10
78.9715792988335
 20
-138.5837890278541
 30
0.0
 10
78.9715792988335
 20
-138.6344319314872
 30
0.0
 10
78.96296656012038
 20
-138.7171142231332
 30
0.0
 10
78.91852482836065
 20
-138.7973849479395
 30
0.0
 10
78.85944144078861
 20
-138.9010823220456
 30
0.0
 10
78.7938123717946
 20
-138.9200303472144
 30
0.0
 10
78.73248967215716
 20
-138.9369113150922
 30
0.0
 10
78.86994898201863
 20
-138.9792859895607
 30
0.0
 10
78.93764510830378
 20
-139.0278618359028
 30
0.0
 10
78.94195147766035
 20
-139.3430880728031
 30
0.0
 10
78.94608559224265
 20
-139.6138725779438
 30
0.0
 10
78.98208684006352
 20
-139.6455674564081
 30
0.0
 10
79.04978296634867
 20
-139.700688984172
 30
0.0
 10
79.04978296634867
 20
-139.700688984172
 30
0.0
 10
78.75367700939144
 20
-139.700688984172
 30
0.0
 10
78.75367700939144
 20
-139.700688984172
 30
0.0
  0
SPLINE
  5
64
330
5D
100
AcDbEntity
  8
_U+30EC_U+30A4_U+30E4_U+30FC 1
370
     0
100
AcDbSpline
210
0.0
220
0.0
230
1.0
 70
    11
 71
     3
 72
    20
 73
    16
 74
     0
 42
0.0000000001
 43
0.0000000001
 12
1.0
 22
0.0
 32
0.0
 13
1.0
 23
0.0
 33
0.0
 40
0.0
 40
0.0
 40
0.0
 40
0.0
 40
1.0
 40
1.0
 40
1.0
 40
2.0
 40
2.0
 40
2.0
 40
3.0
 40
3.0
 40
3.0
 40
4.0
 40
4.0
 40
4.0
 40
5.0
 40
5.0
 40
5.0
 40
5.0
 10
78.50184052941968
 20
-138.3677815409289
 30
0.0
 10
78.50184052941968
 20
-138.3677815409289
 30
0.0
 10
78.05759546659671
 20
-138.3677815409289
 30
0.0
 10
78.05759546659671
 20
-138.3677815409289
 30
0.0
 10
78.05759546659671
 20
-138.3677815409289
 30
0.0
 10
78.05759546659671
 20
-138.8480278515727
 30
0.0
 10
78.05759546659671
 20
-138.8480278515727
 30
0.0
 10
78.05759546659671
 20
-138.8480278515727
 30
0.0
 10
78.49977347212854
 20
-138.8480278515727
 30
0.0
 10
78.49977347212854
 20
-138.8480278515727
 30
0.0
 10
78.59916447687799
 20
-138.8480278515727
 30
0.0
 10
78.73455672944831
 20
-138.7718912413487
 30
0.0
 10
78.73455672944831
 20
-138.6006699957318
 30
0.0
 10
78.73455672944831
 20
-138.5224663282166
 30
0.0
 10
78.70079479369286
 20
-138.3677815409289
 30
0.0
 10
78.50184052941968
 20
-138.3677815409289
 30
0.0
  0
HATCH
  5
65
330
5D
100
AcDbEntity
  8
_U+30EC_U+30A4_U+30E4_U+30FC 1
 62
   179
420
  2234388
100
AcDbHatch
 10
0.0
 20
0.0
 30
0.0
210
0.0
220
0.0
230
1.0
  2
SOLID
 70
     1
 71
     0
 91
        2
 92
        1
 93
        1
 72
     4
 94
        3
 73
     0
 74
     1
 95
       44
 96
       40
 40
0.0
 40
0.0
 40
0.0
 40
0.0
 40
1.0
 40
1.0
 40
1.0
 40
2.0
 40
2.0
 40
2.0
 40
3.0
 40
3.0
 40
3.0
 40
4.0
 40
4.0
 40
4.0
 40
5.0
 40
5.0
 40
5.0
 40
6.0
 40
6.0
 40
6.0
 40
7.0
 40
7.0
 40
7.0
 40
8.0
 40
8.0
 40
8.0
 40
9.0
 40
9.0
 40
9.0
 40
10.0
 40
10.0
 40
10.0
 40
11.0
 40
11.0
 40
11.0
 40
12.0
 40
12.0
 40
12.0
 40
13.0
 40
13.0
 40
13.0
 40
13.0
 10
78.75367700939144
 20
-139.700688984172
 10
78.73025036009174
 20
-139.6562472524123
 10
78.70923527763172
 20
-139.603537291488
 10
78.7069959655663
 20
-139.3727158939763
 10
78.70286185098401
 20
-139.1294921527176
 10
78.6436062086377
 20
-139.0595567143671
 10
78.46583928159882
 20
-139.0595567143671
 10
78.46583928159882
 20
-139.0595567143671
 10
78.05759546659671
 20
-139.0595567143671
 10
78.05759546659671
 20
-139.0595567143671
 10
78.05759546659671
 20
-139.0595567143671
 10
78.05759546659671
 20
-139.700688984172
 10
78.05759546659671
 20
-139.700688984172
 10
78.05759546659671
 20
-139.700688984172
 10
77.82281220927693
 20
-139.700688984172
 10
77.82281220927693
 20
-139.700688984172
 10
77.82281220927693
 20
-139.700688984172
 10
77.82281220927693
 20
-138.1562526781346
 10
77.82281220927693
 20
-138.1562526781346
 10
77.82281220927693
 20
-138.1562526781346
 10
78.49753416006313
 20
-138.1562526781346
 10
78.49753416006313
 20
-138.1562526781346
 10
78.80431991302461
 20
-138.1562526781346
 10
78.9715792988335
 20
-138.3278184333
 10
78.9715792988335
 20
-138.5837890278541
 10
78.9715792988335
 20
-138.6344319314872
 10
78.96296656012038
 20
-138.7171142231332
 10
78.91852482836065
 20
-138.7973849479395
 10
78.85944144078861
 20
-138.9010823220456
 10
78.7938123717946
 20
-138.9200303472144
 10
78.73248967215716
 20
-138.9369113150922
 10
78.86994898201863
 20
-138.9792859895607
 10
78.93764510830378
 20
-139.0278618359028
 10
78.94195147766035
 20
-139.3430880728031
 10
78.94608559224265
 20
-139.6138725779438
 10
78.98208684006352
 20
-139.6455674564081
 10
79.04978296634867
 20
-139.700688984172
 10
79.04978296634867
 20
-139.700688984172
 10
78.75367700939144
 20
-139.700688984172
 10
78.75367700939144
 20
-139.700688984172
 97
        0
 97
        0
 92
        1
 93
        1
 72
     4
 94
        3
 73
     0
 74
     1
 95
       20
 96
       16
 40
0.0
 40
0.0
 40
0.0
 40
0.0
 40
1.0
 40
1.0
 40
1.0
 40
2.0
 40
2.0
 40
2.0
 40
3.0
 40
3.0
 40
3.0
 40
4.0
 40
4.0
 40
4.0
 40
5.0
 40
5.0
 40
5.0
 40
5.0
 10
78.50184052941968
 20
-138.3677815409289
 10
78.50184052941968
 20
-138.3677815409289
 10
78.05759546659671
 20
-138.3677815409289
 10
78.05759546659671
 20
-138.3677815409289
 10
78.05759546659671
 20
-138.3677815409289
 10
78.05759546659671
 20
-138.8480278515727
 10
78.05759546659671
 20
-138.8480278515727
 10
78.05759546659671
 20
-138.8480278515727
 10
78.49977347212854
 20
-138.8480278515727
 10
78.49977347212854
 20
-138.8480278515727
 10
78.59916447687799
 20
-138.8480278515727
 10
78.73455672944831
 20
-138.7718912413487
 10
78.73455672944831
 20
-138.6006699957318
 10
78.73455672944831
 20
-138.5224663282166
 10
78.70079479369286
 20
-138.3677815409289
 10
78.50184052941968
 20
-138.3677815409289
 97
        0
 97
        0
 75
     2
 76
     1
 98
        0
  0
ENDBLK
  5
60
330
5D
100
AcDbEntity
  8
0
100
AcDbBlockEnd
  0
BLOCK
  5
74
330
72
100
AcDbEntity
  8
0
100
AcDbBlockBegin
  2
block 3
 70
     0
 10
0.0
 20
0.0
 30
0.0
  3
block 3
  1

  0
SPLINE
  5
76
330
72
100
AcDbEntity
  8
_U+30EC_U+30A4_U+30E4_U+30FC 1
370
     0
100
AcDbSpline
210
0.0
220
0.0
230
1.0
 70
    11
 71
     3
 72
    44
 73
    40
 74
     0
 42
0.0000000001
 43
0.0000000001
 12
1.0
 22
0.0
 32
0.0
 13
1.0
 23
0.0
 33
0.0
 40
0.0
 40
0.0
 40
0.0
 40
0.0
 40
1.0
 40
1.0
 40
1.0
 40
2.0
 40
2.0
 40
2.0
 40
3.0
 40
3.0
 40
3.0
 40
4.0
 40
4.0
 40
4.0
 40
5.0
 40
5.0
 40
5.0
 40
6.0
 40
6.0
 40
6.0
 40
7.0
 40
7.0
 40
7.0
 40
8.0
 40
8.0
 40
8.0
 40
9.0
 40
9.0
 40
9.0
 40
10.0
 40
10.0
 40
10.0
 40
11.0
 40
11.0
 40
11.0
 40
12.0
 40
12.0
 40
12.0
 40
13.0
 40
13.0
 40
13.0
 40
13.0
 10
94.96784665594554
 20
-116.6697089009541
 30
0.0
 10
94.75011662127775
 20
-116.8283555480499
 30
0.0
 10
94.657099043176
 20
-116.9024251009827
 30
0.0
 10
94.60817868728546
 20
-117.0460855827177
 30
0.0
 10
94.60817868728546
 20
-117.0460855827177
 30
0.0
 10
95.38677026695193
 20
-117.0460855827177
 30
0.0
 10
95.38677026695193
 20
-117.0460855827177
 30
0.0
 10
95.38677026695193
 20
-117.0460855827177
 30
0.0
 10
95.38677026695193
 20
-117.2514132736385
 30
0.0
 10
95.38677026695193
 20
-117.2514132736385
 30
0.0
 10
95.38677026695193
 20
-117.2514132736385
 30
0.0
 10
94.35875377415337
 20
-117.2514132736385
 30
0.0
 10
94.35875377415337
 20
-117.2514132736385
 30
0.0
 10
94.39044865261766
 20
-116.8938123622696
 30
0.0
 10
94.45590546683742
 20
-116.8156086947544
 30
0.0
 10
94.84106714208835
 20
-116.5172634257318
 30
0.0
 10
95.0970377366424
 20
-116.3184814162329
 30
0.0
 10
95.16249455086216
 20
-116.2507852899477
 30
0.0
 10
95.16249455086216
 20
-116.1133259800863
 30
0.0
 10
95.16249455086216
 20
-115.9948146953937
 30
0.0
 10
95.09049205522044
 20
-115.8637288121799
 30
0.0
 10
94.89377710301267
 20
-115.8637288121799
 30
0.0
 10
94.63367239387631
 20
-115.8637288121799
 30
0.0
 10
94.62505965516318
 20
-116.0942057001431
 30
0.0
 10
94.62092554058088
 20
-116.2106499275446
 30
0.0
 10
94.62092554058088
 20
-116.2106499275446
 30
0.0
 10
94.39664982449112
 20
-116.2106499275446
 30
0.0
 10
94.39664982449112
 20
-116.2106499275446
 30
0.0
 10
94.40526256320425
 20
-116.0836981589131
 30
0.0
 10
94.41594235920851
 20
-115.9715603008682
 30
0.0
 10
94.49621308401484
 20
-115.8530490161756
 30
0.0
 10
94.60611162999432
 20
-115.6923353117887
 30
0.0
 10
94.79249129574633
 20
-115.658401121259
 30
0.0
 10
94.90859101359925
 20
-115.658401121259
 30
0.0
 10
95.18592120016186
 20
-115.658401121259
 30
0.0
 10
95.3933159483739
 20
-115.8425414749456
 30
0.0
 10
95.3933159483739
 20
-116.1153930373774
 30
0.0
 10
95.3933159483739
 20
-116.3438028680495
 30
0.0
 10
95.27687172097245
 20
-116.4433661275732
 30
0.0
 10
94.96784665594554
 20
-116.6697089009541
 30
0.0
  0
HATCH
  5
77
330
72
100
AcDbEntity
  8
_U+30EC_U+30A4_U+30E4_U+30FC 1
 62
   179
420
  2234388
100
AcDbHatch
 10
0.0
 20
0.0
 30
0.0
210
0.0
220
0.0
230
1.0
  2
SOLID
 70
     1
 71
     0
 91
        1
 92
        1
 93
        1
 72
     4
 94
        3
 73
     0
 74
     1
 95
       44
 96
       40
 40
0.0
 40
0.0
 40
0.0
 40
0.0
 40
1.0
 40
1.0
 40
1.0
 40
2.0
 40
2.0
 40
2.0
 40
3.0
 40
3.0
 40
3.0
 40
4.0
 40
4.0
 40
4.0
 40
5.0
 40
5.0
 40
5.0
 40
6.0
 40
6.0
 40
6.0
 40
7.0
 40
7.0
 40
7.0
 40
8.0
 40
8.0
 40
8.0
 40
9.0
 40
9.0
 40
9.0
 40
10.0
 40
10.0
 40
10.0
 40
11.0
 40
11.0
 40
11.0
 40
12.0
 40
12.0
 40
12.0
 40
13.0
 40
13.0
 40
13.0
 40
13.0
 10
94.96784665594554
 20
-116.6697089009541
 10
94.75011662127775
 20
-116.8283555480499
 10
94.657099043176
 20
-116.9024251009827
 10
94.60817868728546
 20
-117.0460855827177
 10
94.60817868728546
 20
-117.0460855827177
 10
95.38677026695193
 20
-117.0460855827177
 10
95.38677026695193
 20
-117.0460855827177
 10
95.38677026695193
 20
-117.0460855827177
 10
95.38677026695193
 20
-117.2514132736385
 10
95.38677026695193
 20
-117.2514132736385
 10
95.38677026695193
 20
-117.2514132736385
 10
94.35875377415337
 20
-117.2514132736385
 10
94.35875377415337
 20
-117.2514132736385
 10
94.39044865261766
 20
-116.8938123622696
 10
94.45590546683742
 20
-116.8156086947544
 10
94.84106714208835
 20
-116.5172634257318
 10
95.0970377366424
 20
-116.3184814162329
 10
95.16249455086216
 20
-116.2507852899477
 10
95.16249455086216
 20
-116.1133259800863
 10
95.16249455086216
 20
-115.9948146953937
 10
95.09049205522044
 20
-115.8637288121799
 10
94.89377710301267
 20
-115.8637288121799
 10
94.63367239387631
 20
-115.8637288121799
 10
94.62505965516318
 20
-116.0942057001431
 10
94.62092554058088
 20
-116.2106499275446
 10
94.62092554058088
 20
-116.2106499275446
 10
94.39664982449112
 20
-116.2106499275446
 10
94.39664982449112
 20
-116.2106499275446
 10
94.40526256320425
 20
-116.0836981589131
 10
94.41594235920851
 20
-115.9715603008682
 10
94.49621308401484
 20
-115.8530490161756
 10
94.60611162999432
 20
-115.6923353117887
 10
94.79249129574633
 20
-115.658401121259
 10
94.90859101359925
 20
-115.658401121259
 10
95.18592120016186
 20
-115.658401121259
 10
95.3933159483739
 20
-115.8425414749456
 10
95.3933159483739
 20
-116.1153930373774
 10
95.3933159483739
 20
-116.3438028680495
 10
95.27687172097245
 20
-116.4433661275732
 10
94.96784665594554
 20
-116.6697089009541
 97
        0
 97
        0
 75
     2
 76
     1
 98
        0
  0
SPLINE
  5
78
330
72
100
AcDbEntity
  8
_U+30EC_U+30A4_U+30E4_U+30FC 1
370
     0
100
AcDbSpline
210
0.0
220
0.0
230
1.0
 70
    11
 71
     3
 72
    29
 73
    25
 74
     0
 42
0.0000000001
 43
0.0000000001
 12
1.0
 22
0.0
 32
0.0
 13
1.0
 23
0.0
 33
0.0
 40
0.0
 40
0.0
 40
0.0
 40
0.0
 40
1.0
 40
1.0
 40
1.0
 40
2.0
 40
2.0
 40
2.0
 40
3.0
 40
3.0
 40
3.0
 40
4.0
 40
4.0
 40
4.0
 40
5.0
 40
5.0
 40
5.0
 40
6.0
 40
6.0
 40
6.0
 40
7.0
 40
7.0
 40
7.0
 40
8.0
 40
8.0
 40
8.0
 40
8.0
 10
96.4495822241515
 20
-117.0736463465996
 30
0.0
 10
96.34140622591465
 20
-117.2831081521028
 30
0.0
 10
96.16811792300659
 20
-117.3020561772717
 30
0.0
 10
96.05167369560515
 20
-117.3020561772717
 30
0.0
 10
95.89078773644397
 20
-117.3020561772717
 30
0.0
 10
95.7491943120002
 20
-117.2555473882208
 30
0.0
 10
95.6541096766073
 20
-117.0736463465996
 30
0.0
 10
95.55041230250129
 20
-116.878998451683
 30
0.0
 10
95.53111976778389
 20
-116.6421481370721
 30
0.0
 10
95.53111976778389
 20
-116.4791951206198
 30
0.0
 10
95.53111976778389
 20
-116.3353623841106
 30
0.0
 10
95.54834524521014
 20
-116.0836981589131
 30
0.0
 10
95.6541096766073
 20
-115.8847438946399
 30
0.0
 10
95.76194116529562
 20
-115.6816555157845
 30
0.0
 10
95.9228271244568
 20
-115.658401121259
 30
0.0
 10
96.05167369560515
 20
-115.658401121259
 30
0.0
 10
96.21049259747515
 20
-115.658401121259
 30
0.0
 10
96.35415307921008
 20
-115.7028428530187
 30
0.0
 10
96.4495822241515
 20
-115.8847438946399
 30
0.0
 10
96.54880097412669
 20
-116.0773247322654
 30
0.0
 10
96.57222762342639
 20
-116.3057345629375
 30
0.0
 10
96.57222762342639
 20
-116.4791951206198
 30
0.0
 10
96.57222762342639
 20
-116.650588621011
 30
0.0
 10
96.55086803141785
 20
-116.8812377637484
 30
0.0
 10
96.4495822241515
 20
-117.0736463465996
 30
0.0
  0
SPLINE
  5
79
330
72
100
AcDbEntity
  8
_U+30EC_U+30A4_U+30E4_U+30FC 1
370
     0
100
AcDbSpline
210
0.0
220
0.0
230
1.0
 70
    11
 71
     3
 72
    17
 73
    13
 74
     0
 42
0.0000000001
 43
0.0000000001
 12
1.0
 22
0.0
 32
0.0
 13
1.0
 23
0.0
 33
0.0
 40
0.0
 40
0.0
 40
0.0
 40
0.0
 40
1.0
 40
1.0
 40
1.0
 40
2.0
 40
2.0
 40
2.0
 40
3.0
 40
3.0
 40
3.0
 40
4.0
 40
4.0
 40
4.0
 40
4.0
 10
96.05167369560515
 20
-115.8509819588845
 30
0.0
 10
95.80190427292453
 20
-115.8509819588845
 30
0.0
 10
95.75539548387366
 20
-116.1345133173205
 30
0.0
 10
95.75539548387366
 20
-116.4791951206198
 30
0.0
 10
95.75539548387366
 20
-116.7987277268767
 30
0.0
 10
95.79156898646877
 20
-117.1074082823551
 30
0.0
 10
96.05167369560515
 20
-117.1074082823551
 30
0.0
 10
96.2993760609946
 20
-117.1074082823551
 30
0.0
 10
96.34795190733662
 20
-116.8261162359844
 30
0.0
 10
96.34795190733662
 20
-116.4791951206198
 30
0.0
 10
96.34795190733662
 20
-116.1598347691371
 30
0.0
 10
96.30971134745036
 20
-115.8509819588845
 30
0.0
 10
96.05167369560515
 20
-115.8509819588845
 30
0.0
  0
HATCH
  5
7A
330
72
100
AcDbEntity
  8
_U+30EC_U+30A4_U+30E4_U+30FC 1
 62
   179
420
  2234388
100
AcDbHatch
 10
0.0
 20
0.0
 30
0.0
210
0.0
220
0.0
230
1.0
  2
SOLID
 70
     1
 71
     0
 91
        2
 92
        1
 93
        1
 72
     4
 94
        3
 73
     0
 74
     1
 95
       29
 96
       25
 40
0.0
 40
0.0
 40
0.0
 40
0.0
 40
1.0
 40
1.0
 40
1.0
 40
2.0
 40
2.0
 40
2.0
 40
3.0
 40
3.0
 40
3.0
 40
4.0
 40
4.0
 40
4.0
 40
5.0
 40
5.0
 40
5.0
 40
6.0
 40
6.0
 40
6.0
 40
7.0
 40
7.0
 40
7.0
 40
8.0
 40
8.0
 40
8.0
 40
8.0
 10
96.4495822241515
 20
-117.0736463465996
 10
96.34140622591465
 20
-117.2831081521028
 10
96.16811792300659
 20
-117.3020561772717
 10
96.05167369560515
 20
-117.3020561772717
 10
95.89078773644397
 20
-117.3020561772717
 10
95.7491943120002
 20
-117.2555473882208
 10
95.6541096766073
 20
-117.0736463465996
 10
95.55041230250129
 20
-116.878998451683
 10
95.53111976778389
 20
-116.6421481370721
 10
95.53111976778389
 20
-116.4791951206198
 10
95.53111976778389
 20
-116.3353623841106
 10
95.54834524521014
 20
-116.0836981589131
 10
95.6541096766073
 20
-115.8847438946399
 10
95.76194116529562
 20
-115.6816555157845
 10
95.9228271244568
 20
-115.658401121259
 10
96.05167369560515
 20
-115.658401121259
 10
96.21049259747515
 20
-115.658401121259
 10
96.35415307921008
 20
-115.7028428530187
 10
96.4495822241515
 20
-115.8847438946399
 10
96.54880097412669
 20
-116.0773247322654
 10
96.57222762342639
 20
-116.3057345629375
 10
96.57222762342639
 20
-116.4791951206198
 10
96.57222762342639
 20
-116.650588621011
 10
96.55086803141785
 20
-116.8812377637484
 10
96.4495822241515
 20
-117.0736463465996
 97
        0
 97
        0
 92
        1
 93
        1
 72
     4
 94
        3
 73
     0
 74
     1
 95
       17
 96
       13
 40
0.0
 40
0.0
 40
0.0
 40
0.0
 40
1.0
 40
1.0
 40
1.0
 40
2.0
 40
2.0
 40
2.0
 40
3.0
 40
3.0
 40
3.0
 40
4.0
 40
4.0
 40
4.0
 40
4.0
 10
96.05167369560515
 20
-115.8509819588845
 10
95.80190427292453
 20
-115.8509819588845
 10
95.75539548387366
 20
-116.1345133173205
 10
95.75539548387366
 20
-116.4791951206198
 10
95.75539548387366
 20
-116.7987277268767
 10
95.79156898646877
 20
-117.1074082823551
 10
96.05167369560515
 20
-117.1074082823551
 10
96.2993760609946
 20
-117.1074082823551
 10
96.34795190733662
 20
-116.8261162359844
 10
96.34795190733662
 20
-116.4791951206198
 10
96.34795190733662
 20
-116.1598347691371
 10
96.30971134745036
 20
-115.8509819588845
 10
96.05167369560515
 20
-115.8509819588845
 97
        0
 97
        0
 75
     2
 76
     1
 98
        0
  0
ENDBLK
  5
75
330
72
100
AcDbEntity
  8
0
100
AcDbBlockEnd
  0
BLOCK
  5
85
330
83
100
AcDbEntity
  8
0
100
AcDbBlockBegin
  2
block 4
 70
     0
 10
0.0
 20
0.0
 30
0.0
  3
block 4
  1

  0
SPLINE
  5
87
330
83
100
AcDbEntity
  8
_U+30EC_U+30A4_U+30E4_U+30FC 1
370
     0
100
AcDbSpline
210
0.0
220
0.0
230
1.0
 70
    11
 71
     3
 72
    26
 73
    22
 74
     0
 42
0.0000000001
 43
0.0000000001
 12
1.0
 22
0.0
 32
0.0
 13
1.0
 23
0.0
 33
0.0
 40
0.0
 40
0.0
 40
0.0
 40
0.0
 40
1.0
 40
1.0
 40
1.0
 40
2.0
 40
2.0
 40
2.0
 40
3.0
 40
3.0
 40
3.0
 40
4.0
 40
4.0
 40
4.0
 40
5.0
 40
5.0
 40
5.0
 40
6.0
 40
6.0
 40
6.0
 40
7.0
 40
7.0
 40
7.0
 40
7.0
 10
86.73027884116466
 20
-123.7509304161109
 30
0.0
 10
86.73027884116466
 20
-123.7509304161109
 30
0.0
 10
86.73027884116466
 20
-122.6466050583141
 30
0.0
 10
86.73027884116466
 20
-122.6466050583141
 30
0.0
 10
86.73027884116466
 20
-122.6466050583141
 30
0.0
 10
86.40023869367772
 20
-122.6466050583141
 30
0.0
 10
86.40023869367772
 20
-122.6466050583141
 30
0.0
 10
86.40023869367772
 20
-122.6466050583141
 30
0.0
 10
86.40023869367772
 20
-122.4986382072226
 30
0.0
 10
86.40023869367772
 20
-122.4986382072226
 30
0.0
 10
86.7323458984558
 20
-122.483824296636
 30
0.0
 10
86.77885468750668
 20
-122.3208712801837
 30
0.0
 10
86.80848250867983
 20
-122.2066663648476
 30
0.0
 10
86.80848250867983
 20
-122.2066663648476
 30
0.0
 10
86.95455455725443
 20
-122.2066663648476
 30
0.0
 10
86.95455455725443
 20
-122.2066663648476
 30
0.0
 10
86.95455455725443
 20
-122.2066663648476
 30
0.0
 10
86.95455455725443
 20
-123.7509304161109
 30
0.0
 10
86.95455455725443
 20
-123.7509304161109
 30
0.0
 10
86.95455455725443
 20
-123.7509304161109
 30
0.0
 10
86.73027884116466
 20
-123.7509304161109
 30
0.0
 10
86.73027884116466
 20
-123.7509304161109
 30
0.0
  0
HATCH
  5
88
330
83
100
AcDbEntity
  8
_U+30EC_U+30A4_U+30E4_U+30FC 1
 62
   179
420
  2234388
100
AcDbHatch
 10
0.0
 20
0.0
 30
0.0
210
0.0
220
0.0
230
1.0
  2
SOLID
 70
     1
 71
     0
 91
        1
 92
        1
 93
        1
 72
     4
 94
        3
 73
     0
 74
     1
 95
       26
 96
       22
 40
0.0
 40
0.0
 40
0.0
 40
0.0
 40
1.0
 40
1.0
 40
1.0
 40
2.0
 40
2.0
 40
2.0
 40
3.0
 40
3.0
 40
3.0
 40
4.0
 40
4.0
 40
4.0
 40
5.0
 40
5.0
 40
5.0
 40
6.0
 40
6.0
 40
6.0
 40
7.0
 40
7.0
 40
7.0
 40
7.0
 10
86.73027884116466
 20
-123.7509304161109
 10
86.73027884116466
 20
-123.7509304161109
 10
86.73027884116466
 20
-122.6466050583141
 10
86.73027884116466
 20
-122.6466050583141
 10
86.73027884116466
 20
-122.6466050583141
 10
86.40023869367772
 20
-122.6466050583141
 10
86.40023869367772
 20
-122.6466050583141
 10
86.40023869367772
 20
-122.6466050583141
 10
86.40023869367772
 20
-122.4986382072226
 10
86.40023869367772
 20
-122.4986382072226
 10
86.7323458984558
 20
-122.483824296636
 10
86.77885468750668
 20
-122.3208712801837
 10
86.80848250867983
 20
-122.2066663648476
 10
86.80848250867983
 20
-122.2066663648476
 10
86.95455455725443
 20
-122.2066663648476
 10
86.95455455725443
 20
-122.2066663648476
 10
86.95455455725443
 20
-122.2066663648476
 10
86.95455455725443
 20
-123.7509304161109
 10
86.95455455725443
 20
-123.7509304161109
 10
86.95455455725443
 20
-123.7509304161109
 10
86.73027884116466
 20
-123.7509304161109
 10
86.73027884116466
 20
-123.7509304161109
 97
        0
 97
        0
 75
     2
 76
     1
 98
        0
  0
ENDBLK
  5
86
330
83
100
AcDbEntity
  8
0
100
AcDbBlockEnd
  0
BLOCK
  5
97
330
95
100
AcDbEntity
  8
0
100
AcDbBlockBegin
  2
block 5
 70
     0
 10
0.0
 20
0.0
 30
0.0
  3
block 5
  1

  0
SPLINE
  5
99
330
95
100
AcDbEntity
  8
_U+30EC_U+30A4_U+30E4_U+30FC 1
370
     0
100
AcDbSpline
210
0.0
220
0.0
230
1.0
 70
    11
 71
     3
 72
    26
 73
    22
 74
     0
 42
0.0000000001
 43
0.0000000001
 12
1.0
 22
0.0
 32
0.0
 13
1.0
 23
0.0
 33
0.0
 40
0.0
 40
0.0
 40
0.0
 40
0.0
 40
1.0
 40
1.0
 40
1.0
 40
2.0
 40
2.0
 40
2.0
 40
3.0
 40
3.0
 40
3.0
 40
4.0
 40
4.0
 40
4.0
 40
5.0
 40
5.0
 40
5.0
 40
6.0
 40
6.0
 40
6.0
 40
7.0
 40
7.0
 40
7.0
 40
7.0
 10
91.3262084732622
 20
-140.2508707331665
 30
0.0
 10
91.3262084732622
 20
-140.2508707331665
 30
0.0
 10
91.3262084732622
 20
-139.1467176301439
 30
0.0
 10
91.3262084732622
 20
-139.1467176301439
 30
0.0
 10
91.3262084732622
 20
-139.1467176301439
 30
0.0
 10
90.99616832577527
 20
-139.1467176301439
 30
0.0
 10
90.99616832577527
 20
-139.1467176301439
 30
0.0
 10
90.99616832577527
 20
-139.1467176301439
 30
0.0
 10
90.99616832577527
 20
-138.9985785242781
 30
0.0
 10
90.99616832577527
 20
-138.9985785242781
 30
0.0
 10
91.32827553055336
 20
-138.9837646136916
 30
0.0
 10
91.37461206482996
 20
-138.8208115972392
 30
0.0
 10
91.40423988600311
 20
-138.706434427129
 30
0.0
 10
91.40423988600311
 20
-138.706434427129
 30
0.0
 10
91.5503119345777
 20
-138.706434427129
 30
0.0
 10
91.5503119345777
 20
-138.706434427129
 30
0.0
 10
91.5503119345777
 20
-138.706434427129
 30
0.0
 10
91.5503119345777
 20
-140.2508707331665
 30
0.0
 10
91.5503119345777
 20
-140.2508707331665
 30
0.0
 10
91.5503119345777
 20
-140.2508707331665
 30
0.0
 10
91.3262084732622
 20
-140.2508707331665
 30
0.0
 10
91.3262084732622
 20
-140.2508707331665
 30
0.0
  0
HATCH
  5
9A
330
95
100
AcDbEntity
  8
_U+30EC_U+30A4_U+30E4_U+30FC 1
 62
   179
420
  2234388
100
AcDbHatch
 10
0.0
 20
0.0
 30
0.0
210
0.0
220
0.0
230
1.0
  2
SOLID
 70
     1
 71
     0
 91
        1
 92
        1
 93
        1
 72
     4
 94
        3
 73
     0
 74
     1
 95
       26
 96
       22
 40
0.0
 40
0.0
 40
0.0
 40
0.0
 40
1.0
 40
1.0
 40
1.0
 40
2.0
 40
2.0
 40
2.0
 40
3.0
 40
3.0
 40
3.0
 40
4.0
 40
4.0
 40
4.0
 40
5.0
 40
5.0
 40
5.0
 40
6.0
 40
6.0
 40
6.0
 40
7.0
 40
7.0
 40
7.0
 40
7.0
 10
91.3262084732622
 20
-140.2508707331665
 10
91.3262084732622
 20
-140.2508707331665
 10
91.3262084732622
 20
-139.1467176301439
 10
91.3262084732622
 20
-139.1467176301439
 10
91.3262084732622
 20
-139.1467176301439
 10
90.99616832577527
 20
-139.1467176301439
 10
90.99616832577527
 20
-139.1467176301439
 10
90.99616832577527
 20
-139.1467176301439
 10
90.99616832577527
 20
-138.9985785242781
 10
90.99616832577527
 20
-138.9985785242781
 10
91.32827553055336
 20
-138.9837646136916
 10
91.37461206482996
 20
-138.8208115972392
 10
91.40423988600311
 20
-138.706434427129
 10
91.40423988600311
 20
-138.706434427129
 10
91.5503119345777
 20
-138.706434427129
 10
91.5503119345777
 20
-138.706434427129
 10
91.5503119345777
 20
-138.706434427129
 10
91.5503119345777
 20
-140.2508707331665
 10
91.5503119345777
 20
-140.2508707331665
 10
91.5503119345777
 20
-140.2508707331665
 10
91.3262084732622
 20
-140.2508707331665
 10
91.3262084732622
 20
-140.2508707331665
 97
        0
 97
        0
 75
     2
 76
     1
 98
        0
  0
SPLINE
  5
9B
330
95
100
AcDbEntity
  8
_U+30EC_U+30A4_U+30E4_U+30FC 1
370
     0
100
AcDbSpline
210
0.0
220
0.0
230
1.0
 70
    11
 71
     3
 72
    53
 73
    49
 74
     0
 42
0.0000000001
 43
0.0000000001
 12
1.0
 22
0.0
 32
0.0
 13
1.0
 23
0.0
 33
0.0
 40
0.0
 40
0.0
 40
0.0
 40
0.0
 40
1.0
 40
1.0
 40
1.0
 40
2.0
 40
2.0
 40
2.0
 40
3.0
 40
3.0
 40
3.0
 40
4.0
 40
4.0
 40
4.0
 40
5.0
 40
5.0
 40
5.0
 40
6.0
 40
6.0
 40
6.0
 40
7.0
 40
7.0
 40
7.0
 40
8.0
 40
8.0
 40
8.0
 40
9.0
 40
9.0
 40
9.0
 40
10.0
 40
10.0
 40
10.0
 40
11.0
 40
11.0
 40
11.0
 40
12.0
 40
12.0
 40
12.0
 40
13.0
 40
13.0
 40
13.0
 40
14.0
 40
14.0
 40
14.0
 40
15.0
 40
15.0
 40
15.0
 40
16.0
 40
16.0
 40
16.0
 40
16.0
 10
92.53250865742243
 20
-140.3015136367996
 30
0.0
 10
92.45430498990726
 20
-140.3015136367996
 30
0.0
 10
92.3526746730924
 20
-140.2846326689219
 30
0.0
 10
92.25104435627752
 20
-140.2212429119933
 30
0.0
 10
92.07775605336946
 20
-140.1113443660138
 30
0.0
 10
92.0563964613609
 20
-139.9800862280258
 30
0.0
 10
92.03744843619204
 20
-139.8722547393375
 30
0.0
 10
92.03744843619204
 20
-139.8722547393375
 30
0.0
 10
92.25965709499064
 20
-139.8722547393375
 30
0.0
 10
92.25965709499064
 20
-139.8722547393375
 30
0.0
 10
92.31443411320612
 20
-140.0710367488364
 30
0.0
 10
92.44155813661183
 20
-140.1006645700096
 30
0.0
 10
92.53457571471358
 20
-140.1006645700096
 30
0.0
 10
92.6741020818662
 20
-140.1006645700096
 30
0.0
 10
92.82637530231425
 20
-140.0011013104858
 30
0.0
 10
92.82637530231425
 20
-139.7685573652315
 30
0.0
 10
92.82637530231425
 20
-139.5125867706774
 30
0.0
 10
92.6465413179842
 20
-139.4426513323268
 30
0.0
 10
92.52596297600046
 20
-139.4426513323268
 30
0.0
 10
92.49426809753616
 20
-139.4426513323268
 30
0.0
 10
92.3526746730924
 20
-139.4426513323268
 30
0.0
 10
92.26379120957294
 20
-139.5718424130237
 30
0.0
 10
92.26379120957294
 20
-139.5718424130237
 30
0.0
 10
92.0880913398252
 20
-139.5528943878548
 30
0.0
 10
92.0880913398252
 20
-139.5528943878548
 30
0.0
 10
92.0880913398252
 20
-139.5528943878548
 30
0.0
 10
92.20866968180894
 20
-138.706434427129
 30
0.0
 10
92.20866968180894
 20
-138.706434427129
 30
0.0
 10
92.20866968180894
 20
-138.706434427129
 30
0.0
 10
92.98726126147541
 20
-138.706434427129
 30
0.0
 10
92.98726126147541
 20
-138.706434427129
 30
0.0
 10
92.98726126147541
 20
-138.706434427129
 30
0.0
 10
92.98726126147541
 20
-138.9010823220456
 30
0.0
 10
92.98726126147541
 20
-138.9010823220456
 30
0.0
 10
92.98726126147541
 20
-138.9010823220456
 30
0.0
 10
92.37162269826126
 20
-138.9010823220456
 30
0.0
 10
92.37162269826126
 20
-138.9010823220456
 30
0.0
 10
92.37162269826126
 20
-138.9010823220456
 30
0.0
 10
92.30616588404152
 20
-139.3241400476342
 30
0.0
 10
92.30616588404152
 20
-139.3241400476342
 30
0.0
 10
92.36748858367896
 20
-139.2903781118788
 30
0.0
 10
92.44982636577643
 20
-139.2500704947014
 30
0.0
 10
92.56833765046903
 20
-139.2500704947014
 30
0.0
 10
92.82224118773195
 20
-139.2500704947014
 30
0.0
 10
93.05926375711714
 20
-139.4364501604534
 30
0.0
 10
93.05926375711714
 20
-139.7496093400626
 30
0.0
 10
93.05926375711714
 20
-140.0669026342541
 30
0.0
 10
92.83498804102737
 20
-140.3015136367996
 30
0.0
 10
92.53250865742243
 20
-140.3015136367996
 30
0.0
  0
HATCH
  5
9C
330
95
100
AcDbEntity
  8
_U+30EC_U+30A4_U+30E4_U+30FC 1
 62
   179
420
  2234388
100
AcDbHatch
 10
0.0
 20
0.0
 30
0.0
210
0.0
220
0.0
230
1.0
  2
SOLID
 70
     1
 71
     0
 91
        1
 92
        1
 93
        1
 72
     4
 94
        3
 73
     0
 74
     1
 95
       53
 96
       49
 40
0.0
 40
0.0
 40
0.0
 40
0.0
 40
1.0
 40
1.0
 40
1.0
 40
2.0
 40
2.0
 40
2.0
 40
3.0
 40
3.0
 40
3.0
 40
4.0
 40
4.0
 40
4.0
 40
5.0
 40
5.0
 40
5.0
 40
6.0
 40
6.0
 40
6.0
 40
7.0
 40
7.0
 40
7.0
 40
8.0
 40
8.0
 40
8.0
 40
9.0
 40
9.0
 40
9.0
 40
10.0
 40
10.0
 40
10.0
 40
11.0
 40
11.0
 40
11.0
 40
12.0
 40
12.0
 40
12.0
 40
13.0
 40
13.0
 40
13.0
 40
14.0
 40
14.0
 40
14.0
 40
15.0
 40
15.0
 40
15.0
 40
16.0
 40
16.0
 40
16.0
 40
16.0
 10
92.53250865742243
 20
-140.3015136367996
 10
92.45430498990726
 20
-140.3015136367996
 10
92.3526746730924
 20
-140.2846326689219
 10
92.25104435627752
 20
-140.2212429119933
 10
92.07775605336946
 20
-140.1113443660138
 10
92.0563964613609
 20
-139.9800862280258
 10
92.03744843619204
 20
-139.8722547393375
 10
92.03744843619204
 20
-139.8722547393375
 10
92.25965709499064
 20
-139.8722547393375
 10
92.25965709499064
 20
-139.8722547393375
 10
92.31443411320612
 20
-140.0710367488364
 10
92.44155813661183
 20
-140.1006645700096
 10
92.53457571471358
 20
-140.1006645700096
 10
92.6741020818662
 20
-140.1006645700096
 10
92.82637530231425
 20
-140.0011013104858
 10
92.82637530231425
 20
-139.7685573652315
 10
92.82637530231425
 20
-139.5125867706774
 10
92.6465413179842
 20
-139.4426513323268
 10
92.52596297600046
 20
-139.4426513323268
 10
92.49426809753616
 20
-139.4426513323268
 10
92.3526746730924
 20
-139.4426513323268
 10
92.26379120957294
 20
-139.5718424130237
 10
92.26379120957294
 20
-139.5718424130237
 10
92.0880913398252
 20
-139.5528943878548
 10
92.0880913398252
 20
-139.5528943878548
 10
92.0880913398252
 20
-139.5528943878548
 10
92.20866968180894
 20
-138.706434427129
 10
92.20866968180894
 20
-138.706434427129
 10
92.20866968180894
 20
-138.706434427129
 10
92.98726126147541
 20
-138.706434427129
 10
92.98726126147541
 20
-138.706434427129
 10
92.98726126147541
 20
-138.706434427129
 10
92.98726126147541
 20
-138.9010823220456
 10
92.98726126147541
 20
-138.9010823220456
 10
92.98726126147541
 20
-138.9010823220456
 10
92.37162269826126
 20
-138.9010823220456
 10
92.37162269826126
 20
-138.9010823220456
 10
92.37162269826126
 20
-138.9010823220456
 10
92.30616588404152
 20
-139.3241400476342
 10
92.30616588404152
 20
-139.3241400476342
 10
92.36748858367896
 20
-139.2903781118788
 10
92.44982636577643
 20
-139.2500704947014
 10
92.56833765046903
 20
-139.2500704947014
 10
92.82224118773195
 20
-139.2500704947014
 10
93.05926375711714
 20
-139.4364501604534
 10
93.05926375711714
 20
-139.7496093400626
 10
93.05926375711714
 20
-140.0669026342541
 10
92.83498804102737
 20
-140.3015136367996
 10
92.53250865742243
 20
-140.3015136367996
 97
        0
 97
        0
 75
     2
 76
     1
 98
        0
  0
ENDBLK
  5
98
330
95
100
AcDbEntity
  8
0
100
AcDbBlockEnd
  0
BLOCK
  5
AB
330
A9
100
AcDbEntity
  8
0
100
AcDbBlockBegin
  2
block 6
 70
     0
 10
0.0
 20
0.0
 30
0.0
  3
block 6
  1

  0
SPLINE
  5
AD
330
A9
100
AcDbEntity
  8
_U+30EC_U+30A4_U+30E4_U+30FC 1
370
     0
100
AcDbSpline
210
0.0
220
0.0
230
1.0
 70
    11
 71
     3
 72
    29
 73
    25
 74
     0
 42
0.0000000001
 43
0.0000000001
 12
1.0
 22
0.0
 32
0.0
 13
1.0
 23
0.0
 33
0.0
 40
0.0
 40
0.0
 40
0.0
 40
0.0
 40
1.0
 40
1.0
 40
1.0
 40
2.0
 40
2.0
 40
2.0
 40
3.0
 40
3.0
 40
3.0
 40
4.0
 40
4.0
 40
4.0
 40
5.0
 40
5.0
 40
5.0
 40
6.0
 40
6.0
 40
6.0
 40
7.0
 40
7.0
 40
7.0
 40
8.0
 40
8.0
 40
8.0
 40
8.0
 10
102.9987087416114
 20
-133.0940293721085
 30
0.0
 10
102.9987087416114
 20
-133.3606797626668
 30
0.0
 10
102.86124943175
 20
-133.6145832999297
 30
0.0
 10
102.5122612590942
 20
-133.6145832999297
 30
0.0
 10
102.2562906645401
 20
-133.6145832999297
 30
0.0
 10
102.1612060291472
 20
-133.4726453659374
 30
0.0
 10
102.0998833295098
 20
-133.3668809345402
 30
0.0
 10
102.0406276871635
 20
-133.4915933911063
 30
0.0
 10
101.9262505170532
 20
-133.5677300013303
 30
0.0
 10
101.765364557892
 20
-133.5677300013303
 30
0.0
 10
101.4904459381691
 20
-133.5677300013303
 30
0.0
 10
101.3550536855987
 20
-133.3689479918314
 30
0.0
 10
101.3550536855987
 20
-133.0940293721085
 30
0.0
 10
101.3550536855987
 20
-132.8104980136724
 30
0.0
 10
101.4990586768822
 20
-132.6199842333381
 30
0.0
 10
101.765364557892
 20
-132.6199842333381
 30
0.0
 10
101.9262505170532
 20
-132.6199842333381
 30
0.0
 10
102.0406276871635
 20
-132.6985324104018
 30
0.0
 10
102.0998833295098
 20
-132.8232448669678
 30
0.0
 10
102.1505262331429
 20
-132.7343614034484
 30
0.0
 10
102.2456108685358
 20
-132.5755425015784
 30
0.0
 10
102.5081271445119
 20
-132.5755425015784
 30
0.0
 10
102.8826090237585
 20
-132.5755425015784
 30
0.0
 10
102.9987087416114
 20
-132.8549397454321
 30
0.0
 10
102.9987087416114
 20
-133.0940293721085
 30
0.0
  0
SPLINE
  5
AE
330
A9
100
AcDbEntity
  8
_U+30EC_U+30A4_U+30E4_U+30FC 1
370
     0
100
AcDbSpline
210
0.0
220
0.0
230
1.0
 70
    11
 71
     3
 72
    17
 73
    13
 74
     0
 42
0.0000000001
 43
0.0000000001
 12
1.0
 22
0.0
 32
0.0
 13
1.0
 23
0.0
 33
0.0
 40
0.0
 40
0.0
 40
0.0
 40
0.0
 40
1.0
 40
1.0
 40
1.0
 40
2.0
 40
2.0
 40
2.0
 40
3.0
 40
3.0
 40
3.0
 40
4.0
 40
4.0
 40
4.0
 40
4.0
 10
101.5476345232242
 20
-133.0940293721085
 30
0.0
 10
101.5476345232242
 20
-133.2590494458519
 30
0.0
 10
101.6427191586171
 20
-133.3437987947891
 30
0.0
 10
101.7781114111874
 20
-133.3437987947891
 30
0.0
 10
101.9007568104623
 20
-133.3437987947891
 30
0.0
 10
102.0192680951549
 20
-133.2717962991473
 30
0.0
 10
102.0192680951549
 20
-133.0940293721085
 30
0.0
 10
102.0192680951549
 20
-132.9162624450695
 30
0.0
 10
101.9007568104623
 20
-132.8442599494278
 30
0.0
 10
101.7781114111874
 20
-132.8442599494278
 30
0.0
 10
101.6427191586171
 20
-132.8442599494278
 30
0.0
 10
101.5476345232242
 20
-132.9310763556561
 30
0.0
 10
101.5476345232242
 20
-133.0940293721085
 30
0.0
  0
SPLINE
  5
AF
330
A9
100
AcDbEntity
  8
_U+30EC_U+30A4_U+30E4_U+30FC 1
370
     0
100
AcDbSpline
210
0.0
220
0.0
230
1.0
 70
    11
 71
     3
 72
    17
 73
    13
 74
     0
 42
0.0000000001
 43
0.0000000001
 12
1.0
 22
0.0
 32
0.0
 13
1.0
 23
0.0
 33
0.0
 40
0.0
 40
0.0
 40
0.0
 40
0.0
 40
1.0
 40
1.0
 40
1.0
 40
2.0
 40
2.0
 40
2.0
 40
3.0
 40
3.0
 40
3.0
 40
4.0
 40
4.0
 40
4.0
 40
4.0
 10
102.2077148181981
 20
-133.0940293721085
 30
0.0
 10
102.2077148181981
 20
-133.2376898538434
 30
0.0
 10
102.2945312244264
 20
-133.3903075838399
 30
0.0
 10
102.4974473485076
 20
-133.3903075838399
 30
0.0
 10
102.7027750394285
 20
-133.3903075838399
 30
0.0
 10
102.8040608466948
 20
-133.2631835604342
 30
0.0
 10
102.8040608466948
 20
-133.0940293721085
 30
0.0
 10
102.8040608466948
 20
-132.9079942159049
 30
0.0
 10
102.6814154474199
 20
-132.7977511603769
 30
0.0
 10
102.503648520381
 20
-132.7977511603769
 30
0.0
 10
102.281784371131
 20
-132.7977511603769
 30
0.0
 10
102.2077148181981
 20
-132.9607041768293
 30
0.0
 10
102.2077148181981
 20
-133.0940293721085
 30
0.0
  0
HATCH
  5
B0
330
A9
100
AcDbEntity
  8
_U+30EC_U+30A4_U+30E4_U+30FC 1
 62
   179
420
  2234388
100
AcDbHatch
 10
0.0
 20
0.0
 30
0.0
210
0.0
220
0.0
230
1.0
  2
SOLID
 70
     1
 71
     0
 91
        3
 92
        1
 93
        1
 72
     4
 94
        3
 73
     0
 74
     1
 95
       29
 96
       25
 40
0.0
 40
0.0
 40
0.0
 40
0.0
 40
1.0
 40
1.0
 40
1.0
 40
2.0
 40
2.0
 40
2.0
 40
3.0
 40
3.0
 40
3.0
 40
4.0
 40
4.0
 40
4.0
 40
5.0
 40
5.0
 40
5.0
 40
6.0
 40
6.0
 40
6.0
 40
7.0
 40
7.0
 40
7.0
 40
8.0
 40
8.0
 40
8.0
 40
8.0
 10
102.9987087416114
 20
-133.0940293721085
 10
102.9987087416114
 20
-133.3606797626668
 10
102.86124943175
 20
-133.6145832999297
 10
102.5122612590942
 20
-133.6145832999297
 10
102.2562906645401
 20
-133.6145832999297
 10
102.1612060291472
 20
-133.4726453659374
 10
102.0998833295098
 20
-133.3668809345402
 10
102.0406276871635
 20
-133.4915933911063
 10
101.9262505170532
 20
-133.5677300013303
 10
101.765364557892
 20
-133.5677300013303
 10
101.4904459381691
 20
-133.5677300013303
 10
101.3550536855987
 20
-133.3689479918314
 10
101.3550536855987
 20
-133.0940293721085
 10
101.3550536855987
 20
-132.8104980136724
 10
101.4990586768822
 20
-132.6199842333381
 10
101.765364557892
 20
-132.6199842333381
 10
101.9262505170532
 20
-132.6199842333381
 10
102.0406276871635
 20
-132.6985324104018
 10
102.0998833295098
 20
-132.8232448669678
 10
102.1505262331429
 20
-132.7343614034484
 10
102.2456108685358
 20
-132.5755425015784
 10
102.5081271445119
 20
-132.5755425015784
 10
102.8826090237585
 20
-132.5755425015784
 10
102.9987087416114
 20
-132.8549397454321
 10
102.9987087416114
 20
-133.0940293721085
 97
        0
 97
        0
 92
        1
 93
        1
 72
     4
 94
        3
 73
     0
 74
     1
 95
       17
 96
       13
 40
0.0
 40
0.0
 40
0.0
 40
0.0
 40
1.0
 40
1.0
 40
1.0
 40
2.0
 40
2.0
 40
2.0
 40
3.0
 40
3.0
 40
3.0
 40
4.0
 40
4.0
 40
4.0
 40
4.0
 10
101.5476345232242
 20
-133.0940293721085
 10
101.5476345232242
 20
-133.2590494458519
 10
101.6427191586171
 20
-133.3437987947891
 10
101.7781114111874
 20
-133.3437987947891
 10
101.9007568104623
 20
-133.3437987947891
 10
102.0192680951549
 20
-133.2717962991473
 10
102.0192680951549
 20
-133.0940293721085
 10
102.0192680951549
 20
-132.9162624450695
 10
101.9007568104623
 20
-132.8442599494278
 10
101.7781114111874
 20
-132.8442599494278
 10
101.6427191586171
 20
-132.8442599494278
 10
101.5476345232242
 20
-132.9310763556561
 10
101.5476345232242
 20
-133.0940293721085
 97
        0
 97
        0
 92
        1
 93
        1
 72
     4
 94
        3
 73
     0
 74
     1
 95
       17
 96
       13
 40
0.0
 40
0.0
 40
0.0
 40
0.0
 40
1.0
 40
1.0
 40
1.0
 40
2.0
 40
2.0
 40
2.0
 40
3.0
 40
3.0
 40
3.0
 40
4.0
 40
4.0
 40
4.0
 40
4.0
 10
102.2077148181981
 20
-133.0940293721085
 10
102.2077148181981
 20
-133.2376898538434
 10
102.2945312244264
 20
-133.3903075838399
 10
102.4974473485076
 20
-133.3903075838399
 10
102.7027750394285
 20
-133.3903075838399
 10
102.8040608466948
 20
-133.2631835604342
 10
102.8040608466948
 20
-133.0940293721085
 10
102.8040608466948
 20
-132.9079942159049
 10
102.6814154474199
 20
-132.7977511603769
 10
102.503648520381
 20
-132.7977511603769
 10
102.281784371131
 20
-132.7977511603769
 10
102.2077148181981
 20
-132.9607041768293
 10
102.2077148181981
 20
-133.0940293721085
 97
        0
 97
        0
 75
     2
 76
     1
 98
        0
  0
POLYLINE
  5
B1
330
A9
100
AcDbEntity
  8
_U+30EC_U+30A4_U+30E4_U+30FC 1
370
     0
100
AcDb2dPolyline
 66
     1
 10
0.0
 20
0.0
 30
0.0
  0
VERTEX
  5
B2
330
B1
100
AcDbEntity
  8
_U+30EC_U+30A4_U+30E4_U+30FC 1
370
     0
100
AcDbVertex
100
AcDb2dVertex
 10
102.9480658379783
 20
-132.3571234478135
 30
0.0
  0
VERTEX
  5
B3
330
B1
100
AcDbEntity
  8
_U+30EC_U+30A4_U+30E4_U+30FC 1
370
     0
100
AcDbVertex
100
AcDb2dVertex
 10
102.6962293580065
 20
-132.3571234478135
 30
0.0
  0
VERTEX
  5
B4
330
B1
100
AcDbEntity
  8
_U+30EC_U+30A4_U+30E4_U+30FC 1
370
     0
100
AcDbVertex
100
AcDb2dVertex
 10
102.6962293580065
 20
-132.1052869678417
 30
0.0
  0
VERTEX
  5
B5
330
B1
100
AcDbEntity
  8
_U+30EC_U+30A4_U+30E4_U+30FC 1
370
     0
100
AcDbVertex
100
AcDb2dVertex
 10
102.9480658379783
 20
-132.1052869678417
 30
0.0
  0
VERTEX
  5
B6
330
B1
100
AcDbEntity
  8
_U+30EC_U+30A4_U+30E4_U+30FC 1
370
     0
100
AcDbVertex
100
AcDb2dVertex
 10
102.9480658379783
 20
-132.3571234478135
 30
0.0
  0
SEQEND
  5
B7
330
B1
100
AcDbEntity
  8
_U+30EC_U+30A4_U+30E4_U+30FC 1
370
     0
  0
HATCH
  5
B8
330
A9
100
AcDbEntity
  8
_U+30EC_U+30A4_U+30E4_U+30FC 1
 62
   179
420
  2234388
100
AcDbHatch
 10
0.0
 20
0.0
 30
0.0
210
0.0
220
0.0
230
1.0
  2
SOLID
 70
     1
 71
     0
 91
        1
 92
        1
 93
        4
 72
     1
 10
102.9480658379783
 20
-132.3571234478135
 11
102.6962293580065
 21
-132.3571234478135
 72
     1
 10
102.6962293580065
 20
-132.3571234478135
 11
102.6962293580065
 21
-132.1052869678417
 72
     1
 10
102.6962293580065
 20
-132.1052869678417
 11
102.9480658379783
 21
-132.1052869678417
 72
     1
 10
102.9480658379783
 20
-132.1052869678417
 11
102.9480658379783
 21
-132.3571234478135
 97
        0
 75
     2
 76
     1
 98
        0
  0
SPLINE
  5
B9
330
A9
100
AcDbEntity
  8
_U+30EC_U+30A4_U+30E4_U+30FC 1
370
     0
100
AcDbSpline
210
0.0
220
0.0
230
1.0
 70
    11
 71
     3
 72
    53
 73
    49
 74
     0
 42
0.0000000001
 43
0.0000000001
 12
1.0
 22
0.0
 32
0.0
 13
1.0
 23
0.0
 33
0.0
 40
0.0
 40
0.0
 40
0.0
 40
0.0
 40
1.0
 40
1.0
 40
1.0
 40
2.0
 40
2.0
 40
2.0
 40
3.0
 40
3.0
 40
3.0
 40
4.0
 40
4.0
 40
4.0
 40
5.0
 40
5.0
 40
5.0
 40
6.0
 40
6.0
 40
6.0
 40
7.0
 40
7.0
 40
7.0
 40
8.0
 40
8.0
 40
8.0
 40
9.0
 40
9.0
 40
9.0
 40
10.0
 40
10.0
 40
10.0
 40
11.0
 40
11.0
 40
11.0
 40
12.0
 40
12.0
 40
12.0
 40
13.0
 40
13.0
 40
13.0
 40
14.0
 40
14.0
 40
14.0
 40
15.0
 40
15.0
 40
15.0
 40
16.0
 40
16.0
 40
16.0
 40
16.0
 10
102.9987087416114
 20
-131.3880180878127
 30
0.0
 10
102.9987087416114
 20
-131.4662217553279
 30
0.0
 10
102.9818277737337
 20
-131.5678520721428
 30
0.0
 10
102.9184380168051
 20
-131.6694823889576
 30
0.0
 10
102.8085394708257
 20
-131.8427706918657
 30
0.0
 10
102.6772813328376
 20
-131.8641302838743
 30
0.0
 10
102.5694498441493
 20
-131.8830783090431
 30
0.0
 10
102.5694498441493
 20
-131.8830783090431
 30
0.0
 10
102.5694498441493
 20
-131.6608696502445
 30
0.0
 10
102.5694498441493
 20
-131.6608696502445
 30
0.0
 10
102.7682318536482
 20
-131.606092632029
 30
0.0
 10
102.7978596748214
 20
-131.4789686086233
 30
0.0
 10
102.7978596748214
 20
-131.3859510305216
 30
0.0
 10
102.7978596748214
 20
-131.2464246633689
 30
0.0
 10
102.6982964152976
 20
-131.0941514429209
 30
0.0
 10
102.4657524700433
 20
-131.0941514429209
 30
0.0
 10
102.2097818754892
 20
-131.0941514429209
 30
0.0
 10
102.1398464371387
 20
-131.2739854272509
 30
0.0
 10
102.1398464371387
 20
-131.3945637692347
 30
0.0
 10
102.1398464371387
 20
-131.426258647699
 30
0.0
 10
102.1398464371387
 20
-131.5678520721428
 30
0.0
 10
102.2690375178355
 20
-131.6567355356622
 30
0.0
 10
102.2690375178355
 20
-131.6567355356622
 30
0.0
 10
102.2500894926666
 20
-131.8324354054099
 30
0.0
 10
102.2500894926666
 20
-131.8324354054099
 30
0.0
 10
102.2500894926666
 20
-131.8324354054099
 30
0.0
 10
101.4036295319408
 20
-131.7118570634262
 30
0.0
 10
101.4036295319408
 20
-131.7118570634262
 30
0.0
 10
101.4036295319408
 20
-131.7118570634262
 30
0.0
 10
101.4036295319408
 20
-130.9332654837598
 30
0.0
 10
101.4036295319408
 20
-130.9332654837598
 30
0.0
 10
101.4036295319408
 20
-130.9332654837598
 30
0.0
 10
101.5982774268574
 20
-130.9332654837598
 30
0.0
 10
101.5982774268574
 20
-130.9332654837598
 30
0.0
 10
101.5982774268574
 20
-130.9332654837598
 30
0.0
 10
101.5982774268574
 20
-131.5489040469739
 30
0.0
 10
101.5982774268574
 20
-131.5489040469739
 30
0.0
 10
101.5982774268574
 20
-131.5489040469739
 30
0.0
 10
102.0213351524461
 20
-131.6143608611936
 30
0.0
 10
102.0213351524461
 20
-131.6143608611936
 30
0.0
 10
101.9875732166906
 20
-131.5530381615562
 30
0.0
 10
101.9472655995132
 20
-131.4707003794587
 30
0.0
 10
101.9472655995132
 20
-131.3521890947661
 30
0.0
 10
101.9472655995132
 20
-131.0982855575032
 30
0.0
 10
102.1336452652652
 20
-130.861262988118
 30
0.0
 10
102.4468044448744
 20
-130.861262988118
 30
0.0
 10
102.7640977390659
 20
-130.861262988118
 30
0.0
 10
102.9987087416114
 20
-131.0855387042078
 30
0.0
 10
102.9987087416114
 20
-131.3880180878127
 30
0.0
  0
HATCH
  5
BA
330
A9
100
AcDbEntity
  8
_U+30EC_U+30A4_U+30E4_U+30FC 1
 62
   179
420
  2234388
100
AcDbHatch
 10
0.0
 20
0.0
 30
0.0
210
0.0
220
0.0
230
1.0
  2
SOLID
 70
     1
 71
     0
 91
        1
 92
        1
 93
        1
 72
     4
 94
        3
 73
     0
 74
     1
 95
       53
 96
       49
 40
0.0
 40
0.0
 40
0.0
 40
0.0
 40
1.0
 40
1.0
 40
1.0
 40
2.0
 40
2.0
 40
2.0
 40
3.0
 40
3.0
 40
3.0
 40
4.0
 40
4.0
 40
4.0
 40
5.0
 40
5.0
 40
5.0
 40
6.0
 40
6.0
 40
6.0
 40
7.0
 40
7.0
 40
7.0
 40
8.0
 40
8.0
 40
8.0
 40
9.0
 40
9.0
 40
9.0
 40
10.0
 40
10.0
 40
10.0
 40
11.0
 40
11.0
 40
11.0
 40
12.0
 40
12.0
 40
12.0
 40
13.0
 40
13.0
 40
13.0
 40
14.0
 40
14.0
 40
14.0
 40
15.0
 40
15.0
 40
15.0
 40
16.0
 40
16.0
 40
16.0
 40
16.0
 10
102.9987087416114
 20
-131.3880180878127
 10
102.9987087416114
 20
-131.4662217553279
 10
102.9818277737337
 20
-131.5678520721428
 10
102.9184380168051
 20
-131.6694823889576
 10
102.8085394708257
 20
-131.8427706918657
 10
102.6772813328376
 20
-131.8641302838743
 10
102.5694498441493
 20
-131.8830783090431
 10
102.5694498441493
 20
-131.8830783090431
 10
102.5694498441493
 20
-131.6608696502445
 10
102.5694498441493
 20
-131.6608696502445
 10
102.7682318536482
 20
-131.606092632029
 10
102.7978596748214
 20
-131.4789686086233
 10
102.7978596748214
 20
-131.3859510305216
 10
102.7978596748214
 20
-131.2464246633689
 10
102.6982964152976
 20
-131.0941514429209
 10
102.4657524700433
 20
-131.0941514429209
 10
102.2097818754892
 20
-131.0941514429209
 10
102.1398464371387
 20
-131.2739854272509
 10
102.1398464371387
 20
-131.3945637692347
 10
102.1398464371387
 20
-131.426258647699
 10
102.1398464371387
 20
-131.5678520721428
 10
102.2690375178355
 20
-131.6567355356622
 10
102.2690375178355
 20
-131.6567355356622
 10
102.2500894926666
 20
-131.8324354054099
 10
102.2500894926666
 20
-131.8324354054099
 10
102.2500894926666
 20
-131.8324354054099
 10
101.4036295319408
 20
-131.7118570634262
 10
101.4036295319408
 20
-131.7118570634262
 10
101.4036295319408
 20
-131.7118570634262
 10
101.4036295319408
 20
-130.9332654837598
 10
101.4036295319408
 20
-130.9332654837598
 10
101.4036295319408
 20
-130.9332654837598
 10
101.5982774268574
 20
-130.9332654837598
 10
101.5982774268574
 20
-130.9332654837598
 10
101.5982774268574
 20
-130.9332654837598
 10
101.5982774268574
 20
-131.5489040469739
 10
101.5982774268574
 20
-131.5489040469739
 10
101.5982774268574
 20
-131.5489040469739
 10
102.0213351524461
 20
-131.6143608611936
 10
102.0213351524461
 20
-131.6143608611936
 10
101.9875732166906
 20
-131.5530381615562
 10
101.9472655995132
 20
-131.4707003794587
 10
101.9472655995132
 20
-131.3521890947661
 10
101.9472655995132
 20
-131.0982855575032
 10
102.1336452652652
 20
-130.861262988118
 10
102.4468044448744
 20
-130.861262988118
 10
102.7640977390659
 20
-130.861262988118
 10
102.9987087416114
 20
-131.0855387042078
 10
102.9987087416114
 20
-131.3880180878127
 97
        0
 97
        0
 75
     2
 76
     1
 98
        0
  0
ENDBLK
  5
AC
330
A9
100
AcDbEntity
  8
0
100
AcDbBlockEnd
  0
BLOCK
  5
C9
330
C7
100
AcDbEntity
  8
0
100
AcDbBlockBegin
  2
block 7
 70
     0
 10
0.0
 20
0.0
 30
0.0
  3
block 7
  1

  0
SPLINE
  5
CB
330
C7
100
AcDbEntity
  8
_U+30EC_U+30A4_U+30E4_U+30FC 1
370
     0
100
AcDbSpline
210
0.0
220
0.0
230
1.0
 70
    11
 71
     3
 72
    26
 73
    22
 74
     0
 42
0.0000000001
 43
0.0000000001
 12
1.0
 22
0.0
 32
0.0
 13
1.0
 23
0.0
 33
0.0
 40
0.0
 40
0.0
 40
0.0
 40
0.0
 40
1.0
 40
1.0
 40
1.0
 40
2.0
 40
2.0
 40
2.0
 40
3.0
 40
3.0
 40
3.0
 40
4.0
 40
4.0
 40
4.0
 40
5.0
 40
5.0
 40
5.0
 40
6.0
 40
6.0
 40
6.0
 40
7.0
 40
7.0
 40
7.0
 40
7.0
 10
79.94757484980478
 20
-130.0234157661053
 30
0.0
 10
79.94757484980478
 20
-130.0234157661053
 30
0.0
 10
78.84324949200794
 20
-130.0234157661053
 30
0.0
 10
78.84324949200794
 20
-130.0234157661053
 30
0.0
 10
78.84324949200794
 20
-130.0234157661053
 30
0.0
 10
78.84324949200794
 20
-130.3534559135922
 30
0.0
 10
78.84324949200794
 20
-130.3534559135922
 30
0.0
 10
78.84324949200794
 20
-130.3534559135922
 30
0.0
 10
78.6951103861422
 20
-130.3534559135922
 30
0.0
 10
78.6951103861422
 20
-130.3534559135922
 30
0.0
 10
78.68046873032989
 20
-130.0213487088141
 30
0.0
 10
78.51751571387757
 20
-129.9748399197632
 30
0.0
 10
78.40331079854154
 20
-129.9452120985901
 30
0.0
 10
78.40331079854154
 20
-129.9452120985901
 30
0.0
 10
78.40331079854154
 20
-129.7991400500155
 30
0.0
 10
78.40331079854154
 20
-129.7991400500155
 30
0.0
 10
78.40331079854154
 20
-129.7991400500155
 30
0.0
 10
79.94757484980478
 20
-129.7991400500155
 30
0.0
 10
79.94757484980478
 20
-129.7991400500155
 30
0.0
 10
79.94757484980478
 20
-129.7991400500155
 30
0.0
 10
79.94757484980478
 20
-130.0234157661053
 30
0.0
 10
79.94757484980478
 20
-130.0234157661053
 30
0.0
  0
HATCH
  5
CC
330
C7
100
AcDbEntity
  8
_U+30EC_U+30A4_U+30E4_U+30FC 1
 62
   179
420
  2234388
100
AcDbHatch
 10
0.0
 20
0.0
 30
0.0
210
0.0
220
0.0
230
1.0
  2
SOLID
 70
     1
 71
     0
 91
        1
 92
        1
 93
        1
 72
     4
 94
        3
 73
     0
 74
     1
 95
       26
 96
       22
 40
0.0
 40
0.0
 40
0.0
 40
0.0
 40
1.0
 40
1.0
 40
1.0
 40
2.0
 40
2.0
 40
2.0
 40
3.0
 40
3.0
 40
3.0
 40
4.0
 40
4.0
 40
4.0
 40
5.0
 40
5.0
 40
5.0
 40
6.0
 40
6.0
 40
6.0
 40
7.0
 40
7.0
 40
7.0
 40
7.0
 10
79.94757484980478
 20
-130.0234157661053
 10
79.94757484980478
 20
-130.0234157661053
 10
78.84324949200794
 20
-130.0234157661053
 10
78.84324949200794
 20
-130.0234157661053
 10
78.84324949200794
 20
-130.0234157661053
 10
78.84324949200794
 20
-130.3534559135922
 10
78.84324949200794
 20
-130.3534559135922
 10
78.84324949200794
 20
-130.3534559135922
 10
78.6951103861422
 20
-130.3534559135922
 10
78.6951103861422
 20
-130.3534559135922
 10
78.68046873032989
 20
-130.0213487088141
 10
78.51751571387757
 20
-129.9748399197632
 10
78.40331079854154
 20
-129.9452120985901
 10
78.40331079854154
 20
-129.9452120985901
 10
78.40331079854154
 20
-129.7991400500155
 10
78.40331079854154
 20
-129.7991400500155
 10
78.40331079854154
 20
-129.7991400500155
 10
79.94757484980478
 20
-129.7991400500155
 10
79.94757484980478
 20
-129.7991400500155
 10
79.94757484980478
 20
-129.7991400500155
 10
79.94757484980478
 20
-130.0234157661053
 10
79.94757484980478
 20
-130.0234157661053
 97
        0
 97
        0
 75
     2
 76
     1
 98
        0
  0
SPLINE
  5
CD
330
C7
100
AcDbEntity
  8
_U+30EC_U+30A4_U+30E4_U+30FC 1
370
     0
100
AcDbSpline
210
0.0
220
0.0
230
1.0
 70
    11
 71
     3
 72
    53
 73
    49
 74
     0
 42
0.0000000001
 43
0.0000000001
 12
1.0
 22
0.0
 32
0.0
 13
1.0
 23
0.0
 33
0.0
 40
0.0
 40
0.0
 40
0.0
 40
0.0
 40
1.0
 40
1.0
 40
1.0
 40
2.0
 40
2.0
 40
2.0
 40
3.0
 40
3.0
 40
3.0
 40
4.0
 40
4.0
 40
4.0
 40
5.0
 40
5.0
 40
5.0
 40
6.0
 40
6.0
 40
6.0
 40
7.0
 40
7.0
 40
7.0
 40
8.0
 40
8.0
 40
8.0
 40
9.0
 40
9.0
 40
9.0
 40
10.0
 40
10.0
 40
10.0
 40
11.0
 40
11.0
 40
11.0
 40
12.0
 40
12.0
 40
12.0
 40
13.0
 40
13.0
 40
13.0
 40
14.0
 40
14.0
 40
14.0
 40
15.0
 40
15.0
 40
15.0
 40
16.0
 40
16.0
 40
16.0
 40
16.0
 10
79.99839000821221
 20
-128.8169433271708
 30
0.0
 10
79.99839000821221
 20
-128.8951469946859
 30
0.0
 10
79.98150904033449
 20
-128.9967773115008
 30
0.0
 10
79.91794702863163
 20
-129.0984076283157
 30
0.0
 10
79.8078762278779
 20
-129.2716959312237
 30
0.0
 10
79.67679034466414
 20
-129.2930555232323
 30
0.0
 10
79.56895885597582
 20
-129.3120035484012
 30
0.0
 10
79.56895885597582
 20
-129.3120035484012
 30
0.0
 10
79.56895885597582
 20
-129.0897948896026
 30
0.0
 10
79.56895885597582
 20
-129.0897948896026
 30
0.0
 10
79.76774086547474
 20
-129.0350178713871
 30
0.0
 10
79.79736868664789
 20
-128.9078938479814
 30
0.0
 10
79.79736868664789
 20
-128.8148762698796
 30
0.0
 10
79.79736868664789
 20
-128.675349902727
 30
0.0
 10
79.69797768189842
 20
-128.523076682279
 30
0.0
 10
79.4652614818698
 20
-128.523076682279
 30
0.0
 10
79.20929088731573
 20
-128.523076682279
 30
0.0
 10
79.13952770373943
 20
-128.702910666609
 30
0.0
 10
79.13952770373943
 20
-128.8234890085928
 30
0.0
 10
79.13952770373943
 20
-128.8551838870571
 30
0.0
 10
79.13952770373943
 20
-128.9967773115008
 30
0.0
 10
79.26854652966203
 20
-129.0856607750202
 30
0.0
 10
79.26854652966203
 20
-129.0856607750202
 30
0.0
 10
79.2494262497189
 20
-129.261360644768
 30
0.0
 10
79.2494262497189
 20
-129.261360644768
 30
0.0
 10
79.2494262497189
 20
-129.261360644768
 30
0.0
 10
78.40331079854154
 20
-129.1407823027843
 30
0.0
 10
78.40331079854154
 20
-129.1407823027843
 30
0.0
 10
78.40331079854154
 20
-129.1407823027843
 30
0.0
 10
78.40331079854154
 20
-128.3621907231178
 30
0.0
 10
78.40331079854154
 20
-128.3621907231178
 30
0.0
 10
78.40331079854154
 20
-128.3621907231178
 30
0.0
 10
78.59795869345815
 20
-128.3621907231178
 30
0.0
 10
78.59795869345815
 20
-128.3621907231178
 30
0.0
 10
78.59795869345815
 20
-128.3621907231178
 30
0.0
 10
78.59795869345815
 20
-128.9778292863319
 30
0.0
 10
78.59795869345815
 20
-128.9778292863319
 30
0.0
 10
78.59795869345815
 20
-128.9778292863319
 30
0.0
 10
79.02101641904683
 20
-129.0432861005517
 30
0.0
 10
79.02101641904683
 20
-129.0432861005517
 30
0.0
 10
78.98708222851712
 20
-128.9819634009142
 30
0.0
 10
78.94694686611396
 20
-128.8996256188168
 30
0.0
 10
78.94694686611396
 20
-128.7811143341242
 30
0.0
 10
78.94694686611396
 20
-128.5272107968613
 30
0.0
 10
79.13315427709172
 20
-128.2901882274761
 30
0.0
 10
79.44614120192666
 20
-128.2901882274761
 30
0.0
 10
79.76360675089244
 20
-128.2901882274761
 30
0.0
 10
79.99839000821221
 20
-128.5144639435658
 30
0.0
 10
79.99839000821221
 20
-128.8169433271708
 30
0.0
  0
HATCH
  5
CE
330
C7
100
AcDbEntity
  8
_U+30EC_U+30A4_U+30E4_U+30FC 1
 62
   179
420
  2234388
100
AcDbHatch
 10
0.0
 20
0.0
 30
0.0
210
0.0
220
0.0
230
1.0
  2
SOLID
 70
     1
 71
     0
 91
        1
 92
        1
 93
        1
 72
     4
 94
        3
 73
     0
 74
     1
 95
       53
 96
       49
 40
0.0
 40
0.0
 40
0.0
 40
0.0
 40
1.0
 40
1.0
 40
1.0
 40
2.0
 40
2.0
 40
2.0
 40
3.0
 40
3.0
 40
3.0
 40
4.0
 40
4.0
 40
4.0
 40
5.0
 40
5.0
 40
5.0
 40
6.0
 40
6.0
 40
6.0
 40
7.0
 40
7.0
 40
7.0
 40
8.0
 40
8.0
 40
8.0
 40
9.0
 40
9.0
 40
9.0
 40
10.0
 40
10.0
 40
10.0
 40
11.0
 40
11.0
 40
11.0
 40
12.0
 40
12.0
 40
12.0
 40
13.0
 40
13.0
 40
13.0
 40
14.0
 40
14.0
 40
14.0
 40
15.0
 40
15.0
 40
15.0
 40
16.0
 40
16.0
 40
16.0
 40
16.0
 10
79.99839000821221
 20
-128.8169433271708
 10
79.99839000821221
 20
-128.8951469946859
 10
79.98150904033449
 20
-128.9967773115008
 10
79.91794702863163
 20
-129.0984076283157
 10
79.8078762278779
 20
-129.2716959312237
 10
79.67679034466414
 20
-129.2930555232323
 10
79.56895885597582
 20
-129.3120035484012
 10
79.56895885597582
 20
-129.3120035484012
 10
79.56895885597582
 20
-129.0897948896026
 10
79.56895885597582
 20
-129.0897948896026
 10
79.76774086547474
 20
-129.0350178713871
 10
79.79736868664789
 20
-128.9078938479814
 10
79.79736868664789
 20
-128.8148762698796
 10
79.79736868664789
 20
-128.675349902727
 10
79.69797768189842
 20
-128.523076682279
 10
79.4652614818698
 20
-128.523076682279
 10
79.20929088731573
 20
-128.523076682279
 10
79.13952770373943
 20
-128.702910666609
 10
79.13952770373943
 20
-128.8234890085928
 10
79.13952770373943
 20
-128.8551838870571
 10
79.13952770373943
 20
-128.9967773115008
 10
79.26854652966203
 20
-129.0856607750202
 10
79.26854652966203
 20
-129.0856607750202
 10
79.2494262497189
 20
-129.261360644768
 10
79.2494262497189
 20
-129.261360644768
 10
79.2494262497189
 20
-129.261360644768
 10
78.40331079854154
 20
-129.1407823027843
 10
78.40331079854154
 20
-129.1407823027843
 10
78.40331079854154
 20
-129.1407823027843
 10
78.40331079854154
 20
-128.3621907231178
 10
78.40331079854154
 20
-128.3621907231178
 10
78.40331079854154
 20
-128.3621907231178
 10
78.59795869345815
 20
-128.3621907231178
 10
78.59795869345815
 20
-128.3621907231178
 10
78.59795869345815
 20
-128.3621907231178
 10
78.59795869345815
 20
-128.9778292863319
 10
78.59795869345815
 20
-128.9778292863319
 10
78.59795869345815
 20
-128.9778292863319
 10
79.02101641904683
 20
-129.0432861005517
 10
79.02101641904683
 20
-129.0432861005517
 10
78.98708222851712
 20
-128.9819634009142
 10
78.94694686611396
 20
-128.8996256188168
 10
78.94694686611396
 20
-128.7811143341242
 10
78.94694686611396
 20
-128.5272107968613
 10
79.13315427709172
 20
-128.2901882274761
 10
79.44614120192666
 20
-128.2901882274761
 10
79.76360675089244
 20
-128.2901882274761
 10
79.99839000821221
 20
-128.5144639435658
 10
79.99839000821221
 20
-128.8169433271708
 97
        0
 97
        0
 75
     2
 76
     1
 98
        0
  0
ENDBLK
  5
CA
330
C7
100
AcDbEntity
  8
0
100
AcDbBlockEnd
  0
ENDSEC
  0
SECTION
  2
ENTITIES
  0
SPLINE
  5
41
330
1F
100
AcDbEntity
  8
_U+30EC_U+30A4_U+30E4_U+30FC 1
 62
   253
420
 11711154
370
     9
100
AcDbSpline
210
0.0
220
0.0
230
1.0
 70
    11
 71
     3
 72
    74
 73
    70
 74
     0
 42
0.0000000001
 43
0.0000000001
 12
1.0
 22
0.0
 32
0.0
 13
1.0
 23
0.0
 33
0.0
 40
0.0
 40
0.0
 40
0.0
 40
0.0
 40
1.0
 40
1.0
 40
1.0
 40
2.0
 40
2.0
 40
2.0
 40
3.0
 40
3.0
 40
3.0
 40
4.0
 40
4.0
 40
4.0
 40
5.0
 40
5.0
 40
5.0
 40
6.0
 40
6.0
 40
6.0
 40
7.0
 40
7.0
 40
7.0
 40
8.0
 40
8.0
 40
8.0
 40
9.0
 40
9.0
 40
9.0
 40
10.0
 40
10.0
 40
10.0
 40
11.0
 40
11.0
 40
11.0
 40
12.0
 40
12.0
 40
12.0
 40
13.0
 40
13.0
 40
13.0
 40
14.0
 40
14.0
 40
14.0
 40
15.0
 40
15.0
 40
15.0
 40
16.0
 40
16.0
 40
16.0
 40
17.0
 40
17.0
 40
17.0
 40
18.0
 40
18.0
 40
18.0
 40
19.0
 40
19.0
 40
19.0
 40
20.0
 40
20.0
 40
20.0
 40
21.0
 40
21.0
 40
21.0
 40
22.0
 40
22.0
 40
22.0
 40
23.0
 40
23.0
 40
23.0
 40
23.0
 10
87.53107887800725
 20
-126.4152002461741
 30
0.0
 10
87.53107887800725
 20
-126.4152002461741
 30
0.0
 10
87.33817999403962
 20
-126.6153663572351
 30
0.0
 10
87.33817999403962
 20
-126.6153663572351
 30
0.0
 10
87.33817999403962
 20
-126.6153663572351
 30
0.0
 10
87.13420388813238
 20
-126.4152002461741
 30
0.0
 10
87.13420388813238
 20
-126.4152002461741
 30
0.0
 10
87.13420388813238
 20
-126.4152002461741
 30
0.0
 10
86.92959278224133
 20
-126.6153663572351
 30
0.0
 10
86.92959278224133
 20
-126.6153663572351
 30
0.0
 10
86.92959278224133
 20
-126.6153663572351
 30
0.0
 10
86.72942667623688
 20
-126.4152002461741
 30
0.0
 10
86.72942667623688
 20
-126.4152002461741
 30
0.0
 10
86.72942667623688
 20
-126.4152002461741
 30
0.0
 10
86.5296133480012
 20
-126.6153663572351
 30
0.0
 10
86.5296133480012
 20
-126.6153663572351
 30
0.0
 10
86.5296133480012
 20
-126.6153663572351
 30
0.0
 10
86.32944724199676
 20
-126.4152002461741
 30
0.0
 10
86.32944724199676
 20
-126.4152002461741
 30
0.0
 10
86.32944724199676
 20
-126.4152002461741
 30
0.0
 10
85.54067142878677
 20
-126.4152002461741
 30
0.0
 10
85.54067142878677
 20
-126.4152002461741
 30
0.0
 10
85.54067142878677
 20
-126.4152002461741
 30
0.0
 10
85.54067142878677
 20
-121.8470102473161
 30
0.0
 10
85.54067142878677
 20
-121.8470102473161
 30
0.0
 10
84.98843310954221
 20
-121.8470102473161
 30
0.0
 10
84.54058173207896
 20
-122.2948616360928
 30
0.0
 10
84.54058173207896
 20
-122.8470999692883
 30
0.0
 10
84.54058173207896
 20
-122.8470999692883
 30
0.0
 10
84.54058173207896
 20
-135.8466435771496
 30
0.0
 10
84.54058173207896
 20
-135.8466435771496
 30
0.0
 10
84.54058173207896
 20
-136.3992699659
 30
0.0
 10
84.98843310954221
 20
-136.847121354677
 30
0.0
 10
85.54067142878677
 20
-136.847121354677
 30
0.0
 10
85.54067142878677
 20
-136.847121354677
 30
0.0
 10
98.49597637604718
 20
-136.847121354677
 30
0.0
 10
98.49597637604718
 20
-136.847121354677
 30
0.0
 10
99.04856747306052
 20
-136.847121354677
 30
0.0
 10
99.54051607162098
 20
-136.4674619103277
 30
0.0
 10
99.54051607162098
 20
-135.9148707993548
 30
0.0
 10
99.54051607162098
 20
-135.9148707993548
 30
0.0
 10
85.54067142878677
 20
-135.9148707993548
 30
0.0
 10
85.54067142878677
 20
-135.9148707993548
 30
0.0
 10
85.54067142878677
 20
-135.9148707993548
 30
0.0
 10
85.54067142878677
 20
-127.4149724681463
 30
0.0
 10
85.54067142878677
 20
-127.4149724681463
 30
0.0
 10
85.54067142878677
 20
-127.4149724681463
 30
0.0
 10
99.54051607162098
 20
-127.4149724681463
 30
0.0
 10
99.54051607162098
 20
-127.4149724681463
 30
0.0
 10
99.54051607162098
 20
-127.4149724681463
 30
0.0
 10
100.0600518916998
 20
-127.1152524682211
 30
0.0
 10
100.0600518916998
 20
-127.1152524682211
 30
0.0
 10
100.0600518916998
 20
-127.1152524682211
 30
0.0
 10
104.8411431586129
 20
-127.1152524682211
 30
0.0
 10
104.8411431586129
 20
-127.1152524682211
 30
0.0
 10
105.2280345376314
 20
-127.1152524682211
 30
0.0
 10
105.5415481407441
 20
-126.8017388571885
 30
0.0
 10
105.5415481407441
 20
-126.4152002461741
 30
0.0
 10
105.5415481407441
 20
-126.4152002461741
 30
0.0
 10
99.74170523315489
 20
-126.4152002461741
 30
0.0
 10
99.74170523315489
 20
-126.4152002461741
 30
0.0
 10
99.74170523315489
 20
-126.4152002461741
 30
0.0
 10
99.54051607162098
 20
-126.6153663572351
 30
0.0
 10
99.54051607162098
 20
-126.6153663572351
 30
0.0
 10
99.54051607162098
 20
-126.6153663572351
 30
0.0
 10
99.34207857668355
 20
-126.4152002461741
 30
0.0
 10
99.34207857668355
 20
-126.4152002461741
 30
0.0
 10
99.34207857668355
 20
-126.4152002461741
 30
0.0
 10
87.53107887800725
 20
-126.4152002461741
 30
0.0
 10
87.53107887800725
 20
-126.4152002461741
 30
0.0
  0
HATCH
  5
42
330
1F
100
AcDbEntity
  8
_U+30EC_U+30A4_U+30E4_U+30FC 1
 62
   253
420
 11711154
100
AcDbHatch
 10
0.0
 20
0.0
 30
0.0
210
0.0
220
0.0
230
1.0
  2
SOLID
 70
     1
 71
     0
 91
        1
 92
        1
 93
        1
 72
     4
 94
        3
 73
     0
 74
     1
 95
       74
 96
       70
 40
0.0
 40
0.0
 40
0.0
 40
0.0
 40
1.0
 40
1.0
 40
1.0
 40
2.0
 40
2.0
 40
2.0
 40
3.0
 40
3.0
 40
3.0
 40
4.0
 40
4.0
 40
4.0
 40
5.0
 40
5.0
 40
5.0
 40
6.0
 40
6.0
 40
6.0
 40
7.0
 40
7.0
 40
7.0
 40
8.0
 40
8.0
 40
8.0
 40
9.0
 40
9.0
 40
9.0
 40
10.0
 40
10.0
 40
10.0
 40
11.0
 40
11.0
 40
11.0
 40
12.0
 40
12.0
 40
12.0
 40
13.0
 40
13.0
 40
13.0
 40
14.0
 40
14.0
 40
14.0
 40
15.0
 40
15.0
 40
15.0
 40
16.0
 40
16.0
 40
16.0
 40
17.0
 40
17.0
 40
17.0
 40
18.0
 40
18.0
 40
18.0
 40
19.0
 40
19.0
 40
19.0
 40
20.0
 40
20.0
 40
20.0
 40
21.0
 40
21.0
 40
21.0
 40
22.0
 40
22.0
 40
22.0
 40
23.0
 40
23.0
 40
23.0
 40
23.0
 10
87.53107887800725
 20
-126.4152002461741
 10
87.53107887800725
 20
-126.4152002461741
 10
87.33817999403962
 20
-126.6153663572351
 10
87.33817999403962
 20
-126.6153663572351
 10
87.33817999403962
 20
-126.6153663572351
 10
87.13420388813238
 20
-126.4152002461741
 10
87.13420388813238
 20
-126.4152002461741
 10
87.13420388813238
 20
-126.4152002461741
 10
86.92959278224133
 20
-126.6153663572351
 10
86.92959278224133
 20
-126.6153663572351
 10
86.92959278224133
 20
-126.6153663572351
 10
86.72942667623688
 20
-126.4152002461741
 10
86.72942667623688
 20
-126.4152002461741
 10
86.72942667623688
 20
-126.4152002461741
 10
86.5296133480012
 20
-126.6153663572351
 10
86.5296133480012
 20
-126.6153663572351
 10
86.5296133480012
 20
-126.6153663572351
 10
86.32944724199676
 20
-126.4152002461741
 10
86.32944724199676
 20
-126.4152002461741
 10
86.32944724199676
 20
-126.4152002461741
 10
85.54067142878677
 20
-126.4152002461741
 10
85.54067142878677
 20
-126.4152002461741
 10
85.54067142878677
 20
-126.4152002461741
 10
85.54067142878677
 20
-121.8470102473161
 10
85.54067142878677
 20
-121.8470102473161
 10
84.98843310954221
 20
-121.8470102473161
 10
84.54058173207896
 20
-122.2948616360928
 10
84.54058173207896
 20
-122.8470999692883
 10
84.54058173207896
 20
-122.8470999692883
 10
84.54058173207896
 20
-135.8466435771496
 10
84.54058173207896
 20
-135.8466435771496
 10
84.54058173207896
 20
-136.3992699659
 10
84.98843310954221
 20
-136.847121354677
 10
85.54067142878677
 20
-136.847121354677
 10
85.54067142878677
 20
-136.847121354677
 10
98.49597637604718
 20
-136.847121354677
 10
98.49597637604718
 20
-136.847121354677
 10
99.04856747306052
 20
-136.847121354677
 10
99.54051607162098
 20
-136.4674619103277
 10
99.54051607162098
 20
-135.9148707993548
 10
99.54051607162098
 20
-135.9148707993548
 10
85.54067142878677
 20
-135.9148707993548
 10
85.54067142878677
 20
-135.9148707993548
 10
85.54067142878677
 20
-135.9148707993548
 10
85.54067142878677
 20
-127.4149724681463
 10
85.54067142878677
 20
-127.4149724681463
 10
85.54067142878677
 20
-127.4149724681463
 10
99.54051607162098
 20
-127.4149724681463
 10
99.54051607162098
 20
-127.4149724681463
 10
99.54051607162098
 20
-127.4149724681463
 10
100.0600518916998
 20
-127.1152524682211
 10
100.0600518916998
 20
-127.1152524682211
 10
100.0600518916998
 20
-127.1152524682211
 10
104.8411431586129
 20
-127.1152524682211
 10
104.8411431586129
 20
-127.1152524682211
 10
105.2280345376314
 20
-127.1152524682211
 10
105.5415481407441
 20
-126.8017388571885
 10
105.5415481407441
 20
-126.4152002461741
 10
105.5415481407441
 20
-126.4152002461741
 10
99.74170523315489
 20
-126.4152002461741
 10
99.74170523315489
 20
-126.4152002461741
 10
99.74170523315489
 20
-126.4152002461741
 10
99.54051607162098
 20
-126.6153663572351
 10
99.54051607162098
 20
-126.6153663572351
 10
99.54051607162098
 20
-126.6153663572351
 10
99.34207857668355
 20
-126.4152002461741
 10
99.34207857668355
 20
-126.4152002461741
 10
99.34207857668355
 20
-126.4152002461741
 10
87.53107887800725
 20
-126.4152002461741
 10
87.53107887800725
 20
-126.4152002461741
 97
        0
 97
        0
 75
     2
 76
     1
 98
        0
  0
POLYLINE
  5
43
330
1F
100
AcDbEntity
  8
_U+30EC_U+30A4_U+30E4_U+30FC 1
 62
   179
420
  2234388
370
     9
100
AcDb2dPolyline
 66
     1
 10
0.0
 20
0.0
 30
0.0
  0
VERTEX
  5
44
330
43
100
AcDbEntity
  8
_U+30EC_U+30A4_U+30E4_U+30FC 1
 62
   179
420
  2234388
370
     9
100
AcDbVertex
100
AcDb2dVertex
 10
84.8334225579413
 20
-136.5539277436394
 30
0.0
  0
VERTEX
  5
45
330
43
100
AcDbEntity
  8
_U+30EC_U+30A4_U+30E4_U+30FC 1
 62
   179
420
  2234388
370
     9
100
AcDbVertex
100
AcDb2dVertex
 10
80.54082266745465
 20
-140.8468805203439
 30
0.0
  0
SEQEND
  5
46
330
43
100
AcDbEntity
  8
_U+30EC_U+30A4_U+30E4_U+30FC 1
 62
   179
420
  2234388
370
     9
  0
POLYLINE
  5
47
330
1F
100
AcDbEntity
  8
_U+30EC_U+30A4_U+30E4_U+30FC 1
 62
   179
420
  2234388
370
     9
100
AcDb2dPolyline
 66
     1
 10
0.0
 20
0.0
 30
0.0
  0
VERTEX
  5
48
330
47
100
AcDbEntity
  8
_U+30EC_U+30A4_U+30E4_U+30FC 1
 62
   179
420
  2234388
370
     9
100
AcDbVertex
100
AcDb2dVertex
 10
76.3285149971418
 20
-140.8468805203439
 30
0.0
  0
VERTEX
  5
49
330
47
100
AcDbEntity
  8
_U+30EC_U+30A4_U+30E4_U+30FC 1
 62
   179
420
  2234388
370
     9
100
AcDbVertex
100
AcDb2dVertex
 10
80.54082266745465
 20
-140.8468805203439
 30
0.0
  0
SEQEND
  5
4A
330
47
100
AcDbEntity
  8
_U+30EC_U+30A4_U+30E4_U+30FC 1
 62
   179
420
  2234388
370
     9
  0
POLYLINE
  5
4B
330
1F
100
AcDbEntity
  8
_U+30EC_U+30A4_U+30E4_U+30FC 1
 62
   179
420
  2234388
370
     9
100
AcDb2dPolyline
 66
     1
 10
0.0
 20
0.0
 30
0.0
  0
VERTEX
  5
4C
330
4B
100
AcDbEntity
  8
_U+30EC_U+30A4_U+30E4_U+30FC 1
 62
   179
420
  2234388
370
     9
100
AcDbVertex
100
AcDb2dVertex
 10
84.8334225579413
 20
-136.5539277436394
 30
0.0
  0
VERTEX
  5
4D
330
4B
100
AcDbEntity
  8
_U+30EC_U+30A4_U+30E4_U+30FC 1
 62
   179
420
  2234388
370
     9
100
AcDbVertex
100
AcDb2dVertex
 10
83.53460275689419
 20
-137.3039332990076
 30
0.0
  0
SEQEND
  5
4E
330
4B
100
AcDbEntity
  8
_U+30EC_U+30A4_U+30E4_U+30FC 1
 62
   179
420
  2234388
370
     9
  0
POLYLINE
  5
4F
330
1F
100
AcDbEntity
  8
_U+30EC_U+30A4_U+30E4_U+30FC 1
 62
   179
420
  2234388
370
     9
100
AcDb2dPolyline
 66
     1
 10
0.0
 20
0.0
 30
0.0
  0
VERTEX
  5
50
330
4F
100
AcDbEntity
  8
_U+30EC_U+30A4_U+30E4_U+30FC 1
 62
   179
420
  2234388
370
     9
100
AcDbVertex
100
AcDb2dVertex
 10
84.8334225579413
 20
-136.5539277436394
 30
0.0
  0
VERTEX
  5
51
330
4F
100
AcDbEntity
  8
_U+30EC_U+30A4_U+30E4_U+30FC 1
 62
   179
420
  2234388
370
     9
100
AcDbVertex
100
AcDb2dVertex
 10
84.08376979928876
 20
-137.8530671877591
 30
0.0
  0
SEQEND
  5
52
330
4F
100
AcDbEntity
  8
_U+30EC_U+30A4_U+30E4_U+30FC 1
 62
   179
420
  2234388
370
     9
  0
SPLINE
  5
53
330
1F
100
AcDbEntity
  8
_U+30EC_U+30A4_U+30E4_U+30FC 1
 62
   179
420
  2234388
370
     9
100
AcDbSpline
210
0.0
220
0.0
230
1.0
 70
    11
 71
     3
 72
    17
 73
    13
 74
     0
 42
0.0000000001
 43
0.0000000001
 12
1.0
 22
0.0
 32
0.0
 13
1.0
 23
0.0
 33
0.0
 40
0.0
 40
0.0
 40
0.0
 40
0.0
 40
1.0
 40
1.0
 40
1.0
 40
2.0
 40
2.0
 40
2.0
 40
3.0
 40
3.0
 40
3.0
 40
4.0
 40
4.0
 40
4.0
 40
4.0
 10
105.641454804862
 20
-117.8472510816492
 30
0.0
 10
105.641454804862
 20
-117.7921119149965
 30
0.0
 10
105.5966520282272
 20
-117.7473444150076
 30
0.0
 10
105.5415481407441
 20
-117.7473444150076
 30
0.0
 10
105.4864089754842
 20
-117.7473444150076
 30
0.0
 10
105.4416061988494
 20
-117.7921119149965
 30
0.0
 10
105.4416061988494
 20
-117.8472510816492
 30
0.0
 10
105.4416061988494
 20
-117.9023549705245
 30
0.0
 10
105.4864089754842
 20
-117.9471577482909
 30
0.0
 10
105.5415481407441
 20
-117.9471577482909
 30
0.0
 10
105.5966520282272
 20
-117.9471577482909
 30
0.0
 10
105.641454804862
 20
-117.9023549705245
 30
0.0
 10
105.641454804862
 20
-117.8472510816492
 30
0.0
  0
SPLINE
  5
54
330
1F
100
AcDbEntity
  8
_U+30EC_U+30A4_U+30E4_U+30FC 1
 62
   179
420
  2234388
370
     9
100
AcDbSpline
210
0.0
220
0.0
230
1.0
 70
    11
 71
     3
 72
    17
 73
    13
 74
     0
 42
0.0000000001
 43
0.0000000001
 12
1.0
 22
0.0
 32
0.0
 13
1.0
 23
0.0
 33
0.0
 40
0.0
 40
0.0
 40
0.0
 40
0.0
 40
1.0
 40
1.0
 40
1.0
 40
2.0
 40
2.0
 40
2.0
 40
3.0
 40
3.0
 40
3.0
 40
4.0
 40
4.0
 40
4.0
 40
4.0
 10
85.6404369817971
 20
-117.8472510816492
 30
0.0
 10
85.6404369817971
 20
-117.7921119149965
 30
0.0
 10
85.59563420516233
 20
-117.7473444150076
 30
0.0
 10
85.54053031767926
 20
-117.7473444150076
 30
0.0
 10
85.48539115241931
 20
-117.7473444150076
 30
0.0
 10
85.44058837578454
 20
-117.7921119149965
 30
0.0
 10
85.44058837578454
 20
-117.8472510816492
 30
0.0
 10
85.44058837578454
 20
-117.9023549705245
 30
0.0
 10
85.48539115241931
 20
-117.9471577482909
 30
0.0
 10
85.54053031767926
 20
-117.9471577482909
 30
0.0
 10
85.59563420516233
 20
-117.9471577482909
 30
0.0
 10
85.6404369817971
 20
-117.9023549705245
 30
0.0
 10
85.6404369817971
 20
-117.8472510816492
 30
0.0
  0
SPLINE
  5
55
330
1F
100
AcDbEntity
  8
_U+30EC_U+30A4_U+30E4_U+30FC 1
 62
   179
420
  2234388
370
     9
100
AcDbSpline
210
0.0
220
0.0
230
1.0
 70
    11
 71
     3
 72
    17
 73
    13
 74
     0
 42
0.0000000001
 43
0.0000000001
 12
1.0
 22
0.0
 32
0.0
 13
1.0
 23
0.0
 33
0.0
 40
0.0
 40
0.0
 40
0.0
 40
0.0
 40
1.0
 40
1.0
 40
1.0
 40
2.0
 40
2.0
 40
2.0
 40
3.0
 40
3.0
 40
3.0
 40
4.0
 40
4.0
 40
4.0
 40
4.0
 10
84.6404883961968
 20
-124.3472874689131
 30
0.0
 10
84.6404883961968
 20
-124.2921483022603
 30
0.0
 10
84.59568561956203
 20
-124.2473808022714
 30
0.0
 10
84.54058173207896
 20
-124.2473808022714
 30
0.0
 10
84.48544256681902
 20
-124.2473808022714
 30
0.0
 10
84.44067506796112
 20
-124.2921483022603
 30
0.0
 10
84.44067506796112
 20
-124.3472874689131
 30
0.0
 10
84.44067506796112
 20
-124.4023913577883
 30
0.0
 10
84.48544256681902
 20
-124.447194135555
 30
0.0
 10
84.54058173207896
 20
-124.447194135555
 30
0.0
 10
84.59568561956203
 20
-124.447194135555
 30
0.0
 10
84.6404883961968
 20
-124.4023913577883
 30
0.0
 10
84.6404883961968
 20
-124.3472874689131
 30
0.0
  0
SPLINE
  5
56
330
1F
100
AcDbEntity
  8
_U+30EC_U+30A4_U+30E4_U+30FC 1
 62
   179
420
  2234388
370
     9
100
AcDbSpline
210
0.0
220
0.0
230
1.0
 70
    11
 71
     3
 72
    17
 73
    13
 74
     0
 42
0.0000000001
 43
0.0000000001
 12
1.0
 22
0.0
 32
0.0
 13
1.0
 23
0.0
 33
0.0
 40
0.0
 40
0.0
 40
0.0
 40
0.0
 40
1.0
 40
1.0
 40
1.0
 40
2.0
 40
2.0
 40
2.0
 40
3.0
 40
3.0
 40
3.0
 40
4.0
 40
4.0
 40
4.0
 40
4.0
 10
85.6405780929046
 20
-124.3472874689131
 30
0.0
 10
85.6405780929046
 20
-124.2921483022603
 30
0.0
 10
85.59581059404672
 20
-124.2473808022714
 30
0.0
 10
85.54067142878677
 20
-124.2473808022714
 30
0.0
 10
85.48521476353493
 20
-124.2473808022714
 30
0.0
 10
85.44044726467703
 20
-124.2921483022603
 30
0.0
 10
85.44044726467703
 20
-124.3472874689131
 30
0.0
 10
85.44044726467703
 20
-124.4023913577883
 30
0.0
 10
85.48521476353493
 20
-124.447194135555
 30
0.0
 10
85.54067142878677
 20
-124.447194135555
 30
0.0
 10
85.59581059404672
 20
-124.447194135555
 30
0.0
 10
85.6405780929046
 20
-124.4023913577883
 30
0.0
 10
85.6405780929046
 20
-124.3472874689131
 30
0.0
  0
SPLINE
  5
57
330
1F
100
AcDbEntity
  8
_U+30EC_U+30A4_U+30E4_U+30FC 1
 62
   179
420
  2234388
370
     9
100
AcDbSpline
210
0.0
220
0.0
230
1.0
 70
    11
 71
     3
 72
    17
 73
    13
 74
     0
 42
0.0000000001
 43
0.0000000001
 12
1.0
 22
0.0
 32
0.0
 13
1.0
 23
0.0
 33
0.0
 40
0.0
 40
0.0
 40
0.0
 40
0.0
 40
1.0
 40
1.0
 40
1.0
 40
2.0
 40
2.0
 40
2.0
 40
3.0
 40
3.0
 40
3.0
 40
4.0
 40
4.0
 40
4.0
 40
4.0
 10
80.64072933157249
 20
-136.8219682991279
 30
0.0
 10
80.64072933157249
 20
-136.7661588546975
 30
0.0
 10
80.59592655493772
 20
-136.7213560769307
 30
0.0
 10
80.54082266745465
 20
-136.7213560769307
 30
0.0
 10
80.48536600220281
 20
-136.7213560769307
 30
0.0
 10
80.44056322556804
 20
-136.7661588546975
 30
0.0
 10
80.44056322556804
 20
-136.8219682991279
 30
0.0
 10
80.44056322556804
 20
-136.8770721880028
 30
0.0
 10
80.48536600220281
 20
-136.9218749657695
 30
0.0
 10
80.54082266745465
 20
-136.9218749657695
 30
0.0
 10
80.59592655493772
 20
-136.9218749657695
 30
0.0
 10
80.64072933157249
 20
-136.8770721880028
 30
0.0
 10
80.64072933157249
 20
-136.8219682991279
 30
0.0
  0
SPLINE
  5
58
330
1F
100
AcDbEntity
  8
_U+30EC_U+30A4_U+30E4_U+30FC 1
 62
   179
420
  2234388
370
     9
100
AcDbSpline
210
0.0
220
0.0
230
1.0
 70
    11
 71
     3
 72
    17
 73
    13
 74
     0
 42
0.0000000001
 43
0.0000000001
 12
1.0
 22
0.0
 32
0.0
 13
1.0
 23
0.0
 33
0.0
 40
0.0
 40
0.0
 40
0.0
 40
0.0
 40
1.0
 40
1.0
 40
1.0
 40
2.0
 40
2.0
 40
2.0
 40
3.0
 40
3.0
 40
3.0
 40
4.0
 40
4.0
 40
4.0
 40
4.0
 10
80.64072933157249
 20
-121.8470102473161
 30
0.0
 10
80.64072933157249
 20
-121.791871080663
 30
0.0
 10
80.59592655493772
 20
-121.7471035806745
 30
0.0
 10
80.54082266745465
 20
-121.7471035806745
 30
0.0
 10
80.48536600220281
 20
-121.7471035806745
 30
0.0
 10
80.44056322556804
 20
-121.791871080663
 30
0.0
 10
80.44056322556804
 20
-121.8470102473161
 30
0.0
 10
80.44056322556804
 20
-121.9024669139688
 30
0.0
 10
80.48536600220281
 20
-121.9472344139577
 30
0.0
 10
80.54082266745465
 20
-121.9472344139577
 30
0.0
 10
80.59592655493772
 20
-121.9472344139577
 30
0.0
 10
80.64072933157249
 20
-121.9024669139688
 30
0.0
 10
80.64072933157249
 20
-121.8470102473161
 30
0.0
  0
SPLINE
  5
59
330
1F
100
AcDbEntity
  8
_U+30EC_U+30A4_U+30E4_U+30FC 1
 62
   179
420
  2234388
370
     9
100
AcDbSpline
210
0.0
220
0.0
230
1.0
 70
    11
 71
     3
 72
    17
 73
    13
 74
     0
 42
0.0000000001
 43
0.0000000001
 12
1.0
 22
0.0
 32
0.0
 13
1.0
 23
0.0
 33
0.0
 40
0.0
 40
0.0
 40
0.0
 40
0.0
 40
1.0
 40
1.0
 40
1.0
 40
2.0
 40
2.0
 40
2.0
 40
3.0
 40
3.0
 40
3.0
 40
4.0
 40
4.0
 40
4.0
 40
4.0
 10
99.64042273573881
 20
-140.8468805203439
 30
0.0
 10
99.64042273573881
 20
-140.7917413536908
 30
0.0
 10
99.59565523688093
 20
-140.7469738537023
 30
0.0
 10
99.54051607162098
 20
-140.7469738537023
 30
0.0
 10
99.48541218413791
 20
-140.7469738537023
 30
0.0
 10
99.44060940750315
 20
-140.7917413536908
 30
0.0
 10
99.44060940750315
 20
-140.8468805203439
 30
0.0
 10
99.44060940750315
 20
-140.9019844092188
 30
0.0
 10
99.48541218413791
 20
-140.9467871869855
 30
0.0
 10
99.54051607162098
 20
-140.9467871869855
 30
0.0
 10
99.59565523688093
 20
-140.9467871869855
 30
0.0
 10
99.64042273573881
 20
-140.9019844092188
 30
0.0
 10
99.64042273573881
 20
-140.8468805203439
 30
0.0
  0
SPLINE
  5
5A
330
1F
100
AcDbEntity
  8
_U+30EC_U+30A4_U+30E4_U+30FC 1
 62
   179
420
  2234388
370
     9
100
AcDbSpline
210
0.0
220
0.0
230
1.0
 70
    11
 71
     3
 72
    17
 73
    13
 74
     0
 42
0.0000000001
 43
0.0000000001
 12
1.0
 22
0.0
 32
0.0
 13
1.0
 23
0.0
 33
0.0
 40
0.0
 40
0.0
 40
0.0
 40
0.0
 40
1.0
 40
1.0
 40
1.0
 40
2.0
 40
2.0
 40
2.0
 40
3.0
 40
3.0
 40
3.0
 40
4.0
 40
4.0
 40
4.0
 40
4.0
 10
84.6404883961968
 20
-140.8468805203439
 30
0.0
 10
84.6404883961968
 20
-140.7917413536908
 30
0.0
 10
84.59568561956203
 20
-140.7469738537023
 30
0.0
 10
84.54058173207896
 20
-140.7469738537023
 30
0.0
 10
84.48544256681902
 20
-140.7469738537023
 30
0.0
 10
84.44067506796112
 20
-140.7917413536908
 30
0.0
 10
84.44067506796112
 20
-140.8468805203439
 30
0.0
 10
84.44067506796112
 20
-140.9019844092188
 30
0.0
 10
84.48544256681902
 20
-140.9467871869855
 30
0.0
 10
84.54058173207896
 20
-140.9467871869855
 30
0.0
 10
84.59568561956203
 20
-140.9467871869855
 30
0.0
 10
84.6404883961968
 20
-140.9019844092188
 30
0.0
 10
84.6404883961968
 20
-140.8468805203439
 30
0.0
  0
SPLINE
  5
5B
330
1F
100
AcDbEntity
  8
_U+30EC_U+30A4_U+30E4_U+30FC 1
 62
   179
420
  2234388
370
     9
100
AcDbSpline
210
0.0
220
0.0
230
1.0
 70
    11
 71
     3
 72
    17
 73
    13
 74
     0
 42
0.0000000001
 43
0.0000000001
 12
1.0
 22
0.0
 32
0.0
 13
1.0
 23
0.0
 33
0.0
 40
0.0
 40
0.0
 40
0.0
 40
0.0
 40
1.0
 40
1.0
 40
1.0
 40
2.0
 40
2.0
 40
2.0
 40
3.0
 40
3.0
 40
3.0
 40
4.0
 40
4.0
 40
4.0
 40
4.0
 10
103.6415576336614
 20
-127.4149724681463
 30
0.0
 10
103.6415576336614
 20
-127.3598333014935
 30
0.0
 10
103.5967901348035
 20
-127.3150658015047
 30
0.0
 10
103.5416509695435
 20
-127.3150658015047
 30
0.0
 10
103.4865470820605
 20
-127.3150658015047
 30
0.0
 10
103.4417443054257
 20
-127.3598333014935
 30
0.0
 10
103.4417443054257
 20
-127.4149724681463
 30
0.0
 10
103.4417443054257
 20
-127.4707819125767
 30
0.0
 10
103.4865470820605
 20
-127.5155494125656
 30
0.0
 10
103.5416509695435
 20
-127.5155494125656
 30
0.0
 10
103.5967901348035
 20
-127.5155494125656
 30
0.0
 10
103.6415576336614
 20
-127.4707819125767
 30
0.0
 10
103.6415576336614
 20
-127.4149724681463
 30
0.0
  0
SPLINE
  5
5C
330
1F
100
AcDbEntity
  8
_U+30EC_U+30A4_U+30E4_U+30FC 1
 62
   179
420
  2234388
370
     9
100
AcDbSpline
210
0.0
220
0.0
230
1.0
 70
    11
 71
     3
 72
    17
 73
    13
 74
     0
 42
0.0000000001
 43
0.0000000001
 12
1.0
 22
0.0
 32
0.0
 13
1.0
 23
0.0
 33
0.0
 40
0.0
 40
0.0
 40
0.0
 40
0.0
 40
1.0
 40
1.0
 40
1.0
 40
2.0
 40
2.0
 40
2.0
 40
3.0
 40
3.0
 40
3.0
 40
4.0
 40
4.0
 40
4.0
 40
4.0
 10
103.6415576336614
 20
-135.8466435771496
 30
0.0
 10
103.6415576336614
 20
-135.791539688274
 30
0.0
 10
103.5967901348035
 20
-135.746736910508
 30
0.0
 10
103.5416509695435
 20
-135.746736910508
 30
0.0
 10
103.4865470820605
 20
-135.746736910508
 30
0.0
 10
103.4417443054257
 20
-135.791539688274
 30
0.0
 10
103.4417443054257
 20
-135.8466435771496
 30
0.0
 10
103.4417443054257
 20
-135.9024882993576
 30
0.0
 10
103.4865470820605
 20
-135.9472557993468
 30
0.0
 10
103.5416509695435
 20
-135.9472557993468
 30
0.0
 10
103.5967901348035
 20
-135.9472557993468
 30
0.0
 10
103.6415576336614
 20
-135.9024882993576
 30
0.0
 10
103.6415576336614
 20
-135.8466435771496
 30
0.0
  0
INSERT
  5
5E
330
1F
100
AcDbEntity
  8
_U+30EC_U+30A4_U+30E4_U+30FC 1
100
AcDbBlockReference
  2
block 2
 10
0.0
 20
0.0
 30
0.0
  0
POLYLINE
  5
66
330
1F
100
AcDbEntity
  8
_U+30EC_U+30A4_U+30E4_U+30FC 1
 62
   179
420
  2234388
370
     9
100
AcDb2dPolyline
 66
     1
 10
0.0
 20
0.0
 30
0.0
  0
VERTEX
  5
67
330
66
100
AcDbEntity
  8
_U+30EC_U+30A4_U+30E4_U+30FC 1
 62
   179
420
  2234388
370
     9
100
AcDbVertex
100
AcDb2dVertex
 10
85.54053031767926
 20
-117.8472510816492
 30
0.0
  0
VERTEX
  5
68
330
66
100
AcDbEntity
  8
_U+30EC_U+30A4_U+30E4_U+30FC 1
 62
   179
420
  2234388
370
     9
100
AcDbVertex
100
AcDb2dVertex
 10
105.5415481407441
 20
-117.8472510816492
 30
0.0
  0
SEQEND
  5
69
330
66
100
AcDbEntity
  8
_U+30EC_U+30A4_U+30E4_U+30FC 1
 62
   179
420
  2234388
370
     9
  0
POLYLINE
  5
6A
330
1F
100
AcDbEntity
  8
_U+30EC_U+30A4_U+30E4_U+30FC 1
 62
   179
420
  2234388
370
     9
100
AcDb2dPolyline
 66
     1
 10
0.0
 20
0.0
 30
0.0
  0
VERTEX
  5
6B
330
6A
100
AcDbEntity
  8
_U+30EC_U+30A4_U+30E4_U+30FC 1
 62
   179
420
  2234388
370
     9
100
AcDbVertex
100
AcDb2dVertex
 10
85.54053031767926
 20
-120.3070294143676
 30
0.0
  0
VERTEX
  5
6C
330
6A
100
AcDbEntity
  8
_U+30EC_U+30A4_U+30E4_U+30FC 1
 62
   179
420
  2234388
370
     9
100
AcDbVertex
100
AcDb2dVertex
 10
85.54053031767926
 20
-116.8471260818992
 30
0.0
  0
SEQEND
  5
6D
330
6A
100
AcDbEntity
  8
_U+30EC_U+30A4_U+30E4_U+30FC 1
 62
   179
420
  2234388
370
     9
  0
POLYLINE
  5
6E
330
1F
100
AcDbEntity
  8
_U+30EC_U+30A4_U+30E4_U+30FC 1
 62
   179
420
  2234388
370
     9
100
AcDb2dPolyline
 66
     1
 10
0.0
 20
0.0
 30
0.0
  0
VERTEX
  5
6F
330
6E
100
AcDbEntity
  8
_U+30EC_U+30A4_U+30E4_U+30FC 1
 62
   179
420
  2234388
370
     9
100
AcDbVertex
100
AcDb2dVertex
 10
105.5415481407441
 20
-124.9151891354378
 30
0.0
  0
VERTEX
  5
70
330
6E
100
AcDbEntity
  8
_U+30EC_U+30A4_U+30E4_U+30FC 1
 62
   179
420
  2234388
370
     9
100
AcDbVertex
100
AcDb2dVertex
 10
105.5415481407441
 20
-116.8471260818992
 30
0.0
  0
SEQEND
  5
71
330
6E
100
AcDbEntity
  8
_U+30EC_U+30A4_U+30E4_U+30FC 1
 62
   179
420
  2234388
370
     9
  0
INSERT
  5
73
330
1F
100
AcDbEntity
  8
_U+30EC_U+30A4_U+30E4_U+30FC 1
100
AcDbBlockReference
  2
block 3
 10
0.0
 20
0.0
 30
0.0
  0
POLYLINE
  5
7B
330
1F
100
AcDbEntity
  8
_U+30EC_U+30A4_U+30E4_U+30FC 1
 62
   179
420
  2234388
370
     9
100
AcDb2dPolyline
 66
     1
 10
0.0
 20
0.0
 30
0.0
  0
VERTEX
  5
7C
330
7B
100
AcDbEntity
  8
_U+30EC_U+30A4_U+30E4_U+30FC 1
 62
   179
420
  2234388
370
     9
100
AcDbVertex
100
AcDb2dVertex
 10
85.54067142878677
 20
-124.3472874689131
 30
0.0
  0
VERTEX
  5
7D
330
7B
100
AcDbEntity
  8
_U+30EC_U+30A4_U+30E4_U+30FC 1
 62
   179
420
  2234388
370
     9
100
AcDbVertex
100
AcDb2dVertex
 10
89.31084272149057
 20
-124.3472874689131
 30
0.0
  0
SEQEND
  5
7E
330
7B
100
AcDbEntity
  8
_U+30EC_U+30A4_U+30E4_U+30FC 1
 62
   179
420
  2234388
370
     9
  0
POLYLINE
  5
7F
330
1F
100
AcDbEntity
  8
_U+30EC_U+30A4_U+30E4_U+30FC 1
 62
   179
420
  2234388
370
     9
100
AcDb2dPolyline
 66
     1
 10
0.0
 20
0.0
 30
0.0
  0
VERTEX
  5
80
330
7F
100
AcDbEntity
  8
_U+30EC_U+30A4_U+30E4_U+30FC 1
 62
   179
420
  2234388
370
     9
100
AcDbVertex
100
AcDb2dVertex
 10
83.54080953536305
 20
-124.3472874689131
 30
0.0
  0
VERTEX
  5
81
330
7F
100
AcDbEntity
  8
_U+30EC_U+30A4_U+30E4_U+30FC 1
 62
   179
420
  2234388
370
     9
100
AcDbVertex
100
AcDb2dVertex
 10
85.54067142878677
 20
-124.3472874689131
 30
0.0
  0
SEQEND
  5
82
330
7F
100
AcDbEntity
  8
_U+30EC_U+30A4_U+30E4_U+30FC 1
 62
   179
420
  2234388
370
     9
  0
INSERT
  5
84
330
1F
100
AcDbEntity
  8
_U+30EC_U+30A4_U+30E4_U+30FC 1
100
AcDbBlockReference
  2
block 4
 10
0.0
 20
0.0
 30
0.0
  0
POLYLINE
  5
89
330
1F
100
AcDbEntity
  8
_U+30EC_U+30A4_U+30E4_U+30FC 1
 62
   179
420
  2234388
370
     9
100
AcDb2dPolyline
 66
     1
 10
0.0
 20
0.0
 30
0.0
  0
VERTEX
  5
8A
330
89
100
AcDbEntity
  8
_U+30EC_U+30A4_U+30E4_U+30FC 1
 62
   179
420
  2234388
370
     9
100
AcDbVertex
100
AcDb2dVertex
 10
84.54058173207896
 20
-140.8468805203439
 30
0.0
  0
VERTEX
  5
8B
330
89
100
AcDbEntity
  8
_U+30EC_U+30A4_U+30E4_U+30FC 1
 62
   179
420
  2234388
370
     9
100
AcDbVertex
100
AcDb2dVertex
 10
99.54051607162098
 20
-140.8468805203439
 30
0.0
  0
SEQEND
  5
8C
330
89
100
AcDbEntity
  8
_U+30EC_U+30A4_U+30E4_U+30FC 1
 62
   179
420
  2234388
370
     9
  0
POLYLINE
  5
8D
330
1F
100
AcDbEntity
  8
_U+30EC_U+30A4_U+30E4_U+30FC 1
 62
   179
420
  2234388
370
     9
100
AcDb2dPolyline
 66
     1
 10
0.0
 20
0.0
 30
0.0
  0
VERTEX
  5
8E
330
8D
100
AcDbEntity
  8
_U+30EC_U+30A4_U+30E4_U+30FC 1
 62
   179
420
  2234388
370
     9
100
AcDbVertex
100
AcDb2dVertex
 10
84.54058173207896
 20
-138.3870669098477
 30
0.0
  0
VERTEX
  5
8F
330
8D
100
AcDbEntity
  8
_U+30EC_U+30A4_U+30E4_U+30FC 1
 62
   179
420
  2234388
370
     9
100
AcDbVertex
100
AcDb2dVertex
 10
84.54058173207896
 20
-141.846970242316
 30
0.0
  0
SEQEND
  5
90
330
8D
100
AcDbEntity
  8
_U+30EC_U+30A4_U+30E4_U+30FC 1
 62
   179
420
  2234388
370
     9
  0
POLYLINE
  5
91
330
1F
100
AcDbEntity
  8
_U+30EC_U+30A4_U+30E4_U+30FC 1
 62
   179
420
  2234388
370
     9
100
AcDb2dPolyline
 66
     1
 10
0.0
 20
0.0
 30
0.0
  0
VERTEX
  5
92
330
91
100
AcDbEntity
  8
_U+30EC_U+30A4_U+30E4_U+30FC 1
 62
   179
420
  2234388
370
     9
100
AcDbVertex
100
AcDb2dVertex
 10
99.54051607162098
 20
-138.3870669098477
 30
0.0
  0
VERTEX
  5
93
330
91
100
AcDbEntity
  8
_U+30EC_U+30A4_U+30E4_U+30FC 1
 62
   179
420
  2234388
370
     9
100
AcDbVertex
100
AcDb2dVertex
 10
99.54051607162098
 20
-141.846970242316
 30
0.0
  0
SEQEND
  5
94
330
91
100
AcDbEntity
  8
_U+30EC_U+30A4_U+30E4_U+30FC 1
 62
   179
420
  2234388
370
     9
  0
INSERT
  5
96
330
1F
100
AcDbEntity
  8
_U+30EC_U+30A4_U+30E4_U+30FC 1
100
AcDbBlockReference
  2
block 5
 10
0.0
 20
0.0
 30
0.0
  0
POLYLINE
  5
9D
330
1F
100
AcDbEntity
  8
_U+30EC_U+30A4_U+30E4_U+30FC 1
 62
   179
420
  2234388
370
     9
100
AcDb2dPolyline
 66
     1
 10
0.0
 20
0.0
 30
0.0
  0
VERTEX
  5
9E
330
9D
100
AcDbEntity
  8
_U+30EC_U+30A4_U+30E4_U+30FC 1
 62
   179
420
  2234388
370
     9
100
AcDbVertex
100
AcDb2dVertex
 10
103.5416509695435
 20
-135.8466435771496
 30
0.0
  0
VERTEX
  5
9F
330
9D
100
AcDbEntity
  8
_U+30EC_U+30A4_U+30E4_U+30FC 1
 62
   179
420
  2234388
370
     9
100
AcDbVertex
100
AcDb2dVertex
 10
103.5416509695435
 20
-127.4149724681463
 30
0.0
  0
SEQEND
  5
A0
330
9D
100
AcDbEntity
  8
_U+30EC_U+30A4_U+30E4_U+30FC 1
 62
   179
420
  2234388
370
     9
  0
POLYLINE
  5
A1
330
1F
100
AcDbEntity
  8
_U+30EC_U+30A4_U+30E4_U+30FC 1
 62
   179
420
  2234388
370
     9
100
AcDb2dPolyline
 66
     1
 10
0.0
 20
0.0
 30
0.0
  0
VERTEX
  5
A2
330
A1
100
AcDbEntity
  8
_U+30EC_U+30A4_U+30E4_U+30FC 1
 62
   179
420
  2234388
370
     9
100
AcDbVertex
100
AcDb2dVertex
 10
102.0812921179115
 20
-135.8466435771496
 30
0.0
  0
VERTEX
  5
A3
330
A1
100
AcDbEntity
  8
_U+30EC_U+30A4_U+30E4_U+30FC 1
 62
   179
420
  2234388
370
     9
100
AcDbVertex
100
AcDb2dVertex
 10
104.5414231662594
 20
-135.8466435771496
 30
0.0
  0
SEQEND
  5
A4
330
A1
100
AcDbEntity
  8
_U+30EC_U+30A4_U+30E4_U+30FC 1
 62
   179
420
  2234388
370
     9
  0
POLYLINE
  5
A5
330
1F
100
AcDbEntity
  8
_U+30EC_U+30A4_U+30E4_U+30FC 1
 62
   179
420
  2234388
370
     9
100
AcDb2dPolyline
 66
     1
 10
0.0
 20
0.0
 30
0.0
  0
VERTEX
  5
A6
330
A5
100
AcDbEntity
  8
_U+30EC_U+30A4_U+30E4_U+30FC 1
 62
   179
420
  2234388
370
     9
100
AcDbVertex
100
AcDb2dVertex
 10
102.0812921179115
 20
-127.4149724681463
 30
0.0
  0
VERTEX
  5
A7
330
A5
100
AcDbEntity
  8
_U+30EC_U+30A4_U+30E4_U+30FC 1
 62
   179
420
  2234388
370
     9
100
AcDbVertex
100
AcDb2dVertex
 10
104.5414231662594
 20
-127.4149724681463
 30
0.0
  0
SEQEND
  5
A8
330
A5
100
AcDbEntity
  8
_U+30EC_U+30A4_U+30E4_U+30FC 1
 62
   179
420
  2234388
370
     9
  0
INSERT
  5
AA
330
1F
100
AcDbEntity
  8
_U+30EC_U+30A4_U+30E4_U+30FC 1
100
AcDbBlockReference
  2
block 6
 10
0.0
 20
0.0
 30
0.0
  0
POLYLINE
  5
BB
330
1F
100
AcDbEntity
  8
_U+30EC_U+30A4_U+30E4_U+30FC 1
 62
   179
420
  2234388
370
     9
100
AcDb2dPolyline
 66
     1
 10
0.0
 20
0.0
 30
0.0
  0
VERTEX
  5
BC
330
BB
100
AcDbEntity
  8
_U+30EC_U+30A4_U+30E4_U+30FC 1
 62
   179
420
  2234388
370
     9
100
AcDbVertex
100
AcDb2dVertex
 10
80.54082266745465
 20
-136.8216155213501
 30
0.0
  0
VERTEX
  5
BD
330
BB
100
AcDbEntity
  8
_U+30EC_U+30A4_U+30E4_U+30FC 1
 62
   179
420
  2234388
370
     9
100
AcDbVertex
100
AcDb2dVertex
 10
80.54082266745465
 20
-121.8470102473161
 30
0.0
  0
SEQEND
  5
BE
330
BB
100
AcDbEntity
  8
_U+30EC_U+30A4_U+30E4_U+30FC 1
 62
   179
420
  2234388
370
     9
  0
POLYLINE
  5
BF
330
1F
100
AcDbEntity
  8
_U+30EC_U+30A4_U+30E4_U+30FC 1
 62
   179
420
  2234388
370
     9
100
AcDb2dPolyline
 66
     1
 10
0.0
 20
0.0
 30
0.0
  0
VERTEX
  5
C0
330
BF
100
AcDbEntity
  8
_U+30EC_U+30A4_U+30E4_U+30FC 1
 62
   179
420
  2234388
370
     9
100
AcDbVertex
100
AcDb2dVertex
 10
83.00060093803381
 20
-136.8219682991279
 30
0.0
  0
VERTEX
  5
C1
330
BF
100
AcDbEntity
  8
_U+30EC_U+30A4_U+30E4_U+30FC 1
 62
   179
420
  2234388
370
     9
100
AcDbVertex
100
AcDb2dVertex
 10
79.54069769296997
 20
-136.8219682991279
 30
0.0
  0
SEQEND
  5
C2
330
BF
100
AcDbEntity
  8
_U+30EC_U+30A4_U+30E4_U+30FC 1
 62
   179
420
  2234388
370
     9
  0
POLYLINE
  5
C3
330
1F
100
AcDbEntity
  8
_U+30EC_U+30A4_U+30E4_U+30FC 1
 62
   179
420
  2234388
370
     9
100
AcDb2dPolyline
 66
     1
 10
0.0
 20
0.0
 30
0.0
  0
VERTEX
  5
C4
330
C3
100
AcDbEntity
  8
_U+30EC_U+30A4_U+30E4_U+30FC 1
 62
   179
420
  2234388
370
     9
100
AcDbVertex
100
AcDb2dVertex
 10
83.00060093803381
 20
-121.8470102473161
 30
0.0
  0
VERTEX
  5
C5
330
C3
100
AcDbEntity
  8
_U+30EC_U+30A4_U+30E4_U+30FC 1
 62
   179
420
  2234388
370
     9
100
AcDbVertex
100
AcDb2dVertex
 10
79.54069769296997
 20
-121.8470102473161
 30
0.0
  0
SEQEND
  5
C6
330
C3
100
AcDbEntity
  8
_U+30EC_U+30A4_U+30E4_U+30FC 1
 62
   179
420
  2234388
370
     9
  0
INSERT
  5
C8
330
1F
100
AcDbEntity
  8
_U+30EC_U+30A4_U+30E4_U+30FC 1
100
AcDbBlockReference
  2
block 7
 10
0.0
 20
0.0
 30
0.0
  0
SPLINE
  5
CF
330
1F
100
AcDbEntity
  8
_U+30EC_U+30A4_U+30E4_U+30FC 1
 62
   179
420
  2234388
370
    25
100
AcDbSpline
210
0.0
220
0.0
230
1.0
 70
    11
 71
     3
 72
    74
 73
    70
 74
     0
 42
0.0000000001
 43
0.0000000001
 12
1.0
 22
0.0
 32
0.0
 13
1.0
 23
0.0
 33
0.0
 40
0.0
 40
0.0
 40
0.0
 40
0.0
 40
1.0
 40
1.0
 40
1.0
 40
2.0
 40
2.0
 40
2.0
 40
3.0
 40
3.0
 40
3.0
 40
4.0
 40
4.0
 40
4.0
 40
5.0
 40
5.0
 40
5.0
 40
6.0
 40
6.0
 40
6.0
 40
7.0
 40
7.0
 40
7.0
 40
8.0
 40
8.0
 40
8.0
 40
9.0
 40
9.0
 40
9.0
 40
10.0
 40
10.0
 40
10.0
 40
11.0
 40
11.0
 40
11.0
 40
12.0
 40
12.0
 40
12.0
 40
13.0
 40
13.0
 40
13.0
 40
14.0
 40
14.0
 40
14.0
 40
15.0
 40
15.0
 40
15.0
 40
16.0
 40
16.0
 40
16.0
 40
17.0
 40
17.0
 40
17.0
 40
18.0
 40
18.0
 40
18.0
 40
19.0
 40
19.0
 40
19.0
 40
20.0
 40
20.0
 40
20.0
 40
21.0
 40
21.0
 40
21.0
 40
22.0
 40
22.0
 40
22.0
 40
23.0
 40
23.0
 40
23.0
 40
23.0
 10
87.52935026694024
 20
-126.4162233017292
 30
0.0
 10
87.52935026694024
 20
-126.4162233017292
 30
0.0
 10
87.33817999403962
 20
-126.6160366350128
 30
0.0
 10
87.33817999403962
 20
-126.6160366350128
 30
0.0
 10
87.33817999403962
 20
-126.6160366350128
 30
0.0
 10
87.1294083115509
 20
-126.4158705239514
 30
0.0
 10
87.1294083115509
 20
-126.4158705239514
 30
0.0
 10
87.1294083115509
 20
-126.4158705239514
 30
0.0
 10
86.92959278224133
 20
-126.615683857235
 30
0.0
 10
86.92959278224133
 20
-126.615683857235
 30
0.0
 10
86.92959278224133
 20
-126.615683857235
 30
0.0
 10
86.72942667623688
 20
-126.4155530239518
 30
0.0
 10
86.72942667623688
 20
-126.4155530239518
 30
0.0
 10
86.72942667623688
 20
-126.4155530239518
 30
0.0
 10
86.5296133480012
 20
-126.6153663572351
 30
0.0
 10
86.5296133480012
 20
-126.6153663572351
 30
0.0
 10
86.5296133480012
 20
-126.6153663572351
 30
0.0
 10
86.32944724199676
 20
-126.4152002461741
 30
0.0
 10
86.32944724199676
 20
-126.4152002461741
 30
0.0
 10
86.32944724199676
 20
-126.4152002461741
 30
0.0
 10
85.54067142878677
 20
-126.4152002461741
 30
0.0
 10
85.54067142878677
 20
-126.4152002461741
 30
0.0
 10
85.54067142878677
 20
-126.4152002461741
 30
0.0
 10
85.54067142878677
 20
-121.8470102473161
 30
0.0
 10
85.54067142878677
 20
-121.8470102473161
 30
0.0
 10
84.98843310954221
 20
-121.8470102473161
 30
0.0
 10
84.54058173207896
 20
-122.2948616360928
 30
0.0
 10
84.54058173207896
 20
-122.8470999692883
 30
0.0
 10
84.54058173207896
 20
-122.8470999692883
 30
0.0
 10
84.54058173207896
 20
-135.8466435771496
 30
0.0
 10
84.54058173207896
 20
-135.8466435771496
 30
0.0
 10
84.54058173207896
 20
-136.3992699659
 30
0.0
 10
84.98843310954221
 20
-136.847121354677
 30
0.0
 10
85.54067142878677
 20
-136.847121354677
 30
0.0
 10
85.54067142878677
 20
-136.847121354677
 30
0.0
 10
98.49597637604718
 20
-136.847121354677
 30
0.0
 10
98.49597637604718
 20
-136.847121354677
 30
0.0
 10
99.04856747306052
 20
-136.847121354677
 30
0.0
 10
99.54051607162098
 20
-136.4674619103277
 30
0.0
 10
99.54051607162098
 20
-135.9148707993548
 30
0.0
 10
99.54051607162098
 20
-135.9148707993548
 30
0.0
 10
85.54067142878677
 20
-135.9148707993548
 30
0.0
 10
85.54067142878677
 20
-135.9148707993548
 30
0.0
 10
85.54067142878677
 20
-135.9148707993548
 30
0.0
 10
85.54067142878677
 20
-127.4149724681463
 30
0.0
 10
85.54067142878677
 20
-127.4149724681463
 30
0.0
 10
85.54067142878677
 20
-127.4149724681463
 30
0.0
 10
99.54051607162098
 20
-127.4149724681463
 30
0.0
 10
99.54051607162098
 20
-127.4149724681463
 30
0.0
 10
99.54051607162098
 20
-127.4149724681463
 30
0.0
 10
100.0600518916998
 20
-127.1152524682211
 30
0.0
 10
100.0600518916998
 20
-127.1152524682211
 30
0.0
 10
100.0600518916998
 20
-127.1152524682211
 30
0.0
 10
104.8411431586129
 20
-127.1152524682211
 30
0.0
 10
104.8411431586129
 20
-127.1152524682211
 30
0.0
 10
105.2280345376314
 20
-127.1152524682211
 30
0.0
 10
105.5415481407441
 20
-126.8017388571885
 30
0.0
 10
105.5415481407441
 20
-126.4152002461741
 30
0.0
 10
105.5415481407441
 20
-126.4152002461741
 30
0.0
 10
99.74170523315489
 20
-126.4152002461741
 30
0.0
 10
99.74170523315489
 20
-126.4152002461741
 30
0.0
 10
99.74170523315489
 20
-126.4152002461741
 30
0.0
 10
99.54189441955872
 20
-126.6150135794573
 30
0.0
 10
99.54189441955872
 20
-126.6150135794573
 30
0.0
 10
99.54189441955872
 20
-126.6150135794573
 30
0.0
 10
99.34207857668355
 20
-126.4148474683963
 30
0.0
 10
99.34207857668355
 20
-126.4148474683963
 30
0.0
 10
99.34207857668355
 20
-126.4148474683963
 30
0.0
 10
87.52935026694024
 20
-126.4162233017292
 30
0.0
 10
87.52935026694024
 20
-126.4162233017292
 30
0.0
  0
POLYLINE
  5
D0
330
1F
100
AcDbEntity
  8
_U+30EC_U+30A4_U+30E4_U+30FC 1
  6
AI-Linetype-1
 62
   251
420
  5855577
370
    25
100
AcDb2dPolyline
 66
     1
 10
0.0
 20
0.0
 30
0.0
  0
VERTEX
  5
D1
330
D0
100
AcDbEntity
  8
_U+30EC_U+30A4_U+30E4_U+30FC 1
  6
AI-Linetype-1
 62
   251
420
  5855577
370
    25
100
AcDbVertex
100
AcDb2dVertex
 10
85.86106419839065
 20
-121.1462524697133
 30
0.0
  0
VERTEX
  5
D2
330
D0
100
AcDbEntity
  8
_U+30EC_U+30A4_U+30E4_U+30FC 1
  6
AI-Linetype-1
 62
   251
420
  5855577
370
    25
100
AcDbVertex
100
AcDb2dVertex
 10
83.94008341406561
 20
-121.1462524697133
 30
0.0
  0
VERTEX
  5
D3
330
D0
100
AcDbEntity
  8
_U+30EC_U+30A4_U+30E4_U+30FC 1
  6
AI-Linetype-1
 62
   251
420
  5855577
370
    25
100
AcDbVertex
100
AcDb2dVertex
 10
83.94008341406561
 20
-137.4475844100826
 30
0.0
  0
VERTEX
  5
D4
330
D0
100
AcDbEntity
  8
_U+30EC_U+30A4_U+30E4_U+30FC 1
  6
AI-Linetype-1
 62
   251
420
  5855577
370
    25
100
AcDbVertex
100
AcDb2dVertex
 10
100.2205657764937
 20
-137.4475844100826
 30
0.0
  0
VERTEX
  5
D5
330
D0
100
AcDbEntity
  8
_U+30EC_U+30A4_U+30E4_U+30FC 1
  6
AI-Linetype-1
 62
   251
420
  5855577
370
    25
100
AcDbVertex
100
AcDb2dVertex
 10
100.2205657764937
 20
-135.5755338549951
 30
0.0
  0
SEQEND
  5
D7
330
D0
100
AcDbEntity
  8
_U+30EC_U+30A4_U+30E4_U+30FC 1
  6
AI-Linetype-1
 62
   251
420
  5855577
370
    25
  0
ENDSEC
  0
SECTION
  2
OBJECTS
  0
DICTIONARY
  5
C
330
0
100
AcDbDictionary
281
     1
  3
ACAD_GROUP
350
D
  3
ACAD_LAYOUT
350
1A
  3
ACAD_MATERIAL
350
3B
  3
ACAD_MLEADERSTYLE
350
D9
  3
ACAD_MLINESTYLE
350
17
  3
ACAD_PLOTSETTINGS
350
19
  3
ACAD_PLOTSTYLENAME
350
E
  3
ACAD_TABLESTYLE
350
D8
  3
ACAD_VISUALSTYLE
350
2A
  0
SUN
  5
3F
330
29
100
AcDbSun
 90
        1
290
     0
 63
     7
421
 16777215
 40
1.0
291
     1
 91
  2455826
 92
 54000000
292
     0
 70
     2
 71
   256
280
     1
  0
DICTIONARY
  5
D
102
{ACAD_REACTORS
330
C
102
}
330
C
100
AcDbDictionary
281
     1
  0
DICTIONARY
  5
1A
102
{ACAD_REACTORS
330
C
102
}
330
C
100
AcDbDictionary
281
     1
  3
Layout1
350
1E
  3
Layout2
350
26
  3
Model
350
22
  0
DICTIONARY
  5
3B
102
{ACAD_REACTORS
330
C
102
}
330
C
100
AcDbDictionary
281
     1
  3
ByBlock
350
3D
  3
ByLayer
350
3C
  3
Global
350
3E
  0
DICTIONARY
  5
D9
102
{ACAD_REACTORS
330
C
102
}
330
C
100
AcDbDictionary
281
     1
  0
DICTIONARY
  5
17
102
{ACAD_REACTORS
330
C
102
}
330
C
100
AcDbDictionary
281
     1
  3
Standard
350
18
  0
DICTIONARY
  5
19
102
{ACAD_REACTORS
330
C
102
}
330
C
100
AcDbDictionary
281
     1
  0
ACDBDICTIONARYWDFLT
  5
E
102
{ACAD_REACTORS
330
C
102
}
330
C
100
AcDbDictionary
281
     1
  3
Normal
350
F
100
AcDbDictionaryWithDefault
340
F
  0
DICTIONARY
  5
D8
102
{ACAD_REACTORS
330
C
102
}
330
C
100
AcDbDictionary
281
     1
  0
DICTIONARY
  5
2A
102
{ACAD_REACTORS
330
C
102
}
330
C
100
AcDbDictionary
281
     1
  3
2dWireframe
350
2F
  3
3D Hidden
350
31
  3
3dWireframe
350
30
  3
Basic
350
32
  3
Brighten
350
36
  3
ColorChange
350
3A
  3
Conceptual
350
34
  3
Dim
350
35
  3
Facepattern
350
39
  3
Flat
350
2B
  3
FlatWithEdges
350
2C
  3
Gouraud
350
2D
  3
GouraudWithEdges
350
2E
  3
Linepattern
350
38
  3
Realistic
350
33
  3
Thicken
350
37
  0
LAYOUT
  5
1E
102
{ACAD_REACTORS
330
1A
102
}
330
1A
100
AcDbPlotSettings
  1

  2
none_device
  4

  6

 40
0.0
 41
0.0
 42
0.0
 43
0.0
 44
0.0
 45
0.0
 46
0.0
 47
0.0
 48
0.0
 49
0.0
140
0.0
141
0.0
142
1.0
143
1.0
 70
   688
 72
     0
 73
     0
 74
     5
  7

 75
    16
 76
     0
 77
     2
 78
   300
147
1.0
148
0.0
149
0.0
100
AcDbLayout
  1
Layout1
 70
     1
 71
     1
 10
0.0
 20
0.0
 11
12.0
 21
9.0
 12
0.0
 22
0.0
 32
0.0
 14
1.000000000000000E+20
 24
1.000000000000000E+20
 34
1.000000000000000E+20
 15
-1.000000000000000E+20
 25
-1.000000000000000E+20
 35
-1.000000000000000E+20
146
0.0
 13
0.0
 23
0.0
 33
0.0
 16
1.0
 26
0.0
 36
0.0
 17
0.0
 27
1.0
 37
0.0
 76
     0
330
1B
  0
LAYOUT
  5
26
102
{ACAD_REACTORS
330
1A
102
}
330
1A
100
AcDbPlotSettings
  1

  2
none_device
  4

  6

 40
0.0
 41
0.0
 42
0.0
 43
0.0
 44
0.0
 45
0.0
 46
0.0
 47
0.0
 48
0.0
 49
0.0
140
0.0
141
0.0
142
1.0
143
1.0
 70
   688
 72
     0
 73
     0
 74
     5
  7

 75
    16
 76
     0
 77
     2
 78
   300
147
1.0
148
0.0
149
0.0
100
AcDbLayout
  1
Layout2
 70
     1
 71
     2
 10
0.0
 20
0.0
 11
0.0
 21
0.0
 12
0.0
 22
0.0
 32
0.0
 14
0.0
 24
0.0
 34
0.0
 15
0.0
 25
0.0
 35
0.0
146
0.0
 13
0.0
 23
0.0
 33
0.0
 16
1.0
 26
0.0
 36
0.0
 17
0.0
 27
1.0
 37
0.0
 76
     0
330
23
  0
LAYOUT
  5
22
102
{ACAD_REACTORS
330
1A
102
}
330
1A
100
AcDbPlotSettings
  1

  2
none_device
  4

  6

 40
0.0
 41
0.0
 42
0.0
 43
0.0
 44
0.0
 45
0.0
 46
0.0
 47
0.0
 48
0.0
 49
0.0
140
0.0
141
0.0
142
1.0
143
1.0
 70
  1712
 72
     0
 73
     0
 74
     0
  7

 75
     0
 76
     0
 77
     2
 78
   300
147
1.0
148
0.0
149
0.0
100
AcDbLayout
  1
Model
 70
     1
 71
     0
 10
0.0
 20
0.0
 11
12.0
 21
9.0
 12
0.0
 22
0.0
 32
0.0
 14
1.000000000000000E+20
 24
1.000000000000000E+20
 34
1.000000000000000E+20
 15
-1.000000000000000E+20
 25
-1.000000000000000E+20
 35
-1.000000000000000E+20
146
0.0
 13
0.0
 23
0.0
 33
0.0
 16
1.0
 26
0.0
 36
0.0
 17
0.0
 27
1.0
 37
0.0
 76
     0
330
1F
331
29
  0
MATERIAL
  5
3D
102
{ACAD_REACTORS
330
3B
102
}
330
3B
100
AcDbMaterial
  1
ByBlock
 72
     1
 94
      127
  0
MATERIAL
  5
3C
102
{ACAD_REACTORS
330
3B
102
}
330
3B
100
AcDbMaterial
  1
ByLayer
 72
     1
 94
      127
  0
MATERIAL
  5
3E
102
{ACAD_REACTORS
330
3B
102
}
330
3B
100
AcDbMaterial
  1
Global
 72
     1
 94
      127
  0
MLINESTYLE
  5
18
102
{ACAD_REACTORS
330
17
102
}
330
17
100
AcDbMlineStyle
  2
Standard
 70
     0
  3

 62
   256
 51
90.0
 52
90.0
 71
     2
 49
0.5
 62
   256
  6
BYLAYER
 49
-0.5
 62
   256
  6
BYLAYER
  0
ACDBPLACEHOLDER
  5
F
102
{ACAD_REACTORS
330
E
102
}
330
E
  0
VISUALSTYLE
  5
2F
102
{ACAD_REACTORS
330
2A
102
}
330
2A
100
AcDbVisualStyle
  2
2dWireframe
 70
     4
177
     2
291
     0
 71
     0
176
     1
 72
     2
176
     1
 73
     0
176
     1
 90
        0
176
     1
 40
-0.6
176
     1
 41
-30.0
176
     1
 62
     5
 63
     7
421
 16777215
176
     1
 74
     1
176
     1
 91
        4
176
     1
 64
     7
176
     1
 65
   257
176
     1
 75
     1
176
     1
175
     1
176
     1
 42
1.0
176
     1
 92
        0
176
     1
 66
   257
176
     1
 43
1.0
176
     1
 76
     1
176
     1
 77
     6
176
     1
 78
     2
176
     1
 67
     7
176
     1
 79
     5
176
     1
170
     0
176
     1
171
     0
176
     1
290
     0
176
     1
 93
        1
176
     1
 44
0.0
176
     1
173
     0
176
     1
  0
VISUALSTYLE
  5
31
102
{ACAD_REACTORS
330
2A
102
}
330
2A
100
AcDbVisualStyle
  2
3D Hidden
 70
     6
177
     2
291
     0
 71
     1
176
     1
 72
     2
176
     1
 73
     2
176
     1
 90
        0
176
     1
 40
-0.6
176
     1
 41
-30.0
176
     1
 62
     5
 63
     7
421
 16777215
176
     1
 74
     2
176
     1
 91
        2
176
     1
 64
     7
176
     1
 65
   257
176
     1
 75
     2
176
     1
175
     1
176
     1
 42
40.0
176
     1
 92
        0
176
     1
 66
   257
176
     1
 43
1.0
176
     1
 76
     1
176
     1
 77
     6
176
     1
 78
     2
176
     1
 67
     7
176
     1
 79
     3
176
     1
170
     0
176
     1
171
     0
176
     1
290
     0
176
     1
 93
        1
176
     1
 44
0.0
176
     1
173
     0
176
     1
  0
VISUALSTYLE
  5
30
102
{ACAD_REACTORS
330
2A
102
}
330
2A
100
AcDbVisualStyle
  2
3dWireframe
 70
     5
177
     2
291
     0
 71
     0
176
     1
 72
     2
176
     1
 73
     0
176
     1
 90
        0
176
     1
 40
-0.6
176
     1
 41
-30.0
176
     1
 62
     5
 63
     7
421
 16777215
176
     1
 74
     1
176
     1
 91
        4
176
     1
 64
     7
176
     1
 65
   257
176
     1
 75
     1
176
     1
175
     1
176
     1
 42
1.0
176
     1
 92
        0
176
     1
 66
   257
176
     1
 43
1.0
176
     1
 76
     1
176
     1
 77
     6
176
     1
 78
     2
176
     1
 67
     7
176
     1
 79
     5
176
     1
170
     0
176
     1
171
     0
176
     1
290
     0
176
     1
 93
        1
176
     1
 44
0.0
176
     1
173
     0
176
     1
  0
VISUALSTYLE
  5
32
102
{ACAD_REACTORS
330
2A
102
}
330
2A
100
AcDbVisualStyle
  2
Basic
 70
     7
177
     2
291
     1
 71
     1
176
     1
 72
     0
176
     1
 73
     1
176
     1
 90
        0
176
     1
 40
-0.6
176
     1
 41
-30.0
176
     1
 62
     5
 63
     7
421
 16777215
176
     1
 74
     0
176
     1
 91
        4
176
     1
 64
     7
176
     1
 65
   257
176
     1
 75
     1
176
     1
175
     1
176
     1
 42
1.0
176
     1
 92
        8
176
     1
 66
     7
176
     1
 43
1.0
176
     1
 76
     1
176
     1
 77
     6
176
     1
 78
     2
176
     1
 67
     7
176
     1
 79
     5
176
     1
170
     0
176
     1
171
     0
176
     1
290
     0
176
     1
 93
        1
176
     1
 44
0.0
176
     1
173
     0
176
     1
  0
VISUALSTYLE
  5
36
102
{ACAD_REACTORS
330
2A
102
}
330
2A
100
AcDbVisualStyle
  2
Brighten
 70
    12
177
     2
291
     1
 71
     2
176
     1
 72
     2
176
     1
 73
     0
176
     1
 90
        0
176
     1
 40
-0.6
176
     1
 41
-30.0
176
     1
 62
     5
 63
     7
421
 16777215
176
     1
 74
     1
176
     1
 91
        4
176
     1
 64
     7
176
     1
 65
   257
176
     1
 75
     1
176
     1
175
     1
176
     1
 42
1.0
176
     1
 92
        8
176
     1
 66
     7
176
     1
 43
1.0
176
     1
 76
     1
176
     1
 77
     6
176
     1
 78
     2
176
     1
 67
     7
176
     1
 79
     5
176
     1
170
     0
176
     1
171
     0
176
     1
290
     0
176
     1
 93
        1
176
     1
 44
50.0
176
     1
173
     0
176
     1
  0
VISUALSTYLE
  5
3A
102
{ACAD_REACTORS
330
2A
102
}
330
2A
100
AcDbVisualStyle
  2
ColorChange
 70
    16
177
     2
291
     1
 71
     2
176
     1
 72
     2
176
     1
 73
     3
176
     1
 90
        0
176
     1
 40
-0.6
176
     1
 41
-30.0
176
     1
 62
     5
 63
     8
421
  8421504
176
     1
 74
     1
176
     1
 91
        4
176
     1
 64
     7
176
     1
 65
   257
176
     1
 75
     1
176
     1
175
     1
176
     1
 42
1.0
176
     1
 92
        8
176
     1
 66
     8
424
  8421504
176
     1
 43
1.0
176
     1
 76
     1
176
     1
 77
     6
176
     1
 78
     2
176
     1
 67
     7
176
     1
 79
     5
176
     1
170
     0
176
     1
171
     0
176
     1
290
     0
176
     1
 93
        1
176
     1
 44
0.0
176
     1
173
     0
176
     1
  0
VISUALSTYLE
  5
34
102
{ACAD_REACTORS
330
2A
102
}
330
2A
100
AcDbVisualStyle
  2
Conceptual
 70
     9
177
     2
291
     0
 71
     3
176
     1
 72
     2
176
     1
 73
     0
176
     1
 90
        0
176
     1
 40
-0.6
176
     1
 41
-30.0
176
     1
 62
     5
 63
     7
421
 16777215
176
     1
 74
     2
176
     1
 91
        2
176
     1
 64
     7
176
     1
 65
   257
176
     1
 75
     1
176
     1
175
     1
176
     1
 42
40.0
176
     1
 92
        8
176
     1
 66
     7
176
     1
 43
1.0
176
     1
 76
     1
176
     1
 77
     6
176
     1
 78
     2
176
     1
 67
     7
176
     1
 79
     3
176
     1
170
     0
176
     1
171
     0
176
     1
290
     0
176
     1
 93
        1
176
     1
 44
0.0
176
     1
173
     0
176
     1
  0
VISUALSTYLE
  5
35
102
{ACAD_REACTORS
330
2A
102
}
330
2A
100
AcDbVisualStyle
  2
Dim
 70
    11
177
     2
291
     1
 71
     2
176
     1
 72
     2
176
     1
 73
     0
176
     1
 90
        0
176
     1
 40
-0.6
176
     1
 41
-30.0
176
     1
 62
     5
 63
     7
421
 16777215
176
     1
 74
     1
176
     1
 91
        4
176
     1
 64
     7
176
     1
 65
   257
176
     1
 75
     1
176
     1
175
     1
176
     1
 42
1.0
176
     1
 92
        8
176
     1
 66
     7
176
     1
 43
1.0
176
     1
 76
     1
176
     1
 77
     6
176
     1
 78
     2
176
     1
 67
     7
176
     1
 79
     5
176
     1
170
     0
176
     1
171
     0
176
     1
290
     0
176
     1
 93
        1
176
     1
 44
-50.0
176
     1
173
     0
176
     1
  0
VISUALSTYLE
  5
39
102
{ACAD_REACTORS
330
2A
102
}
330
2A
100
AcDbVisualStyle
  2
Facepattern
 70
    15
177
     2
291
     1
 71
     2
176
     1
 72
     2
176
     1
 73
     0
176
     1
 90
        0
176
     1
 40
-0.6
176
     1
 41
-30.0
176
     1
 62
     5
 63
     7
421
 16777215
176
     1
 74
     1
176
     1
 91
        4
176
     1
 64
     7
176
     1
 65
   257
176
     1
 75
     1
176
     1
175
     1
176
     1
 42
1.0
176
     1
 92
        8
176
     1
 66
     7
176
     1
 43
1.0
176
     1
 76
     1
176
     1
 77
     6
176
     1
 78
     2
176
     1
 67
     7
176
     1
 79
     5
176
     1
170
     0
176
     1
171
     0
176
     1
290
     0
176
     1
 93
        1
176
     1
 44
0.0
176
     1
173
     0
176
     1
  0
VISUALSTYLE
  5
2B
102
{ACAD_REACTORS
330
2A
102
}
330
2A
100
AcDbVisualStyle
  2
Flat
 70
     0
177
     2
291
     1
 71
     2
176
     1
 72
     1
176
     1
 73
     1
176
     1
 90
        2
176
     1
 40
-0.6
176
     1
 41
30.0
176
     1
 62
     5
 63
     7
421
 16777215
176
     1
 74
     0
176
     1
 91
        4
176
     1
 64
     7
176
     1
 65
   257
176
     1
 75
     1
176
     1
175
     1
176
     1
 42
1.0
176
     1
 92
        8
176
     1
 66
     7
176
     1
 43
1.0
176
     1
 76
     1
176
     1
 77
     6
176
     1
 78
     2
176
     1
 67
     7
176
     1
 79
     5
176
     1
170
     0
176
     1
171
     0
176
     1
290
     0
176
     1
 93
       13
176
     1
 44
0.0
176
     1
173
     0
176
     1
  0
VISUALSTYLE
  5
2C
102
{ACAD_REACTORS
330
2A
102
}
330
2A
100
AcDbVisualStyle
  2
FlatWithEdges
 70
     1
177
     2
291
     1
 71
     2
176
     1
 72
     1
176
     1
 73
     1
176
     1
 90
        2
176
     1
 40
-0.6
176
     1
 41
30.0
176
     1
 62
     5
 63
     7
421
 16777215
176
     1
 74
     1
176
     1
 91
        4
176
     1
 64
     7
176
     1
 65
   257
176
     1
 75
     1
176
     1
175
     1
176
     1
 42
1.0
176
     1
 92
        0
176
     1
 66
   257
176
     1
 43
1.0
176
     1
 76
     1
176
     1
 77
     6
176
     1
 78
     2
176
     1
 67
     7
176
     1
 79
     5
176
     1
170
     0
176
     1
171
     0
176
     1
290
     0
176
     1
 93
       13
176
     1
 44
0.0
176
     1
173
     0
176
     1
  0
VISUALSTYLE
  5
2D
102
{ACAD_REACTORS
330
2A
102
}
330
2A
100
AcDbVisualStyle
  2
Gouraud
 70
     2
177
     2
291
     1
 71
     2
176
     1
 72
     2
176
     1
 73
     1
176
     1
 90
        2
176
     1
 40
-0.6
176
     1
 41
30.0
176
     1
 62
     5
 63
     7
421
 16777215
176
     1
 74
     0
176
     1
 91
        4
176
     1
 64
     7
176
     1
 65
   257
176
     1
 75
     1
176
     1
175
     1
176
     1
 42
1.0
176
     1
 92
        0
176
     1
 66
     7
176
     1
 43
1.0
176
     1
 76
     1
176
     1
 77
     6
176
     1
 78
     2
176
     1
 67
     7
176
     1
 79
     5
176
     1
170
     0
176
     1
171
     0
176
     1
290
     0
176
     1
 93
       13
176
     1
 44
0.0
176
     1
173
     0
176
     1
  0
VISUALSTYLE
  5
2E
102
{ACAD_REACTORS
330
2A
102
}
330
2A
100
AcDbVisualStyle
  2
GouraudWithEdges
 70
     3
177
     2
291
     1
 71
     2
176
     1
 72
     2
176
     1
 73
     1
176
     1
 90
        2
176
     1
 40
-0.6
176
     1
 41
30.0
176
     1
 62
     5
 63
     7
421
 16777215
176
     1
 74
     1
176
     1
 91
        4
176
     1
 64
     7
176
     1
 65
   257
176
     1
 75
     1
176
     1
175
     1
176
     1
 42
1.0
176
     1
 92
        0
176
     1
 66
   257
176
     1
 43
1.0
176
     1
 76
     1
176
     1
 77
     6
176
     1
 78
     2
176
     1
 67
     7
176
     1
 79
     5
176
     1
170
     0
176
     1
171
     0
176
     1
290
     0
176
     1
 93
       13
176
     1
 44
0.0
176
     1
173
     0
176
     1
  0
VISUALSTYLE
  5
38
102
{ACAD_REACTORS
330
2A
102
}
330
2A
100
AcDbVisualStyle
  2
Linepattern
 70
    14
177
     2
291
     1
 71
     2
176
     1
 72
     2
176
     1
 73
     0
176
     1
 90
        0
176
     1
 40
-0.6
176
     1
 41
-30.0
176
     1
 62
     5
 63
     7
421
 16777215
176
     1
 74
     1
176
     1
 91
        4
176
     1
 64
     7
176
     1
 65
   257
176
     1
 75
     7
176
     1
175
     7
176
     1
 42
1.0
176
     1
 92
        8
176
     1
 66
     7
176
     1
 43
1.0
176
     1
 76
     1
176
     1
 77
     6
176
     1
 78
     2
176
     1
 67
     7
176
     1
 79
     5
176
     1
170
     0
176
     1
171
     0
176
     1
290
     0
176
     1
 93
        1
176
     1
 44
0.0
176
     1
173
     0
176
     1
  0
VISUALSTYLE
  5
33
102
{ACAD_REACTORS
330
2A
102
}
330
2A
100
AcDbVisualStyle
  2
Realistic
 70
     8
177
     2
291
     0
 71
     2
176
     1
 72
     2
176
     1
 73
     0
176
     1
 90
        0
176
     1
 40
-0.6
176
     1
 41
-30.0
176
     1
 62
     5
 63
     7
421
 16777215
176
     1
 74
     1
176
     1
 91
        0
176
     1
 64
     7
176
     1
 65
   257
176
     1
 75
     1
176
     1
175
     1
176
     1
 42
1.0
176
     1
 92
        8
176
     1
 66
     8
424
  7895160
176
     1
 43
1.0
176
     1
 76
     1
176
     1
 77
     6
176
     1
 78
     2
176
     1
 67
     7
176
     1
 79
     5
176
     1
170
     0
176
     1
171
     0
176
     1
290
     0
176
     1
 93
       13
176
     1
 44
0.0
176
     1
173
     0
176
     1
  0
VISUALSTYLE
  5
37
102
{ACAD_REACTORS
330
2A
102
}
330
2A
100
AcDbVisualStyle
  2
Thicken
 70
    13
177
     2
291
     1
 71
     2
176
     1
 72
     2
176
     1
 73
     0
176
     1
 90
        0
176
     1
 40
-0.6
176
     1
 41
-30.0
176
     1
 62
     5
 63
     7
421
 16777215
176
     1
 74
     1
176
     1
 91
        4
176
     1
 64
     7
176
     1
 65
   257
176
     1
 75
     1
176
     1
175
     1
176
     1
 42
1.0
176
     1
 92
       12
176
     1
 66
     7
176
     1
 43
1.0
176
     1
 76
     1
176
     1
 77
     6
176
     1
 78
     2
176
     1
 67
     7
176
     1
 79
     5
176
     1
170
     0
176
     1
171
     0
176
     1
290
     0
176
     1
 93
        1
176
     1
 44
0.0
176
     1
173
     0
176
     1
  0
ENDSEC
  0
EOF
