  0
SECTION
  2
HEADER
  9
$ACADVER
  1
AC1024
  9
$ACADMAINTVER
 70
     6
  9
$DWGCODEPAGE
  3
UNDEFINED
  9
$INSBASE
 10
0.0
 20
0.0
 30
0.0
  9
$EXTMIN
 10
1.000000000000000E+20
 20
1.000000000000000E+20
 30
1.000000000000000E+20
  9
$EXTMAX
 10
-1.000000000000000E+20
 20
-1.000000000000000E+20
 30
-1.000000000000000E+20
  9
$LIMMIN
 10
0.0
 20
0.0
  9
$LIMMAX
 10
12.0
 20
9.0
  9
$ORTHOMODE
 70
     0
  9
$REGENMODE
 70
     1
  9
$FILLMODE
 70
     1
  9
$QTEXTMODE
 70
     0
  9
$MIRRTEXT
 70
     1
  9
$LTSCALE
 40
1.0
  9
$ATTMODE
 70
     1
  9
$TEXTSIZE
 40
0.2
  9
$TRACEWID
 40
0.05
  9
$TEXTSTYLE
  7
Standard
  9
$CLAYER
  8
0
  9
$CELTYPE
  6
ByLayer
  9
$CECOLOR
 62
   256
  9
$CELTSCALE
 40
1.0
  9
$DISPSILH
 70
     0
  9
$DIMSCALE
 40
1.0
  9
$DIMASZ
 40
0.18
  9
$DIMEXO
 40
0.0625
  9
$DIMDLI
 40
0.38
  9
$DIMRND
 40
0.0
  9
$DIMDLE
 40
0.0
  9
$DIMEXE
 40
0.18
  9
$DIMTP
 40
0.0
  9
$DIMTM
 40
0.0
  9
$DIMTXT
 40
0.18
  9
$DIMCEN
 40
0.09
  9
$DIMTSZ
 40
0.0
  9
$DIMTOL
 70
     0
  9
$DIMLIM
 70
     0
  9
$DIMTIH
 70
     1
  9
$DIMTOH
 70
     1
  9
$DIMSE1
 70
     0
  9
$DIMSE2
 70
     0
  9
$DIMTAD
 70
     0
  9
$DIMZIN
 70
     0
  9
$DIMBLK
  1

  9
$DIMASO
 70
     1
  9
$DIMSHO
 70
     1
  9
$DIMPOST
  1

  9
$DIMAPOST
  1

  9
$DIMALT
 70
     0
  9
$DIMALTD
 70
     2
  9
$DIMALTF
 40
25.4
  9
$DIMLFAC
 40
1.0
  9
$DIMTOFL
 70
     0
  9
$DIMTVP
 40
0.0
  9
$DIMTIX
 70
     0
  9
$DIMSOXD
 70
     0
  9
$DIMSAH
 70
     0
  9
$DIMBLK1
  1

  9
$DIMBLK2
  1

  9
$DIMSTYLE
  2
Standard
  9
$DIMCLRD
 70
     0
  9
$DIMCLRE
 70
     0
  9
$DIMCLRT
 70
     0
  9
$DIMTFAC
 40
1.0
  9
$DIMGAP
 40
0.09
  9
$DIMJUST
 70
     0
  9
$DIMSD1
 70
     0
  9
$DIMSD2
 70
     0
  9
$DIMTOLJ
 70
     1
  9
$DIMTZIN
 70
     0
  9
$DIMALTZ
 70
     0
  9
$DIMALTTZ
 70
     0
  9
$DIMUPT
 70
     0
  9
$DIMDEC
 70
     4
  9
$DIMTDEC
 70
     4
  9
$DIMALTU
 70
     2
  9
$DIMALTTD
 70
     2
  9
$DIMTXSTY
  7
Standard
  9
$DIMAUNIT
 70
     0
  9
$DIMADEC
 70
     0
  9
$DIMALTRND
 40
0.0
  9
$DIMAZIN
 70
     0
  9
$DIMDSEP
 70
    46
  9
$DIMATFIT
 70
     3
  9
$DIMFRAC
 70
     0
  9
$DIMLDRBLK
  1

  9
$DIMLUNIT
 70
     2
  9
$DIMLWD
 70
    -2
  9
$DIMLWE
 70
    -2
  9
$DIMTMOVE
 70
     0
  9
$DIMFXL
 40
1.0
  9
$DIMFXLON
 70
     0
  9
$DIMJOGANG
 40
0.7853981633974483
  9
$DIMTFILL
 70
     0
  9
$DIMTFILLCLR
 70
     0
  9
$DIMARCSYM
 70
     0
  9
$DIMLTYPE
  6

  9
$DIMLTEX1
  6

  9
$DIMLTEX2
  6

  9
$DIMTXTDIRECTION
 70
     0
  9
$LUNITS
 70
     2
  9
$LUPREC
 70
     4
  9
$SKETCHINC
 40
0.1
  9
$FILLETRAD
 40
0.5
  9
$AUNITS
 70
     0
  9
$AUPREC
 70
     0
  9
$MENU
  1
.
  9
$ELEVATION
 40
0.0
  9
$PELEVATION
 40
0.0
  9
$THICKNESS
 40
0.0
  9
$LIMCHECK
 70
     0
  9
$CHAMFERA
 40
0.5
  9
$CHAMFERB
 40
0.5
  9
$CHAMFERC
 40
1.0
  9
$CHAMFERD
 40
0.0
  9
$SKPOLY
 70
     0
  9
$TDCREATE
 40
2457917.618888889
  9
$TDUCREATE
 40
2457917.243888889
  9
$TDUPDATE
 40
2457917.618888889
  9
$TDUUPDATE
 40
2457917.243888889
  9
$TDINDWG
 40
0.0000000116
  9
$TDUSRTIMER
 40
0.0000000116
  9
$USRTIMER
 70
     1
  9
$ANGBASE
 50
0.0
  9
$ANGDIR
 70
     0
  9
$PDMODE
 70
     0
  9
$PDSIZE
 40
0.0
  9
$PLINEWID
 40
0.0
  9
$SPLFRAME
 70
     0
  9
$SPLINETYPE
 70
     6
  9
$SPLINESEGS
 70
     8
  9
$HANDSEED
  5
101
  9
$SURFTAB1
 70
     6
  9
$SURFTAB2
 70
     6
  9
$SURFTYPE
 70
     6
  9
$SURFU
 70
     6
  9
$SURFV
 70
     6
  9
$UCSBASE
  2

  9
$UCSNAME
  2

  9
$UCSORG
 10
0.0
 20
0.0
 30
0.0
  9
$UCSXDIR
 10
1.0
 20
0.0
 30
0.0
  9
$UCSYDIR
 10
0.0
 20
1.0
 30
0.0
  9
$UCSORTHOREF
  2

  9
$UCSORTHOVIEW
 70
     0
  9
$UCSORGTOP
 10
0.0
 20
0.0
 30
0.0
  9
$UCSORGBOTTOM
 10
0.0
 20
0.0
 30
0.0
  9
$UCSORGLEFT
 10
0.0
 20
0.0
 30
0.0
  9
$UCSORGRIGHT
 10
0.0
 20
0.0
 30
0.0
  9
$UCSORGFRONT
 10
0.0
 20
0.0
 30
0.0
  9
$UCSORGBACK
 10
0.0
 20
0.0
 30
0.0
  9
$PUCSBASE
  2

  9
$PUCSNAME
  2

  9
$PUCSORG
 10
0.0
 20
0.0
 30
0.0
  9
$PUCSXDIR
 10
1.0
 20
0.0
 30
0.0
  9
$PUCSYDIR
 10
0.0
 20
1.0
 30
0.0
  9
$PUCSORTHOREF
  2

  9
$PUCSORTHOVIEW
 70
     0
  9
$PUCSORGTOP
 10
0.0
 20
0.0
 30
0.0
  9
$PUCSORGBOTTOM
 10
0.0
 20
0.0
 30
0.0
  9
$PUCSORGLEFT
 10
0.0
 20
0.0
 30
0.0
  9
$PUCSORGRIGHT
 10
0.0
 20
0.0
 30
0.0
  9
$PUCSORGFRONT
 10
0.0
 20
0.0
 30
0.0
  9
$PUCSORGBACK
 10
0.0
 20
0.0
 30
0.0
  9
$USERI1
 70
     0
  9
$USERI2
 70
     0
  9
$USERI3
 70
     0
  9
$USERI4
 70
     0
  9
$USERI5
 70
     0
  9
$USERR1
 40
0.0
  9
$USERR2
 40
0.0
  9
$USERR3
 40
0.0
  9
$USERR4
 40
0.0
  9
$USERR5
 40
0.0
  9
$WORLDVIEW
 70
     1
  9
$SHADEDGE
 70
     3
  9
$SHADEDIF
 70
    70
  9
$TILEMODE
 70
     1
  9
$MAXACTVP
 70
    64
  9
$PINSBASE
 10
0.0
 20
0.0
 30
0.0
  9
$PLIMCHECK
 70
     0
  9
$PEXTMIN
 10
1.000000000000000E+20
 20
1.000000000000000E+20
 30
1.000000000000000E+20
  9
$PEXTMAX
 10
-1.000000000000000E+20
 20
-1.000000000000000E+20
 30
-1.000000000000000E+20
  9
$PLIMMIN
 10
0.0
 20
0.0
  9
$PLIMMAX
 10
12.0
 20
9.0
  9
$UNITMODE
 70
     0
  9
$VISRETAIN
 70
     1
  9
$PLINEGEN
 70
     0
  9
$PSLTSCALE
 70
     1
  9
$TREEDEPTH
 70
  3020
  9
$CMLSTYLE
  2
Standard
  9
$CMLJUST
 70
     0
  9
$CMLSCALE
 40
1.0
  9
$PROXYGRAPHICS
 70
     1
  9
$MEASUREMENT
 70
     0
  9
$CELWEIGHT
370
    -1
  9
$ENDCAPS
280
     0
  9
$JOINSTYLE
280
     0
  9
$LWDISPLAY
290
     1
  9
$INSUNITS
 70
     1
  9
$HYPERLINKBASE
  1

  9
$STYLESHEET
  1

  9
$XEDIT
290
     1
  9
$CEPSNTYPE
380
     0
  9
$PSTYLEMODE
290
     1
  9
$FINGERPRINTGUID
  2
{8C0D43F0-042D-00B7-8AE1-4490A370D86B}
  9
$VERSIONGUID
  2
{FAEB1C32-E019-11D5-929B-00C0DF256EC4}
  9
$EXTNAMES
290
     1
  9
$PSVPSCALE
 40
0.0
  9
$OLESTARTUP
290
     0
  9
$SORTENTS
280
   127
  9
$INDEXCTL
280
     0
  9
$HIDETEXT
280
     1
  9
$XCLIPFRAME
280
     2
  9
$HALOGAP
280
     0
  9
$OBSCOLOR
 70
   257
  9
$OBSLTYPE
280
     0
  9
$INTERSECTIONDISPLAY
280
     0
  9
$INTERSECTIONCOLOR
 70
   257
  9
$DIMASSOC
280
     2
  9
$PROJECTNAME
  1

  9
$CAMERADISPLAY
290
     0
  9
$LENSLENGTH
 40
50.0
  9
$CAMERAHEIGHT
 40
0.0
  9
$STEPSPERSEC
 40
2.0
  9
$STEPSIZE
 40
6.0
  9
$3DDWFPREC
 40
2.0
  9
$PSOLWIDTH
 40
0.25
  9
$PSOLHEIGHT
 40
4.0
  9
$LOFTANG1
 40
1.570796326794897
  9
$LOFTANG2
 40
1.570796326794897
  9
$LOFTMAG1
 40
0.0
  9
$LOFTMAG2
 40
0.0
  9
$LOFTPARAM
 70
     7
  9
$LOFTNORMALS
280
     1
  9
$LATITUDE
 40
37.795
  9
$LONGITUDE
 40
-122.394
  9
$NORTHDIRECTION
 40
0.0
  9
$TIMEZONE
 70
 -8000
  9
$LIGHTGLYPHDISPLAY
280
     1
  9
$TILEMODELIGHTSYNCH
280
     1
  9
$CMATERIAL
347
3C
  9
$SOLIDHIST
280
     1
  9
$SHOWHIST
280
     1
  9
$DWFFRAME
280
     2
  9
$DGNFRAME
280
     2
  9
$REALWORLDSCALE
290
     1
  9
$INTERFERECOLOR
 62
   256
  9
$CSHADOW
280
     0
  9
$SHADOWPLANELOCATION
 40
0.0
  0
ENDSEC
  0
SECTION
  2
CLASSES
  0
CLASS
  1
ACDBDICTIONARYWDFLT
  2
AcDbDictionaryWithDefault
  3
ObjectDBX Classes
 90
        0
 91
        4
280
     0
281
     0
  0
CLASS
  1
VISUALSTYLE
  2
AcDbVisualStyle
  3
ObjectDBX Classes
 90
     4095
 91
        4
280
     0
281
     0
  0
CLASS
  1
MATERIAL
  2
AcDbMaterial
  3
ObjectDBX Classes
 90
     1153
 91
        4
280
     0
281
     0
  0
CLASS
  1
SUN
  2
AcDbSun
  3
SCENEOE
 90
     1024
 91
        4
280
     0
281
     0
  0
ENDSEC
  0
SECTION
  2
TABLES
  0
TABLE
  2
VPORT
  5
8
330
0
100
AcDbSymbolTable
 70
     1
  0
VPORT
  5
29
330
8
100
AcDbSymbolTableRecord
100
AcDbViewportTableRecord
  2
*Active
 70
     0
 10
0.0
 20
0.0
 11
1.0
 21
1.0
 12
0.0
 22
0.0
 13
0.0
 23
0.0
 14
0.5
 24
0.5
 15
0.5
 25
0.5
 16
0.0
 26
0.0
 36
1.0
 17
91.00082462281999
 27
-128.4993055234307
 37
0.0
 40
256.9986110468615
 41
0.7081814508812795
 42
50.0
 43
0.0
 44
0.0
 50
0.0
 51
0.0
 71
     0
 72
   100
 73
     1
 74
     3
 75
     0
 76
     0
 77
     0
 78
     0
281
     0
 65
     1
110
0.0
120
0.0
130
0.0
111
1.0
121
0.0
131
0.0
112
0.0
122
1.0
132
0.0
 79
     0
146
0.0
 60
     3
 61
     5
292
     1
282
     1
141
0.0
142
0.0
 63
   250
361
3F
  0
ENDTAB
  0
TABLE
  2
LTYPE
  5
5
330
0
100
AcDbSymbolTable
 70
     2
  0
LTYPE
  5
14
330
5
100
AcDbSymbolTableRecord
100
AcDbLinetypeTableRecord
  2
ByBlock
 70
     0
  3

 72
    65
 73
     0
 40
0.0
  0
LTYPE
  5
15
330
5
100
AcDbSymbolTableRecord
100
AcDbLinetypeTableRecord
  2
ByLayer
 70
     0
  3

 72
    65
 73
     0
 40
0.0
  0
LTYPE
  5
16
330
5
100
AcDbSymbolTableRecord
100
AcDbLinetypeTableRecord
  2
Continuous
 70
     0
  3
Solid line
 72
    65
 73
     0
 40
0.0
  0
LTYPE
  5
FD
330
5
100
AcDbSymbolTableRecord
100
AcDbLinetypeTableRecord
  2
AI-Linetype-1
 70
     0
  3
Adobe Illustrator Linetype No. 1
 72
    65
 73
     2
 40
1.411111110758333
 49
0.7055555553791667
 74
     0
 49
-0.7055555553791667
 74
     0
  0
ENDTAB
  0
TABLE
  2
LAYER
  5
2
330
0
100
AcDbSymbolTable
 70
     2
  0
LAYER
  5
10
330
2
100
AcDbSymbolTableRecord
100
AcDbLayerTableRecord
  2
0
 70
     0
 62
     7
  6
Continuous
370
    -3
390
F
347
3E
  0
LAYER
  5
40
330
2
100
AcDbSymbolTableRecord
100
AcDbLayerTableRecord
  2
_U+30EC_U+30A4_U+30E4_U+30FC 1
 70
     0
 62
     7
  6
Continuous
370
    -3
390
F
347
3E
  0
ENDTAB
  0
TABLE
  2
STYLE
  5
3
330
0
100
AcDbSymbolTable
 70
     1
  0
STYLE
  5
11
330
3
100
AcDbSymbolTableRecord
100
AcDbTextStyleTableRecord
  2
Standard
 70
     0
 40
0.0
 41
1.0
 50
0.0
 71
     0
 42
0.2
  3
txt
  4

  0
ENDTAB
  0
TABLE
  2
VIEW
  5
6
330
0
100
AcDbSymbolTable
 70
     0
  0
ENDTAB
  0
TABLE
  2
UCS
  5
7
330
0
100
AcDbSymbolTable
 70
     0
  0
ENDTAB
  0
TABLE
  2
APPID
  5
9
330
0
100
AcDbSymbolTable
 70
     1
  0
APPID
  5
12
330
9
100
AcDbSymbolTableRecord
100
AcDbRegAppTableRecord
  2
ACAD
 70
     0
  0
ENDTAB
  0
TABLE
  2
DIMSTYLE
  5
A
330
0
100
AcDbSymbolTable
 70
     1
100
AcDbDimStyleTable
  0
DIMSTYLE
105
27
330
A
100
AcDbSymbolTableRecord
100
AcDbDimStyleTableRecord
  2
Standard
 70
     0
178
     0
340
11
  0
ENDTAB
  0
TABLE
  2
BLOCK_RECORD
  5
1
330
0
100
AcDbSymbolTable
 70
     7
  0
BLOCK_RECORD
  5
1F
330
1
100
AcDbSymbolTableRecord
100
AcDbBlockTableRecord
  2
*Model_Space
340
22
 70
     0
280
     1
281
     0
  0
BLOCK_RECORD
  5
1B
330
1
100
AcDbSymbolTableRecord
100
AcDbBlockTableRecord
  2
*Paper_Space
340
1E
 70
     0
280
     1
281
     0
  0
BLOCK_RECORD
  5
23
330
1
100
AcDbSymbolTableRecord
100
AcDbBlockTableRecord
  2
*Paper_Space0
340
26
 70
     0
280
     1
281
     0
  0
BLOCK_RECORD
  5
85
330
1
100
AcDbSymbolTableRecord
100
AcDbBlockTableRecord
  2
block 2
340
0
102
{BLKREFS
331
86
102
}
 70
     0
280
     1
281
     0
  0
BLOCK_RECORD
  5
9A
330
1
100
AcDbSymbolTableRecord
100
AcDbBlockTableRecord
  2
block 3
340
0
102
{BLKREFS
331
9B
102
}
 70
     0
280
     1
281
     0
  0
BLOCK_RECORD
  5
AB
330
1
100
AcDbSymbolTableRecord
100
AcDbBlockTableRecord
  2
block 4
340
0
102
{BLKREFS
331
AC
102
}
 70
     0
280
     1
281
     0
  0
BLOCK_RECORD
  5
BD
330
1
100
AcDbSymbolTableRecord
100
AcDbBlockTableRecord
  2
block 5
340
0
102
{BLKREFS
331
BE
102
}
 70
     0
280
     1
281
     0
  0
BLOCK_RECORD
  5
D1
330
1
100
AcDbSymbolTableRecord
100
AcDbBlockTableRecord
  2
block 6
340
0
102
{BLKREFS
331
D2
102
}
 70
     0
280
     1
281
     0
  0
BLOCK_RECORD
  5
EF
330
1
100
AcDbSymbolTableRecord
100
AcDbBlockTableRecord
  2
block 7
340
0
102
{BLKREFS
331
F0
102
}
 70
     0
280
     1
281
     0
  0
ENDTAB
  0
ENDSEC
  0
SECTION
  2
BLOCKS
  0
BLOCK
  5
20
330
1F
100
AcDbEntity
  8
0
100
AcDbBlockBegin
  2
*Model_Space
 70
     0
 10
0.0
 20
0.0
 30
0.0
  3
*Model_Space
  1

  0
ENDBLK
  5
21
330
1F
100
AcDbEntity
  8
0
100
AcDbBlockEnd
  0
BLOCK
  5
1C
330
1B
100
AcDbEntity
 67
     1
  8
0
100
AcDbBlockBegin
  2
*Paper_Space
 70
     0
 10
0.0
 20
0.0
 30
0.0
  3
*Paper_Space
  1

  0
ENDBLK
  5
1D
330
1B
100
AcDbEntity
 67
     1
  8
0
100
AcDbBlockEnd
  0
BLOCK
  5
24
330
23
100
AcDbEntity
  8
0
100
AcDbBlockBegin
  2
*Paper_Space0
 70
     0
 10
0.0
 20
0.0
 30
0.0
  3
*Paper_Space0
  1

  0
ENDBLK
  5
25
330
23
100
AcDbEntity
  8
0
100
AcDbBlockEnd
  0
BLOCK
  5
87
330
85
100
AcDbEntity
  8
0
100
AcDbBlockBegin
  2
block 2
 70
     0
 10
0.0
 20
0.0
 30
0.0
  3
block 2
  1

  0
SPLINE
  5
89
330
85
100
AcDbEntity
  8
_U+30EC_U+30A4_U+30E4_U+30FC 1
370
     0
100
AcDbSpline
210
0.0
220
0.0
230
1.0
 70
    11
 71
     3
 72
    26
 73
    22
 74
     0
 42
0.0000000001
 43
0.0000000001
 12
1.0
 22
0.0
 32
0.0
 13
1.0
 23
0.0
 33
0.0
 40
0.0
 40
0.0
 40
0.0
 40
0.0
 40
1.0
 40
1.0
 40
1.0
 40
2.0
 40
2.0
 40
2.0
 40
3.0
 40
3.0
 40
3.0
 40
4.0
 40
4.0
 40
4.0
 40
5.0
 40
5.0
 40
5.0
 40
6.0
 40
6.0
 40
6.0
 40
7.0
 40
7.0
 40
7.0
 40
7.0
 10
73.87611082137472
 20
-142.4736463402496
 30
0.0
 10
73.87611082137472
 20
-142.4736463402496
 30
0.0
 10
73.87611082137472
 20
-141.3694932372271
 30
0.0
 10
73.87611082137472
 20
-141.3694932372271
 30
0.0
 10
73.87611082137472
 20
-141.3694932372271
 30
0.0
 10
73.52333304368514
 20
-141.3694932372271
 30
0.0
 10
73.52333304368514
 20
-141.3694932372271
 30
0.0
 10
73.52333304368514
 20
-141.3694932372271
 30
0.0
 10
73.52333304368514
 20
-141.2213541313613
 30
0.0
 10
73.52333304368514
 20
-141.2213541313613
 30
0.0
 10
73.87835013344014
 20
-141.2065402207748
 30
0.0
 10
73.928131763202
 20
-141.0435872043224
 30
0.0
 10
73.95965438689204
 20
-140.9292100342122
 30
0.0
 10
73.95965438689204
 20
-140.9292100342122
 30
0.0
 10
74.11571721237385
 20
-140.9292100342122
 30
0.0
 10
74.11571721237385
 20
-140.9292100342122
 30
0.0
 10
74.11571721237385
 20
-140.9292100342122
 30
0.0
 10
74.11571721237385
 20
-142.4736463402496
 30
0.0
 10
74.11571721237385
 20
-142.4736463402496
 30
0.0
 10
74.11571721237385
 20
-142.4736463402496
 30
0.0
 10
73.87611082137472
 20
-142.4736463402496
 30
0.0
 10
73.87611082137472
 20
-142.4736463402496
 30
0.0
  0
HATCH
  5
8A
330
85
100
AcDbEntity
  8
_U+30EC_U+30A4_U+30E4_U+30FC 1
 62
   179
420
  2234388
100
AcDbHatch
 10
0.0
 20
0.0
 30
0.0
210
0.0
220
0.0
230
1.0
  2
SOLID
 70
     1
 71
     0
 91
        1
 92
        1
 93
        1
 72
     4
 94
        3
 73
     0
 74
     1
 95
       26
 96
       22
 40
0.0
 40
0.0
 40
0.0
 40
0.0
 40
1.0
 40
1.0
 40
1.0
 40
2.0
 40
2.0
 40
2.0
 40
3.0
 40
3.0
 40
3.0
 40
4.0
 40
4.0
 40
4.0
 40
5.0
 40
5.0
 40
5.0
 40
6.0
 40
6.0
 40
6.0
 40
7.0
 40
7.0
 40
7.0
 40
7.0
 10
73.87611082137472
 20
-142.4736463402496
 10
73.87611082137472
 20
-142.4736463402496
 10
73.87611082137472
 20
-141.3694932372271
 10
73.87611082137472
 20
-141.3694932372271
 10
73.87611082137472
 20
-141.3694932372271
 10
73.52333304368514
 20
-141.3694932372271
 10
73.52333304368514
 20
-141.3694932372271
 10
73.52333304368514
 20
-141.3694932372271
 10
73.52333304368514
 20
-141.2213541313613
 10
73.52333304368514
 20
-141.2213541313613
 10
73.87835013344014
 20
-141.2065402207748
 10
73.928131763202
 20
-141.0435872043224
 10
73.95965438689204
 20
-140.9292100342122
 10
73.95965438689204
 20
-140.9292100342122
 10
74.11571721237385
 20
-140.9292100342122
 10
74.11571721237385
 20
-140.9292100342122
 10
74.11571721237385
 20
-140.9292100342122
 10
74.11571721237385
 20
-142.4736463402496
 10
74.11571721237385
 20
-142.4736463402496
 10
74.11571721237385
 20
-142.4736463402496
 10
73.87611082137472
 20
-142.4736463402496
 10
73.87611082137472
 20
-142.4736463402496
 97
        0
 97
        0
 75
     2
 76
     1
 98
        0
  0
SPLINE
  5
8B
330
85
100
AcDbEntity
  8
_U+30EC_U+30A4_U+30E4_U+30FC 1
370
     0
100
AcDbSpline
210
0.0
220
0.0
230
1.0
 70
    11
 71
     3
 72
    44
 73
    40
 74
     0
 42
0.0000000001
 43
0.0000000001
 12
1.0
 22
0.0
 32
0.0
 13
1.0
 23
0.0
 33
0.0
 40
0.0
 40
0.0
 40
0.0
 40
0.0
 40
1.0
 40
1.0
 40
1.0
 40
2.0
 40
2.0
 40
2.0
 40
3.0
 40
3.0
 40
3.0
 40
4.0
 40
4.0
 40
4.0
 40
5.0
 40
5.0
 40
5.0
 40
6.0
 40
6.0
 40
6.0
 40
7.0
 40
7.0
 40
7.0
 40
8.0
 40
8.0
 40
8.0
 40
9.0
 40
9.0
 40
9.0
 40
10.0
 40
10.0
 40
10.0
 40
11.0
 40
11.0
 40
11.0
 40
12.0
 40
12.0
 40
12.0
 40
13.0
 40
13.0
 40
13.0
 40
13.0
 10
75.7352565999898
 20
-142.4736463402496
 30
0.0
 10
75.710451912496
 20
-142.4292046084899
 30
0.0
 10
75.68771428229336
 20
-142.3764946475656
 30
0.0
 10
75.68547497022794
 20
-142.1456732500539
 30
0.0
 10
75.68099634609712
 20
-141.9024495087952
 30
0.0
 10
75.61777884394279
 20
-141.8325140704447
 30
0.0
 10
75.42778182793126
 20
-141.8325140704447
 30
0.0
 10
75.42778182793126
 20
-141.8325140704447
 30
0.0
 10
74.99146048472436
 20
-141.8325140704447
 30
0.0
 10
74.99146048472436
 20
-141.8325140704447
 30
0.0
 10
74.99146048472436
 20
-141.8325140704447
 30
0.0
 10
74.99146048472436
 20
-142.4736463402496
 30
0.0
 10
74.99146048472436
 20
-142.4736463402496
 30
0.0
 10
74.99146048472436
 20
-142.4736463402496
 30
0.0
 10
74.74048527862391
 20
-142.4736463402496
 30
0.0
 10
74.74048527862391
 20
-142.4736463402496
 30
0.0
 10
74.74048527862391
 20
-142.4736463402496
 30
0.0
 10
74.74048527862391
 20
-140.9292100342122
 30
0.0
 10
74.74048527862391
 20
-140.9292100342122
 30
0.0
 10
74.74048527862391
 20
-140.9292100342122
 30
0.0
 10
75.46171601846096
 20
-140.9292100342122
 30
0.0
 10
75.46171601846096
 20
-140.9292100342122
 30
0.0
 10
75.78951685388249
 20
-140.9292100342122
 30
0.0
 10
75.96814505479269
 20
-141.1007757893776
 30
0.0
 10
75.96814505479269
 20
-141.3567463839317
 30
0.0
 10
75.96814505479269
 20
-141.4073892875648
 30
0.0
 10
75.95918780653103
 20
-141.4900715792108
 30
0.0
 10
75.9116454888346
 20
-141.5703423040171
 30
0.0
 10
75.848255731906
 20
-141.6740396781232
 30
0.0
 10
75.77832029355542
 20
-141.692987703292
 30
0.0
 10
75.71269122456141
 20
-141.7098686711698
 30
0.0
 10
75.85962454700731
 20
-141.7522433456383
 30
0.0
 10
75.93197155219757
 20
-141.8008191919804
 30
0.0
 10
75.93645017632839
 20
-142.1160454288807
 30
0.0
 10
75.94092880045922
 20
-142.3868299340214
 30
0.0
 10
75.97951386989402
 20
-142.4185248124857
 30
0.0
 10
76.05186087508426
 20
-142.4736463402496
 30
0.0
 10
76.05186087508426
 20
-142.4736463402496
 30
0.0
 10
75.7352565999898
 20
-142.4736463402496
 30
0.0
 10
75.7352565999898
 20
-142.4736463402496
 30
0.0
  0
SPLINE
  5
8C
330
85
100
AcDbEntity
  8
_U+30EC_U+30A4_U+30E4_U+30FC 1
370
     0
100
AcDbSpline
210
0.0
220
0.0
230
1.0
 70
    11
 71
     3
 72
    20
 73
    16
 74
     0
 42
0.0000000001
 43
0.0000000001
 12
1.0
 22
0.0
 32
0.0
 13
1.0
 23
0.0
 33
0.0
 40
0.0
 40
0.0
 40
0.0
 40
0.0
 40
1.0
 40
1.0
 40
1.0
 40
2.0
 40
2.0
 40
2.0
 40
3.0
 40
3.0
 40
3.0
 40
4.0
 40
4.0
 40
4.0
 40
5.0
 40
5.0
 40
5.0
 40
5.0
 10
75.46619464259179
 20
-141.1407388970065
 30
0.0
 10
75.46619464259179
 20
-141.1407388970065
 30
0.0
 10
74.99146048472436
 20
-141.1407388970065
 30
0.0
 10
74.99146048472436
 20
-141.1407388970065
 30
0.0
 10
74.99146048472436
 20
-141.1407388970065
 30
0.0
 10
74.99146048472436
 20
-141.6209852076503
 30
0.0
 10
74.99146048472436
 20
-141.6209852076503
 30
0.0
 10
74.99146048472436
 20
-141.6209852076503
 30
0.0
 10
75.46395533052637
 20
-141.6209852076503
 30
0.0
 10
75.46395533052637
 20
-141.6209852076503
 30
0.0
 10
75.57023652624633
 20
-141.6209852076503
 30
0.0
 10
75.71493053662682
 20
-141.5448485974263
 30
0.0
 10
75.71493053662682
 20
-141.3736273518094
 30
0.0
 10
75.71493053662682
 20
-141.2954236842942
 30
0.0
 10
75.6787570340317
 20
-141.1407388970065
 30
0.0
 10
75.46619464259179
 20
-141.1407388970065
 30
0.0
  0
HATCH
  5
8D
330
85
100
AcDbEntity
  8
_U+30EC_U+30A4_U+30E4_U+30FC 1
 62
   179
420
  2234388
100
AcDbHatch
 10
0.0
 20
0.0
 30
0.0
210
0.0
220
0.0
230
1.0
  2
SOLID
 70
     1
 71
     0
 91
        2
 92
        1
 93
        1
 72
     4
 94
        3
 73
     0
 74
     1
 95
       44
 96
       40
 40
0.0
 40
0.0
 40
0.0
 40
0.0
 40
1.0
 40
1.0
 40
1.0
 40
2.0
 40
2.0
 40
2.0
 40
3.0
 40
3.0
 40
3.0
 40
4.0
 40
4.0
 40
4.0
 40
5.0
 40
5.0
 40
5.0
 40
6.0
 40
6.0
 40
6.0
 40
7.0
 40
7.0
 40
7.0
 40
8.0
 40
8.0
 40
8.0
 40
9.0
 40
9.0
 40
9.0
 40
10.0
 40
10.0
 40
10.0
 40
11.0
 40
11.0
 40
11.0
 40
12.0
 40
12.0
 40
12.0
 40
13.0
 40
13.0
 40
13.0
 40
13.0
 10
75.7352565999898
 20
-142.4736463402496
 10
75.710451912496
 20
-142.4292046084899
 10
75.68771428229336
 20
-142.3764946475656
 10
75.68547497022794
 20
-142.1456732500539
 10
75.68099634609712
 20
-141.9024495087952
 10
75.61777884394279
 20
-141.8325140704447
 10
75.42778182793126
 20
-141.8325140704447
 10
75.42778182793126
 20
-141.8325140704447
 10
74.99146048472436
 20
-141.8325140704447
 10
74.99146048472436
 20
-141.8325140704447
 10
74.99146048472436
 20
-141.8325140704447
 10
74.99146048472436
 20
-142.4736463402496
 10
74.99146048472436
 20
-142.4736463402496
 10
74.99146048472436
 20
-142.4736463402496
 10
74.74048527862391
 20
-142.4736463402496
 10
74.74048527862391
 20
-142.4736463402496
 10
74.74048527862391
 20
-142.4736463402496
 10
74.74048527862391
 20
-140.9292100342122
 10
74.74048527862391
 20
-140.9292100342122
 10
74.74048527862391
 20
-140.9292100342122
 10
75.46171601846096
 20
-140.9292100342122
 10
75.46171601846096
 20
-140.9292100342122
 10
75.78951685388249
 20
-140.9292100342122
 10
75.96814505479269
 20
-141.1007757893776
 10
75.96814505479269
 20
-141.3567463839317
 10
75.96814505479269
 20
-141.4073892875648
 10
75.95918780653103
 20
-141.4900715792108
 10
75.9116454888346
 20
-141.5703423040171
 10
75.848255731906
 20
-141.6740396781232
 10
75.77832029355542
 20
-141.692987703292
 10
75.71269122456141
 20
-141.7098686711698
 10
75.85962454700731
 20
-141.7522433456383
 10
75.93197155219757
 20
-141.8008191919804
 10
75.93645017632839
 20
-142.1160454288807
 10
75.94092880045922
 20
-142.3868299340214
 10
75.97951386989402
 20
-142.4185248124857
 10
76.05186087508426
 20
-142.4736463402496
 10
76.05186087508426
 20
-142.4736463402496
 10
75.7352565999898
 20
-142.4736463402496
 10
75.7352565999898
 20
-142.4736463402496
 97
        0
 97
        0
 92
        1
 93
        1
 72
     4
 94
        3
 73
     0
 74
     1
 95
       20
 96
       16
 40
0.0
 40
0.0
 40
0.0
 40
0.0
 40
1.0
 40
1.0
 40
1.0
 40
2.0
 40
2.0
 40
2.0
 40
3.0
 40
3.0
 40
3.0
 40
4.0
 40
4.0
 40
4.0
 40
5.0
 40
5.0
 40
5.0
 40
5.0
 10
75.46619464259179
 20
-141.1407388970065
 10
75.46619464259179
 20
-141.1407388970065
 10
74.99146048472436
 20
-141.1407388970065
 10
74.99146048472436
 20
-141.1407388970065
 10
74.99146048472436
 20
-141.1407388970065
 10
74.99146048472436
 20
-141.6209852076503
 10
74.99146048472436
 20
-141.6209852076503
 10
74.99146048472436
 20
-141.6209852076503
 10
75.46395533052637
 20
-141.6209852076503
 10
75.46395533052637
 20
-141.6209852076503
 10
75.57023652624633
 20
-141.6209852076503
 10
75.71493053662682
 20
-141.5448485974263
 10
75.71493053662682
 20
-141.3736273518094
 10
75.71493053662682
 20
-141.2954236842942
 10
75.6787570340317
 20
-141.1407388970065
 10
75.46619464259179
 20
-141.1407388970065
 97
        0
 97
        0
 75
     2
 76
     1
 98
        0
  0
ENDBLK
  5
88
330
85
100
AcDbEntity
  8
0
100
AcDbBlockEnd
  0
BLOCK
  5
9C
330
9A
100
AcDbEntity
  8
0
100
AcDbBlockBegin
  2
block 3
 70
     0
 10
0.0
 20
0.0
 30
0.0
  3
block 3
  1

  0
SPLINE
  5
9E
330
9A
100
AcDbEntity
  8
_U+30EC_U+30A4_U+30E4_U+30FC 1
370
     0
100
AcDbSpline
210
0.0
220
0.0
230
1.0
 70
    11
 71
     3
 72
    44
 73
    40
 74
     0
 42
0.0000000001
 43
0.0000000001
 12
1.0
 22
0.0
 32
0.0
 13
1.0
 23
0.0
 33
0.0
 40
0.0
 40
0.0
 40
0.0
 40
0.0
 40
1.0
 40
1.0
 40
1.0
 40
2.0
 40
2.0
 40
2.0
 40
3.0
 40
3.0
 40
3.0
 40
4.0
 40
4.0
 40
4.0
 40
5.0
 40
5.0
 40
5.0
 40
6.0
 40
6.0
 40
6.0
 40
7.0
 40
7.0
 40
7.0
 40
8.0
 40
8.0
 40
8.0
 40
9.0
 40
9.0
 40
9.0
 40
10.0
 40
10.0
 40
10.0
 40
11.0
 40
11.0
 40
11.0
 40
12.0
 40
12.0
 40
12.0
 40
13.0
 40
13.0
 40
13.0
 40
13.0
 10
94.83934459434572
 20
-113.4426879599206
 30
0.0
 10
94.60645613954283
 20
-113.6013346070163
 30
0.0
 10
94.50689288001911
 20
-113.6754041599492
 30
0.0
 10
94.45521644774037
 20
-113.8190646416841
 30
0.0
 10
94.45521644774037
 20
-113.8190646416841
 30
0.0
 10
95.28686249787968
 20
-113.8190646416841
 30
0.0
 10
95.28686249787968
 20
-113.8190646416841
 30
0.0
 10
95.28686249787968
 20
-113.8190646416841
 30
0.0
 10
95.28686249787968
 20
-114.024392332605
 30
0.0
 10
95.28686249787968
 20
-114.024392332605
 30
0.0
 10
95.28686249787968
 20
-114.024392332605
 30
0.0
 10
94.1882215476335
 20
-114.024392332605
 30
0.0
 10
94.1882215476335
 20
-114.024392332605
 30
0.0
 10
94.22232799293748
 20
-113.6667914212361
 30
0.0
 10
94.29226343128805
 20
-113.5885877537209
 30
0.0
 10
94.70360783222688
 20
-113.2902424846983
 30
0.0
 10
94.97714841375571
 20
-113.0914604751994
 30
0.0
 10
95.04742836165481
 20
-113.0237643489142
 30
0.0
 10
95.04742836165481
 20
-112.8863050390527
 30
0.0
 10
95.04742836165481
 20
-112.7677937543601
 30
0.0
 10
94.97060273233375
 20
-112.6367078711464
 30
0.0
 10
94.76010739818497
 20
-112.6367078711464
 30
0.0
 10
94.48208819252531
 20
-112.6367078711464
 30
0.0
 10
94.47313094426367
 20
-112.8671847591096
 30
0.0
 10
94.46865232013285
 20
-112.983628986511
 30
0.0
 10
94.46865232013285
 20
-112.983628986511
 30
0.0
 10
94.22887367435945
 20
-112.983628986511
 30
0.0
 10
94.22887367435945
 20
-112.983628986511
 30
0.0
 10
94.23817543216963
 20
-112.8566772178796
 30
0.0
 10
94.24919973772242
 20
-112.7445393598347
 30
0.0
 10
94.33532712485368
 20
-112.6260280751421
 30
0.0
 10
94.45280488090069
 20
-112.4653143707552
 30
0.0
 10
94.65158689039961
 20
-112.4313801802255
 30
0.0
 10
94.77595483741713
 20
-112.4313801802255
 30
0.0
 10
95.07223304914861
 20
-112.4313801802255
 30
0.0
 10
95.29375268885018
 20
-112.6155205339121
 30
0.0
 10
95.29375268885018
 20
-112.8883720963439
 30
0.0
 10
95.29375268885018
 20
-113.1167819270159
 30
0.0
 10
95.16938474183266
 20
-113.2163451865397
 30
0.0
 10
94.83934459434572
 20
-113.4426879599206
 30
0.0
  0
HATCH
  5
9F
330
9A
100
AcDbEntity
  8
_U+30EC_U+30A4_U+30E4_U+30FC 1
 62
   179
420
  2234388
100
AcDbHatch
 10
0.0
 20
0.0
 30
0.0
210
0.0
220
0.0
230
1.0
  2
SOLID
 70
     1
 71
     0
 91
        1
 92
        1
 93
        1
 72
     4
 94
        3
 73
     0
 74
     1
 95
       44
 96
       40
 40
0.0
 40
0.0
 40
0.0
 40
0.0
 40
1.0
 40
1.0
 40
1.0
 40
2.0
 40
2.0
 40
2.0
 40
3.0
 40
3.0
 40
3.0
 40
4.0
 40
4.0
 40
4.0
 40
5.0
 40
5.0
 40
5.0
 40
6.0
 40
6.0
 40
6.0
 40
7.0
 40
7.0
 40
7.0
 40
8.0
 40
8.0
 40
8.0
 40
9.0
 40
9.0
 40
9.0
 40
10.0
 40
10.0
 40
10.0
 40
11.0
 40
11.0
 40
11.0
 40
12.0
 40
12.0
 40
12.0
 40
13.0
 40
13.0
 40
13.0
 40
13.0
 10
94.83934459434572
 20
-113.4426879599206
 10
94.60645613954283
 20
-113.6013346070163
 10
94.50689288001911
 20
-113.6754041599492
 10
94.45521644774037
 20
-113.8190646416841
 10
94.45521644774037
 20
-113.8190646416841
 10
95.28686249787968
 20
-113.8190646416841
 10
95.28686249787968
 20
-113.8190646416841
 10
95.28686249787968
 20
-113.8190646416841
 10
95.28686249787968
 20
-114.024392332605
 10
95.28686249787968
 20
-114.024392332605
 10
95.28686249787968
 20
-114.024392332605
 10
94.1882215476335
 20
-114.024392332605
 10
94.1882215476335
 20
-114.024392332605
 10
94.22232799293748
 20
-113.6667914212361
 10
94.29226343128805
 20
-113.5885877537209
 10
94.70360783222688
 20
-113.2902424846983
 10
94.97714841375571
 20
-113.0914604751994
 10
95.04742836165481
 20
-113.0237643489142
 10
95.04742836165481
 20
-112.8863050390527
 10
95.04742836165481
 20
-112.7677937543601
 10
94.97060273233375
 20
-112.6367078711464
 10
94.76010739818497
 20
-112.6367078711464
 10
94.48208819252531
 20
-112.6367078711464
 10
94.47313094426367
 20
-112.8671847591096
 10
94.46865232013285
 20
-112.983628986511
 10
94.46865232013285
 20
-112.983628986511
 10
94.22887367435945
 20
-112.983628986511
 10
94.22887367435945
 20
-112.983628986511
 10
94.23817543216963
 20
-112.8566772178796
 10
94.24919973772242
 20
-112.7445393598347
 10
94.33532712485368
 20
-112.6260280751421
 10
94.45280488090069
 20
-112.4653143707552
 10
94.65158689039961
 20
-112.4313801802255
 10
94.77595483741713
 20
-112.4313801802255
 10
95.07223304914861
 20
-112.4313801802255
 10
95.29375268885018
 20
-112.6155205339121
 10
95.29375268885018
 20
-112.8883720963439
 10
95.29375268885018
 20
-113.1167819270159
 10
95.16938474183266
 20
-113.2163451865397
 10
94.83934459434572
 20
-113.4426879599206
 97
        0
 97
        0
 75
     2
 76
     1
 98
        0
  0
SPLINE
  5
A0
330
9A
100
AcDbEntity
  8
_U+30EC_U+30A4_U+30E4_U+30FC 1
370
     0
100
AcDbSpline
210
0.0
220
0.0
230
1.0
 70
    11
 71
     3
 72
    32
 73
    28
 74
     0
 42
0.0000000001
 43
0.0000000001
 12
1.0
 22
0.0
 32
0.0
 13
1.0
 23
0.0
 33
0.0
 40
0.0
 40
0.0
 40
0.0
 40
0.0
 40
1.0
 40
1.0
 40
1.0
 40
2.0
 40
2.0
 40
2.0
 40
3.0
 40
3.0
 40
3.0
 40
4.0
 40
4.0
 40
4.0
 40
5.0
 40
5.0
 40
5.0
 40
6.0
 40
6.0
 40
6.0
 40
7.0
 40
7.0
 40
7.0
 40
8.0
 40
8.0
 40
8.0
 40
9.0
 40
9.0
 40
9.0
 40
9.0
 10
96.00206432061755
 20
-114.0750352362382
 30
0.0
 10
95.45050453342904
 20
-114.0750352362382
 30
0.0
 10
95.44154728516739
 20
-113.5208916274358
 30
0.0
 10
95.44154728516739
 20
-113.3072957073503
 30
0.0
 10
95.44154728516739
 20
-113.0766465646128
 30
0.0
 10
95.46187334853037
 20
-112.4293131229343
 30
0.0
 10
96.04306095689202
 20
-112.4293131229343
 30
0.0
 10
96.22840709399846
 20
-112.4293131229343
 30
0.0
 10
96.49057886042597
 20
-112.4990763065107
 30
0.0
 10
96.53123098715191
 20
-112.8311835112887
 30
0.0
 10
96.53123098715191
 20
-112.8311835112887
 30
0.0
 10
96.30282115647985
 20
-112.8311835112887
 30
0.0
 10
96.30282115647985
 20
-112.8311835112887
 30
0.0
 10
96.29145234137853
 20
-112.7741671810079
 30
0.0
 10
96.25769040562308
 20
-112.6260280751421
 30
0.0
 10
96.04064939005234
 20
-112.6260280751421
 30
0.0
 10
95.7285237390887
 20
-112.6260280751421
 30
0.0
 10
95.68580455507161
 20
-112.9540011653379
 30
0.0
 10
95.67202417313061
 20
-113.1591566014845
 30
0.0
 10
95.77158743265433
 20
-113.0809529339694
 30
0.0
 10
95.84393443784458
 20
-113.0216972916231
 30
0.0
 10
96.0385823327612
 20
-113.0216972916231
 30
0.0
 10
96.23047415128961
 20
-113.0216972916231
 30
0.0
 10
96.55396861735457
 20
-113.1295287803114
 30
0.0
 10
96.55396861735457
 20
-113.5357055380223
 30
0.0
 10
96.55396861735457
 20
-113.8552381442793
 30
0.0
 10
96.34140622591465
 20
-114.0750352362382
 30
0.0
 10
96.00206432061755
 20
-114.0750352362382
 30
0.0
  0
SPLINE
  5
A1
330
9A
100
AcDbEntity
  8
_U+30EC_U+30A4_U+30E4_U+30FC 1
370
     0
100
AcDbSpline
210
0.0
220
0.0
230
1.0
 70
    11
 71
     3
 72
    17
 73
    13
 74
     0
 42
0.0000000001
 43
0.0000000001
 12
1.0
 22
0.0
 32
0.0
 13
1.0
 23
0.0
 33
0.0
 40
0.0
 40
0.0
 40
0.0
 40
0.0
 40
1.0
 40
1.0
 40
1.0
 40
2.0
 40
2.0
 40
2.0
 40
3.0
 40
3.0
 40
3.0
 40
4.0
 40
4.0
 40
4.0
 40
4.0
 10
96.02032332668936
 20
-113.2163451865397
 30
0.0
 10
95.73989255419004
 20
-113.2163451865397
 30
0.0
 10
95.69924042746408
 20
-113.427874049334
 30
0.0
 10
95.69924042746408
 20
-113.5441460219612
 30
0.0
 10
95.69924042746408
 20
-113.7198458917089
 30
0.0
 10
95.80087074427895
 20
-113.8827989081612
 30
0.0
 10
95.99758569648672
 20
-113.8827989081612
 30
0.0
 10
96.12643226763507
 20
-113.8827989081612
 30
0.0
 10
96.31418997158119
 20
-113.8235432658149
 30
0.0
 10
96.31418997158119
 20
-113.5377725953135
 30
0.0
 10
96.31418997158119
 20
-113.313669133998
 30
0.0
 10
96.16501733706986
 20
-113.2163451865397
 30
0.0
 10
96.02032332668936
 20
-113.2163451865397
 30
0.0
  0
HATCH
  5
A2
330
9A
100
AcDbEntity
  8
_U+30EC_U+30A4_U+30E4_U+30FC 1
 62
   179
420
  2234388
100
AcDbHatch
 10
0.0
 20
0.0
 30
0.0
210
0.0
220
0.0
230
1.0
  2
SOLID
 70
     1
 71
     0
 91
        2
 92
        1
 93
        1
 72
     4
 94
        3
 73
     0
 74
     1
 95
       32
 96
       28
 40
0.0
 40
0.0
 40
0.0
 40
0.0
 40
1.0
 40
1.0
 40
1.0
 40
2.0
 40
2.0
 40
2.0
 40
3.0
 40
3.0
 40
3.0
 40
4.0
 40
4.0
 40
4.0
 40
5.0
 40
5.0
 40
5.0
 40
6.0
 40
6.0
 40
6.0
 40
7.0
 40
7.0
 40
7.0
 40
8.0
 40
8.0
 40
8.0
 40
9.0
 40
9.0
 40
9.0
 40
9.0
 10
96.00206432061755
 20
-114.0750352362382
 10
95.45050453342904
 20
-114.0750352362382
 10
95.44154728516739
 20
-113.5208916274358
 10
95.44154728516739
 20
-113.3072957073503
 10
95.44154728516739
 20
-113.0766465646128
 10
95.46187334853037
 20
-112.4293131229343
 10
96.04306095689202
 20
-112.4293131229343
 10
96.22840709399846
 20
-112.4293131229343
 10
96.49057886042597
 20
-112.4990763065107
 10
96.53123098715191
 20
-112.8311835112887
 10
96.53123098715191
 20
-112.8311835112887
 10
96.30282115647985
 20
-112.8311835112887
 10
96.30282115647985
 20
-112.8311835112887
 10
96.29145234137853
 20
-112.7741671810079
 10
96.25769040562308
 20
-112.6260280751421
 10
96.04064939005234
 20
-112.6260280751421
 10
95.7285237390887
 20
-112.6260280751421
 10
95.68580455507161
 20
-112.9540011653379
 10
95.67202417313061
 20
-113.1591566014845
 10
95.77158743265433
 20
-113.0809529339694
 10
95.84393443784458
 20
-113.0216972916231
 10
96.0385823327612
 20
-113.0216972916231
 10
96.23047415128961
 20
-113.0216972916231
 10
96.55396861735457
 20
-113.1295287803114
 10
96.55396861735457
 20
-113.5357055380223
 10
96.55396861735457
 20
-113.8552381442793
 10
96.34140622591465
 20
-114.0750352362382
 10
96.00206432061755
 20
-114.0750352362382
 97
        0
 97
        0
 92
        1
 93
        1
 72
     4
 94
        3
 73
     0
 74
     1
 95
       17
 96
       13
 40
0.0
 40
0.0
 40
0.0
 40
0.0
 40
1.0
 40
1.0
 40
1.0
 40
2.0
 40
2.0
 40
2.0
 40
3.0
 40
3.0
 40
3.0
 40
4.0
 40
4.0
 40
4.0
 40
4.0
 10
96.02032332668936
 20
-113.2163451865397
 10
95.73989255419004
 20
-113.2163451865397
 10
95.69924042746408
 20
-113.427874049334
 10
95.69924042746408
 20
-113.5441460219612
 10
95.69924042746408
 20
-113.7198458917089
 10
95.80087074427895
 20
-113.8827989081612
 10
95.99758569648672
 20
-113.8827989081612
 10
96.12643226763507
 20
-113.8827989081612
 10
96.31418997158119
 20
-113.8235432658149
 10
96.31418997158119
 20
-113.5377725953135
 10
96.31418997158119
 20
-113.313669133998
 10
96.16501733706986
 20
-113.2163451865397
 10
96.02032332668936
 20
-113.2163451865397
 97
        0
 97
        0
 75
     2
 76
     1
 98
        0
  0
ENDBLK
  5
9D
330
9A
100
AcDbEntity
  8
0
100
AcDbBlockEnd
  0
BLOCK
  5
AD
330
AB
100
AcDbEntity
  8
0
100
AcDbBlockBegin
  2
block 4
 70
     0
 10
0.0
 20
0.0
 30
0.0
  3
block 4
  1

  0
SPLINE
  5
AF
330
AB
100
AcDbEntity
  8
_U+30EC_U+30A4_U+30E4_U+30FC 1
370
     0
100
AcDbSpline
210
0.0
220
0.0
230
1.0
 70
    11
 71
     3
 72
    26
 73
    22
 74
     0
 42
0.0000000001
 43
0.0000000001
 12
1.0
 22
0.0
 32
0.0
 13
1.0
 23
0.0
 33
0.0
 40
0.0
 40
0.0
 40
0.0
 40
0.0
 40
1.0
 40
1.0
 40
1.0
 40
2.0
 40
2.0
 40
2.0
 40
3.0
 40
3.0
 40
3.0
 40
4.0
 40
4.0
 40
4.0
 40
5.0
 40
5.0
 40
5.0
 40
6.0
 40
6.0
 40
6.0
 40
7.0
 40
7.0
 40
7.0
 40
7.0
 10
83.59593096868436
 20
-120.6422485049957
 30
0.0
 10
83.59593096868436
 20
-120.6422485049957
 30
0.0
 10
83.59593096868436
 20
-119.5379231471989
 30
0.0
 10
83.59593096868436
 20
-119.5379231471989
 30
0.0
 10
83.59593096868436
 20
-119.5379231471989
 30
0.0
 10
83.24315319099478
 20
-119.5379231471989
 30
0.0
 10
83.24315319099478
 20
-119.5379231471989
 30
0.0
 10
83.24315319099478
 20
-119.5379231471989
 30
0.0
 10
83.24315319099478
 20
-119.3897840413331
 30
0.0
 10
83.24315319099478
 20
-119.3897840413331
 30
0.0
 10
83.59817028074977
 20
-119.3751423855208
 30
0.0
 10
83.64795191051162
 20
-119.2121893690685
 30
0.0
 10
83.67964678897593
 20
-119.0979844537325
 30
0.0
 10
83.67964678897593
 20
-119.0979844537325
 30
0.0
 10
83.83553735968349
 20
-119.0979844537325
 30
0.0
 10
83.83553735968349
 20
-119.0979844537325
 30
0.0
 10
83.83553735968349
 20
-119.0979844537325
 30
0.0
 10
83.83553735968349
 20
-120.6422485049957
 30
0.0
 10
83.83553735968349
 20
-120.6422485049957
 30
0.0
 10
83.83553735968349
 20
-120.6422485049957
 30
0.0
 10
83.59593096868436
 20
-120.6422485049957
 30
0.0
 10
83.59593096868436
 20
-120.6422485049957
 30
0.0
  0
HATCH
  5
B0
330
AB
100
AcDbEntity
  8
_U+30EC_U+30A4_U+30E4_U+30FC 1
 62
   179
420
  2234388
100
AcDbHatch
 10
0.0
 20
0.0
 30
0.0
210
0.0
220
0.0
230
1.0
  2
SOLID
 70
     1
 71
     0
 91
        1
 92
        1
 93
        1
 72
     4
 94
        3
 73
     0
 74
     1
 95
       26
 96
       22
 40
0.0
 40
0.0
 40
0.0
 40
0.0
 40
1.0
 40
1.0
 40
1.0
 40
2.0
 40
2.0
 40
2.0
 40
3.0
 40
3.0
 40
3.0
 40
4.0
 40
4.0
 40
4.0
 40
5.0
 40
5.0
 40
5.0
 40
6.0
 40
6.0
 40
6.0
 40
7.0
 40
7.0
 40
7.0
 40
7.0
 10
83.59593096868436
 20
-120.6422485049957
 10
83.59593096868436
 20
-120.6422485049957
 10
83.59593096868436
 20
-119.5379231471989
 10
83.59593096868436
 20
-119.5379231471989
 10
83.59593096868436
 20
-119.5379231471989
 10
83.24315319099478
 20
-119.5379231471989
 10
83.24315319099478
 20
-119.5379231471989
 10
83.24315319099478
 20
-119.5379231471989
 10
83.24315319099478
 20
-119.3897840413331
 10
83.24315319099478
 20
-119.3897840413331
 10
83.59817028074977
 20
-119.3751423855208
 10
83.64795191051162
 20
-119.2121893690685
 10
83.67964678897593
 20
-119.0979844537325
 10
83.67964678897593
 20
-119.0979844537325
 10
83.83553735968349
 20
-119.0979844537325
 10
83.83553735968349
 20
-119.0979844537325
 10
83.83553735968349
 20
-119.0979844537325
 10
83.83553735968349
 20
-120.6422485049957
 10
83.83553735968349
 20
-120.6422485049957
 10
83.83553735968349
 20
-120.6422485049957
 10
83.59593096868436
 20
-120.6422485049957
 10
83.59593096868436
 20
-120.6422485049957
 97
        0
 97
        0
 75
     2
 76
     1
 98
        0
  0
ENDBLK
  5
AE
330
AB
100
AcDbEntity
  8
0
100
AcDbBlockEnd
  0
BLOCK
  5
BF
330
BD
100
AcDbEntity
  8
0
100
AcDbBlockBegin
  2
block 5
 70
     0
 10
0.0
 20
0.0
 30
0.0
  3
block 5
  1

  0
SPLINE
  5
C1
330
BD
100
AcDbEntity
  8
_U+30EC_U+30A4_U+30E4_U+30FC 1
370
     0
100
AcDbSpline
210
0.0
220
0.0
230
1.0
 70
    11
 71
     3
 72
    44
 73
    40
 74
     0
 42
0.0000000001
 43
0.0000000001
 12
1.0
 22
0.0
 32
0.0
 13
1.0
 23
0.0
 33
0.0
 40
0.0
 40
0.0
 40
0.0
 40
0.0
 40
1.0
 40
1.0
 40
1.0
 40
2.0
 40
2.0
 40
2.0
 40
3.0
 40
3.0
 40
3.0
 40
4.0
 40
4.0
 40
4.0
 40
5.0
 40
5.0
 40
5.0
 40
6.0
 40
6.0
 40
6.0
 40
7.0
 40
7.0
 40
7.0
 40
8.0
 40
8.0
 40
8.0
 40
9.0
 40
9.0
 40
9.0
 40
10.0
 40
10.0
 40
10.0
 40
11.0
 40
11.0
 40
11.0
 40
12.0
 40
12.0
 40
12.0
 40
13.0
 40
13.0
 40
13.0
 40
13.0
 10
91.33929983610615
 20
-142.4419514617854
 30
0.0
 10
91.10641138130326
 20
-142.6007703636554
 30
0.0
 10
91.00684812177954
 20
-142.6748399165882
 30
0.0
 10
90.95482717995228
 20
-142.8185003983232
 30
0.0
 10
90.95482717995228
 20
-142.8185003983232
 30
0.0
 10
91.78698999441437
 20
-142.8185003983232
 30
0.0
 10
91.78698999441437
 20
-142.8185003983232
 30
0.0
 10
91.78698999441437
 20
-142.8185003983232
 30
0.0
 10
91.78698999441437
 20
-143.0238280892441
 30
0.0
 10
91.78698999441437
 20
-143.0238280892441
 30
0.0
 10
91.78698999441437
 20
-143.0238280892441
 30
0.0
 10
90.68817678939394
 20
-143.0238280892441
 30
0.0
 10
90.68817678939394
 20
-143.0238280892441
 30
0.0
 10
90.72228323469791
 20
-142.6662271778751
 30
0.0
 10
90.79221867304848
 20
-142.5880235103599
 30
0.0
 10
91.20356307398731
 20
-142.2896782413373
 30
0.0
 10
91.47693140074188
 20
-142.0908962318384
 30
0.0
 10
91.54721134864099
 20
-142.023027850779
 30
0.0
 10
91.54721134864099
 20
-141.8855685409175
 30
0.0
 10
91.54721134864099
 20
-141.7670572562249
 30
0.0
 10
91.47073022886843
 20
-141.6361436277854
 30
0.0
 10
91.2600626399454
 20
-141.6361436277854
 30
0.0
 10
90.98204343428574
 20
-141.6361436277854
 30
0.0
 10
90.97308618602409
 20
-141.8666205157486
 30
0.0
 10
90.96860756189326
 20
-141.9830647431501
 30
0.0
 10
90.96860756189326
 20
-141.9830647431501
 30
0.0
 10
90.72882891611988
 20
-141.9830647431501
 30
0.0
 10
90.72882891611988
 20
-141.9830647431501
 30
0.0
 10
90.73778616438153
 20
-141.8559407197444
 30
0.0
 10
90.74915497948285
 20
-141.7439751164737
 30
0.0
 10
90.8352823666141
 20
-141.6254638317811
 30
0.0
 10
90.95276012266112
 20
-141.46457787262
 30
0.0
 10
91.15154213216003
 20
-141.4308159368645
 30
0.0
 10
91.27591007917755
 20
-141.4308159368645
 30
0.0
 10
91.57201603613478
 20
-141.4308159368645
 30
0.0
 10
91.79388018538486
 20
-141.6147840357769
 30
0.0
 10
91.79388018538486
 20
-141.8876355982086
 30
0.0
 10
91.79388018538486
 20
-142.1163899384293
 30
0.0
 10
91.66916772881882
 20
-142.2156086884044
 30
0.0
 10
91.33929983610615
 20
-142.4419514617854
 30
0.0
  0
HATCH
  5
C2
330
BD
100
AcDbEntity
  8
_U+30EC_U+30A4_U+30E4_U+30FC 1
 62
   179
420
  2234388
100
AcDbHatch
 10
0.0
 20
0.0
 30
0.0
210
0.0
220
0.0
230
1.0
  2
SOLID
 70
     1
 71
     0
 91
        1
 92
        1
 93
        1
 72
     4
 94
        3
 73
     0
 74
     1
 95
       44
 96
       40
 40
0.0
 40
0.0
 40
0.0
 40
0.0
 40
1.0
 40
1.0
 40
1.0
 40
2.0
 40
2.0
 40
2.0
 40
3.0
 40
3.0
 40
3.0
 40
4.0
 40
4.0
 40
4.0
 40
5.0
 40
5.0
 40
5.0
 40
6.0
 40
6.0
 40
6.0
 40
7.0
 40
7.0
 40
7.0
 40
8.0
 40
8.0
 40
8.0
 40
9.0
 40
9.0
 40
9.0
 40
10.0
 40
10.0
 40
10.0
 40
11.0
 40
11.0
 40
11.0
 40
12.0
 40
12.0
 40
12.0
 40
13.0
 40
13.0
 40
13.0
 40
13.0
 10
91.33929983610615
 20
-142.4419514617854
 10
91.10641138130326
 20
-142.6007703636554
 10
91.00684812177954
 20
-142.6748399165882
 10
90.95482717995228
 20
-142.8185003983232
 10
90.95482717995228
 20
-142.8185003983232
 10
91.78698999441437
 20
-142.8185003983232
 10
91.78698999441437
 20
-142.8185003983232
 10
91.78698999441437
 20
-142.8185003983232
 10
91.78698999441437
 20
-143.0238280892441
 10
91.78698999441437
 20
-143.0238280892441
 10
91.78698999441437
 20
-143.0238280892441
 10
90.68817678939394
 20
-143.0238280892441
 10
90.68817678939394
 20
-143.0238280892441
 10
90.72228323469791
 20
-142.6662271778751
 10
90.79221867304848
 20
-142.5880235103599
 10
91.20356307398731
 20
-142.2896782413373
 10
91.47693140074188
 20
-142.0908962318384
 10
91.54721134864099
 20
-142.023027850779
 10
91.54721134864099
 20
-141.8855685409175
 10
91.54721134864099
 20
-141.7670572562249
 10
91.47073022886843
 20
-141.6361436277854
 10
91.2600626399454
 20
-141.6361436277854
 10
90.98204343428574
 20
-141.6361436277854
 10
90.97308618602409
 20
-141.8666205157486
 10
90.96860756189326
 20
-141.9830647431501
 10
90.96860756189326
 20
-141.9830647431501
 10
90.72882891611988
 20
-141.9830647431501
 10
90.72882891611988
 20
-141.9830647431501
 10
90.73778616438153
 20
-141.8559407197444
 10
90.74915497948285
 20
-141.7439751164737
 10
90.8352823666141
 20
-141.6254638317811
 10
90.95276012266112
 20
-141.46457787262
 10
91.15154213216003
 20
-141.4308159368645
 10
91.27591007917755
 20
-141.4308159368645
 10
91.57201603613478
 20
-141.4308159368645
 10
91.79388018538486
 20
-141.6147840357769
 10
91.79388018538486
 20
-141.8876355982086
 10
91.79388018538486
 20
-142.1163899384293
 10
91.66916772881882
 20
-142.2156086884044
 10
91.33929983610615
 20
-142.4419514617854
 97
        0
 97
        0
 75
     2
 76
     1
 98
        0
  0
SPLINE
  5
C3
330
BD
100
AcDbEntity
  8
_U+30EC_U+30A4_U+30E4_U+30FC 1
370
     0
100
AcDbSpline
210
0.0
220
0.0
230
1.0
 70
    11
 71
     3
 72
    26
 73
    22
 74
     0
 42
0.0000000001
 43
0.0000000001
 12
1.0
 22
0.0
 32
0.0
 13
1.0
 23
0.0
 33
0.0
 40
0.0
 40
0.0
 40
0.0
 40
0.0
 40
1.0
 40
1.0
 40
1.0
 40
2.0
 40
2.0
 40
2.0
 40
3.0
 40
3.0
 40
3.0
 40
4.0
 40
4.0
 40
4.0
 40
5.0
 40
5.0
 40
5.0
 40
6.0
 40
6.0
 40
6.0
 40
7.0
 40
7.0
 40
7.0
 40
7.0
 10
92.44569225119413
 20
-143.0238280892441
 30
0.0
 10
92.44569225119413
 20
-143.0238280892441
 30
0.0
 10
92.44569225119413
 20
-141.9196749862215
 30
0.0
 10
92.44569225119413
 20
-141.9196749862215
 30
0.0
 10
92.44569225119413
 20
-141.9196749862215
 30
0.0
 10
92.09291447350455
 20
-141.9196749862215
 30
0.0
 10
92.09291447350455
 20
-141.9196749862215
 30
0.0
 10
92.09291447350455
 20
-141.9196749862215
 30
0.0
 10
92.09291447350455
 20
-141.7715358803557
 30
0.0
 10
92.09291447350455
 20
-141.7715358803557
 30
0.0
 10
92.44775930848529
 20
-141.7567219697692
 30
0.0
 10
92.49736868347289
 20
-141.5937689533168
 30
0.0
 10
92.52906356193718
 20
-141.4793917832066
 30
0.0
 10
92.52906356193718
 20
-141.4793917832066
 30
0.0
 10
92.68547089696753
 20
-141.4793917832066
 30
0.0
 10
92.68547089696753
 20
-141.4793917832066
 30
0.0
 10
92.68547089696753
 20
-141.4793917832066
 30
0.0
 10
92.68547089696753
 20
-143.0238280892441
 30
0.0
 10
92.68547089696753
 20
-143.0238280892441
 30
0.0
 10
92.68547089696753
 20
-143.0238280892441
 30
0.0
 10
92.44569225119413
 20
-143.0238280892441
 30
0.0
 10
92.44569225119413
 20
-143.0238280892441
 30
0.0
  0
HATCH
  5
C4
330
BD
100
AcDbEntity
  8
_U+30EC_U+30A4_U+30E4_U+30FC 1
 62
   179
420
  2234388
100
AcDbHatch
 10
0.0
 20
0.0
 30
0.0
210
0.0
220
0.0
230
1.0
  2
SOLID
 70
     1
 71
     0
 91
        1
 92
        1
 93
        1
 72
     4
 94
        3
 73
     0
 74
     1
 95
       26
 96
       22
 40
0.0
 40
0.0
 40
0.0
 40
0.0
 40
1.0
 40
1.0
 40
1.0
 40
2.0
 40
2.0
 40
2.0
 40
3.0
 40
3.0
 40
3.0
 40
4.0
 40
4.0
 40
4.0
 40
5.0
 40
5.0
 40
5.0
 40
6.0
 40
6.0
 40
6.0
 40
7.0
 40
7.0
 40
7.0
 40
7.0
 10
92.44569225119413
 20
-143.0238280892441
 10
92.44569225119413
 20
-143.0238280892441
 10
92.44569225119413
 20
-141.9196749862215
 10
92.44569225119413
 20
-141.9196749862215
 10
92.44569225119413
 20
-141.9196749862215
 10
92.09291447350455
 20
-141.9196749862215
 10
92.09291447350455
 20
-141.9196749862215
 10
92.09291447350455
 20
-141.9196749862215
 10
92.09291447350455
 20
-141.7715358803557
 10
92.09291447350455
 20
-141.7715358803557
 10
92.44775930848529
 20
-141.7567219697692
 10
92.49736868347289
 20
-141.5937689533168
 10
92.52906356193718
 20
-141.4793917832066
 10
92.52906356193718
 20
-141.4793917832066
 10
92.68547089696753
 20
-141.4793917832066
 10
92.68547089696753
 20
-141.4793917832066
 10
92.68547089696753
 20
-141.4793917832066
 10
92.68547089696753
 20
-143.0238280892441
 10
92.68547089696753
 20
-143.0238280892441
 10
92.68547089696753
 20
-143.0238280892441
 10
92.44569225119413
 20
-143.0238280892441
 10
92.44569225119413
 20
-143.0238280892441
 97
        0
 97
        0
 75
     2
 76
     1
 98
        0
  0
ENDBLK
  5
C0
330
BD
100
AcDbEntity
  8
0
100
AcDbBlockEnd
  0
BLOCK
  5
D3
330
D1
100
AcDbEntity
  8
0
100
AcDbBlockBegin
  2
block 6
 70
     0
 10
0.0
 20
0.0
 30
0.0
  3
block 6
  1

  0
SPLINE
  5
D5
330
D1
100
AcDbEntity
  8
_U+30EC_U+30A4_U+30E4_U+30FC 1
370
     0
100
AcDbSpline
210
0.0
220
0.0
230
1.0
 70
    11
 71
     3
 72
    26
 73
    22
 74
     0
 42
0.0000000001
 43
0.0000000001
 12
1.0
 22
0.0
 32
0.0
 13
1.0
 23
0.0
 33
0.0
 40
0.0
 40
0.0
 40
0.0
 40
0.0
 40
1.0
 40
1.0
 40
1.0
 40
2.0
 40
2.0
 40
2.0
 40
3.0
 40
3.0
 40
3.0
 40
4.0
 40
4.0
 40
4.0
 40
5.0
 40
5.0
 40
5.0
 40
6.0
 40
6.0
 40
6.0
 40
7.0
 40
7.0
 40
7.0
 40
7.0
 10
103.7369927041005
 20
-132.473567675215
 30
0.0
 10
103.7369927041005
 20
-132.473567675215
 30
0.0
 10
102.6328396010779
 20
-132.473567675215
 30
0.0
 10
102.6328396010779
 20
-132.473567675215
 30
0.0
 10
102.6328396010779
 20
-132.473567675215
 30
0.0
 10
102.6328396010779
 20
-132.826000943356
 30
0.0
 10
102.6328396010779
 20
-132.826000943356
 30
0.0
 10
102.6328396010779
 20
-132.826000943356
 30
0.0
 10
102.4847004952122
 20
-132.826000943356
 30
0.0
 10
102.4847004952122
 20
-132.826000943356
 30
0.0
 10
102.4698865846256
 20
-132.4711561083753
 30
0.0
 10
102.3069335681733
 20
-132.4215467333877
 30
0.0
 10
102.192556398063
 20
-132.3898518549234
 30
0.0
 10
102.192556398063
 20
-132.3898518549234
 30
0.0
 10
102.192556398063
 20
-132.2337890294416
 30
0.0
 10
102.192556398063
 20
-132.2337890294416
 30
0.0
 10
102.192556398063
 20
-132.2337890294416
 30
0.0
 10
103.7369927041005
 20
-132.2337890294416
 30
0.0
 10
103.7369927041005
 20
-132.2337890294416
 30
0.0
 10
103.7369927041005
 20
-132.2337890294416
 30
0.0
 10
103.7369927041005
 20
-132.473567675215
 30
0.0
 10
103.7369927041005
 20
-132.473567675215
 30
0.0
  0
HATCH
  5
D6
330
D1
100
AcDbEntity
  8
_U+30EC_U+30A4_U+30E4_U+30FC 1
 62
   179
420
  2234388
100
AcDbHatch
 10
0.0
 20
0.0
 30
0.0
210
0.0
220
0.0
230
1.0
  2
SOLID
 70
     1
 71
     0
 91
        1
 92
        1
 93
        1
 72
     4
 94
        3
 73
     0
 74
     1
 95
       26
 96
       22
 40
0.0
 40
0.0
 40
0.0
 40
0.0
 40
1.0
 40
1.0
 40
1.0
 40
2.0
 40
2.0
 40
2.0
 40
3.0
 40
3.0
 40
3.0
 40
4.0
 40
4.0
 40
4.0
 40
5.0
 40
5.0
 40
5.0
 40
6.0
 40
6.0
 40
6.0
 40
7.0
 40
7.0
 40
7.0
 40
7.0
 10
103.7369927041005
 20
-132.473567675215
 10
103.7369927041005
 20
-132.473567675215
 10
102.6328396010779
 20
-132.473567675215
 10
102.6328396010779
 20
-132.473567675215
 10
102.6328396010779
 20
-132.473567675215
 10
102.6328396010779
 20
-132.826000943356
 10
102.6328396010779
 20
-132.826000943356
 10
102.6328396010779
 20
-132.826000943356
 10
102.4847004952122
 20
-132.826000943356
 10
102.4847004952122
 20
-132.826000943356
 10
102.4698865846256
 20
-132.4711561083753
 10
102.3069335681733
 20
-132.4215467333877
 10
102.192556398063
 20
-132.3898518549234
 10
102.192556398063
 20
-132.3898518549234
 10
102.192556398063
 20
-132.2337890294416
 10
102.192556398063
 20
-132.2337890294416
 10
102.192556398063
 20
-132.2337890294416
 10
103.7369927041005
 20
-132.2337890294416
 10
103.7369927041005
 20
-132.2337890294416
 10
103.7369927041005
 20
-132.2337890294416
 10
103.7369927041005
 20
-132.473567675215
 10
103.7369927041005
 20
-132.473567675215
 97
        0
 97
        0
 75
     2
 76
     1
 98
        0
  0
SPLINE
  5
D7
330
D1
100
AcDbEntity
  8
_U+30EC_U+30A4_U+30E4_U+30FC 1
370
     0
100
AcDbSpline
210
0.0
220
0.0
230
1.0
 70
    11
 71
     3
 72
    53
 73
    49
 74
     0
 42
0.0000000001
 43
0.0000000001
 12
1.0
 22
0.0
 32
0.0
 13
1.0
 23
0.0
 33
0.0
 40
0.0
 40
0.0
 40
0.0
 40
0.0
 40
1.0
 40
1.0
 40
1.0
 40
2.0
 40
2.0
 40
2.0
 40
3.0
 40
3.0
 40
3.0
 40
4.0
 40
4.0
 40
4.0
 40
5.0
 40
5.0
 40
5.0
 40
6.0
 40
6.0
 40
6.0
 40
7.0
 40
7.0
 40
7.0
 40
8.0
 40
8.0
 40
8.0
 40
9.0
 40
9.0
 40
9.0
 40
10.0
 40
10.0
 40
10.0
 40
11.0
 40
11.0
 40
11.0
 40
12.0
 40
12.0
 40
12.0
 40
13.0
 40
13.0
 40
13.0
 40
14.0
 40
14.0
 40
14.0
 40
15.0
 40
15.0
 40
15.0
 40
16.0
 40
16.0
 40
16.0
 40
16.0
 10
103.7876356077336
 20
-131.1840684350859
 30
0.0
 10
103.7876356077336
 20
-131.267439745829
 30
0.0
 10
103.7707546398559
 20
-131.3763047631629
 30
0.0
 10
103.7073648829273
 20
-131.4844807613997
 30
0.0
 10
103.5974663369479
 20
-131.6701714080547
 30
0.0
 10
103.4662081989598
 20
-131.6925645287088
 30
0.0
 10
103.3583767102715
 20
-131.7128905920718
 30
0.0
 10
103.3583767102715
 20
-131.7128905920718
 30
0.0
 10
103.3583767102715
 20
-131.4755235131381
 30
0.0
 10
103.3583767102715
 20
-131.4755235131381
 30
0.0
 10
103.5571587197704
 20
-131.4169568898888
 30
0.0
 10
103.5867865409436
 20
-131.28122012777
 30
0.0
 10
103.5867865409436
 20
-131.1816568682463
 30
0.0
 10
103.5867865409436
 20
-131.0324842337349
 30
0.0
 10
103.4872232814199
 20
-130.8698757268311
 30
0.0
 10
103.2546793361655
 20
-130.8698757268311
 30
0.0
 10
102.9987087416114
 20
-130.8698757268311
 30
0.0
 10
102.9287733032609
 20
-131.0617675453596
 30
0.0
 10
102.9287733032609
 20
-131.1906141165079
 30
0.0
 10
102.9287733032609
 20
-131.2247205618119
 30
0.0
 10
102.9287733032609
 20
-131.3763047631629
 30
0.0
 10
103.0579643839577
 20
-131.4710448890072
 30
0.0
 10
103.0579643839577
 20
-131.4710448890072
 30
0.0
 10
103.0390163587889
 20
-131.6588025929534
 30
0.0
 10
103.0390163587889
 20
-131.6588025929534
 30
0.0
 10
103.0390163587889
 20
-131.6588025929534
 30
0.0
 10
102.192556398063
 20
-131.529956021805
 30
0.0
 10
102.192556398063
 20
-131.529956021805
 30
0.0
 10
102.192556398063
 20
-131.529956021805
 30
0.0
 10
102.192556398063
 20
-130.6979654621172
 30
0.0
 10
102.192556398063
 20
-130.6979654621172
 30
0.0
 10
102.192556398063
 20
-130.6979654621172
 30
0.0
 10
102.3872042929796
 20
-130.6979654621172
 30
0.0
 10
102.3872042929796
 20
-130.6979654621172
 30
0.0
 10
102.3872042929796
 20
-130.6979654621172
 30
0.0
 10
102.3872042929796
 20
-131.3556341902514
 30
0.0
 10
102.3872042929796
 20
-131.3556341902514
 30
0.0
 10
102.3872042929796
 20
-131.3556341902514
 30
0.0
 10
102.8102620185683
 20
-131.4259141381505
 30
0.0
 10
102.8102620185683
 20
-131.4259141381505
 30
0.0
 10
102.7765000828128
 20
-131.3604573239307
 30
0.0
 10
102.7361924656354
 20
-131.2722628795083
 30
0.0
 10
102.7361924656354
 20
-131.1454833656511
 30
0.0
 10
102.7361924656354
 20
-130.874354350962
 30
0.0
 10
102.9225721313874
 20
-130.6211398327961
 30
0.0
 10
103.2357313109966
 20
-130.6211398327961
 30
0.0
 10
103.5530246051881
 20
-130.6211398327961
 30
0.0
 10
103.7876356077336
 20
-130.860573969021
 30
0.0
 10
103.7876356077336
 20
-131.1840684350859
 30
0.0
  0
HATCH
  5
D8
330
D1
100
AcDbEntity
  8
_U+30EC_U+30A4_U+30E4_U+30FC 1
 62
   179
420
  2234388
100
AcDbHatch
 10
0.0
 20
0.0
 30
0.0
210
0.0
220
0.0
230
1.0
  2
SOLID
 70
     1
 71
     0
 91
        1
 92
        1
 93
        1
 72
     4
 94
        3
 73
     0
 74
     1
 95
       53
 96
       49
 40
0.0
 40
0.0
 40
0.0
 40
0.0
 40
1.0
 40
1.0
 40
1.0
 40
2.0
 40
2.0
 40
2.0
 40
3.0
 40
3.0
 40
3.0
 40
4.0
 40
4.0
 40
4.0
 40
5.0
 40
5.0
 40
5.0
 40
6.0
 40
6.0
 40
6.0
 40
7.0
 40
7.0
 40
7.0
 40
8.0
 40
8.0
 40
8.0
 40
9.0
 40
9.0
 40
9.0
 40
10.0
 40
10.0
 40
10.0
 40
11.0
 40
11.0
 40
11.0
 40
12.0
 40
12.0
 40
12.0
 40
13.0
 40
13.0
 40
13.0
 40
14.0
 40
14.0
 40
14.0
 40
15.0
 40
15.0
 40
15.0
 40
16.0
 40
16.0
 40
16.0
 40
16.0
 10
103.7876356077336
 20
-131.1840684350859
 10
103.7876356077336
 20
-131.267439745829
 10
103.7707546398559
 20
-131.3763047631629
 10
103.7073648829273
 20
-131.4844807613997
 10
103.5974663369479
 20
-131.6701714080547
 10
103.4662081989598
 20
-131.6925645287088
 10
103.3583767102715
 20
-131.7128905920718
 10
103.3583767102715
 20
-131.7128905920718
 10
103.3583767102715
 20
-131.4755235131381
 10
103.3583767102715
 20
-131.4755235131381
 10
103.5571587197704
 20
-131.4169568898888
 10
103.5867865409436
 20
-131.28122012777
 10
103.5867865409436
 20
-131.1816568682463
 10
103.5867865409436
 20
-131.0324842337349
 10
103.4872232814199
 20
-130.8698757268311
 10
103.2546793361655
 20
-130.8698757268311
 10
102.9987087416114
 20
-130.8698757268311
 10
102.9287733032609
 20
-131.0617675453596
 10
102.9287733032609
 20
-131.1906141165079
 10
102.9287733032609
 20
-131.2247205618119
 10
102.9287733032609
 20
-131.3763047631629
 10
103.0579643839577
 20
-131.4710448890072
 10
103.0579643839577
 20
-131.4710448890072
 10
103.0390163587889
 20
-131.6588025929534
 10
103.0390163587889
 20
-131.6588025929534
 10
103.0390163587889
 20
-131.6588025929534
 10
102.192556398063
 20
-131.529956021805
 10
102.192556398063
 20
-131.529956021805
 10
102.192556398063
 20
-131.529956021805
 10
102.192556398063
 20
-130.6979654621172
 10
102.192556398063
 20
-130.6979654621172
 10
102.192556398063
 20
-130.6979654621172
 10
102.3872042929796
 20
-130.6979654621172
 10
102.3872042929796
 20
-130.6979654621172
 10
102.3872042929796
 20
-130.6979654621172
 10
102.3872042929796
 20
-131.3556341902514
 10
102.3872042929796
 20
-131.3556341902514
 10
102.3872042929796
 20
-131.3556341902514
 10
102.8102620185683
 20
-131.4259141381505
 10
102.8102620185683
 20
-131.4259141381505
 10
102.7765000828128
 20
-131.3604573239307
 10
102.7361924656354
 20
-131.2722628795083
 10
102.7361924656354
 20
-131.1454833656511
 10
102.7361924656354
 20
-130.874354350962
 10
102.9225721313874
 20
-130.6211398327961
 10
103.2357313109966
 20
-130.6211398327961
 10
103.5530246051881
 20
-130.6211398327961
 10
103.7876356077336
 20
-130.860573969021
 10
103.7876356077336
 20
-131.1840684350859
 97
        0
 97
        0
 75
     2
 76
     1
 98
        0
  0
POLYLINE
  5
D9
330
D1
100
AcDbEntity
  8
_U+30EC_U+30A4_U+30E4_U+30FC 1
370
     0
100
AcDb2dPolyline
 66
     1
 10
0.0
 20
0.0
 30
0.0
  0
VERTEX
  5
DA
330
D9
100
AcDbEntity
  8
_U+30EC_U+30A4_U+30E4_U+30FC 1
370
     0
100
AcDbVertex
100
AcDb2dVertex
 10
103.7369927041005
 20
-130.3761935437948
 30
0.0
  0
VERTEX
  5
DB
330
D9
100
AcDbEntity
  8
_U+30EC_U+30A4_U+30E4_U+30FC 1
370
     0
100
AcDbVertex
100
AcDb2dVertex
 10
103.4851562241287
 20
-130.3761935437948
 30
0.0
  0
VERTEX
  5
DC
330
D9
100
AcDbEntity
  8
_U+30EC_U+30A4_U+30E4_U+30FC 1
370
     0
100
AcDbVertex
100
AcDb2dVertex
 10
103.4851562241287
 20
-130.1071315863968
 30
0.0
  0
VERTEX
  5
DD
330
D9
100
AcDbEntity
  8
_U+30EC_U+30A4_U+30E4_U+30FC 1
370
     0
100
AcDbVertex
100
AcDb2dVertex
 10
103.7369927041005
 20
-130.1071315863968
 30
0.0
  0
VERTEX
  5
DE
330
D9
100
AcDbEntity
  8
_U+30EC_U+30A4_U+30E4_U+30FC 1
370
     0
100
AcDbVertex
100
AcDb2dVertex
 10
103.7369927041005
 20
-130.3761935437948
 30
0.0
  0
SEQEND
  5
DF
330
D9
100
AcDbEntity
  8
_U+30EC_U+30A4_U+30E4_U+30FC 1
370
     0
  0
HATCH
  5
E0
330
D1
100
AcDbEntity
  8
_U+30EC_U+30A4_U+30E4_U+30FC 1
 62
   179
420
  2234388
100
AcDbHatch
 10
0.0
 20
0.0
 30
0.0
210
0.0
220
0.0
230
1.0
  2
SOLID
 70
     1
 71
     0
 91
        1
 92
        1
 93
        4
 72
     1
 10
103.7369927041005
 20
-130.3761935437948
 11
103.4851562241287
 21
-130.3761935437948
 72
     1
 10
103.4851562241287
 20
-130.3761935437948
 11
103.4851562241287
 21
-130.1071315863968
 72
     1
 10
103.4851562241287
 20
-130.1071315863968
 11
103.7369927041005
 21
-130.1071315863968
 72
     1
 10
103.7369927041005
 20
-130.1071315863968
 11
103.7369927041005
 21
-130.3761935437948
 97
        0
 75
     2
 76
     1
 98
        0
  0
SPLINE
  5
E1
330
D1
100
AcDbEntity
  8
_U+30EC_U+30A4_U+30E4_U+30FC 1
370
     0
100
AcDbSpline
210
0.0
220
0.0
230
1.0
 70
    11
 71
     3
 72
    53
 73
    49
 74
     0
 42
0.0000000001
 43
0.0000000001
 12
1.0
 22
0.0
 32
0.0
 13
1.0
 23
0.0
 33
0.0
 40
0.0
 40
0.0
 40
0.0
 40
0.0
 40
1.0
 40
1.0
 40
1.0
 40
2.0
 40
2.0
 40
2.0
 40
3.0
 40
3.0
 40
3.0
 40
4.0
 40
4.0
 40
4.0
 40
5.0
 40
5.0
 40
5.0
 40
6.0
 40
6.0
 40
6.0
 40
7.0
 40
7.0
 40
7.0
 40
8.0
 40
8.0
 40
8.0
 40
9.0
 40
9.0
 40
9.0
 40
10.0
 40
10.0
 40
10.0
 40
11.0
 40
11.0
 40
11.0
 40
12.0
 40
12.0
 40
12.0
 40
13.0
 40
13.0
 40
13.0
 40
14.0
 40
14.0
 40
14.0
 40
15.0
 40
15.0
 40
15.0
 40
16.0
 40
16.0
 40
16.0
 40
16.0
 10
103.7876356077336
 20
-129.3402533313802
 30
0.0
 10
103.7876356077336
 20
-129.4236246421233
 30
0.0
 10
103.7707546398559
 20
-129.5324896594572
 30
0.0
 10
103.7073648829273
 20
-129.640665657694
 30
0.0
 10
103.5974663369479
 20
-129.826356304349
 30
0.0
 10
103.4662081989598
 20
-129.8487494250031
 30
0.0
 10
103.3583767102715
 20
-129.8690754883661
 30
0.0
 10
103.3583767102715
 20
-129.8690754883661
 30
0.0
 10
103.3583767102715
 20
-129.6317084094323
 30
0.0
 10
103.3583767102715
 20
-129.6317084094323
 30
0.0
 10
103.5571587197704
 20
-129.5731417861831
 30
0.0
 10
103.5867865409436
 20
-129.4374050240643
 30
0.0
 10
103.5867865409436
 20
-129.3378417645405
 30
0.0
 10
103.5867865409436
 20
-129.1886691300292
 30
0.0
 10
103.4872232814199
 20
-129.0260606231254
 30
0.0
 10
103.2546793361655
 20
-129.0260606231254
 30
0.0
 10
102.9987087416114
 20
-129.0260606231254
 30
0.0
 10
102.9287733032609
 20
-129.2179524416539
 30
0.0
 10
102.9287733032609
 20
-129.3467990128022
 30
0.0
 10
102.9287733032609
 20
-129.3809054581062
 30
0.0
 10
102.9287733032609
 20
-129.5324896594572
 30
0.0
 10
103.0579643839577
 20
-129.6272297853015
 30
0.0
 10
103.0579643839577
 20
-129.6272297853015
 30
0.0
 10
103.0390163587889
 20
-129.8149874892476
 30
0.0
 10
103.0390163587889
 20
-129.8149874892476
 30
0.0
 10
103.0390163587889
 20
-129.8149874892476
 30
0.0
 10
102.192556398063
 20
-129.6861409180993
 30
0.0
 10
102.192556398063
 20
-129.6861409180993
 30
0.0
 10
102.192556398063
 20
-129.6861409180993
 30
0.0
 10
102.192556398063
 20
-128.8541503584115
 30
0.0
 10
102.192556398063
 20
-128.8541503584115
 30
0.0
 10
102.192556398063
 20
-128.8541503584115
 30
0.0
 10
102.3872042929796
 20
-128.8541503584115
 30
0.0
 10
102.3872042929796
 20
-128.8541503584115
 30
0.0
 10
102.3872042929796
 20
-128.8541503584115
 30
0.0
 10
102.3872042929796
 20
-129.5118190865457
 30
0.0
 10
102.3872042929796
 20
-129.5118190865457
 30
0.0
 10
102.3872042929796
 20
-129.5118190865457
 30
0.0
 10
102.8102620185683
 20
-129.5820990344448
 30
0.0
 10
102.8102620185683
 20
-129.5820990344448
 30
0.0
 10
102.7765000828128
 20
-129.516642220225
 30
0.0
 10
102.7361924656354
 20
-129.4284477758026
 30
0.0
 10
102.7361924656354
 20
-129.3016682619454
 30
0.0
 10
102.7361924656354
 20
-129.0305392472563
 30
0.0
 10
102.9225721313874
 20
-128.7773247290904
 30
0.0
 10
103.2357313109966
 20
-128.7773247290904
 30
0.0
 10
103.5530246051881
 20
-128.7773247290904
 30
0.0
 10
103.7876356077336
 20
-129.0167588653153
 30
0.0
 10
103.7876356077336
 20
-129.3402533313802
 30
0.0
  0
HATCH
  5
E2
330
D1
100
AcDbEntity
  8
_U+30EC_U+30A4_U+30E4_U+30FC 1
 62
   179
420
  2234388
100
AcDbHatch
 10
0.0
 20
0.0
 30
0.0
210
0.0
220
0.0
230
1.0
  2
SOLID
 70
     1
 71
     0
 91
        1
 92
        1
 93
        1
 72
     4
 94
        3
 73
     0
 74
     1
 95
       53
 96
       49
 40
0.0
 40
0.0
 40
0.0
 40
0.0
 40
1.0
 40
1.0
 40
1.0
 40
2.0
 40
2.0
 40
2.0
 40
3.0
 40
3.0
 40
3.0
 40
4.0
 40
4.0
 40
4.0
 40
5.0
 40
5.0
 40
5.0
 40
6.0
 40
6.0
 40
6.0
 40
7.0
 40
7.0
 40
7.0
 40
8.0
 40
8.0
 40
8.0
 40
9.0
 40
9.0
 40
9.0
 40
10.0
 40
10.0
 40
10.0
 40
11.0
 40
11.0
 40
11.0
 40
12.0
 40
12.0
 40
12.0
 40
13.0
 40
13.0
 40
13.0
 40
14.0
 40
14.0
 40
14.0
 40
15.0
 40
15.0
 40
15.0
 40
16.0
 40
16.0
 40
16.0
 40
16.0
 10
103.7876356077336
 20
-129.3402533313802
 10
103.7876356077336
 20
-129.4236246421233
 10
103.7707546398559
 20
-129.5324896594572
 10
103.7073648829273
 20
-129.640665657694
 10
103.5974663369479
 20
-129.826356304349
 10
103.4662081989598
 20
-129.8487494250031
 10
103.3583767102715
 20
-129.8690754883661
 10
103.3583767102715
 20
-129.8690754883661
 10
103.3583767102715
 20
-129.6317084094323
 10
103.3583767102715
 20
-129.6317084094323
 10
103.5571587197704
 20
-129.5731417861831
 10
103.5867865409436
 20
-129.4374050240643
 10
103.5867865409436
 20
-129.3378417645405
 10
103.5867865409436
 20
-129.1886691300292
 10
103.4872232814199
 20
-129.0260606231254
 10
103.2546793361655
 20
-129.0260606231254
 10
102.9987087416114
 20
-129.0260606231254
 10
102.9287733032609
 20
-129.2179524416539
 10
102.9287733032609
 20
-129.3467990128022
 10
102.9287733032609
 20
-129.3809054581062
 10
102.9287733032609
 20
-129.5324896594572
 10
103.0579643839577
 20
-129.6272297853015
 10
103.0579643839577
 20
-129.6272297853015
 10
103.0390163587889
 20
-129.8149874892476
 10
103.0390163587889
 20
-129.8149874892476
 10
103.0390163587889
 20
-129.8149874892476
 10
102.192556398063
 20
-129.6861409180993
 10
102.192556398063
 20
-129.6861409180993
 10
102.192556398063
 20
-129.6861409180993
 10
102.192556398063
 20
-128.8541503584115
 10
102.192556398063
 20
-128.8541503584115
 10
102.192556398063
 20
-128.8541503584115
 10
102.3872042929796
 20
-128.8541503584115
 10
102.3872042929796
 20
-128.8541503584115
 10
102.3872042929796
 20
-128.8541503584115
 10
102.3872042929796
 20
-129.5118190865457
 10
102.3872042929796
 20
-129.5118190865457
 10
102.3872042929796
 20
-129.5118190865457
 10
102.8102620185683
 20
-129.5820990344448
 10
102.8102620185683
 20
-129.5820990344448
 10
102.7765000828128
 20
-129.516642220225
 10
102.7361924656354
 20
-129.4284477758026
 10
102.7361924656354
 20
-129.3016682619454
 10
102.7361924656354
 20
-129.0305392472563
 10
102.9225721313874
 20
-128.7773247290904
 10
103.2357313109966
 20
-128.7773247290904
 10
103.5530246051881
 20
-128.7773247290904
 10
103.7876356077336
 20
-129.0167588653153
 10
103.7876356077336
 20
-129.3402533313802
 97
        0
 97
        0
 75
     2
 76
     1
 98
        0
  0
ENDBLK
  5
D4
330
D1
100
AcDbEntity
  8
0
100
AcDbBlockEnd
  0
BLOCK
  5
F1
330
EF
100
AcDbEntity
  8
0
100
AcDbBlockBegin
  2
block 7
 70
     0
 10
0.0
 20
0.0
 30
0.0
  3
block 7
  1

  0
SPLINE
  5
F3
330
EF
100
AcDbEntity
  8
_U+30EC_U+30A4_U+30E4_U+30FC 1
370
     0
100
AcDbSpline
210
0.0
220
0.0
230
1.0
 70
    11
 71
     3
 72
    44
 73
    40
 74
     0
 42
0.0000000001
 43
0.0000000001
 12
1.0
 22
0.0
 32
0.0
 13
1.0
 23
0.0
 33
0.0
 40
0.0
 40
0.0
 40
0.0
 40
0.0
 40
1.0
 40
1.0
 40
1.0
 40
2.0
 40
2.0
 40
2.0
 40
3.0
 40
3.0
 40
3.0
 40
4.0
 40
4.0
 40
4.0
 40
5.0
 40
5.0
 40
5.0
 40
6.0
 40
6.0
 40
6.0
 40
7.0
 40
7.0
 40
7.0
 40
8.0
 40
8.0
 40
8.0
 40
9.0
 40
9.0
 40
9.0
 40
10.0
 40
10.0
 40
10.0
 40
11.0
 40
11.0
 40
11.0
 40
12.0
 40
12.0
 40
12.0
 40
13.0
 40
13.0
 40
13.0
 40
13.0
 10
76.19087047791409
 20
-129.9993000977085
 30
0.0
 10
76.34951712500984
 20
-130.2321885525114
 30
0.0
 10
76.42358667794272
 20
-130.3317518120351
 30
0.0
 10
76.5674194144519
 20
-130.3834282443139
 30
0.0
 10
76.5674194144519
 20
-130.3834282443139
 30
0.0
 10
76.5674194144519
 20
-129.5517821941746
 30
0.0
 10
76.5674194144519
 20
-129.5517821941746
 30
0.0
 10
76.5674194144519
 20
-129.5517821941746
 30
0.0
 10
76.77257485059853
 20
-129.5517821941746
 30
0.0
 10
76.77257485059853
 20
-129.5517821941746
 30
0.0
 10
76.77257485059853
 20
-129.5517821941746
 30
0.0
 10
76.77257485059853
 20
-130.6504231444207
 30
0.0
 10
76.77257485059853
 20
-130.6504231444207
 30
0.0
 10
76.4149739392296
 20
-130.6163166991168
 30
0.0
 10
76.33677027171443
 20
-130.5463812607662
 30
0.0
 10
76.03842500269178
 20
-130.1350368598274
 30
0.0
 10
75.83964299319287
 20
-129.8614962782985
 30
0.0
 10
75.77194686690771
 20
-129.7912163303994
 30
0.0
 10
75.63448755704624
 20
-129.7912163303994
 30
0.0
 10
75.51597627235365
 20
-129.7912163303994
 30
0.0
 10
75.38471813436563
 20
-129.8680419597205
 30
0.0
 10
75.38471813436563
 20
-130.0785372938693
 30
0.0
 10
75.38471813436563
 20
-130.3565564995289
 30
0.0
 10
75.6153672771031
 20
-130.3655137477906
 30
0.0
 10
75.73181150450455
 20
-130.3699923719214
 30
0.0
 10
75.73181150450455
 20
-130.3699923719214
 30
0.0
 10
75.73181150450455
 20
-130.6097710176948
 30
0.0
 10
75.73181150450455
 20
-130.6097710176948
 30
0.0
 10
75.60485973587309
 20
-130.6004692598846
 30
0.0
 10
75.49272187782822
 20
-130.5894449543318
 30
0.0
 10
75.37421059313561
 20
-130.5033175672006
 30
0.0
 10
75.21349688874871
 20
-130.3858398111535
 30
0.0
 10
75.179562698219
 20
-130.1870578016546
 30
0.0
 10
75.179562698219
 20
-130.0626898546371
 30
0.0
 10
75.179562698219
 20
-129.7664116429056
 30
0.0
 10
75.3637030519056
 20
-129.5448920032041
 30
0.0
 10
75.6365546143374
 20
-129.5448920032041
 30
0.0
 10
75.86496444500946
 20
-129.5448920032041
 30
0.0
 10
75.96452770453318
 20
-129.6692599502216
 30
0.0
 10
76.19087047791409
 20
-129.9993000977085
 30
0.0
  0
HATCH
  5
F4
330
EF
100
AcDbEntity
  8
_U+30EC_U+30A4_U+30E4_U+30FC 1
 62
   179
420
  2234388
100
AcDbHatch
 10
0.0
 20
0.0
 30
0.0
210
0.0
220
0.0
230
1.0
  2
SOLID
 70
     1
 71
     0
 91
        1
 92
        1
 93
        1
 72
     4
 94
        3
 73
     0
 74
     1
 95
       44
 96
       40
 40
0.0
 40
0.0
 40
0.0
 40
0.0
 40
1.0
 40
1.0
 40
1.0
 40
2.0
 40
2.0
 40
2.0
 40
3.0
 40
3.0
 40
3.0
 40
4.0
 40
4.0
 40
4.0
 40
5.0
 40
5.0
 40
5.0
 40
6.0
 40
6.0
 40
6.0
 40
7.0
 40
7.0
 40
7.0
 40
8.0
 40
8.0
 40
8.0
 40
9.0
 40
9.0
 40
9.0
 40
10.0
 40
10.0
 40
10.0
 40
11.0
 40
11.0
 40
11.0
 40
12.0
 40
12.0
 40
12.0
 40
13.0
 40
13.0
 40
13.0
 40
13.0
 10
76.19087047791409
 20
-129.9993000977085
 10
76.34951712500984
 20
-130.2321885525114
 10
76.42358667794272
 20
-130.3317518120351
 10
76.5674194144519
 20
-130.3834282443139
 10
76.5674194144519
 20
-130.3834282443139
 10
76.5674194144519
 20
-129.5517821941746
 10
76.5674194144519
 20
-129.5517821941746
 10
76.5674194144519
 20
-129.5517821941746
 10
76.77257485059853
 20
-129.5517821941746
 10
76.77257485059853
 20
-129.5517821941746
 10
76.77257485059853
 20
-129.5517821941746
 10
76.77257485059853
 20
-130.6504231444207
 10
76.77257485059853
 20
-130.6504231444207
 10
76.4149739392296
 20
-130.6163166991168
 10
76.33677027171443
 20
-130.5463812607662
 10
76.03842500269178
 20
-130.1350368598274
 10
75.83964299319287
 20
-129.8614962782985
 10
75.77194686690771
 20
-129.7912163303994
 10
75.63448755704624
 20
-129.7912163303994
 10
75.51597627235365
 20
-129.7912163303994
 10
75.38471813436563
 20
-129.8680419597205
 10
75.38471813436563
 20
-130.0785372938693
 10
75.38471813436563
 20
-130.3565564995289
 10
75.6153672771031
 20
-130.3655137477906
 10
75.73181150450455
 20
-130.3699923719214
 10
75.73181150450455
 20
-130.3699923719214
 10
75.73181150450455
 20
-130.6097710176948
 10
75.73181150450455
 20
-130.6097710176948
 10
75.60485973587309
 20
-130.6004692598846
 10
75.49272187782822
 20
-130.5894449543318
 10
75.37421059313561
 20
-130.5033175672006
 10
75.21349688874871
 20
-130.3858398111535
 10
75.179562698219
 20
-130.1870578016546
 10
75.179562698219
 20
-130.0626898546371
 10
75.179562698219
 20
-129.7664116429056
 10
75.3637030519056
 20
-129.5448920032041
 10
75.6365546143374
 20
-129.5448920032041
 10
75.86496444500946
 20
-129.5448920032041
 10
75.96452770453318
 20
-129.6692599502216
 10
76.19087047791409
 20
-129.9993000977085
 97
        0
 97
        0
 75
     2
 76
     1
 98
        0
  0
SPLINE
  5
F5
330
EF
100
AcDbEntity
  8
_U+30EC_U+30A4_U+30E4_U+30FC 1
370
     0
100
AcDbSpline
210
0.0
220
0.0
230
1.0
 70
    11
 71
     3
 72
    26
 73
    22
 74
     0
 42
0.0000000001
 43
0.0000000001
 12
1.0
 22
0.0
 32
0.0
 13
1.0
 23
0.0
 33
0.0
 40
0.0
 40
0.0
 40
0.0
 40
0.0
 40
1.0
 40
1.0
 40
1.0
 40
2.0
 40
2.0
 40
2.0
 40
3.0
 40
3.0
 40
3.0
 40
4.0
 40
4.0
 40
4.0
 40
5.0
 40
5.0
 40
5.0
 40
6.0
 40
6.0
 40
6.0
 40
7.0
 40
7.0
 40
7.0
 40
7.0
 10
76.77257485059853
 20
-128.8930799373948
 30
0.0
 10
76.77257485059853
 20
-128.8930799373948
 30
0.0
 10
75.66824949280169
 20
-128.8930799373948
 30
0.0
 10
75.66824949280169
 20
-128.8930799373948
 30
0.0
 10
75.66824949280169
 20
-128.8930799373948
 30
0.0
 10
75.66824949280169
 20
-129.2455132055358
 30
0.0
 10
75.66824949280169
 20
-129.2455132055358
 30
0.0
 10
75.66824949280169
 20
-129.2455132055358
 30
0.0
 10
75.52011038693595
 20
-129.2455132055358
 30
0.0
 10
75.52011038693595
 20
-129.2455132055358
 30
0.0
 10
75.50546873112364
 20
-128.8906683705551
 30
0.0
 10
75.34251571467132
 20
-128.8410589955675
 30
0.0
 10
75.22831079933529
 20
-128.8093641171032
 30
0.0
 10
75.22831079933529
 20
-128.8093641171032
 30
0.0
 10
75.22831079933529
 20
-128.6533012916214
 30
0.0
 10
75.22831079933529
 20
-128.6533012916214
 30
0.0
 10
75.22831079933529
 20
-128.6533012916214
 30
0.0
 10
76.77257485059853
 20
-128.6533012916214
 30
0.0
 10
76.77257485059853
 20
-128.6533012916214
 30
0.0
 10
76.77257485059853
 20
-128.6533012916214
 30
0.0
 10
76.77257485059853
 20
-128.8930799373948
 30
0.0
 10
76.77257485059853
 20
-128.8930799373948
 30
0.0
  0
HATCH
  5
F6
330
EF
100
AcDbEntity
  8
_U+30EC_U+30A4_U+30E4_U+30FC 1
 62
   179
420
  2234388
100
AcDbHatch
 10
0.0
 20
0.0
 30
0.0
210
0.0
220
0.0
230
1.0
  2
SOLID
 70
     1
 71
     0
 91
        1
 92
        1
 93
        1
 72
     4
 94
        3
 73
     0
 74
     1
 95
       26
 96
       22
 40
0.0
 40
0.0
 40
0.0
 40
0.0
 40
1.0
 40
1.0
 40
1.0
 40
2.0
 40
2.0
 40
2.0
 40
3.0
 40
3.0
 40
3.0
 40
4.0
 40
4.0
 40
4.0
 40
5.0
 40
5.0
 40
5.0
 40
6.0
 40
6.0
 40
6.0
 40
7.0
 40
7.0
 40
7.0
 40
7.0
 10
76.77257485059853
 20
-128.8930799373948
 10
76.77257485059853
 20
-128.8930799373948
 10
75.66824949280169
 20
-128.8930799373948
 10
75.66824949280169
 20
-128.8930799373948
 10
75.66824949280169
 20
-128.8930799373948
 10
75.66824949280169
 20
-129.2455132055358
 10
75.66824949280169
 20
-129.2455132055358
 10
75.66824949280169
 20
-129.2455132055358
 10
75.52011038693595
 20
-129.2455132055358
 10
75.52011038693595
 20
-129.2455132055358
 10
75.50546873112364
 20
-128.8906683705551
 10
75.34251571467132
 20
-128.8410589955675
 10
75.22831079933529
 20
-128.8093641171032
 10
75.22831079933529
 20
-128.8093641171032
 10
75.22831079933529
 20
-128.6533012916214
 10
75.22831079933529
 20
-128.6533012916214
 10
75.22831079933529
 20
-128.6533012916214
 10
76.77257485059853
 20
-128.6533012916214
 10
76.77257485059853
 20
-128.6533012916214
 10
76.77257485059853
 20
-128.6533012916214
 10
76.77257485059853
 20
-128.8930799373948
 10
76.77257485059853
 20
-128.8930799373948
 97
        0
 97
        0
 75
     2
 76
     1
 98
        0
  0
ENDBLK
  5
F2
330
EF
100
AcDbEntity
  8
0
100
AcDbBlockEnd
  0
ENDSEC
  0
SECTION
  2
ENTITIES
  0
SPLINE
  5
41
330
1F
100
AcDbEntity
  8
_U+30EC_U+30A4_U+30E4_U+30FC 1
 62
   253
420
 11711154
370
     9
100
AcDbSpline
210
0.0
220
0.0
230
1.0
 70
    11
 71
     3
 72
    44
 73
    40
 74
     0
 42
0.0000000001
 43
0.0000000001
 12
1.0
 22
0.0
 32
0.0
 13
1.0
 23
0.0
 33
0.0
 40
0.0
 40
0.0
 40
0.0
 40
0.0
 40
1.0
 40
1.0
 40
1.0
 40
2.0
 40
2.0
 40
2.0
 40
3.0
 40
3.0
 40
3.0
 40
4.0
 40
4.0
 40
4.0
 40
5.0
 40
5.0
 40
5.0
 40
6.0
 40
6.0
 40
6.0
 40
7.0
 40
7.0
 40
7.0
 40
8.0
 40
8.0
 40
8.0
 40
9.0
 40
9.0
 40
9.0
 40
10.0
 40
10.0
 40
10.0
 40
11.0
 40
11.0
 40
11.0
 40
12.0
 40
12.0
 40
12.0
 40
13.0
 40
13.0
 40
13.0
 40
13.0
 10
81.39331014570588
 20
-119.4430060812503
 30
0.0
 10
81.39331014570588
 20
-119.4430060812503
 30
0.0
 10
81.39331014570588
 20
-138.4639019098286
 30
0.0
 10
81.39331014570588
 20
-138.4639019098286
 30
0.0
 10
81.39331014570588
 20
-138.4639019098286
 30
0.0
 10
81.3047629257427
 20
-139.5518685762229
 30
0.0
 10
82.51020456165598
 20
-139.6689907984159
 30
0.0
 10
82.51020456165598
 20
-139.6689907984159
 30
0.0
 10
101.4132721349541
 20
-139.6393574650904
 30
0.0
 10
101.4132721349541
 20
-139.6393574650904
 30
0.0
 10
101.4132721349541
 20
-139.6393574650904
 30
0.0
 10
102.2366554472812
 20
-139.6689907984159
 30
0.0
 10
102.3248498894756
 20
-138.6988519097696
 30
0.0
 10
102.3248498894756
 20
-138.6988519097696
 30
0.0
 10
82.33381567726714
 20
-138.552096354251
 30
0.0
 10
82.33381567726714
 20
-138.552096354251
 30
0.0
 10
82.33381567726714
 20
-138.552096354251
 30
0.0
 10
82.33381567726714
 20
-123.0887880247833
 30
0.0
 10
82.33381567726714
 20
-123.0887880247833
 30
0.0
 10
82.33381567726714
 20
-123.0887880247833
 30
0.0
 10
102.3834109990927
 20
-123.1180685803317
 30
0.0
 10
102.3834109990927
 20
-123.1180685803317
 30
0.0
 10
102.3834109990927
 20
-123.1180685803317
 30
0.0
 10
102.8540165426421
 20
-122.8534852470645
 30
0.0
 10
102.8540165426421
 20
-122.8534852470645
 30
0.0
 10
102.8540165426421
 20
-122.8534852470645
 30
0.0
 10
107.6750775307577
 20
-122.8534852470645
 30
0.0
 10
107.6750775307577
 20
-122.8534852470645
 30
0.0
 10
107.6750775307577
 20
-122.8534852470645
 30
0.0
 10
108.2924386261186
 20
-122.7063769137678
 30
0.0
 10
108.3220719586959
 20
-122.1479296916853
 30
0.0
 10
108.3220719586959
 20
-122.1479296916853
 30
0.0
 10
82.36344900984447
 20
-122.1772102472335
 30
0.0
 10
82.36344900984447
 20
-122.1772102472335
 30
0.0
 10
82.36344900984447
 20
-122.1772102472335
 30
0.0
 10
82.36344900984447
 20
-118.6492560814487
 30
0.0
 10
82.36344900984447
 20
-118.6492560814487
 30
0.0
 10
82.36344900984447
 20
-118.6492560814487
 30
0.0
 10
81.4229434782832
 20
-118.8256449702935
 30
0.0
 10
81.39331014570588
 20
-119.4430060812503
 30
0.0
  0
HATCH
  5
42
330
1F
100
AcDbEntity
  8
_U+30EC_U+30A4_U+30E4_U+30FC 1
 62
   253
420
 11711154
100
AcDbHatch
 10
0.0
 20
0.0
 30
0.0
210
0.0
220
0.0
230
1.0
  2
SOLID
 70
     1
 71
     0
 91
        1
 92
        1
 93
        1
 72
     4
 94
        3
 73
     0
 74
     1
 95
       44
 96
       40
 40
0.0
 40
0.0
 40
0.0
 40
0.0
 40
1.0
 40
1.0
 40
1.0
 40
2.0
 40
2.0
 40
2.0
 40
3.0
 40
3.0
 40
3.0
 40
4.0
 40
4.0
 40
4.0
 40
5.0
 40
5.0
 40
5.0
 40
6.0
 40
6.0
 40
6.0
 40
7.0
 40
7.0
 40
7.0
 40
8.0
 40
8.0
 40
8.0
 40
9.0
 40
9.0
 40
9.0
 40
10.0
 40
10.0
 40
10.0
 40
11.0
 40
11.0
 40
11.0
 40
12.0
 40
12.0
 40
12.0
 40
13.0
 40
13.0
 40
13.0
 40
13.0
 10
81.39331014570588
 20
-119.4430060812503
 10
81.39331014570588
 20
-119.4430060812503
 10
81.39331014570588
 20
-138.4639019098286
 10
81.39331014570588
 20
-138.4639019098286
 10
81.39331014570588
 20
-138.4639019098286
 10
81.3047629257427
 20
-139.5518685762229
 10
82.51020456165598
 20
-139.6689907984159
 10
82.51020456165598
 20
-139.6689907984159
 10
101.4132721349541
 20
-139.6393574650904
 10
101.4132721349541
 20
-139.6393574650904
 10
101.4132721349541
 20
-139.6393574650904
 10
102.2366554472812
 20
-139.6689907984159
 10
102.3248498894756
 20
-138.6988519097696
 10
102.3248498894756
 20
-138.6988519097696
 10
82.33381567726714
 20
-138.552096354251
 10
82.33381567726714
 20
-138.552096354251
 10
82.33381567726714
 20
-138.552096354251
 10
82.33381567726714
 20
-123.0887880247833
 10
82.33381567726714
 20
-123.0887880247833
 10
82.33381567726714
 20
-123.0887880247833
 10
102.3834109990927
 20
-123.1180685803317
 10
102.3834109990927
 20
-123.1180685803317
 10
102.3834109990927
 20
-123.1180685803317
 10
102.8540165426421
 20
-122.8534852470645
 10
102.8540165426421
 20
-122.8534852470645
 10
102.8540165426421
 20
-122.8534852470645
 10
107.6750775307577
 20
-122.8534852470645
 10
107.6750775307577
 20
-122.8534852470645
 10
107.6750775307577
 20
-122.8534852470645
 10
108.2924386261186
 20
-122.7063769137678
 10
108.3220719586959
 20
-122.1479296916853
 10
108.3220719586959
 20
-122.1479296916853
 10
82.36344900984447
 20
-122.1772102472335
 10
82.36344900984447
 20
-122.1772102472335
 10
82.36344900984447
 20
-122.1772102472335
 10
82.36344900984447
 20
-118.6492560814487
 10
82.36344900984447
 20
-118.6492560814487
 10
82.36344900984447
 20
-118.6492560814487
 10
81.4229434782832
 20
-118.8256449702935
 10
81.39331014570588
 20
-119.4430060812503
 97
        0
 97
        0
 75
     2
 76
     1
 98
        0
  0
POLYLINE
  5
43
330
1F
100
AcDbEntity
  8
_U+30EC_U+30A4_U+30E4_U+30FC 1
 62
   179
420
  2234388
370
    25
100
AcDb2dPolyline
 66
     1
 10
0.0
 20
0.0
 30
0.0
  0
VERTEX
  5
44
330
43
100
AcDbEntity
  8
_U+30EC_U+30A4_U+30E4_U+30FC 1
 62
   179
420
  2234388
370
    25
100
AcDbVertex
100
AcDb2dVertex
 10
82.36930512080617
 20
-138.6203235764562
 30
0.0
  0
VERTEX
  5
45
330
43
100
AcDbEntity
  8
_U+30EC_U+30A4_U+30E4_U+30FC 1
 62
   179
420
  2234388
370
    25
100
AcDbVertex
100
AcDb2dVertex
 10
102.3696173883335
 20
-138.6203235764562
 30
0.0
  0
SEQEND
  5
46
330
43
100
AcDbEntity
  8
_U+30EC_U+30A4_U+30E4_U+30FC 1
 62
   179
420
  2234388
370
    25
  0
POLYLINE
  5
47
330
1F
100
AcDbEntity
  8
_U+30EC_U+30A4_U+30E4_U+30FC 1
 62
   179
420
  2234388
370
    25
100
AcDb2dPolyline
 66
     1
 10
0.0
 20
0.0
 30
0.0
  0
VERTEX
  5
48
330
47
100
AcDbEntity
  8
_U+30EC_U+30A4_U+30E4_U+30FC 1
 62
   179
420
  2234388
370
    25
100
AcDbVertex
100
AcDb2dVertex
 10
82.36930512080617
 20
-123.1208202469975
 30
0.0
  0
VERTEX
  5
49
330
47
100
AcDbEntity
  8
_U+30EC_U+30A4_U+30E4_U+30FC 1
 62
   179
420
  2234388
370
    25
100
AcDbVertex
100
AcDb2dVertex
 10
102.2938407236
 20
-123.1208202469975
 30
0.0
  0
SEQEND
  5
4A
330
47
100
AcDbEntity
  8
_U+30EC_U+30A4_U+30E4_U+30FC 1
 62
   179
420
  2234388
370
    25
  0
POLYLINE
  5
4B
330
1F
100
AcDbEntity
  8
_U+30EC_U+30A4_U+30E4_U+30FC 1
 62
   179
420
  2234388
370
    25
100
AcDb2dPolyline
 66
     1
 10
0.0
 20
0.0
 30
0.0
  0
VERTEX
  5
4C
330
4B
100
AcDbEntity
  8
_U+30EC_U+30A4_U+30E4_U+30FC 1
 62
   179
420
  2234388
370
    25
100
AcDbVertex
100
AcDb2dVertex
 10
82.36930512080617
 20
-139.6207660762061
 30
0.0
  0
VERTEX
  5
4D
330
4B
100
AcDbEntity
  8
_U+30EC_U+30A4_U+30E4_U+30FC 1
 62
   179
420
  2234388
370
    25
100
AcDbVertex
100
AcDb2dVertex
 10
101.3691749138569
 20
-139.6207660762061
 30
0.0
  0
SEQEND
  5
4E
330
4B
100
AcDbEntity
  8
_U+30EC_U+30A4_U+30E4_U+30FC 1
 62
   179
420
  2234388
370
    25
  0
POLYLINE
  5
4F
330
1F
100
AcDbEntity
  8
_U+30EC_U+30A4_U+30E4_U+30FC 1
 62
   179
420
  2234388
370
    25
100
AcDb2dPolyline
 66
     1
 10
0.0
 20
0.0
 30
0.0
  0
VERTEX
  5
50
330
4F
100
AcDbEntity
  8
_U+30EC_U+30A4_U+30E4_U+30FC 1
 62
   179
420
  2234388
370
    25
100
AcDbVertex
100
AcDb2dVertex
 10
81.3691801463215
 20
-119.6205944145394
 30
0.0
  0
VERTEX
  5
51
330
4F
100
AcDbEntity
  8
_U+30EC_U+30A4_U+30E4_U+30FC 1
 62
   179
420
  2234388
370
    25
100
AcDbVertex
100
AcDb2dVertex
 10
81.3691801463215
 20
-138.6203235764562
 30
0.0
  0
SEQEND
  5
52
330
4F
100
AcDbEntity
  8
_U+30EC_U+30A4_U+30E4_U+30FC 1
 62
   179
420
  2234388
370
    25
  0
POLYLINE
  5
53
330
1F
100
AcDbEntity
  8
_U+30EC_U+30A4_U+30E4_U+30FC 1
 62
   179
420
  2234388
370
    25
100
AcDb2dPolyline
 66
     1
 10
0.0
 20
0.0
 30
0.0
  0
VERTEX
  5
54
330
53
100
AcDbEntity
  8
_U+30EC_U+30A4_U+30E4_U+30FC 1
 62
   179
420
  2234388
370
    25
100
AcDbVertex
100
AcDb2dVertex
 10
82.36930512080617
 20
-118.6203283036784
 30
0.0
  0
VERTEX
  5
55
330
53
100
AcDbEntity
  8
_U+30EC_U+30A4_U+30E4_U+30FC 1
 62
   179
420
  2234388
370
    25
100
AcDbVertex
100
AcDb2dVertex
 10
82.36930512080617
 20
-122.1203777472476
 30
0.0
  0
SEQEND
  5
56
330
53
100
AcDbEntity
  8
_U+30EC_U+30A4_U+30E4_U+30FC 1
 62
   179
420
  2234388
370
    25
  0
POLYLINE
  5
57
330
1F
100
AcDbEntity
  8
_U+30EC_U+30A4_U+30E4_U+30FC 1
 62
   179
420
  2234388
370
    25
100
AcDb2dPolyline
 66
     1
 10
0.0
 20
0.0
 30
0.0
  0
VERTEX
  5
58
330
57
100
AcDbEntity
  8
_U+30EC_U+30A4_U+30E4_U+30FC 1
 62
   179
420
  2234388
370
    25
100
AcDbVertex
100
AcDb2dVertex
 10
82.36930512080617
 20
-122.1203777472476
 30
0.0
  0
VERTEX
  5
59
330
57
100
AcDbEntity
  8
_U+30EC_U+30A4_U+30E4_U+30FC 1
 62
   179
420
  2234388
370
    25
100
AcDbVertex
100
AcDb2dVertex
 10
108.3696264019272
 20
-122.1203777472476
 30
0.0
  0
SEQEND
  5
5A
330
57
100
AcDbEntity
  8
_U+30EC_U+30A4_U+30E4_U+30FC 1
 62
   179
420
  2234388
370
    25
  0
POLYLINE
  5
5B
330
1F
100
AcDbEntity
  8
_U+30EC_U+30A4_U+30E4_U+30FC 1
 62
   179
420
  2234388
370
    25
100
AcDb2dPolyline
 66
     1
 10
0.0
 20
0.0
 30
0.0
  0
VERTEX
  5
5C
330
5B
100
AcDbEntity
  8
_U+30EC_U+30A4_U+30E4_U+30FC 1
 62
   179
420
  2234388
370
    25
100
AcDbVertex
100
AcDb2dVertex
 10
82.36930512080617
 20
-123.1208202469975
 30
0.0
  0
VERTEX
  5
5D
330
5B
100
AcDbEntity
  8
_U+30EC_U+30A4_U+30E4_U+30FC 1
 62
   179
420
  2234388
370
    25
100
AcDbVertex
100
AcDb2dVertex
 10
82.36930512080617
 20
-138.6203235764562
 30
0.0
  0
SEQEND
  5
5E
330
5B
100
AcDbEntity
  8
_U+30EC_U+30A4_U+30E4_U+30FC 1
 62
   179
420
  2234388
370
    25
  0
POLYLINE
  5
5F
330
1F
100
AcDbEntity
  8
_U+30EC_U+30A4_U+30E4_U+30FC 1
 62
   179
420
  2234388
370
    25
100
AcDb2dPolyline
 66
     1
 10
0.0
 20
0.0
 30
0.0
  0
VERTEX
  5
60
330
5F
100
AcDbEntity
  8
_U+30EC_U+30A4_U+30E4_U+30FC 1
 62
   179
420
  2234388
370
    25
100
AcDbVertex
100
AcDb2dVertex
 10
102.8891532084124
 20
-122.820394691517
 30
0.0
  0
VERTEX
  5
61
330
5F
100
AcDbEntity
  8
_U+30EC_U+30A4_U+30E4_U+30FC 1
 62
   179
420
  2234388
370
    25
100
AcDbVertex
100
AcDb2dVertex
 10
107.6695741975648
 20
-122.820394691517
 30
0.0
  0
SEQEND
  5
62
330
5F
100
AcDbEntity
  8
_U+30EC_U+30A4_U+30E4_U+30FC 1
 62
   179
420
  2234388
370
    25
  0
POLYLINE
  5
63
330
1F
100
AcDbEntity
  8
_U+30EC_U+30A4_U+30E4_U+30FC 1
 62
   179
420
  2234388
370
    25
100
AcDb2dPolyline
 66
     1
 10
0.0
 20
0.0
 30
0.0
  0
VERTEX
  5
64
330
63
100
AcDbEntity
  8
_U+30EC_U+30A4_U+30E4_U+30FC 1
 62
   179
420
  2234388
370
    25
100
AcDbVertex
100
AcDb2dVertex
 10
102.3696173883335
 20
-123.1208202469975
 30
0.0
  0
VERTEX
  5
65
330
63
100
AcDbEntity
  8
_U+30EC_U+30A4_U+30E4_U+30FC 1
 62
   179
420
  2234388
370
    25
100
AcDbVertex
100
AcDb2dVertex
 10
102.8891532084124
 20
-122.820394691517
 30
0.0
  0
SEQEND
  5
66
330
63
100
AcDbEntity
  8
_U+30EC_U+30A4_U+30E4_U+30FC 1
 62
   179
420
  2234388
370
    25
  0
POLYLINE
  5
67
330
1F
100
AcDbEntity
  8
_U+30EC_U+30A4_U+30E4_U+30FC 1
 62
   179
420
  2234388
370
     9
100
AcDb2dPolyline
 66
     1
 10
0.0
 20
0.0
 30
0.0
  0
VERTEX
  5
68
330
67
100
AcDbEntity
  8
_U+30EC_U+30A4_U+30E4_U+30FC 1
 62
   179
420
  2234388
370
     9
100
AcDbVertex
100
AcDb2dVertex
 10
81.66202097218384
 20
-139.3279252429456
 30
0.0
  0
VERTEX
  5
69
330
67
100
AcDbEntity
  8
_U+30EC_U+30A4_U+30E4_U+30FC 1
 62
   179
420
  2234388
370
     9
100
AcDbVertex
100
AcDb2dVertex
 10
77.36942108169718
 20
-143.620525241873
 30
0.0
  0
SEQEND
  5
6A
330
67
100
AcDbEntity
  8
_U+30EC_U+30A4_U+30E4_U+30FC 1
 62
   179
420
  2234388
370
     9
  0
POLYLINE
  5
6B
330
1F
100
AcDbEntity
  8
_U+30EC_U+30A4_U+30E4_U+30FC 1
 62
   179
420
  2234388
370
     9
100
AcDb2dPolyline
 66
     1
 10
0.0
 20
0.0
 30
0.0
  0
VERTEX
  5
6C
330
6B
100
AcDbEntity
  8
_U+30EC_U+30A4_U+30E4_U+30FC 1
 62
   179
420
  2234388
370
     9
100
AcDbVertex
100
AcDb2dVertex
 10
73.15711341138433
 20
-143.620525241873
 30
0.0
  0
VERTEX
  5
6D
330
6B
100
AcDbEntity
  8
_U+30EC_U+30A4_U+30E4_U+30FC 1
 62
   179
420
  2234388
370
     9
100
AcDbVertex
100
AcDb2dVertex
 10
77.36942108169718
 20
-143.620525241873
 30
0.0
  0
SEQEND
  5
6E
330
6B
100
AcDbEntity
  8
_U+30EC_U+30A4_U+30E4_U+30FC 1
 62
   179
420
  2234388
370
     9
  0
POLYLINE
  5
6F
330
1F
100
AcDbEntity
  8
_U+30EC_U+30A4_U+30E4_U+30FC 1
 62
   179
420
  2234388
370
     9
100
AcDb2dPolyline
 66
     1
 10
0.0
 20
0.0
 30
0.0
  0
VERTEX
  5
70
330
6F
100
AcDbEntity
  8
_U+30EC_U+30A4_U+30E4_U+30FC 1
 62
   179
420
  2234388
370
     9
100
AcDbVertex
100
AcDb2dVertex
 10
81.66202097218384
 20
-139.3644377429368
 30
0.0
  0
VERTEX
  5
71
330
6F
100
AcDbEntity
  8
_U+30EC_U+30A4_U+30E4_U+30FC 1
 62
   179
420
  2234388
370
     9
100
AcDbVertex
100
AcDb2dVertex
 10
80.36323433865198
 20
-140.1140905205272
 30
0.0
  0
SEQEND
  5
72
330
6F
100
AcDbEntity
  8
_U+30EC_U+30A4_U+30E4_U+30FC 1
 62
   179
420
  2234388
370
     9
  0
POLYLINE
  5
73
330
1F
100
AcDbEntity
  8
_U+30EC_U+30A4_U+30E4_U+30FC 1
 62
   179
420
  2234388
370
     9
100
AcDb2dPolyline
 66
     1
 10
0.0
 20
0.0
 30
0.0
  0
VERTEX
  5
74
330
73
100
AcDbEntity
  8
_U+30EC_U+30A4_U+30E4_U+30FC 1
 62
   179
420
  2234388
370
     9
100
AcDbVertex
100
AcDb2dVertex
 10
81.66202097218384
 20
-139.3279252429456
 30
0.0
  0
VERTEX
  5
75
330
73
100
AcDbEntity
  8
_U+30EC_U+30A4_U+30E4_U+30FC 1
 62
   179
420
  2234388
370
     9
100
AcDbVertex
100
AcDb2dVertex
 10
80.9123682135313
 20
-140.6267471870657
 30
0.0
  0
SEQEND
  5
76
330
73
100
AcDbEntity
  8
_U+30EC_U+30A4_U+30E4_U+30FC 1
 62
   179
420
  2234388
370
     9
  0
SPLINE
  5
77
330
1F
100
AcDbEntity
  8
_U+30EC_U+30A4_U+30E4_U+30FC 1
 62
   179
420
  2234388
370
    25
100
AcDbSpline
210
0.0
220
0.0
230
1.0
 70
     8
 71
     3
 72
     8
 73
     4
 74
     0
 42
0.0000000001
 43
0.0000000001
 12
1.0
 22
0.0
 32
0.0
 13
1.0
 23
0.0
 33
0.0
 40
0.0
 40
0.0
 40
0.0
 40
0.0
 40
1.0
 40
1.0
 40
1.0
 40
1.0
 10
81.3691801463215
 20
-138.6203235764562
 30
0.0
 10
81.3691801463215
 20
-139.172914687429
 30
0.0
 10
81.81706680156162
 20
-139.6207660762061
 30
0.0
 10
82.36930512080617
 20
-139.6207660762061
 30
0.0
  0
SPLINE
  5
78
330
1F
100
AcDbEntity
  8
_U+30EC_U+30A4_U+30E4_U+30FC 1
 62
   179
420
  2234388
370
    25
100
AcDbSpline
210
0.0
220
0.0
230
1.0
 70
     8
 71
     3
 72
     8
 73
     4
 74
     0
 42
0.0000000001
 43
0.0000000001
 12
1.0
 22
0.0
 32
0.0
 13
1.0
 23
0.0
 33
0.0
 40
0.0
 40
0.0
 40
0.0
 40
0.0
 40
1.0
 40
1.0
 40
1.0
 40
1.0
 10
82.36930512080617
 20
-118.6203283036784
 30
0.0
 10
81.81706680156162
 20
-118.6203283036784
 30
0.0
 10
81.3691801463215
 20
-119.0681796924551
 30
0.0
 10
81.3691801463215
 20
-119.6205944145394
 30
0.0
  0
SPLINE
  5
79
330
1F
100
AcDbEntity
  8
_U+30EC_U+30A4_U+30E4_U+30FC 1
 62
   179
420
  2234388
370
    25
100
AcDbSpline
210
0.0
220
0.0
230
1.0
 70
     8
 71
     3
 72
     8
 73
     4
 74
     0
 42
0.0000000001
 43
0.0000000001
 12
1.0
 22
0.0
 32
0.0
 13
1.0
 23
0.0
 33
0.0
 40
0.0
 40
0.0
 40
0.0
 40
0.0
 40
1.0
 40
1.0
 40
1.0
 40
1.0
 10
101.3685046360962
 20
-139.6207660762061
 30
0.0
 10
101.9210957331096
 20
-139.6207660762061
 30
0.0
 10
102.3689471105728
 20
-139.172914687429
 30
0.0
 10
102.3689471105728
 20
-138.6203235764562
 30
0.0
  0
SPLINE
  5
7A
330
1F
100
AcDbEntity
  8
_U+30EC_U+30A4_U+30E4_U+30FC 1
 62
   179
420
  2234388
370
    25
100
AcDbSpline
210
0.0
220
0.0
230
1.0
 70
     8
 71
     3
 72
     8
 73
     4
 74
     0
 42
0.0000000001
 43
0.0000000001
 12
1.0
 22
0.0
 32
0.0
 13
1.0
 23
0.0
 33
0.0
 40
0.0
 40
0.0
 40
0.0
 40
0.0
 40
1.0
 40
1.0
 40
1.0
 40
1.0
 10
107.6695741975648
 20
-122.820394691517
 30
0.0
 10
108.0561127988145
 20
-122.820394691517
 30
0.0
 10
108.3696264019272
 20
-122.5075866360397
 30
0.0
 10
108.3696264019272
 20
-122.1203777472476
 30
0.0
  0
SPLINE
  5
7B
330
1F
100
AcDbEntity
  8
_U+30EC_U+30A4_U+30E4_U+30FC 1
 62
   179
420
  2234388
370
     9
100
AcDbSpline
210
0.0
220
0.0
230
1.0
 70
    11
 71
     3
 72
    17
 73
    13
 74
     0
 42
0.0000000001
 43
0.0000000001
 12
1.0
 22
0.0
 32
0.0
 13
1.0
 23
0.0
 33
0.0
 40
0.0
 40
0.0
 40
0.0
 40
0.0
 40
1.0
 40
1.0
 40
1.0
 40
2.0
 40
2.0
 40
2.0
 40
3.0
 40
3.0
 40
3.0
 40
4.0
 40
4.0
 40
4.0
 40
4.0
 10
108.3689208463896
 20
-114.6205691380115
 30
0.0
 10
108.3689208463896
 20
-114.5654299713588
 30
0.0
 10
108.3241180697548
 20
-114.5206624713699
 30
0.0
 10
108.2690141822718
 20
-114.5206624713699
 30
0.0
 10
108.2138777507242
 20
-114.5206624713699
 30
0.0
 10
108.1691075181539
 20
-114.5654299713588
 30
0.0
 10
108.1691075181539
 20
-114.6205691380115
 30
0.0
 10
108.1691075181539
 20
-114.6756730268868
 30
0.0
 10
108.2138777507242
 20
-114.7204758046531
 30
0.0
 10
108.2690141822718
 20
-114.7204758046531
 30
0.0
 10
108.3241180697548
 20
-114.7204758046531
 30
0.0
 10
108.3689208463896
 20
-114.6756730268868
 30
0.0
 10
108.3689208463896
 20
-114.6205691380115
 30
0.0
  0
SPLINE
  5
7C
330
1F
100
AcDbEntity
  8
_U+30EC_U+30A4_U+30E4_U+30FC 1
 62
   179
420
  2234388
370
     9
100
AcDbSpline
210
0.0
220
0.0
230
1.0
 70
    11
 71
     3
 72
    17
 73
    13
 74
     0
 42
0.0000000001
 43
0.0000000001
 12
1.0
 22
0.0
 32
0.0
 13
1.0
 23
0.0
 33
0.0
 40
0.0
 40
0.0
 40
0.0
 40
0.0
 40
1.0
 40
1.0
 40
1.0
 40
2.0
 40
2.0
 40
2.0
 40
3.0
 40
3.0
 40
3.0
 40
4.0
 40
4.0
 40
4.0
 40
4.0
 10
82.4692138682715
 20
-114.6205691380115
 30
0.0
 10
82.4692138682715
 20
-114.5654299713588
 30
0.0
 10
82.42441109050509
 20
-114.5206624713699
 30
0.0
 10
82.36930512080617
 20
-114.5206624713699
 30
0.0
 10
82.31416595554623
 20
-114.5206624713699
 30
0.0
 10
82.26939845668834
 20
-114.5654299713588
 30
0.0
 10
82.26939845668834
 20
-114.6205691380115
 30
0.0
 10
82.26939845668834
 20
-114.6756730268868
 30
0.0
 10
82.31416595554623
 20
-114.7204758046531
 30
0.0
 10
82.36930512080617
 20
-114.7204758046531
 30
0.0
 10
82.42441109050509
 20
-114.7204758046531
 30
0.0
 10
82.4692138682715
 20
-114.6756730268868
 30
0.0
 10
82.4692138682715
 20
-114.6205691380115
 30
0.0
  0
SPLINE
  5
7D
330
1F
100
AcDbEntity
  8
_U+30EC_U+30A4_U+30E4_U+30FC 1
 62
   179
420
  2234388
370
     9
100
AcDbSpline
210
0.0
220
0.0
230
1.0
 70
    11
 71
     3
 72
    17
 73
    13
 74
     0
 42
0.0000000001
 43
0.0000000001
 12
1.0
 22
0.0
 32
0.0
 13
1.0
 23
0.0
 33
0.0
 40
0.0
 40
0.0
 40
0.0
 40
0.0
 40
1.0
 40
1.0
 40
1.0
 40
2.0
 40
2.0
 40
2.0
 40
3.0
 40
3.0
 40
3.0
 40
4.0
 40
4.0
 40
4.0
 40
4.0
 10
81.46908886852151
 20
-121.2387508030235
 30
0.0
 10
81.46908886852151
 20
-121.1836469141486
 30
0.0
 10
81.42431931158144
 20
-121.1388441363819
 30
0.0
 10
81.3691801463215
 20
-121.1388441363819
 30
0.0
 10
81.31407625883843
 20
-121.1388441363819
 30
0.0
 10
81.26927348220366
 20
-121.1836469141486
 30
0.0
 10
81.26927348220366
 20
-121.2387508030235
 30
0.0
 10
81.26927348220366
 20
-121.2938899696766
 30
0.0
 10
81.31407625883843
 20
-121.3386574696655
 30
0.0
 10
81.3691801463215
 20
-121.3386574696655
 30
0.0
 10
81.42431931158144
 20
-121.3386574696655
 30
0.0
 10
81.46908886852151
 20
-121.2938899696766
 30
0.0
 10
81.46908886852151
 20
-121.2387508030235
 30
0.0
  0
SPLINE
  5
7E
330
1F
100
AcDbEntity
  8
_U+30EC_U+30A4_U+30E4_U+30FC 1
 62
   179
420
  2234388
370
     9
100
AcDbSpline
210
0.0
220
0.0
230
1.0
 70
    11
 71
     3
 72
    17
 73
    13
 74
     0
 42
0.0000000001
 43
0.0000000001
 12
1.0
 22
0.0
 32
0.0
 13
1.0
 23
0.0
 33
0.0
 40
0.0
 40
0.0
 40
0.0
 40
0.0
 40
1.0
 40
1.0
 40
1.0
 40
2.0
 40
2.0
 40
2.0
 40
3.0
 40
3.0
 40
3.0
 40
4.0
 40
4.0
 40
4.0
 40
4.0
 10
82.4692138682715
 20
-121.2387508030235
 30
0.0
 10
82.4692138682715
 20
-121.1836469141486
 30
0.0
 10
82.42441109050509
 20
-121.1388441363819
 30
0.0
 10
82.36930512080617
 20
-121.1388441363819
 30
0.0
 10
82.31384845555434
 20
-121.1388441363819
 30
0.0
 10
82.26904567891957
 20
-121.1836469141486
 30
0.0
 10
82.26904567891957
 20
-121.2387508030235
 30
0.0
 10
82.26904567891957
 20
-121.2938899696766
 30
0.0
 10
82.31384845555434
 20
-121.3386574696655
 30
0.0
 10
82.36930512080617
 20
-121.3386574696655
 30
0.0
 10
82.42441109050509
 20
-121.3386574696655
 30
0.0
 10
82.4692138682715
 20
-121.2938899696766
 30
0.0
 10
82.4692138682715
 20
-121.2387508030235
 30
0.0
  0
SPLINE
  5
7F
330
1F
100
AcDbEntity
  8
_U+30EC_U+30A4_U+30E4_U+30FC 1
 62
   179
420
  2234388
370
     9
100
AcDbSpline
210
0.0
220
0.0
230
1.0
 70
    11
 71
     3
 72
    17
 73
    13
 74
     0
 42
0.0000000001
 43
0.0000000001
 12
1.0
 22
0.0
 32
0.0
 13
1.0
 23
0.0
 33
0.0
 40
0.0
 40
0.0
 40
0.0
 40
0.0
 40
1.0
 40
1.0
 40
1.0
 40
2.0
 40
2.0
 40
2.0
 40
3.0
 40
3.0
 40
3.0
 40
4.0
 40
4.0
 40
4.0
 40
4.0
 10
77.46932774581502
 20
-140.218830242723
 30
0.0
 10
77.46932774581502
 20
-140.1630207982926
 30
0.0
 10
77.42456024695713
 20
-140.1182180205259
 30
0.0
 10
77.36942108169718
 20
-140.1182180205259
 30
0.0
 10
77.31396441644533
 20
-140.1182180205259
 30
0.0
 10
77.26919691758745
 20
-140.1630207982926
 30
0.0
 10
77.26919691758745
 20
-140.218830242723
 30
0.0
 10
77.26919691758745
 20
-140.2739694093761
 30
0.0
 10
77.31396441644533
 20
-140.3187369093647
 30
0.0
 10
77.36942108169718
 20
-140.3187369093647
 30
0.0
 10
77.42456024695713
 20
-140.3187369093647
 30
0.0
 10
77.46932774581502
 20
-140.2739694093761
 30
0.0
 10
77.46932774581502
 20
-140.218830242723
 30
0.0
  0
SPLINE
  5
80
330
1F
100
AcDbEntity
  8
_U+30EC_U+30A4_U+30E4_U+30FC 1
 62
   179
420
  2234388
370
     9
100
AcDbSpline
210
0.0
220
0.0
230
1.0
 70
    11
 71
     3
 72
    17
 73
    13
 74
     0
 42
0.0000000001
 43
0.0000000001
 12
1.0
 22
0.0
 32
0.0
 13
1.0
 23
0.0
 33
0.0
 40
0.0
 40
0.0
 40
0.0
 40
0.0
 40
1.0
 40
1.0
 40
1.0
 40
2.0
 40
2.0
 40
2.0
 40
3.0
 40
3.0
 40
3.0
 40
4.0
 40
4.0
 40
4.0
 40
4.0
 10
77.46932774581502
 20
-118.6203283036784
 30
0.0
 10
77.46932774581502
 20
-118.5651891370253
 30
0.0
 10
77.42456024695713
 20
-118.5204216370364
 30
0.0
 10
77.36942108169718
 20
-118.5204216370364
 30
0.0
 10
77.31396441644533
 20
-118.5204216370364
 30
0.0
 10
77.26919691758745
 20
-118.5651891370253
 30
0.0
 10
77.26919691758745
 20
-118.6203283036784
 30
0.0
 10
77.26919691758745
 20
-118.6757849703311
 30
0.0
 10
77.31396441644533
 20
-118.7205877480978
 30
0.0
 10
77.36942108169718
 20
-118.7205877480978
 30
0.0
 10
77.42456024695713
 20
-118.7205877480978
 30
0.0
 10
77.46932774581502
 20
-118.6757849703311
 30
0.0
 10
77.46932774581502
 20
-118.6203283036784
 30
0.0
  0
SPLINE
  5
81
330
1F
100
AcDbEntity
  8
_U+30EC_U+30A4_U+30E4_U+30FC 1
 62
   179
420
  2234388
370
     9
100
AcDbSpline
210
0.0
220
0.0
230
1.0
 70
    11
 71
     3
 72
    17
 73
    13
 74
     0
 42
0.0000000001
 43
0.0000000001
 12
1.0
 22
0.0
 32
0.0
 13
1.0
 23
0.0
 33
0.0
 40
0.0
 40
0.0
 40
0.0
 40
0.0
 40
1.0
 40
1.0
 40
1.0
 40
2.0
 40
2.0
 40
2.0
 40
3.0
 40
3.0
 40
3.0
 40
4.0
 40
4.0
 40
4.0
 40
4.0
 10
102.4688537746906
 20
-143.620525241873
 30
0.0
 10
102.4688537746906
 20
-143.5653860752199
 30
0.0
 10
102.4240509980559
 20
-143.5206185752307
 30
0.0
 10
102.3689471105728
 20
-143.5206185752307
 30
0.0
 10
102.3138079453129
 20
-143.5206185752307
 30
0.0
 10
102.269040446455
 20
-143.5653860752199
 30
0.0
 10
102.269040446455
 20
-143.620525241873
 30
0.0
 10
102.269040446455
 20
-143.6756291307479
 30
0.0
 10
102.3138079453129
 20
-143.7204319085146
 30
0.0
 10
102.3689471105728
 20
-143.7204319085146
 30
0.0
 10
102.4240509980559
 20
-143.7204319085146
 30
0.0
 10
102.4688537746906
 20
-143.6756291307479
 30
0.0
 10
102.4688537746906
 20
-143.620525241873
 30
0.0
  0
SPLINE
  5
82
330
1F
100
AcDbEntity
  8
_U+30EC_U+30A4_U+30E4_U+30FC 1
 62
   179
420
  2234388
370
     9
100
AcDbSpline
210
0.0
220
0.0
230
1.0
 70
    11
 71
     3
 72
    17
 73
    13
 74
     0
 42
0.0000000001
 43
0.0000000001
 12
1.0
 22
0.0
 32
0.0
 13
1.0
 23
0.0
 33
0.0
 40
0.0
 40
0.0
 40
0.0
 40
0.0
 40
1.0
 40
1.0
 40
1.0
 40
2.0
 40
2.0
 40
2.0
 40
3.0
 40
3.0
 40
3.0
 40
4.0
 40
4.0
 40
4.0
 40
4.0
 10
81.46908886852151
 20
-143.620525241873
 30
0.0
 10
81.46908886852151
 20
-143.5653860752199
 30
0.0
 10
81.42431931158144
 20
-143.5206185752307
 30
0.0
 10
81.3691801463215
 20
-143.5206185752307
 30
0.0
 10
81.31407625883843
 20
-143.5206185752307
 30
0.0
 10
81.26927348220366
 20
-143.5653860752199
 30
0.0
 10
81.26927348220366
 20
-143.620525241873
 30
0.0
 10
81.26927348220366
 20
-143.6756291307479
 30
0.0
 10
81.31407625883843
 20
-143.7204319085146
 30
0.0
 10
81.3691801463215
 20
-143.7204319085146
 30
0.0
 10
81.42431931158144
 20
-143.7204319085146
 30
0.0
 10
81.46908886852151
 20
-143.6756291307479
 30
0.0
 10
81.46908886852151
 20
-143.620525241873
 30
0.0
  0
SPLINE
  5
83
330
1F
100
AcDbEntity
  8
_U+30EC_U+30A4_U+30E4_U+30FC 1
 62
   179
420
  2234388
370
     9
100
AcDbSpline
210
0.0
220
0.0
230
1.0
 70
    11
 71
     3
 72
    17
 73
    13
 74
     0
 42
0.0000000001
 43
0.0000000001
 12
1.0
 22
0.0
 32
0.0
 13
1.0
 23
0.0
 33
0.0
 40
0.0
 40
0.0
 40
0.0
 40
0.0
 40
1.0
 40
1.0
 40
1.0
 40
2.0
 40
2.0
 40
2.0
 40
3.0
 40
3.0
 40
3.0
 40
4.0
 40
4.0
 40
4.0
 40
4.0
 10
104.4332615023522
 20
-123.1208202469975
 30
0.0
 10
104.4332615023522
 20
-123.0657163581226
 30
0.0
 10
104.3884587257174
 20
-123.0209135803558
 30
0.0
 10
104.3333221961388
 20
-123.0209135803558
 30
0.0
 10
104.2782156729744
 20
-123.0209135803558
 30
0.0
 10
104.2334128963397
 20
-123.0657163581226
 30
0.0
 10
104.2334128963397
 20
-123.1208202469975
 30
0.0
 10
104.2334128963397
 20
-123.1759594136505
 30
0.0
 10
104.2782156729744
 20
-123.2207269136391
 30
0.0
 10
104.3333221961388
 20
-123.2207269136391
 30
0.0
 10
104.3884587257174
 20
-123.2207269136391
 30
0.0
 10
104.4332615023522
 20
-123.1759594136505
 30
0.0
 10
104.4332615023522
 20
-123.1208202469975
 30
0.0
  0
SPLINE
  5
84
330
1F
100
AcDbEntity
  8
_U+30EC_U+30A4_U+30E4_U+30FC 1
 62
   179
420
  2234388
370
     9
100
AcDbSpline
210
0.0
220
0.0
230
1.0
 70
    11
 71
     3
 72
    17
 73
    13
 74
     0
 42
0.0000000001
 43
0.0000000001
 12
1.0
 22
0.0
 32
0.0
 13
1.0
 23
0.0
 33
0.0
 40
0.0
 40
0.0
 40
0.0
 40
0.0
 40
1.0
 40
1.0
 40
1.0
 40
2.0
 40
2.0
 40
2.0
 40
3.0
 40
3.0
 40
3.0
 40
4.0
 40
4.0
 40
4.0
 40
4.0
 10
104.4332615023522
 20
-138.3729557987404
 30
0.0
 10
104.4332615023522
 20
-138.3178166320873
 30
0.0
 10
104.3884587257174
 20
-138.2730491320981
 30
0.0
 10
104.3333221961388
 20
-138.2730491320981
 30
0.0
 10
104.2782156729744
 20
-138.2730491320981
 30
0.0
 10
104.2334128963397
 20
-138.3178166320873
 30
0.0
 10
104.2334128963397
 20
-138.3729557987404
 30
0.0
 10
104.2334128963397
 20
-138.4287652431709
 30
0.0
 10
104.2782156729744
 20
-138.4735327431594
 30
0.0
 10
104.3333221961388
 20
-138.4735327431594
 30
0.0
 10
104.3884587257174
 20
-138.4735327431594
 30
0.0
 10
104.4332615023522
 20
-138.4287652431709
 30
0.0
 10
104.4332615023522
 20
-138.3729557987404
 30
0.0
  0
INSERT
  5
86
330
1F
100
AcDbEntity
  8
_U+30EC_U+30A4_U+30E4_U+30FC 1
100
AcDbBlockReference
  2
block 2
 10
0.0
 20
0.0
 30
0.0
  0
POLYLINE
  5
8E
330
1F
100
AcDbEntity
  8
_U+30EC_U+30A4_U+30E4_U+30FC 1
 62
   179
420
  2234388
370
     9
100
AcDb2dPolyline
 66
     1
 10
0.0
 20
0.0
 30
0.0
  0
VERTEX
  5
8F
330
8E
100
AcDbEntity
  8
_U+30EC_U+30A4_U+30E4_U+30FC 1
 62
   179
420
  2234388
370
     9
100
AcDbVertex
100
AcDb2dVertex
 10
82.36930512080617
 20
-114.6205691380115
 30
0.0
  0
VERTEX
  5
90
330
8E
100
AcDbEntity
  8
_U+30EC_U+30A4_U+30E4_U+30FC 1
 62
   179
420
  2234388
370
     9
100
AcDbVertex
100
AcDb2dVertex
 10
108.3689208463896
 20
-114.6205691380115
 30
0.0
  0
SEQEND
  5
91
330
8E
100
AcDbEntity
  8
_U+30EC_U+30A4_U+30E4_U+30FC 1
 62
   179
420
  2234388
370
     9
  0
POLYLINE
  5
92
330
1F
100
AcDbEntity
  8
_U+30EC_U+30A4_U+30E4_U+30FC 1
 62
   179
420
  2234388
370
     9
100
AcDb2dPolyline
 66
     1
 10
0.0
 20
0.0
 30
0.0
  0
VERTEX
  5
93
330
92
100
AcDbEntity
  8
_U+30EC_U+30A4_U+30E4_U+30FC 1
 62
   179
420
  2234388
370
     9
100
AcDbVertex
100
AcDb2dVertex
 10
82.36930512080617
 20
-117.0803474707299
 30
0.0
  0
VERTEX
  5
94
330
92
100
AcDbEntity
  8
_U+30EC_U+30A4_U+30E4_U+30FC 1
 62
   179
420
  2234388
370
     9
100
AcDbVertex
100
AcDb2dVertex
 10
82.36930512080617
 20
-113.6204441382615
 30
0.0
  0
SEQEND
  5
95
330
92
100
AcDbEntity
  8
_U+30EC_U+30A4_U+30E4_U+30FC 1
 62
   179
420
  2234388
370
     9
  0
POLYLINE
  5
96
330
1F
100
AcDbEntity
  8
_U+30EC_U+30A4_U+30E4_U+30FC 1
 62
   179
420
  2234388
370
     9
100
AcDb2dPolyline
 66
     1
 10
0.0
 20
0.0
 30
0.0
  0
VERTEX
  5
97
330
96
100
AcDbEntity
  8
_U+30EC_U+30A4_U+30E4_U+30FC 1
 62
   179
420
  2234388
370
     9
100
AcDbVertex
100
AcDb2dVertex
 10
108.2690141822718
 20
-120.5807496920772
 30
0.0
  0
VERTEX
  5
98
330
96
100
AcDbEntity
  8
_U+30EC_U+30A4_U+30E4_U+30FC 1
 62
   179
420
  2234388
370
     9
100
AcDbVertex
100
AcDb2dVertex
 10
108.2690141822718
 20
-113.6204441382615
 30
0.0
  0
SEQEND
  5
99
330
96
100
AcDbEntity
  8
_U+30EC_U+30A4_U+30E4_U+30FC 1
 62
   179
420
  2234388
370
     9
  0
INSERT
  5
9B
330
1F
100
AcDbEntity
  8
_U+30EC_U+30A4_U+30E4_U+30FC 1
100
AcDbBlockReference
  2
block 3
 10
0.0
 20
0.0
 30
0.0
  0
POLYLINE
  5
A3
330
1F
100
AcDbEntity
  8
_U+30EC_U+30A4_U+30E4_U+30FC 1
 62
   179
420
  2234388
370
     9
100
AcDb2dPolyline
 66
     1
 10
0.0
 20
0.0
 30
0.0
  0
VERTEX
  5
A4
330
A3
100
AcDbEntity
  8
_U+30EC_U+30A4_U+30E4_U+30FC 1
 62
   179
420
  2234388
370
     9
100
AcDbVertex
100
AcDb2dVertex
 10
82.36930512080617
 20
-121.2387508030235
 30
0.0
  0
VERTEX
  5
A5
330
A3
100
AcDbEntity
  8
_U+30EC_U+30A4_U+30E4_U+30FC 1
 62
   179
420
  2234388
370
     9
100
AcDbVertex
100
AcDb2dVertex
 10
86.13961752461749
 20
-121.2387508030235
 30
0.0
  0
SEQEND
  5
A6
330
A3
100
AcDbEntity
  8
_U+30EC_U+30A4_U+30E4_U+30FC 1
 62
   179
420
  2234388
370
     9
  0
POLYLINE
  5
A7
330
1F
100
AcDbEntity
  8
_U+30EC_U+30A4_U+30E4_U+30FC 1
 62
   179
420
  2234388
370
     9
100
AcDb2dPolyline
 66
     1
 10
0.0
 20
0.0
 30
0.0
  0
VERTEX
  5
A8
330
A7
100
AcDbEntity
  8
_U+30EC_U+30A4_U+30E4_U+30FC 1
 62
   179
420
  2234388
370
     9
100
AcDbVertex
100
AcDb2dVertex
 10
80.36940794960559
 20
-121.2387508030235
 30
0.0
  0
VERTEX
  5
A9
330
A7
100
AcDbEntity
  8
_U+30EC_U+30A4_U+30E4_U+30FC 1
 62
   179
420
  2234388
370
     9
100
AcDbVertex
100
AcDb2dVertex
 10
82.36930512080617
 20
-121.2387508030235
 30
0.0
  0
SEQEND
  5
AA
330
A7
100
AcDbEntity
  8
_U+30EC_U+30A4_U+30E4_U+30FC 1
 62
   179
420
  2234388
370
     9
  0
INSERT
  5
AC
330
1F
100
AcDbEntity
  8
_U+30EC_U+30A4_U+30E4_U+30FC 1
100
AcDbBlockReference
  2
block 4
 10
0.0
 20
0.0
 30
0.0
  0
POLYLINE
  5
B1
330
1F
100
AcDbEntity
  8
_U+30EC_U+30A4_U+30E4_U+30FC 1
 62
   179
420
  2234388
370
     9
100
AcDb2dPolyline
 66
     1
 10
0.0
 20
0.0
 30
0.0
  0
VERTEX
  5
B2
330
B1
100
AcDbEntity
  8
_U+30EC_U+30A4_U+30E4_U+30FC 1
 62
   179
420
  2234388
370
     9
100
AcDbVertex
100
AcDb2dVertex
 10
81.3691801463215
 20
-143.620525241873
 30
0.0
  0
VERTEX
  5
B3
330
B1
100
AcDbEntity
  8
_U+30EC_U+30A4_U+30E4_U+30FC 1
 62
   179
420
  2234388
370
     9
100
AcDbVertex
100
AcDb2dVertex
 10
102.3689471105728
 20
-143.620525241873
 30
0.0
  0
SEQEND
  5
B4
330
B1
100
AcDbEntity
  8
_U+30EC_U+30A4_U+30E4_U+30FC 1
 62
   179
420
  2234388
370
     9
  0
POLYLINE
  5
B5
330
1F
100
AcDbEntity
  8
_U+30EC_U+30A4_U+30E4_U+30FC 1
 62
   179
420
  2234388
370
     9
100
AcDb2dPolyline
 66
     1
 10
0.0
 20
0.0
 30
0.0
  0
VERTEX
  5
B6
330
B5
100
AcDbEntity
  8
_U+30EC_U+30A4_U+30E4_U+30FC 1
 62
   179
420
  2234388
370
     9
100
AcDbVertex
100
AcDb2dVertex
 10
81.3691801463215
 20
-141.1607116313767
 30
0.0
  0
VERTEX
  5
B7
330
B5
100
AcDbEntity
  8
_U+30EC_U+30A4_U+30E4_U+30FC 1
 62
   179
420
  2234388
370
     9
100
AcDbVertex
100
AcDb2dVertex
 10
81.3691801463215
 20
-144.6209677416222
 30
0.0
  0
SEQEND
  5
B8
330
B5
100
AcDbEntity
  8
_U+30EC_U+30A4_U+30E4_U+30FC 1
 62
   179
420
  2234388
370
     9
  0
POLYLINE
  5
B9
330
1F
100
AcDbEntity
  8
_U+30EC_U+30A4_U+30E4_U+30FC 1
 62
   179
420
  2234388
370
     9
100
AcDb2dPolyline
 66
     1
 10
0.0
 20
0.0
 30
0.0
  0
VERTEX
  5
BA
330
B9
100
AcDbEntity
  8
_U+30EC_U+30A4_U+30E4_U+30FC 1
 62
   179
420
  2234388
370
     9
100
AcDbVertex
100
AcDb2dVertex
 10
102.3689471105728
 20
-141.1607116313767
 30
0.0
  0
VERTEX
  5
BB
330
B9
100
AcDbEntity
  8
_U+30EC_U+30A4_U+30E4_U+30FC 1
 62
   179
420
  2234388
370
     9
100
AcDbVertex
100
AcDb2dVertex
 10
102.3689471105728
 20
-144.6209677416222
 30
0.0
  0
SEQEND
  5
BC
330
B9
100
AcDbEntity
  8
_U+30EC_U+30A4_U+30E4_U+30FC 1
 62
   179
420
  2234388
370
     9
  0
INSERT
  5
BE
330
1F
100
AcDbEntity
  8
_U+30EC_U+30A4_U+30E4_U+30FC 1
100
AcDbBlockReference
  2
block 5
 10
0.0
 20
0.0
 30
0.0
  0
POLYLINE
  5
C5
330
1F
100
AcDbEntity
  8
_U+30EC_U+30A4_U+30E4_U+30FC 1
 62
   179
420
  2234388
370
     9
100
AcDb2dPolyline
 66
     1
 10
0.0
 20
0.0
 30
0.0
  0
VERTEX
  5
C6
330
C5
100
AcDbEntity
  8
_U+30EC_U+30A4_U+30E4_U+30FC 1
 62
   179
420
  2234388
370
     9
100
AcDbVertex
100
AcDb2dVertex
 10
104.3333221961388
 20
-138.3226496876415
 30
0.0
  0
VERTEX
  5
C7
330
C5
100
AcDbEntity
  8
_U+30EC_U+30A4_U+30E4_U+30FC 1
 62
   179
420
  2234388
370
     9
100
AcDbVertex
100
AcDb2dVertex
 10
104.3333221961388
 20
-123.1208202469975
 30
0.0
  0
SEQEND
  5
C8
330
C5
100
AcDbEntity
  8
_U+30EC_U+30A4_U+30E4_U+30FC 1
 62
   179
420
  2234388
370
     9
  0
POLYLINE
  5
C9
330
1F
100
AcDbEntity
  8
_U+30EC_U+30A4_U+30E4_U+30FC 1
 62
   179
420
  2234388
370
     9
100
AcDb2dPolyline
 66
     1
 10
0.0
 20
0.0
 30
0.0
  0
VERTEX
  5
CA
330
C9
100
AcDbEntity
  8
_U+30EC_U+30A4_U+30E4_U+30FC 1
 62
   179
420
  2234388
370
     9
100
AcDbVertex
100
AcDb2dVertex
 10
102.8733134865942
 20
-138.3729557987404
 30
0.0
  0
VERTEX
  5
CB
330
C9
100
AcDbEntity
  8
_U+30EC_U+30A4_U+30E4_U+30FC 1
 62
   179
420
  2234388
370
     9
100
AcDbVertex
100
AcDb2dVertex
 10
105.3330944181113
 20
-138.3729557987404
 30
0.0
  0
SEQEND
  5
CC
330
C9
100
AcDbEntity
  8
_U+30EC_U+30A4_U+30E4_U+30FC 1
 62
   179
420
  2234388
370
     9
  0
POLYLINE
  5
CD
330
1F
100
AcDbEntity
  8
_U+30EC_U+30A4_U+30E4_U+30FC 1
 62
   179
420
  2234388
370
     9
100
AcDb2dPolyline
 66
     1
 10
0.0
 20
0.0
 30
0.0
  0
VERTEX
  5
CE
330
CD
100
AcDbEntity
  8
_U+30EC_U+30A4_U+30E4_U+30FC 1
 62
   179
420
  2234388
370
     9
100
AcDbVertex
100
AcDb2dVertex
 10
102.8733134865942
 20
-123.1208202469975
 30
0.0
  0
VERTEX
  5
CF
330
CD
100
AcDbEntity
  8
_U+30EC_U+30A4_U+30E4_U+30FC 1
 62
   179
420
  2234388
370
     9
100
AcDbVertex
100
AcDb2dVertex
 10
105.3330944181113
 20
-123.1208202469975
 30
0.0
  0
SEQEND
  5
D0
330
CD
100
AcDbEntity
  8
_U+30EC_U+30A4_U+30E4_U+30FC 1
 62
   179
420
  2234388
370
     9
  0
INSERT
  5
D2
330
1F
100
AcDbEntity
  8
_U+30EC_U+30A4_U+30E4_U+30FC 1
100
AcDbBlockReference
  2
block 6
 10
0.0
 20
0.0
 30
0.0
  0
POLYLINE
  5
E3
330
1F
100
AcDbEntity
  8
_U+30EC_U+30A4_U+30E4_U+30FC 1
 62
   179
420
  2234388
370
     9
100
AcDb2dPolyline
 66
     1
 10
0.0
 20
0.0
 30
0.0
  0
VERTEX
  5
E4
330
E3
100
AcDbEntity
  8
_U+30EC_U+30A4_U+30E4_U+30FC 1
 62
   179
420
  2234388
370
     9
100
AcDbVertex
100
AcDb2dVertex
 10
77.36942108169718
 20
-140.3187369093647
 30
0.0
  0
VERTEX
  5
E5
330
E3
100
AcDbEntity
  8
_U+30EC_U+30A4_U+30E4_U+30FC 1
 62
   179
420
  2234388
370
     9
100
AcDbVertex
100
AcDb2dVertex
 10
77.36942108169718
 20
-118.6203283036784
 30
0.0
  0
SEQEND
  5
E6
330
E3
100
AcDbEntity
  8
_U+30EC_U+30A4_U+30E4_U+30FC 1
 62
   179
420
  2234388
370
     9
  0
POLYLINE
  5
E7
330
1F
100
AcDbEntity
  8
_U+30EC_U+30A4_U+30E4_U+30FC 1
 62
   179
420
  2234388
370
     9
100
AcDb2dPolyline
 66
     1
 10
0.0
 20
0.0
 30
0.0
  0
VERTEX
  5
E8
330
E7
100
AcDbEntity
  8
_U+30EC_U+30A4_U+30E4_U+30FC 1
 62
   179
420
  2234388
370
     9
100
AcDbVertex
100
AcDb2dVertex
 10
79.82923463005322
 20
-140.218830242723
 30
0.0
  0
VERTEX
  5
E9
330
E7
100
AcDbEntity
  8
_U+30EC_U+30A4_U+30E4_U+30FC 1
 62
   179
420
  2234388
370
     9
100
AcDbVertex
100
AcDb2dVertex
 10
76.36933331424085
 20
-140.218830242723
 30
0.0
  0
SEQEND
  5
EA
330
E7
100
AcDbEntity
  8
_U+30EC_U+30A4_U+30E4_U+30FC 1
 62
   179
420
  2234388
370
     9
  0
POLYLINE
  5
EB
330
1F
100
AcDbEntity
  8
_U+30EC_U+30A4_U+30E4_U+30FC 1
 62
   179
420
  2234388
370
     9
100
AcDb2dPolyline
 66
     1
 10
0.0
 20
0.0
 30
0.0
  0
VERTEX
  5
EC
330
EB
100
AcDbEntity
  8
_U+30EC_U+30A4_U+30E4_U+30FC 1
 62
   179
420
  2234388
370
     9
100
AcDbVertex
100
AcDb2dVertex
 10
79.82923463005322
 20
-118.6203283036784
 30
0.0
  0
VERTEX
  5
ED
330
EB
100
AcDbEntity
  8
_U+30EC_U+30A4_U+30E4_U+30FC 1
 62
   179
420
  2234388
370
     9
100
AcDbVertex
100
AcDb2dVertex
 10
76.36933331424085
 20
-118.6203283036784
 30
0.0
  0
SEQEND
  5
EE
330
EB
100
AcDbEntity
  8
_U+30EC_U+30A4_U+30E4_U+30FC 1
 62
   179
420
  2234388
370
     9
  0
INSERT
  5
F0
330
1F
100
AcDbEntity
  8
_U+30EC_U+30A4_U+30E4_U+30FC 1
100
AcDbBlockReference
  2
block 7
 10
0.0
 20
0.0
 30
0.0
  0
POLYLINE
  5
F7
330
1F
100
AcDbEntity
  8
_U+30EC_U+30A4_U+30E4_U+30FC 1
  6
AI-Linetype-1
 62
   251
420
  5855577
370
    25
100
AcDb2dPolyline
 66
     1
 10
0.0
 20
0.0
 30
0.0
  0
VERTEX
  5
F8
330
F7
100
AcDbEntity
  8
_U+30EC_U+30A4_U+30E4_U+30FC 1
  6
AI-Linetype-1
 62
   251
420
  5855577
370
    25
100
AcDbVertex
100
AcDb2dVertex
 10
82.68969997932749
 20
-117.9180535816316
 30
0.0
  0
VERTEX
  5
F9
330
F7
100
AcDbEntity
  8
_U+30EC_U+30A4_U+30E4_U+30FC 1
  6
AI-Linetype-1
 62
   251
420
  5855577
370
    25
100
AcDbVertex
100
AcDb2dVertex
 10
80.76871710608502
 20
-117.9180535816316
 30
0.0
  0
VERTEX
  5
FA
330
F7
100
AcDbEntity
  8
_U+30EC_U+30A4_U+30E4_U+30FC 1
  6
AI-Linetype-1
 62
   251
420
  5855577
370
    25
100
AcDbVertex
100
AcDb2dVertex
 10
80.76871710608502
 20
-140.2202060760559
 30
0.0
  0
VERTEX
  5
FB
330
F7
100
AcDbEntity
  8
_U+30EC_U+30A4_U+30E4_U+30FC 1
  6
AI-Linetype-1
 62
   251
420
  5855577
370
    25
100
AcDbVertex
100
AcDb2dVertex
 10
103.0489968154455
 20
-140.2202060760559
 30
0.0
  0
VERTEX
  5
FC
330
F7
100
AcDbEntity
  8
_U+30EC_U+30A4_U+30E4_U+30FC 1
  6
AI-Linetype-1
 62
   251
420
  5855577
370
    25
100
AcDbVertex
100
AcDb2dVertex
 10
103.0489968154455
 20
-138.3481555209684
 30
0.0
  0
SEQEND
  5
FE
330
F7
100
AcDbEntity
  8
_U+30EC_U+30A4_U+30E4_U+30FC 1
  6
AI-Linetype-1
 62
   251
420
  5855577
370
    25
  0
ENDSEC
  0
SECTION
  2
OBJECTS
  0
DICTIONARY
  5
C
330
0
100
AcDbDictionary
281
     1
  3
ACAD_GROUP
350
D
  3
ACAD_LAYOUT
350
1A
  3
ACAD_MATERIAL
350
3B
  3
ACAD_MLEADERSTYLE
350
100
  3
ACAD_MLINESTYLE
350
17
  3
ACAD_PLOTSETTINGS
350
19
  3
ACAD_PLOTSTYLENAME
350
E
  3
ACAD_TABLESTYLE
350
FF
  3
ACAD_VISUALSTYLE
350
2A
  0
SUN
  5
3F
330
29
100
AcDbSun
 90
        1
290
     0
 63
     7
421
 16777215
 40
1.0
291
     1
 91
  2455826
 92
 54000000
292
     0
 70
     2
 71
   256
280
     1
  0
DICTIONARY
  5
D
102
{ACAD_REACTORS
330
C
102
}
330
C
100
AcDbDictionary
281
     1
  0
DICTIONARY
  5
1A
102
{ACAD_REACTORS
330
C
102
}
330
C
100
AcDbDictionary
281
     1
  3
Layout1
350
1E
  3
Layout2
350
26
  3
Model
350
22
  0
DICTIONARY
  5
3B
102
{ACAD_REACTORS
330
C
102
}
330
C
100
AcDbDictionary
281
     1
  3
ByBlock
350
3D
  3
ByLayer
350
3C
  3
Global
350
3E
  0
DICTIONARY
  5
100
102
{ACAD_REACTORS
330
C
102
}
330
C
100
AcDbDictionary
281
     1
  0
DICTIONARY
  5
17
102
{ACAD_REACTORS
330
C
102
}
330
C
100
AcDbDictionary
281
     1
  3
Standard
350
18
  0
DICTIONARY
  5
19
102
{ACAD_REACTORS
330
C
102
}
330
C
100
AcDbDictionary
281
     1
  0
ACDBDICTIONARYWDFLT
  5
E
102
{ACAD_REACTORS
330
C
102
}
330
C
100
AcDbDictionary
281
     1
  3
Normal
350
F
100
AcDbDictionaryWithDefault
340
F
  0
DICTIONARY
  5
FF
102
{ACAD_REACTORS
330
C
102
}
330
C
100
AcDbDictionary
281
     1
  0
DICTIONARY
  5
2A
102
{ACAD_REACTORS
330
C
102
}
330
C
100
AcDbDictionary
281
     1
  3
2dWireframe
350
2F
  3
3D Hidden
350
31
  3
3dWireframe
350
30
  3
Basic
350
32
  3
Brighten
350
36
  3
ColorChange
350
3A
  3
Conceptual
350
34
  3
Dim
350
35
  3
Facepattern
350
39
  3
Flat
350
2B
  3
FlatWithEdges
350
2C
  3
Gouraud
350
2D
  3
GouraudWithEdges
350
2E
  3
Linepattern
350
38
  3
Realistic
350
33
  3
Thicken
350
37
  0
LAYOUT
  5
1E
102
{ACAD_REACTORS
330
1A
102
}
330
1A
100
AcDbPlotSettings
  1

  2
none_device
  4

  6

 40
0.0
 41
0.0
 42
0.0
 43
0.0
 44
0.0
 45
0.0
 46
0.0
 47
0.0
 48
0.0
 49
0.0
140
0.0
141
0.0
142
1.0
143
1.0
 70
   688
 72
     0
 73
     0
 74
     5
  7

 75
    16
 76
     0
 77
     2
 78
   300
147
1.0
148
0.0
149
0.0
100
AcDbLayout
  1
Layout1
 70
     1
 71
     1
 10
0.0
 20
0.0
 11
12.0
 21
9.0
 12
0.0
 22
0.0
 32
0.0
 14
1.000000000000000E+20
 24
1.000000000000000E+20
 34
1.000000000000000E+20
 15
-1.000000000000000E+20
 25
-1.000000000000000E+20
 35
-1.000000000000000E+20
146
0.0
 13
0.0
 23
0.0
 33
0.0
 16
1.0
 26
0.0
 36
0.0
 17
0.0
 27
1.0
 37
0.0
 76
     0
330
1B
  0
LAYOUT
  5
26
102
{ACAD_REACTORS
330
1A
102
}
330
1A
100
AcDbPlotSettings
  1

  2
none_device
  4

  6

 40
0.0
 41
0.0
 42
0.0
 43
0.0
 44
0.0
 45
0.0
 46
0.0
 47
0.0
 48
0.0
 49
0.0
140
0.0
141
0.0
142
1.0
143
1.0
 70
   688
 72
     0
 73
     0
 74
     5
  7

 75
    16
 76
     0
 77
     2
 78
   300
147
1.0
148
0.0
149
0.0
100
AcDbLayout
  1
Layout2
 70
     1
 71
     2
 10
0.0
 20
0.0
 11
0.0
 21
0.0
 12
0.0
 22
0.0
 32
0.0
 14
0.0
 24
0.0
 34
0.0
 15
0.0
 25
0.0
 35
0.0
146
0.0
 13
0.0
 23
0.0
 33
0.0
 16
1.0
 26
0.0
 36
0.0
 17
0.0
 27
1.0
 37
0.0
 76
     0
330
23
  0
LAYOUT
  5
22
102
{ACAD_REACTORS
330
1A
102
}
330
1A
100
AcDbPlotSettings
  1

  2
none_device
  4

  6

 40
0.0
 41
0.0
 42
0.0
 43
0.0
 44
0.0
 45
0.0
 46
0.0
 47
0.0
 48
0.0
 49
0.0
140
0.0
141
0.0
142
1.0
143
1.0
 70
  1712
 72
     0
 73
     0
 74
     0
  7

 75
     0
 76
     0
 77
     2
 78
   300
147
1.0
148
0.0
149
0.0
100
AcDbLayout
  1
Model
 70
     1
 71
     0
 10
0.0
 20
0.0
 11
12.0
 21
9.0
 12
0.0
 22
0.0
 32
0.0
 14
1.000000000000000E+20
 24
1.000000000000000E+20
 34
1.000000000000000E+20
 15
-1.000000000000000E+20
 25
-1.000000000000000E+20
 35
-1.000000000000000E+20
146
0.0
 13
0.0
 23
0.0
 33
0.0
 16
1.0
 26
0.0
 36
0.0
 17
0.0
 27
1.0
 37
0.0
 76
     0
330
1F
331
29
  0
MATERIAL
  5
3D
102
{ACAD_REACTORS
330
3B
102
}
330
3B
100
AcDbMaterial
  1
ByBlock
 72
     1
 94
      127
  0
MATERIAL
  5
3C
102
{ACAD_REACTORS
330
3B
102
}
330
3B
100
AcDbMaterial
  1
ByLayer
 72
     1
 94
      127
  0
MATERIAL
  5
3E
102
{ACAD_REACTORS
330
3B
102
}
330
3B
100
AcDbMaterial
  1
Global
 72
     1
 94
      127
  0
MLINESTYLE
  5
18
102
{ACAD_REACTORS
330
17
102
}
330
17
100
AcDbMlineStyle
  2
Standard
 70
     0
  3

 62
   256
 51
90.0
 52
90.0
 71
     2
 49
0.5
 62
   256
  6
BYLAYER
 49
-0.5
 62
   256
  6
BYLAYER
  0
ACDBPLACEHOLDER
  5
F
102
{ACAD_REACTORS
330
E
102
}
330
E
  0
VISUALSTYLE
  5
2F
102
{ACAD_REACTORS
330
2A
102
}
330
2A
100
AcDbVisualStyle
  2
2dWireframe
 70
     4
177
     2
291
     0
 71
     0
176
     1
 72
     2
176
     1
 73
     0
176
     1
 90
        0
176
     1
 40
-0.6
176
     1
 41
-30.0
176
     1
 62
     5
 63
     7
421
 16777215
176
     1
 74
     1
176
     1
 91
        4
176
     1
 64
     7
176
     1
 65
   257
176
     1
 75
     1
176
     1
175
     1
176
     1
 42
1.0
176
     1
 92
        0
176
     1
 66
   257
176
     1
 43
1.0
176
     1
 76
     1
176
     1
 77
     6
176
     1
 78
     2
176
     1
 67
     7
176
     1
 79
     5
176
     1
170
     0
176
     1
171
     0
176
     1
290
     0
176
     1
 93
        1
176
     1
 44
0.0
176
     1
173
     0
176
     1
  0
VISUALSTYLE
  5
31
102
{ACAD_REACTORS
330
2A
102
}
330
2A
100
AcDbVisualStyle
  2
3D Hidden
 70
     6
177
     2
291
     0
 71
     1
176
     1
 72
     2
176
     1
 73
     2
176
     1
 90
        0
176
     1
 40
-0.6
176
     1
 41
-30.0
176
     1
 62
     5
 63
     7
421
 16777215
176
     1
 74
     2
176
     1
 91
        2
176
     1
 64
     7
176
     1
 65
   257
176
     1
 75
     2
176
     1
175
     1
176
     1
 42
40.0
176
     1
 92
        0
176
     1
 66
   257
176
     1
 43
1.0
176
     1
 76
     1
176
     1
 77
     6
176
     1
 78
     2
176
     1
 67
     7
176
     1
 79
     3
176
     1
170
     0
176
     1
171
     0
176
     1
290
     0
176
     1
 93
        1
176
     1
 44
0.0
176
     1
173
     0
176
     1
  0
VISUALSTYLE
  5
30
102
{ACAD_REACTORS
330
2A
102
}
330
2A
100
AcDbVisualStyle
  2
3dWireframe
 70
     5
177
     2
291
     0
 71
     0
176
     1
 72
     2
176
     1
 73
     0
176
     1
 90
        0
176
     1
 40
-0.6
176
     1
 41
-30.0
176
     1
 62
     5
 63
     7
421
 16777215
176
     1
 74
     1
176
     1
 91
        4
176
     1
 64
     7
176
     1
 65
   257
176
     1
 75
     1
176
     1
175
     1
176
     1
 42
1.0
176
     1
 92
        0
176
     1
 66
   257
176
     1
 43
1.0
176
     1
 76
     1
176
     1
 77
     6
176
     1
 78
     2
176
     1
 67
     7
176
     1
 79
     5
176
     1
170
     0
176
     1
171
     0
176
     1
290
     0
176
     1
 93
        1
176
     1
 44
0.0
176
     1
173
     0
176
     1
  0
VISUALSTYLE
  5
32
102
{ACAD_REACTORS
330
2A
102
}
330
2A
100
AcDbVisualStyle
  2
Basic
 70
     7
177
     2
291
     1
 71
     1
176
     1
 72
     0
176
     1
 73
     1
176
     1
 90
        0
176
     1
 40
-0.6
176
     1
 41
-30.0
176
     1
 62
     5
 63
     7
421
 16777215
176
     1
 74
     0
176
     1
 91
        4
176
     1
 64
     7
176
     1
 65
   257
176
     1
 75
     1
176
     1
175
     1
176
     1
 42
1.0
176
     1
 92
        8
176
     1
 66
     7
176
     1
 43
1.0
176
     1
 76
     1
176
     1
 77
     6
176
     1
 78
     2
176
     1
 67
     7
176
     1
 79
     5
176
     1
170
     0
176
     1
171
     0
176
     1
290
     0
176
     1
 93
        1
176
     1
 44
0.0
176
     1
173
     0
176
     1
  0
VISUALSTYLE
  5
36
102
{ACAD_REACTORS
330
2A
102
}
330
2A
100
AcDbVisualStyle
  2
Brighten
 70
    12
177
     2
291
     1
 71
     2
176
     1
 72
     2
176
     1
 73
     0
176
     1
 90
        0
176
     1
 40
-0.6
176
     1
 41
-30.0
176
     1
 62
     5
 63
     7
421
 16777215
176
     1
 74
     1
176
     1
 91
        4
176
     1
 64
     7
176
     1
 65
   257
176
     1
 75
     1
176
     1
175
     1
176
     1
 42
1.0
176
     1
 92
        8
176
     1
 66
     7
176
     1
 43
1.0
176
     1
 76
     1
176
     1
 77
     6
176
     1
 78
     2
176
     1
 67
     7
176
     1
 79
     5
176
     1
170
     0
176
     1
171
     0
176
     1
290
     0
176
     1
 93
        1
176
     1
 44
50.0
176
     1
173
     0
176
     1
  0
VISUALSTYLE
  5
3A
102
{ACAD_REACTORS
330
2A
102
}
330
2A
100
AcDbVisualStyle
  2
ColorChange
 70
    16
177
     2
291
     1
 71
     2
176
     1
 72
     2
176
     1
 73
     3
176
     1
 90
        0
176
     1
 40
-0.6
176
     1
 41
-30.0
176
     1
 62
     5
 63
     8
421
  8421504
176
     1
 74
     1
176
     1
 91
        4
176
     1
 64
     7
176
     1
 65
   257
176
     1
 75
     1
176
     1
175
     1
176
     1
 42
1.0
176
     1
 92
        8
176
     1
 66
     8
424
  8421504
176
     1
 43
1.0
176
     1
 76
     1
176
     1
 77
     6
176
     1
 78
     2
176
     1
 67
     7
176
     1
 79
     5
176
     1
170
     0
176
     1
171
     0
176
     1
290
     0
176
     1
 93
        1
176
     1
 44
0.0
176
     1
173
     0
176
     1
  0
VISUALSTYLE
  5
34
102
{ACAD_REACTORS
330
2A
102
}
330
2A
100
AcDbVisualStyle
  2
Conceptual
 70
     9
177
     2
291
     0
 71
     3
176
     1
 72
     2
176
     1
 73
     0
176
     1
 90
        0
176
     1
 40
-0.6
176
     1
 41
-30.0
176
     1
 62
     5
 63
     7
421
 16777215
176
     1
 74
     2
176
     1
 91
        2
176
     1
 64
     7
176
     1
 65
   257
176
     1
 75
     1
176
     1
175
     1
176
     1
 42
40.0
176
     1
 92
        8
176
     1
 66
     7
176
     1
 43
1.0
176
     1
 76
     1
176
     1
 77
     6
176
     1
 78
     2
176
     1
 67
     7
176
     1
 79
     3
176
     1
170
     0
176
     1
171
     0
176
     1
290
     0
176
     1
 93
        1
176
     1
 44
0.0
176
     1
173
     0
176
     1
  0
VISUALSTYLE
  5
35
102
{ACAD_REACTORS
330
2A
102
}
330
2A
100
AcDbVisualStyle
  2
Dim
 70
    11
177
     2
291
     1
 71
     2
176
     1
 72
     2
176
     1
 73
     0
176
     1
 90
        0
176
     1
 40
-0.6
176
     1
 41
-30.0
176
     1
 62
     5
 63
     7
421
 16777215
176
     1
 74
     1
176
     1
 91
        4
176
     1
 64
     7
176
     1
 65
   257
176
     1
 75
     1
176
     1
175
     1
176
     1
 42
1.0
176
     1
 92
        8
176
     1
 66
     7
176
     1
 43
1.0
176
     1
 76
     1
176
     1
 77
     6
176
     1
 78
     2
176
     1
 67
     7
176
     1
 79
     5
176
     1
170
     0
176
     1
171
     0
176
     1
290
     0
176
     1
 93
        1
176
     1
 44
-50.0
176
     1
173
     0
176
     1
  0
VISUALSTYLE
  5
39
102
{ACAD_REACTORS
330
2A
102
}
330
2A
100
AcDbVisualStyle
  2
Facepattern
 70
    15
177
     2
291
     1
 71
     2
176
     1
 72
     2
176
     1
 73
     0
176
     1
 90
        0
176
     1
 40
-0.6
176
     1
 41
-30.0
176
     1
 62
     5
 63
     7
421
 16777215
176
     1
 74
     1
176
     1
 91
        4
176
     1
 64
     7
176
     1
 65
   257
176
     1
 75
     1
176
     1
175
     1
176
     1
 42
1.0
176
     1
 92
        8
176
     1
 66
     7
176
     1
 43
1.0
176
     1
 76
     1
176
     1
 77
     6
176
     1
 78
     2
176
     1
 67
     7
176
     1
 79
     5
176
     1
170
     0
176
     1
171
     0
176
     1
290
     0
176
     1
 93
        1
176
     1
 44
0.0
176
     1
173
     0
176
     1
  0
VISUALSTYLE
  5
2B
102
{ACAD_REACTORS
330
2A
102
}
330
2A
100
AcDbVisualStyle
  2
Flat
 70
     0
177
     2
291
     1
 71
     2
176
     1
 72
     1
176
     1
 73
     1
176
     1
 90
        2
176
     1
 40
-0.6
176
     1
 41
30.0
176
     1
 62
     5
 63
     7
421
 16777215
176
     1
 74
     0
176
     1
 91
        4
176
     1
 64
     7
176
     1
 65
   257
176
     1
 75
     1
176
     1
175
     1
176
     1
 42
1.0
176
     1
 92
        8
176
     1
 66
     7
176
     1
 43
1.0
176
     1
 76
     1
176
     1
 77
     6
176
     1
 78
     2
176
     1
 67
     7
176
     1
 79
     5
176
     1
170
     0
176
     1
171
     0
176
     1
290
     0
176
     1
 93
       13
176
     1
 44
0.0
176
     1
173
     0
176
     1
  0
VISUALSTYLE
  5
2C
102
{ACAD_REACTORS
330
2A
102
}
330
2A
100
AcDbVisualStyle
  2
FlatWithEdges
 70
     1
177
     2
291
     1
 71
     2
176
     1
 72
     1
176
     1
 73
     1
176
     1
 90
        2
176
     1
 40
-0.6
176
     1
 41
30.0
176
     1
 62
     5
 63
     7
421
 16777215
176
     1
 74
     1
176
     1
 91
        4
176
     1
 64
     7
176
     1
 65
   257
176
     1
 75
     1
176
     1
175
     1
176
     1
 42
1.0
176
     1
 92
        0
176
     1
 66
   257
176
     1
 43
1.0
176
     1
 76
     1
176
     1
 77
     6
176
     1
 78
     2
176
     1
 67
     7
176
     1
 79
     5
176
     1
170
     0
176
     1
171
     0
176
     1
290
     0
176
     1
 93
       13
176
     1
 44
0.0
176
     1
173
     0
176
     1
  0
VISUALSTYLE
  5
2D
102
{ACAD_REACTORS
330
2A
102
}
330
2A
100
AcDbVisualStyle
  2
Gouraud
 70
     2
177
     2
291
     1
 71
     2
176
     1
 72
     2
176
     1
 73
     1
176
     1
 90
        2
176
     1
 40
-0.6
176
     1
 41
30.0
176
     1
 62
     5
 63
     7
421
 16777215
176
     1
 74
     0
176
     1
 91
        4
176
     1
 64
     7
176
     1
 65
   257
176
     1
 75
     1
176
     1
175
     1
176
     1
 42
1.0
176
     1
 92
        0
176
     1
 66
     7
176
     1
 43
1.0
176
     1
 76
     1
176
     1
 77
     6
176
     1
 78
     2
176
     1
 67
     7
176
     1
 79
     5
176
     1
170
     0
176
     1
171
     0
176
     1
290
     0
176
     1
 93
       13
176
     1
 44
0.0
176
     1
173
     0
176
     1
  0
VISUALSTYLE
  5
2E
102
{ACAD_REACTORS
330
2A
102
}
330
2A
100
AcDbVisualStyle
  2
GouraudWithEdges
 70
     3
177
     2
291
     1
 71
     2
176
     1
 72
     2
176
     1
 73
     1
176
     1
 90
        2
176
     1
 40
-0.6
176
     1
 41
30.0
176
     1
 62
     5
 63
     7
421
 16777215
176
     1
 74
     1
176
     1
 91
        4
176
     1
 64
     7
176
     1
 65
   257
176
     1
 75
     1
176
     1
175
     1
176
     1
 42
1.0
176
     1
 92
        0
176
     1
 66
   257
176
     1
 43
1.0
176
     1
 76
     1
176
     1
 77
     6
176
     1
 78
     2
176
     1
 67
     7
176
     1
 79
     5
176
     1
170
     0
176
     1
171
     0
176
     1
290
     0
176
     1
 93
       13
176
     1
 44
0.0
176
     1
173
     0
176
     1
  0
VISUALSTYLE
  5
38
102
{ACAD_REACTORS
330
2A
102
}
330
2A
100
AcDbVisualStyle
  2
Linepattern
 70
    14
177
     2
291
     1
 71
     2
176
     1
 72
     2
176
     1
 73
     0
176
     1
 90
        0
176
     1
 40
-0.6
176
     1
 41
-30.0
176
     1
 62
     5
 63
     7
421
 16777215
176
     1
 74
     1
176
     1
 91
        4
176
     1
 64
     7
176
     1
 65
   257
176
     1
 75
     7
176
     1
175
     7
176
     1
 42
1.0
176
     1
 92
        8
176
     1
 66
     7
176
     1
 43
1.0
176
     1
 76
     1
176
     1
 77
     6
176
     1
 78
     2
176
     1
 67
     7
176
     1
 79
     5
176
     1
170
     0
176
     1
171
     0
176
     1
290
     0
176
     1
 93
        1
176
     1
 44
0.0
176
     1
173
     0
176
     1
  0
VISUALSTYLE
  5
33
102
{ACAD_REACTORS
330
2A
102
}
330
2A
100
AcDbVisualStyle
  2
Realistic
 70
     8
177
     2
291
     0
 71
     2
176
     1
 72
     2
176
     1
 73
     0
176
     1
 90
        0
176
     1
 40
-0.6
176
     1
 41
-30.0
176
     1
 62
     5
 63
     7
421
 16777215
176
     1
 74
     1
176
     1
 91
        0
176
     1
 64
     7
176
     1
 65
   257
176
     1
 75
     1
176
     1
175
     1
176
     1
 42
1.0
176
     1
 92
        8
176
     1
 66
     8
424
  7895160
176
     1
 43
1.0
176
     1
 76
     1
176
     1
 77
     6
176
     1
 78
     2
176
     1
 67
     7
176
     1
 79
     5
176
     1
170
     0
176
     1
171
     0
176
     1
290
     0
176
     1
 93
       13
176
     1
 44
0.0
176
     1
173
     0
176
     1
  0
VISUALSTYLE
  5
37
102
{ACAD_REACTORS
330
2A
102
}
330
2A
100
AcDbVisualStyle
  2
Thicken
 70
    13
177
     2
291
     1
 71
     2
176
     1
 72
     2
176
     1
 73
     0
176
     1
 90
        0
176
     1
 40
-0.6
176
     1
 41
-30.0
176
     1
 62
     5
 63
     7
421
 16777215
176
     1
 74
     1
176
     1
 91
        4
176
     1
 64
     7
176
     1
 65
   257
176
     1
 75
     1
176
     1
175
     1
176
     1
 42
1.0
176
     1
 92
       12
176
     1
 66
     7
176
     1
 43
1.0
176
     1
 76
     1
176
     1
 77
     6
176
     1
 78
     2
176
     1
 67
     7
176
     1
 79
     5
176
     1
170
     0
176
     1
171
     0
176
     1
290
     0
176
     1
 93
        1
176
     1
 44
0.0
176
     1
173
     0
176
     1
  0
ENDSEC
  0
EOF
