  0
SECTION
  2
HEADER
  9
$ACADVER
  1
AC1024
  9
$ACADMAINTVER
 70
     6
  9
$DWGCODEPAGE
  3
UNDEFINED
  9
$INSBASE
 10
0.0
 20
0.0
 30
0.0
  9
$EXTMIN
 10
1.000000000000000E+20
 20
1.000000000000000E+20
 30
1.000000000000000E+20
  9
$EXTMAX
 10
-1.000000000000000E+20
 20
-1.000000000000000E+20
 30
-1.000000000000000E+20
  9
$LIMMIN
 10
0.0
 20
0.0
  9
$LIMMAX
 10
12.0
 20
9.0
  9
$ORTHOMODE
 70
     0
  9
$REGENMODE
 70
     1
  9
$FILLMODE
 70
     1
  9
$QTEXTMODE
 70
     0
  9
$MIRRTEXT
 70
     1
  9
$LTSCALE
 40
1.0
  9
$ATTMODE
 70
     1
  9
$TEXTSIZE
 40
0.2
  9
$TRACEWID
 40
0.05
  9
$TEXTSTYLE
  7
Standard
  9
$CLAYER
  8
0
  9
$CELTYPE
  6
ByLayer
  9
$CECOLOR
 62
   256
  9
$CELTSCALE
 40
1.0
  9
$DISPSILH
 70
     0
  9
$DIMSCALE
 40
1.0
  9
$DIMASZ
 40
0.18
  9
$DIMEXO
 40
0.0625
  9
$DIMDLI
 40
0.38
  9
$DIMRND
 40
0.0
  9
$DIMDLE
 40
0.0
  9
$DIMEXE
 40
0.18
  9
$DIMTP
 40
0.0
  9
$DIMTM
 40
0.0
  9
$DIMTXT
 40
0.18
  9
$DIMCEN
 40
0.09
  9
$DIMTSZ
 40
0.0
  9
$DIMTOL
 70
     0
  9
$DIMLIM
 70
     0
  9
$DIMTIH
 70
     1
  9
$DIMTOH
 70
     1
  9
$DIMSE1
 70
     0
  9
$DIMSE2
 70
     0
  9
$DIMTAD
 70
     0
  9
$DIMZIN
 70
     0
  9
$DIMBLK
  1

  9
$DIMASO
 70
     1
  9
$DIMSHO
 70
     1
  9
$DIMPOST
  1

  9
$DIMAPOST
  1

  9
$DIMALT
 70
     0
  9
$DIMALTD
 70
     2
  9
$DIMALTF
 40
25.4
  9
$DIMLFAC
 40
1.0
  9
$DIMTOFL
 70
     0
  9
$DIMTVP
 40
0.0
  9
$DIMTIX
 70
     0
  9
$DIMSOXD
 70
     0
  9
$DIMSAH
 70
     0
  9
$DIMBLK1
  1

  9
$DIMBLK2
  1

  9
$DIMSTYLE
  2
Standard
  9
$DIMCLRD
 70
     0
  9
$DIMCLRE
 70
     0
  9
$DIMCLRT
 70
     0
  9
$DIMTFAC
 40
1.0
  9
$DIMGAP
 40
0.09
  9
$DIMJUST
 70
     0
  9
$DIMSD1
 70
     0
  9
$DIMSD2
 70
     0
  9
$DIMTOLJ
 70
     1
  9
$DIMTZIN
 70
     0
  9
$DIMALTZ
 70
     0
  9
$DIMALTTZ
 70
     0
  9
$DIMUPT
 70
     0
  9
$DIMDEC
 70
     4
  9
$DIMTDEC
 70
     4
  9
$DIMALTU
 70
     2
  9
$DIMALTTD
 70
     2
  9
$DIMTXSTY
  7
Standard
  9
$DIMAUNIT
 70
     0
  9
$DIMADEC
 70
     0
  9
$DIMALTRND
 40
0.0
  9
$DIMAZIN
 70
     0
  9
$DIMDSEP
 70
    46
  9
$DIMATFIT
 70
     3
  9
$DIMFRAC
 70
     0
  9
$DIMLDRBLK
  1

  9
$DIMLUNIT
 70
     2
  9
$DIMLWD
 70
    -2
  9
$DIMLWE
 70
    -2
  9
$DIMTMOVE
 70
     0
  9
$DIMFXL
 40
1.0
  9
$DIMFXLON
 70
     0
  9
$DIMJOGANG
 40
0.7853981633974483
  9
$DIMTFILL
 70
     0
  9
$DIMTFILLCLR
 70
     0
  9
$DIMARCSYM
 70
     0
  9
$DIMLTYPE
  6

  9
$DIMLTEX1
  6

  9
$DIMLTEX2
  6

  9
$DIMTXTDIRECTION
 70
     0
  9
$LUNITS
 70
     2
  9
$LUPREC
 70
     4
  9
$SKETCHINC
 40
0.1
  9
$FILLETRAD
 40
0.5
  9
$AUNITS
 70
     0
  9
$AUPREC
 70
     0
  9
$MENU
  1
.
  9
$ELEVATION
 40
0.0
  9
$PELEVATION
 40
0.0
  9
$THICKNESS
 40
0.0
  9
$LIMCHECK
 70
     0
  9
$CHAMFERA
 40
0.5
  9
$CHAMFERB
 40
0.5
  9
$CHAMFERC
 40
1.0
  9
$CHAMFERD
 40
0.0
  9
$SKPOLY
 70
     0
  9
$TDCREATE
 40
2457917.61880787
  9
$TDUCREATE
 40
2457917.24380787
  9
$TDUPDATE
 40
2457917.61880787
  9
$TDUUPDATE
 40
2457917.24380787
  9
$TDINDWG
 40
0.0000000116
  9
$TDUSRTIMER
 40
0.0000000116
  9
$USRTIMER
 70
     1
  9
$ANGBASE
 50
0.0
  9
$ANGDIR
 70
     0
  9
$PDMODE
 70
     0
  9
$PDSIZE
 40
0.0
  9
$PLINEWID
 40
0.0
  9
$SPLFRAME
 70
     0
  9
$SPLINETYPE
 70
     6
  9
$SPLINESEGS
 70
     8
  9
$HANDSEED
  5
100
  9
$SURFTAB1
 70
     6
  9
$SURFTAB2
 70
     6
  9
$SURFTYPE
 70
     6
  9
$SURFU
 70
     6
  9
$SURFV
 70
     6
  9
$UCSBASE
  2

  9
$UCSNAME
  2

  9
$UCSORG
 10
0.0
 20
0.0
 30
0.0
  9
$UCSXDIR
 10
1.0
 20
0.0
 30
0.0
  9
$UCSYDIR
 10
0.0
 20
1.0
 30
0.0
  9
$UCSORTHOREF
  2

  9
$UCSORTHOVIEW
 70
     0
  9
$UCSORGTOP
 10
0.0
 20
0.0
 30
0.0
  9
$UCSORGBOTTOM
 10
0.0
 20
0.0
 30
0.0
  9
$UCSORGLEFT
 10
0.0
 20
0.0
 30
0.0
  9
$UCSORGRIGHT
 10
0.0
 20
0.0
 30
0.0
  9
$UCSORGFRONT
 10
0.0
 20
0.0
 30
0.0
  9
$UCSORGBACK
 10
0.0
 20
0.0
 30
0.0
  9
$PUCSBASE
  2

  9
$PUCSNAME
  2

  9
$PUCSORG
 10
0.0
 20
0.0
 30
0.0
  9
$PUCSXDIR
 10
1.0
 20
0.0
 30
0.0
  9
$PUCSYDIR
 10
0.0
 20
1.0
 30
0.0
  9
$PUCSORTHOREF
  2

  9
$PUCSORTHOVIEW
 70
     0
  9
$PUCSORGTOP
 10
0.0
 20
0.0
 30
0.0
  9
$PUCSORGBOTTOM
 10
0.0
 20
0.0
 30
0.0
  9
$PUCSORGLEFT
 10
0.0
 20
0.0
 30
0.0
  9
$PUCSORGRIGHT
 10
0.0
 20
0.0
 30
0.0
  9
$PUCSORGFRONT
 10
0.0
 20
0.0
 30
0.0
  9
$PUCSORGBACK
 10
0.0
 20
0.0
 30
0.0
  9
$USERI1
 70
     0
  9
$USERI2
 70
     0
  9
$USERI3
 70
     0
  9
$USERI4
 70
     0
  9
$USERI5
 70
     0
  9
$USERR1
 40
0.0
  9
$USERR2
 40
0.0
  9
$USERR3
 40
0.0
  9
$USERR4
 40
0.0
  9
$USERR5
 40
0.0
  9
$WORLDVIEW
 70
     1
  9
$SHADEDGE
 70
     3
  9
$SHADEDIF
 70
    70
  9
$TILEMODE
 70
     1
  9
$MAXACTVP
 70
    64
  9
$PINSBASE
 10
0.0
 20
0.0
 30
0.0
  9
$PLIMCHECK
 70
     0
  9
$PEXTMIN
 10
1.000000000000000E+20
 20
1.000000000000000E+20
 30
1.000000000000000E+20
  9
$PEXTMAX
 10
-1.000000000000000E+20
 20
-1.000000000000000E+20
 30
-1.000000000000000E+20
  9
$PLIMMIN
 10
0.0
 20
0.0
  9
$PLIMMAX
 10
12.0
 20
9.0
  9
$UNITMODE
 70
     0
  9
$VISRETAIN
 70
     1
  9
$PLINEGEN
 70
     0
  9
$PSLTSCALE
 70
     1
  9
$TREEDEPTH
 70
  3020
  9
$CMLSTYLE
  2
Standard
  9
$CMLJUST
 70
     0
  9
$CMLSCALE
 40
1.0
  9
$PROXYGRAPHICS
 70
     1
  9
$MEASUREMENT
 70
     0
  9
$CELWEIGHT
370
    -1
  9
$ENDCAPS
280
     0
  9
$JOINSTYLE
280
     0
  9
$LWDISPLAY
290
     1
  9
$INSUNITS
 70
     1
  9
$HYPERLINKBASE
  1

  9
$STYLESHEET
  1

  9
$XEDIT
290
     1
  9
$CEPSNTYPE
380
     0
  9
$PSTYLEMODE
290
     1
  9
$FINGERPRINTGUID
  2
{71C519A0-BE80-3A87-732F-1568AFAE1DAA}
  9
$VERSIONGUID
  2
{FAEB1C32-E019-11D5-929B-00C0DF256EC4}
  9
$EXTNAMES
290
     1
  9
$PSVPSCALE
 40
0.0
  9
$OLESTARTUP
290
     0
  9
$SORTENTS
280
   127
  9
$INDEXCTL
280
     0
  9
$HIDETEXT
280
     1
  9
$XCLIPFRAME
280
     2
  9
$HALOGAP
280
     0
  9
$OBSCOLOR
 70
   257
  9
$OBSLTYPE
280
     0
  9
$INTERSECTIONDISPLAY
280
     0
  9
$INTERSECTIONCOLOR
 70
   257
  9
$DIMASSOC
280
     2
  9
$PROJECTNAME
  1

  9
$CAMERADISPLAY
290
     0
  9
$LENSLENGTH
 40
50.0
  9
$CAMERAHEIGHT
 40
0.0
  9
$STEPSPERSEC
 40
2.0
  9
$STEPSIZE
 40
6.0
  9
$3DDWFPREC
 40
2.0
  9
$PSOLWIDTH
 40
0.25
  9
$PSOLHEIGHT
 40
4.0
  9
$LOFTANG1
 40
1.570796326794897
  9
$LOFTANG2
 40
1.570796326794897
  9
$LOFTMAG1
 40
0.0
  9
$LOFTMAG2
 40
0.0
  9
$LOFTPARAM
 70
     7
  9
$LOFTNORMALS
280
     1
  9
$LATITUDE
 40
37.795
  9
$LONGITUDE
 40
-122.394
  9
$NORTHDIRECTION
 40
0.0
  9
$TIMEZONE
 70
 -8000
  9
$LIGHTGLYPHDISPLAY
280
     1
  9
$TILEMODELIGHTSYNCH
280
     1
  9
$CMATERIAL
347
3C
  9
$SOLIDHIST
280
     1
  9
$SHOWHIST
280
     1
  9
$DWFFRAME
280
     2
  9
$DGNFRAME
280
     2
  9
$REALWORLDSCALE
290
     1
  9
$INTERFERECOLOR
 62
   256
  9
$CSHADOW
280
     0
  9
$SHADOWPLANELOCATION
 40
0.0
  0
ENDSEC
  0
SECTION
  2
CLASSES
  0
CLASS
  1
ACDBDICTIONARYWDFLT
  2
AcDbDictionaryWithDefault
  3
ObjectDBX Classes
 90
        0
 91
        4
280
     0
281
     0
  0
CLASS
  1
VISUALSTYLE
  2
AcDbVisualStyle
  3
ObjectDBX Classes
 90
     4095
 91
        4
280
     0
281
     0
  0
CLASS
  1
MATERIAL
  2
AcDbMaterial
  3
ObjectDBX Classes
 90
     1153
 91
        4
280
     0
281
     0
  0
CLASS
  1
SUN
  2
AcDbSun
  3
SCENEOE
 90
     1024
 91
        4
280
     0
281
     0
  0
ENDSEC
  0
SECTION
  2
TABLES
  0
TABLE
  2
VPORT
  5
8
330
0
100
AcDbSymbolTable
 70
     1
  0
VPORT
  5
29
330
8
100
AcDbSymbolTableRecord
100
AcDbViewportTableRecord
  2
*Active
 70
     0
 10
0.0
 20
0.0
 11
1.0
 21
1.0
 12
0.0
 22
0.0
 13
0.0
 23
0.0
 14
0.5
 24
0.5
 15
0.5
 25
0.5
 16
0.0
 26
0.0
 36
1.0
 17
91.00082462281999
 27
-128.4993055234307
 37
0.0
 40
256.9986110468615
 41
0.7081814508812795
 42
50.0
 43
0.0
 44
0.0
 50
0.0
 51
0.0
 71
     0
 72
   100
 73
     1
 74
     3
 75
     0
 76
     0
 77
     0
 78
     0
281
     0
 65
     1
110
0.0
120
0.0
130
0.0
111
1.0
121
0.0
131
0.0
112
0.0
122
1.0
132
0.0
 79
     0
146
0.0
 60
     3
 61
     5
292
     1
282
     1
141
0.0
142
0.0
 63
   250
361
3F
  0
ENDTAB
  0
TABLE
  2
LTYPE
  5
5
330
0
100
AcDbSymbolTable
 70
     2
  0
LTYPE
  5
14
330
5
100
AcDbSymbolTableRecord
100
AcDbLinetypeTableRecord
  2
ByBlock
 70
     0
  3

 72
    65
 73
     0
 40
0.0
  0
LTYPE
  5
15
330
5
100
AcDbSymbolTableRecord
100
AcDbLinetypeTableRecord
  2
ByLayer
 70
     0
  3

 72
    65
 73
     0
 40
0.0
  0
LTYPE
  5
16
330
5
100
AcDbSymbolTableRecord
100
AcDbLinetypeTableRecord
  2
Continuous
 70
     0
  3
Solid line
 72
    65
 73
     0
 40
0.0
  0
LTYPE
  5
47
330
5
100
AcDbSymbolTableRecord
100
AcDbLinetypeTableRecord
  2
AI-Linetype-1
 70
     0
  3
Adobe Illustrator Linetype No. 1
 72
    65
 73
     2
 40
1.411111110758333
 49
0.7055555553791667
 74
     0
 49
-0.7055555553791667
 74
     0
  0
ENDTAB
  0
TABLE
  2
LAYER
  5
2
330
0
100
AcDbSymbolTable
 70
     2
  0
LAYER
  5
10
330
2
100
AcDbSymbolTableRecord
100
AcDbLayerTableRecord
  2
0
 70
     0
 62
     7
  6
Continuous
370
    -3
390
F
347
3E
  0
LAYER
  5
40
330
2
100
AcDbSymbolTableRecord
100
AcDbLayerTableRecord
  2
_U+30EC_U+30A4_U+30E4_U+30FC 1
 70
     0
 62
     7
  6
Continuous
370
    -3
390
F
347
3E
  0
ENDTAB
  0
TABLE
  2
STYLE
  5
3
330
0
100
AcDbSymbolTable
 70
     1
  0
STYLE
  5
11
330
3
100
AcDbSymbolTableRecord
100
AcDbTextStyleTableRecord
  2
Standard
 70
     0
 40
0.0
 41
1.0
 50
0.0
 71
     0
 42
0.2
  3
txt
  4

  0
ENDTAB
  0
TABLE
  2
VIEW
  5
6
330
0
100
AcDbSymbolTable
 70
     0
  0
ENDTAB
  0
TABLE
  2
UCS
  5
7
330
0
100
AcDbSymbolTable
 70
     0
  0
ENDTAB
  0
TABLE
  2
APPID
  5
9
330
0
100
AcDbSymbolTable
 70
     1
  0
APPID
  5
12
330
9
100
AcDbSymbolTableRecord
100
AcDbRegAppTableRecord
  2
ACAD
 70
     0
  0
ENDTAB
  0
TABLE
  2
DIMSTYLE
  5
A
330
0
100
AcDbSymbolTable
 70
     1
100
AcDbDimStyleTable
  0
DIMSTYLE
105
27
330
A
100
AcDbSymbolTableRecord
100
AcDbDimStyleTableRecord
  2
Standard
 70
     0
178
     0
340
11
  0
ENDTAB
  0
TABLE
  2
BLOCK_RECORD
  5
1
330
0
100
AcDbSymbolTable
 70
     7
  0
BLOCK_RECORD
  5
1F
330
1
100
AcDbSymbolTableRecord
100
AcDbBlockTableRecord
  2
*Model_Space
340
22
 70
     0
280
     1
281
     0
  0
BLOCK_RECORD
  5
1B
330
1
100
AcDbSymbolTableRecord
100
AcDbBlockTableRecord
  2
*Paper_Space
340
1E
 70
     0
280
     1
281
     0
  0
BLOCK_RECORD
  5
23
330
1
100
AcDbSymbolTableRecord
100
AcDbBlockTableRecord
  2
*Paper_Space0
340
26
 70
     0
280
     1
281
     0
  0
BLOCK_RECORD
  5
8D
330
1
100
AcDbSymbolTableRecord
100
AcDbBlockTableRecord
  2
block 2
340
0
102
{BLKREFS
331
8E
102
}
 70
     0
280
     1
281
     0
  0
BLOCK_RECORD
  5
A2
330
1
100
AcDbSymbolTableRecord
100
AcDbBlockTableRecord
  2
block 3
340
0
102
{BLKREFS
331
A3
102
}
 70
     0
280
     1
281
     0
  0
BLOCK_RECORD
  5
B4
330
1
100
AcDbSymbolTableRecord
100
AcDbBlockTableRecord
  2
block 4
340
0
102
{BLKREFS
331
B5
102
}
 70
     0
280
     1
281
     0
  0
BLOCK_RECORD
  5
C6
330
1
100
AcDbSymbolTableRecord
100
AcDbBlockTableRecord
  2
block 5
340
0
102
{BLKREFS
331
C7
102
}
 70
     0
280
     1
281
     0
  0
BLOCK_RECORD
  5
DA
330
1
100
AcDbSymbolTableRecord
100
AcDbBlockTableRecord
  2
block 6
340
0
102
{BLKREFS
331
DB
102
}
 70
     0
280
     1
281
     0
  0
BLOCK_RECORD
  5
F6
330
1
100
AcDbSymbolTableRecord
100
AcDbBlockTableRecord
  2
block 7
340
0
102
{BLKREFS
331
F7
102
}
 70
     0
280
     1
281
     0
  0
ENDTAB
  0
ENDSEC
  0
SECTION
  2
BLOCKS
  0
BLOCK
  5
20
330
1F
100
AcDbEntity
  8
0
100
AcDbBlockBegin
  2
*Model_Space
 70
     0
 10
0.0
 20
0.0
 30
0.0
  3
*Model_Space
  1

  0
ENDBLK
  5
21
330
1F
100
AcDbEntity
  8
0
100
AcDbBlockEnd
  0
BLOCK
  5
1C
330
1B
100
AcDbEntity
 67
     1
  8
0
100
AcDbBlockBegin
  2
*Paper_Space
 70
     0
 10
0.0
 20
0.0
 30
0.0
  3
*Paper_Space
  1

  0
ENDBLK
  5
1D
330
1B
100
AcDbEntity
 67
     1
  8
0
100
AcDbBlockEnd
  0
BLOCK
  5
24
330
23
100
AcDbEntity
  8
0
100
AcDbBlockBegin
  2
*Paper_Space0
 70
     0
 10
0.0
 20
0.0
 30
0.0
  3
*Paper_Space0
  1

  0
ENDBLK
  5
25
330
23
100
AcDbEntity
  8
0
100
AcDbBlockEnd
  0
BLOCK
  5
8F
330
8D
100
AcDbEntity
  8
0
100
AcDbBlockBegin
  2
block 2
 70
     0
 10
0.0
 20
0.0
 30
0.0
  3
block 2
  1

  0
SPLINE
  5
91
330
8D
100
AcDbEntity
  8
_U+30EC_U+30A4_U+30E4_U+30FC 1
370
     0
100
AcDbSpline
210
0.0
220
0.0
230
1.0
 70
    11
 71
     3
 72
    26
 73
    22
 74
     0
 42
0.0000000001
 43
0.0000000001
 12
1.0
 22
0.0
 32
0.0
 13
1.0
 23
0.0
 33
0.0
 40
0.0
 40
0.0
 40
0.0
 40
0.0
 40
1.0
 40
1.0
 40
1.0
 40
2.0
 40
2.0
 40
2.0
 40
3.0
 40
3.0
 40
3.0
 40
4.0
 40
4.0
 40
4.0
 40
5.0
 40
5.0
 40
5.0
 40
6.0
 40
6.0
 40
6.0
 40
7.0
 40
7.0
 40
7.0
 40
7.0
 10
77.99765080515337
 20
-138.7133246180994
 30
0.0
 10
77.99765080515337
 20
-138.7133246180994
 30
0.0
 10
77.99765080515337
 20
-137.6091715150769
 30
0.0
 10
77.99765080515337
 20
-137.6091715150769
 30
0.0
 10
77.99765080515337
 20
-137.6091715150769
 30
0.0
 10
77.64487302746379
 20
-137.6091715150769
 30
0.0
 10
77.64487302746379
 20
-137.6091715150769
 30
0.0
 10
77.64487302746379
 20
-137.6091715150769
 30
0.0
 10
77.64487302746379
 20
-137.4610324092111
 30
0.0
 10
77.64487302746379
 20
-137.4610324092111
 30
0.0
 10
77.99989011721878
 20
-137.4462184986246
 30
0.0
 10
78.04967174698064
 20
-137.2832654821723
 30
0.0
 10
78.08119437067067
 20
-137.1688883120619
 30
0.0
 10
78.08119437067067
 20
-137.1688883120619
 30
0.0
 10
78.2372571961525
 20
-137.1688883120619
 30
0.0
 10
78.2372571961525
 20
-137.1688883120619
 30
0.0
 10
78.2372571961525
 20
-137.1688883120619
 30
0.0
 10
78.2372571961525
 20
-138.7133246180994
 30
0.0
 10
78.2372571961525
 20
-138.7133246180994
 30
0.0
 10
78.2372571961525
 20
-138.7133246180994
 30
0.0
 10
77.99765080515337
 20
-138.7133246180994
 30
0.0
 10
77.99765080515337
 20
-138.7133246180994
 30
0.0
  0
HATCH
  5
92
330
8D
100
AcDbEntity
  8
_U+30EC_U+30A4_U+30E4_U+30FC 1
 62
     7
420
 16777215
100
AcDbHatch
 10
0.0
 20
0.0
 30
0.0
210
0.0
220
0.0
230
1.0
  2
SOLID
 70
     1
 71
     0
 91
        1
 92
        1
 93
        1
 72
     4
 94
        3
 73
     0
 74
     1
 95
       26
 96
       22
 40
0.0
 40
0.0
 40
0.0
 40
0.0
 40
1.0
 40
1.0
 40
1.0
 40
2.0
 40
2.0
 40
2.0
 40
3.0
 40
3.0
 40
3.0
 40
4.0
 40
4.0
 40
4.0
 40
5.0
 40
5.0
 40
5.0
 40
6.0
 40
6.0
 40
6.0
 40
7.0
 40
7.0
 40
7.0
 40
7.0
 10
77.99765080515337
 20
-138.7133246180994
 10
77.99765080515337
 20
-138.7133246180994
 10
77.99765080515337
 20
-137.6091715150769
 10
77.99765080515337
 20
-137.6091715150769
 10
77.99765080515337
 20
-137.6091715150769
 10
77.64487302746379
 20
-137.6091715150769
 10
77.64487302746379
 20
-137.6091715150769
 10
77.64487302746379
 20
-137.6091715150769
 10
77.64487302746379
 20
-137.4610324092111
 10
77.64487302746379
 20
-137.4610324092111
 10
77.99989011721878
 20
-137.4462184986246
 10
78.04967174698064
 20
-137.2832654821723
 10
78.08119437067067
 20
-137.1688883120619
 10
78.08119437067067
 20
-137.1688883120619
 10
78.2372571961525
 20
-137.1688883120619
 10
78.2372571961525
 20
-137.1688883120619
 10
78.2372571961525
 20
-137.1688883120619
 10
78.2372571961525
 20
-138.7133246180994
 10
78.2372571961525
 20
-138.7133246180994
 10
78.2372571961525
 20
-138.7133246180994
 10
77.99765080515337
 20
-138.7133246180994
 10
77.99765080515337
 20
-138.7133246180994
 97
        0
 97
        0
 75
     2
 76
     1
 98
        0
  0
SPLINE
  5
93
330
8D
100
AcDbEntity
  8
_U+30EC_U+30A4_U+30E4_U+30FC 1
370
     0
100
AcDbSpline
210
0.0
220
0.0
230
1.0
 70
    11
 71
     3
 72
    44
 73
    40
 74
     0
 42
0.0000000001
 43
0.0000000001
 12
1.0
 22
0.0
 32
0.0
 13
1.0
 23
0.0
 33
0.0
 40
0.0
 40
0.0
 40
0.0
 40
0.0
 40
1.0
 40
1.0
 40
1.0
 40
2.0
 40
2.0
 40
2.0
 40
3.0
 40
3.0
 40
3.0
 40
4.0
 40
4.0
 40
4.0
 40
5.0
 40
5.0
 40
5.0
 40
6.0
 40
6.0
 40
6.0
 40
7.0
 40
7.0
 40
7.0
 40
8.0
 40
8.0
 40
8.0
 40
9.0
 40
9.0
 40
9.0
 40
10.0
 40
10.0
 40
10.0
 40
11.0
 40
11.0
 40
11.0
 40
12.0
 40
12.0
 40
12.0
 40
13.0
 40
13.0
 40
13.0
 40
13.0
 10
79.85679658376844
 20
-138.7133246180994
 30
0.0
 10
79.83199189627464
 20
-138.6688828863397
 30
0.0
 10
79.80925426607199
 20
-138.6161729254154
 30
0.0
 10
79.80701495400659
 20
-138.3853515279037
 30
0.0
 10
79.80253632987576
 20
-138.142127786645
 30
0.0
 10
79.73931882772142
 20
-138.0721923482945
 30
0.0
 10
79.5493218117099
 20
-138.0721923482945
 30
0.0
 10
79.5493218117099
 20
-138.0721923482945
 30
0.0
 10
79.113000468503
 20
-138.0721923482945
 30
0.0
 10
79.113000468503
 20
-138.0721923482945
 30
0.0
 10
79.113000468503
 20
-138.0721923482945
 30
0.0
 10
79.113000468503
 20
-138.7133246180994
 30
0.0
 10
79.113000468503
 20
-138.7133246180994
 30
0.0
 10
79.113000468503
 20
-138.7133246180994
 30
0.0
 10
78.86202526240255
 20
-138.7133246180994
 30
0.0
 10
78.86202526240255
 20
-138.7133246180994
 30
0.0
 10
78.86202526240255
 20
-138.7133246180994
 30
0.0
 10
78.86202526240255
 20
-137.1688883120619
 30
0.0
 10
78.86202526240255
 20
-137.1688883120619
 30
0.0
 10
78.86202526240255
 20
-137.1688883120619
 30
0.0
 10
79.58325600223961
 20
-137.1688883120619
 30
0.0
 10
79.58325600223961
 20
-137.1688883120619
 30
0.0
 10
79.91105683766114
 20
-137.1688883120619
 30
0.0
 10
80.08968503857133
 20
-137.3404540672274
 30
0.0
 10
80.08968503857133
 20
-137.5964246617815
 30
0.0
 10
80.08968503857133
 20
-137.6470675654146
 30
0.0
 10
80.08072779030968
 20
-137.7297498570606
 30
0.0
 10
80.03318547261324
 20
-137.810020581867
 30
0.0
 10
79.96979571568464
 20
-137.913717955973
 30
0.0
 10
79.89986027733407
 20
-137.9326659811418
 30
0.0
 10
79.83423120834006
 20
-137.9495469490196
 30
0.0
 10
79.98116453078596
 20
-137.9919216234881
 30
0.0
 10
80.05351153597621
 20
-138.0404974698302
 30
0.0
 10
80.05799016010704
 20
-138.3557237067305
 30
0.0
 10
80.06246878423786
 20
-138.6265082118712
 30
0.0
 10
80.10105385367265
 20
-138.6582030903355
 30
0.0
 10
80.1734008588629
 20
-138.7133246180994
 30
0.0
 10
80.1734008588629
 20
-138.7133246180994
 30
0.0
 10
79.85679658376844
 20
-138.7133246180994
 30
0.0
 10
79.85679658376844
 20
-138.7133246180994
 30
0.0
  0
SPLINE
  5
94
330
8D
100
AcDbEntity
  8
_U+30EC_U+30A4_U+30E4_U+30FC 1
370
     0
100
AcDbSpline
210
0.0
220
0.0
230
1.0
 70
    11
 71
     3
 72
    20
 73
    16
 74
     0
 42
0.0000000001
 43
0.0000000001
 12
1.0
 22
0.0
 32
0.0
 13
1.0
 23
0.0
 33
0.0
 40
0.0
 40
0.0
 40
0.0
 40
0.0
 40
1.0
 40
1.0
 40
1.0
 40
2.0
 40
2.0
 40
2.0
 40
3.0
 40
3.0
 40
3.0
 40
4.0
 40
4.0
 40
4.0
 40
5.0
 40
5.0
 40
5.0
 40
5.0
 10
79.58773462637043
 20
-137.3804171748563
 30
0.0
 10
79.58773462637043
 20
-137.3804171748563
 30
0.0
 10
79.113000468503
 20
-137.3804171748563
 30
0.0
 10
79.113000468503
 20
-137.3804171748563
 30
0.0
 10
79.113000468503
 20
-137.3804171748563
 30
0.0
 10
79.113000468503
 20
-137.8606634855001
 30
0.0
 10
79.113000468503
 20
-137.8606634855001
 30
0.0
 10
79.113000468503
 20
-137.8606634855001
 30
0.0
 10
79.58549531430502
 20
-137.8606634855001
 30
0.0
 10
79.58549531430502
 20
-137.8606634855001
 30
0.0
 10
79.69177651002498
 20
-137.8606634855001
 30
0.0
 10
79.83647052040547
 20
-137.7845268752761
 30
0.0
 10
79.83647052040547
 20
-137.6133056296592
 30
0.0
 10
79.83647052040547
 20
-137.535101962144
 30
0.0
 10
79.80029701781035
 20
-137.3804171748563
 30
0.0
 10
79.58773462637043
 20
-137.3804171748563
 30
0.0
  0
HATCH
  5
95
330
8D
100
AcDbEntity
  8
_U+30EC_U+30A4_U+30E4_U+30FC 1
 62
     7
420
 16777215
100
AcDbHatch
 10
0.0
 20
0.0
 30
0.0
210
0.0
220
0.0
230
1.0
  2
SOLID
 70
     1
 71
     0
 91
        2
 92
        1
 93
        1
 72
     4
 94
        3
 73
     0
 74
     1
 95
       44
 96
       40
 40
0.0
 40
0.0
 40
0.0
 40
0.0
 40
1.0
 40
1.0
 40
1.0
 40
2.0
 40
2.0
 40
2.0
 40
3.0
 40
3.0
 40
3.0
 40
4.0
 40
4.0
 40
4.0
 40
5.0
 40
5.0
 40
5.0
 40
6.0
 40
6.0
 40
6.0
 40
7.0
 40
7.0
 40
7.0
 40
8.0
 40
8.0
 40
8.0
 40
9.0
 40
9.0
 40
9.0
 40
10.0
 40
10.0
 40
10.0
 40
11.0
 40
11.0
 40
11.0
 40
12.0
 40
12.0
 40
12.0
 40
13.0
 40
13.0
 40
13.0
 40
13.0
 10
79.85679658376844
 20
-138.7133246180994
 10
79.83199189627464
 20
-138.6688828863397
 10
79.80925426607199
 20
-138.6161729254154
 10
79.80701495400659
 20
-138.3853515279037
 10
79.80253632987576
 20
-138.142127786645
 10
79.73931882772142
 20
-138.0721923482945
 10
79.5493218117099
 20
-138.0721923482945
 10
79.5493218117099
 20
-138.0721923482945
 10
79.113000468503
 20
-138.0721923482945
 10
79.113000468503
 20
-138.0721923482945
 10
79.113000468503
 20
-138.0721923482945
 10
79.113000468503
 20
-138.7133246180994
 10
79.113000468503
 20
-138.7133246180994
 10
79.113000468503
 20
-138.7133246180994
 10
78.86202526240255
 20
-138.7133246180994
 10
78.86202526240255
 20
-138.7133246180994
 10
78.86202526240255
 20
-138.7133246180994
 10
78.86202526240255
 20
-137.1688883120619
 10
78.86202526240255
 20
-137.1688883120619
 10
78.86202526240255
 20
-137.1688883120619
 10
79.58325600223961
 20
-137.1688883120619
 10
79.58325600223961
 20
-137.1688883120619
 10
79.91105683766114
 20
-137.1688883120619
 10
80.08968503857133
 20
-137.3404540672274
 10
80.08968503857133
 20
-137.5964246617815
 10
80.08968503857133
 20
-137.6470675654146
 10
80.08072779030968
 20
-137.7297498570606
 10
80.03318547261324
 20
-137.810020581867
 10
79.96979571568464
 20
-137.913717955973
 10
79.89986027733407
 20
-137.9326659811418
 10
79.83423120834006
 20
-137.9495469490196
 10
79.98116453078596
 20
-137.9919216234881
 10
80.05351153597621
 20
-138.0404974698302
 10
80.05799016010704
 20
-138.3557237067305
 10
80.06246878423786
 20
-138.6265082118712
 10
80.10105385367265
 20
-138.6582030903355
 10
80.1734008588629
 20
-138.7133246180994
 10
80.1734008588629
 20
-138.7133246180994
 10
79.85679658376844
 20
-138.7133246180994
 10
79.85679658376844
 20
-138.7133246180994
 97
        0
 97
        0
 92
        1
 93
        1
 72
     4
 94
        3
 73
     0
 74
     1
 95
       20
 96
       16
 40
0.0
 40
0.0
 40
0.0
 40
0.0
 40
1.0
 40
1.0
 40
1.0
 40
2.0
 40
2.0
 40
2.0
 40
3.0
 40
3.0
 40
3.0
 40
4.0
 40
4.0
 40
4.0
 40
5.0
 40
5.0
 40
5.0
 40
5.0
 10
79.58773462637043
 20
-137.3804171748563
 10
79.58773462637043
 20
-137.3804171748563
 10
79.113000468503
 20
-137.3804171748563
 10
79.113000468503
 20
-137.3804171748563
 10
79.113000468503
 20
-137.3804171748563
 10
79.113000468503
 20
-137.8606634855001
 10
79.113000468503
 20
-137.8606634855001
 10
79.113000468503
 20
-137.8606634855001
 10
79.58549531430502
 20
-137.8606634855001
 10
79.58549531430502
 20
-137.8606634855001
 10
79.69177651002498
 20
-137.8606634855001
 10
79.83647052040547
 20
-137.7845268752761
 10
79.83647052040547
 20
-137.6133056296592
 10
79.83647052040547
 20
-137.535101962144
 10
79.80029701781035
 20
-137.3804171748563
 10
79.58773462637043
 20
-137.3804171748563
 97
        0
 97
        0
 75
     2
 76
     1
 98
        0
  0
ENDBLK
  5
90
330
8D
100
AcDbEntity
  8
0
100
AcDbBlockEnd
  0
BLOCK
  5
A4
330
A2
100
AcDbEntity
  8
0
100
AcDbBlockBegin
  2
block 3
 70
     0
 10
0.0
 20
0.0
 30
0.0
  3
block 3
  1

  0
SPLINE
  5
A6
330
A2
100
AcDbEntity
  8
_U+30EC_U+30A4_U+30E4_U+30FC 1
370
     0
100
AcDbSpline
210
0.0
220
0.0
230
1.0
 70
    11
 71
     3
 72
    26
 73
    22
 74
     0
 42
0.0000000001
 43
0.0000000001
 12
1.0
 22
0.0
 32
0.0
 13
1.0
 23
0.0
 33
0.0
 40
0.0
 40
0.0
 40
0.0
 40
0.0
 40
1.0
 40
1.0
 40
1.0
 40
2.0
 40
2.0
 40
2.0
 40
3.0
 40
3.0
 40
3.0
 40
4.0
 40
4.0
 40
4.0
 40
5.0
 40
5.0
 40
5.0
 40
6.0
 40
6.0
 40
6.0
 40
7.0
 40
7.0
 40
7.0
 40
7.0
 10
94.81488441640045
 20
-118.2635823272049
 30
0.0
 10
94.81488441640045
 20
-118.2635823272049
 30
0.0
 10
94.81488441640045
 20
-117.1592569694081
 30
0.0
 10
94.81488441640045
 20
-117.1592569694081
 30
0.0
 10
94.81488441640045
 20
-117.1592569694081
 30
0.0
 10
94.46245114825939
 20
-117.1592569694081
 30
0.0
 10
94.46245114825939
 20
-117.1592569694081
 30
0.0
 10
94.46245114825939
 20
-117.1592569694081
 30
0.0
 10
94.46245114825939
 20
-117.0112901183166
 30
0.0
 10
94.46245114825939
 20
-117.0112901183166
 30
0.0
 10
94.81729598324013
 20
-116.9964762077301
 30
0.0
 10
94.86690535822773
 20
-116.8335231912777
 30
0.0
 10
94.89860023669202
 20
-116.7193182759417
 30
0.0
 10
94.89860023669202
 20
-116.7193182759417
 30
0.0
 10
95.05466306217384
 20
-116.7193182759417
 30
0.0
 10
95.05466306217384
 20
-116.7193182759417
 30
0.0
 10
95.05466306217384
 20
-116.7193182759417
 30
0.0
 10
95.05466306217384
 20
-118.2635823272049
 30
0.0
 10
95.05466306217384
 20
-118.2635823272049
 30
0.0
 10
95.05466306217384
 20
-118.2635823272049
 30
0.0
 10
94.81488441640045
 20
-118.2635823272049
 30
0.0
 10
94.81488441640045
 20
-118.2635823272049
 30
0.0
  0
HATCH
  5
A7
330
A2
100
AcDbEntity
  8
_U+30EC_U+30A4_U+30E4_U+30FC 1
 62
     7
420
 16777215
100
AcDbHatch
 10
0.0
 20
0.0
 30
0.0
210
0.0
220
0.0
230
1.0
  2
SOLID
 70
     1
 71
     0
 91
        1
 92
        1
 93
        1
 72
     4
 94
        3
 73
     0
 74
     1
 95
       26
 96
       22
 40
0.0
 40
0.0
 40
0.0
 40
0.0
 40
1.0
 40
1.0
 40
1.0
 40
2.0
 40
2.0
 40
2.0
 40
3.0
 40
3.0
 40
3.0
 40
4.0
 40
4.0
 40
4.0
 40
5.0
 40
5.0
 40
5.0
 40
6.0
 40
6.0
 40
6.0
 40
7.0
 40
7.0
 40
7.0
 40
7.0
 10
94.81488441640045
 20
-118.2635823272049
 10
94.81488441640045
 20
-118.2635823272049
 10
94.81488441640045
 20
-117.1592569694081
 10
94.81488441640045
 20
-117.1592569694081
 10
94.81488441640045
 20
-117.1592569694081
 10
94.46245114825939
 20
-117.1592569694081
 10
94.46245114825939
 20
-117.1592569694081
 10
94.46245114825939
 20
-117.1592569694081
 10
94.46245114825939
 20
-117.0112901183166
 10
94.46245114825939
 20
-117.0112901183166
 10
94.81729598324013
 20
-116.9964762077301
 10
94.86690535822773
 20
-116.8335231912777
 10
94.89860023669202
 20
-116.7193182759417
 10
94.89860023669202
 20
-116.7193182759417
 10
95.05466306217384
 20
-116.7193182759417
 10
95.05466306217384
 20
-116.7193182759417
 10
95.05466306217384
 20
-116.7193182759417
 10
95.05466306217384
 20
-118.2635823272049
 10
95.05466306217384
 20
-118.2635823272049
 10
95.05466306217384
 20
-118.2635823272049
 10
94.81488441640045
 20
-118.2635823272049
 10
94.81488441640045
 20
-118.2635823272049
 97
        0
 97
        0
 75
     2
 76
     1
 98
        0
  0
SPLINE
  5
A8
330
A2
100
AcDbEntity
  8
_U+30EC_U+30A4_U+30E4_U+30FC 1
370
     0
100
AcDbSpline
210
0.0
220
0.0
230
1.0
 70
    11
 71
     3
 72
    29
 73
    25
 74
     0
 42
0.0000000001
 43
0.0000000001
 12
1.0
 22
0.0
 32
0.0
 13
1.0
 23
0.0
 33
0.0
 40
0.0
 40
0.0
 40
0.0
 40
0.0
 40
1.0
 40
1.0
 40
1.0
 40
2.0
 40
2.0
 40
2.0
 40
3.0
 40
3.0
 40
3.0
 40
4.0
 40
4.0
 40
4.0
 40
5.0
 40
5.0
 40
5.0
 40
6.0
 40
6.0
 40
6.0
 40
7.0
 40
7.0
 40
7.0
 40
8.0
 40
8.0
 40
8.0
 40
8.0
 10
96.12470971989244
 20
-118.3142252308381
 30
0.0
 10
95.83980032326228
 20
-118.3142252308381
 30
0.0
 10
95.56867130857312
 20
-118.1767659209766
 30
0.0
 10
95.56867130857312
 20
-117.8277777483208
 30
0.0
 10
95.56867130857312
 20
-117.5718071537668
 30
0.0
 10
95.7202555099241
 20
-117.4765502635996
 30
0.0
 10
95.8332546418403
 20
-117.4152275639622
 30
0.0
 10
95.69992944656113
 20
-117.3559719216159
 30
0.0
 10
95.61828068356071
 20
-117.2417670062798
 30
0.0
 10
95.61828068356071
 20
-117.0810533018929
 30
0.0
 10
95.61828068356071
 20
-116.8059624273957
 30
0.0
 10
95.83084307500063
 20
-116.6705701748254
 30
0.0
 10
96.12470971989244
 20
-116.6705701748254
 30
0.0
 10
96.42787812259442
 20
-116.6705701748254
 30
0.0
 10
96.63113875622416
 20
-116.8144029113346
 30
0.0
 10
96.63113875622416
 20
-117.0810533018929
 30
0.0
 10
96.63113875622416
 20
-117.2417670062798
 30
0.0
 10
96.54776744548111
 20
-117.3559719216159
 30
0.0
 10
96.41409774065342
 20
-117.4152275639622
 30
0.0
 10
96.50918237604633
 20
-117.4660427223696
 30
0.0
 10
96.67868107392061
 20
-117.5612996125368
 30
0.0
 10
96.67868107392061
 20
-117.8236436337385
 30
0.0
 10
96.67868107392061
 20
-118.1981255129852
 30
0.0
 10
96.38033580489798
 20
-118.3142252308381
 30
0.0
 10
96.12470971989244
 20
-118.3142252308381
 30
0.0
  0
SPLINE
  5
A9
330
A2
100
AcDbEntity
  8
_U+30EC_U+30A4_U+30E4_U+30FC 1
370
     0
100
AcDbSpline
210
0.0
220
0.0
230
1.0
 70
    11
 71
     3
 72
    17
 73
    13
 74
     0
 42
0.0000000001
 43
0.0000000001
 12
1.0
 22
0.0
 32
0.0
 13
1.0
 23
0.0
 33
0.0
 40
0.0
 40
0.0
 40
0.0
 40
0.0
 40
1.0
 40
1.0
 40
1.0
 40
2.0
 40
2.0
 40
2.0
 40
3.0
 40
3.0
 40
3.0
 40
4.0
 40
4.0
 40
4.0
 40
4.0
 10
96.12470971989244
 20
-117.5232313074248
 30
0.0
 10
95.9710584612503
 20
-117.5232313074248
 30
0.0
 10
95.8084499543465
 20
-117.6098754588788
 30
0.0
 10
95.8084499543465
 20
-117.8129638377343
 30
0.0
 10
95.8084499543465
 20
-118.0182915286552
 30
0.0
 10
95.94384220691683
 20
-118.1195773359215
 30
0.0
 10
96.12470971989244
 20
-118.1195773359215
 30
0.0
 10
96.32383623893988
 20
-118.1195773359215
 30
0.0
 10
96.4413139949869
 20
-117.9969319366466
 30
0.0
 10
96.4413139949869
 20
-117.819337264382
 30
0.0
 10
96.4413139949869
 20
-117.5971286055834
 30
0.0
 10
96.26733667298178
 20
-117.5232313074248
 30
0.0
 10
96.12470971989244
 20
-117.5232313074248
 30
0.0
  0
SPLINE
  5
AA
330
A2
100
AcDbEntity
  8
_U+30EC_U+30A4_U+30E4_U+30FC 1
370
     0
100
AcDbSpline
210
0.0
220
0.0
230
1.0
 70
    11
 71
     3
 72
    17
 73
    13
 74
     0
 42
0.0000000001
 43
0.0000000001
 12
1.0
 22
0.0
 32
0.0
 13
1.0
 23
0.0
 33
0.0
 40
0.0
 40
0.0
 40
0.0
 40
0.0
 40
1.0
 40
1.0
 40
1.0
 40
2.0
 40
2.0
 40
2.0
 40
3.0
 40
3.0
 40
3.0
 40
4.0
 40
4.0
 40
4.0
 40
4.0
 10
96.12470971989244
 20
-116.8631510124509
 30
0.0
 10
95.94866534059616
 20
-116.8631510124509
 30
0.0
 10
95.8580593293341
 20
-116.9582356478438
 30
0.0
 10
95.8580593293341
 20
-117.0936279004141
 30
0.0
 10
95.8580593293341
 20
-117.2164455544632
 30
0.0
 10
95.93488495865518
 20
-117.3349568391559
 30
0.0
 10
96.12470971989244
 20
-117.3349568391559
 30
0.0
 10
96.31487899067822
 20
-117.3349568391559
 30
0.0
 10
96.3917046199993
 20
-117.2164455544632
 30
0.0
 10
96.3917046199993
 20
-117.0936279004141
 30
0.0
 10
96.3917046199993
 20
-116.9582356478438
 30
0.0
 10
96.29903155144608
 20
-116.8631510124509
 30
0.0
 10
96.12470971989244
 20
-116.8631510124509
 30
0.0
  0
HATCH
  5
AB
330
A2
100
AcDbEntity
  8
_U+30EC_U+30A4_U+30E4_U+30FC 1
 62
     7
420
 16777215
100
AcDbHatch
 10
0.0
 20
0.0
 30
0.0
210
0.0
220
0.0
230
1.0
  2
SOLID
 70
     1
 71
     0
 91
        3
 92
        1
 93
        1
 72
     4
 94
        3
 73
     0
 74
     1
 95
       29
 96
       25
 40
0.0
 40
0.0
 40
0.0
 40
0.0
 40
1.0
 40
1.0
 40
1.0
 40
2.0
 40
2.0
 40
2.0
 40
3.0
 40
3.0
 40
3.0
 40
4.0
 40
4.0
 40
4.0
 40
5.0
 40
5.0
 40
5.0
 40
6.0
 40
6.0
 40
6.0
 40
7.0
 40
7.0
 40
7.0
 40
8.0
 40
8.0
 40
8.0
 40
8.0
 10
96.12470971989244
 20
-118.3142252308381
 10
95.83980032326228
 20
-118.3142252308381
 10
95.56867130857312
 20
-118.1767659209766
 10
95.56867130857312
 20
-117.8277777483208
 10
95.56867130857312
 20
-117.5718071537668
 10
95.7202555099241
 20
-117.4765502635996
 10
95.8332546418403
 20
-117.4152275639622
 10
95.69992944656113
 20
-117.3559719216159
 10
95.61828068356071
 20
-117.2417670062798
 10
95.61828068356071
 20
-117.0810533018929
 10
95.61828068356071
 20
-116.8059624273957
 10
95.83084307500063
 20
-116.6705701748254
 10
96.12470971989244
 20
-116.6705701748254
 10
96.42787812259442
 20
-116.6705701748254
 10
96.63113875622416
 20
-116.8144029113346
 10
96.63113875622416
 20
-117.0810533018929
 10
96.63113875622416
 20
-117.2417670062798
 10
96.54776744548111
 20
-117.3559719216159
 10
96.41409774065342
 20
-117.4152275639622
 10
96.50918237604633
 20
-117.4660427223696
 10
96.67868107392061
 20
-117.5612996125368
 10
96.67868107392061
 20
-117.8236436337385
 10
96.67868107392061
 20
-118.1981255129852
 10
96.38033580489798
 20
-118.3142252308381
 10
96.12470971989244
 20
-118.3142252308381
 97
        0
 97
        0
 92
        1
 93
        1
 72
     4
 94
        3
 73
     0
 74
     1
 95
       17
 96
       13
 40
0.0
 40
0.0
 40
0.0
 40
0.0
 40
1.0
 40
1.0
 40
1.0
 40
2.0
 40
2.0
 40
2.0
 40
3.0
 40
3.0
 40
3.0
 40
4.0
 40
4.0
 40
4.0
 40
4.0
 10
96.12470971989244
 20
-117.5232313074248
 10
95.9710584612503
 20
-117.5232313074248
 10
95.8084499543465
 20
-117.6098754588788
 10
95.8084499543465
 20
-117.8129638377343
 10
95.8084499543465
 20
-118.0182915286552
 10
95.94384220691683
 20
-118.1195773359215
 10
96.12470971989244
 20
-118.1195773359215
 10
96.32383623893988
 20
-118.1195773359215
 10
96.4413139949869
 20
-117.9969319366466
 10
96.4413139949869
 20
-117.819337264382
 10
96.4413139949869
 20
-117.5971286055834
 10
96.26733667298178
 20
-117.5232313074248
 10
96.12470971989244
 20
-117.5232313074248
 97
        0
 97
        0
 92
        1
 93
        1
 72
     4
 94
        3
 73
     0
 74
     1
 95
       17
 96
       13
 40
0.0
 40
0.0
 40
0.0
 40
0.0
 40
1.0
 40
1.0
 40
1.0
 40
2.0
 40
2.0
 40
2.0
 40
3.0
 40
3.0
 40
3.0
 40
4.0
 40
4.0
 40
4.0
 40
4.0
 10
96.12470971989244
 20
-116.8631510124509
 10
95.94866534059616
 20
-116.8631510124509
 10
95.8580593293341
 20
-116.9582356478438
 10
95.8580593293341
 20
-117.0936279004141
 10
95.8580593293341
 20
-117.2164455544632
 10
95.93488495865518
 20
-117.3349568391559
 10
96.12470971989244
 20
-117.3349568391559
 10
96.31487899067822
 20
-117.3349568391559
 10
96.3917046199993
 20
-117.2164455544632
 10
96.3917046199993
 20
-117.0936279004141
 10
96.3917046199993
 20
-116.9582356478438
 10
96.29903155144608
 20
-116.8631510124509
 10
96.12470971989244
 20
-116.8631510124509
 97
        0
 97
        0
 75
     2
 76
     1
 98
        0
  0
ENDBLK
  5
A5
330
A2
100
AcDbEntity
  8
0
100
AcDbBlockEnd
  0
BLOCK
  5
B6
330
B4
100
AcDbEntity
  8
0
100
AcDbBlockBegin
  2
block 4
 70
     0
 10
0.0
 20
0.0
 30
0.0
  3
block 4
  1

  0
SPLINE
  5
B8
330
B4
100
AcDbEntity
  8
_U+30EC_U+30A4_U+30E4_U+30FC 1
370
     0
100
AcDbSpline
210
0.0
220
0.0
230
1.0
 70
    11
 71
     3
 72
    26
 73
    22
 74
     0
 42
0.0000000001
 43
0.0000000001
 12
1.0
 22
0.0
 32
0.0
 13
1.0
 23
0.0
 33
0.0
 40
0.0
 40
0.0
 40
0.0
 40
0.0
 40
1.0
 40
1.0
 40
1.0
 40
2.0
 40
2.0
 40
2.0
 40
3.0
 40
3.0
 40
3.0
 40
4.0
 40
4.0
 40
4.0
 40
5.0
 40
5.0
 40
5.0
 40
6.0
 40
6.0
 40
6.0
 40
7.0
 40
7.0
 40
7.0
 40
7.0
 10
87.71764320723726
 20
-125.7637274533681
 30
0.0
 10
87.71764320723726
 20
-125.7637274533681
 30
0.0
 10
87.71764320723726
 20
-124.6594020955713
 30
0.0
 10
87.71764320723726
 20
-124.6594020955713
 30
0.0
 10
87.71764320723726
 20
-124.6594020955713
 30
0.0
 10
87.36486542954768
 20
-124.6594020955713
 30
0.0
 10
87.36486542954768
 20
-124.6594020955713
 30
0.0
 10
87.36486542954768
 20
-124.6594020955713
 30
0.0
 10
87.36486542954768
 20
-124.5112629897055
 30
0.0
 10
87.36486542954768
 20
-124.5112629897055
 30
0.0
 10
87.71988251930267
 20
-124.4966213338932
 30
0.0
 10
87.76966414906454
 20
-124.3336683174409
 30
0.0
 10
87.80135902752883
 20
-124.2194634021049
 30
0.0
 10
87.80135902752883
 20
-124.2194634021049
 30
0.0
 10
87.95724959823639
 20
-124.2194634021049
 30
0.0
 10
87.95724959823639
 20
-124.2194634021049
 30
0.0
 10
87.95724959823639
 20
-124.2194634021049
 30
0.0
 10
87.95724959823639
 20
-125.7637274533681
 30
0.0
 10
87.95724959823639
 20
-125.7637274533681
 30
0.0
 10
87.95724959823639
 20
-125.7637274533681
 30
0.0
 10
87.71764320723726
 20
-125.7637274533681
 30
0.0
 10
87.71764320723726
 20
-125.7637274533681
 30
0.0
  0
HATCH
  5
B9
330
B4
100
AcDbEntity
  8
_U+30EC_U+30A4_U+30E4_U+30FC 1
 62
     7
420
 16777215
100
AcDbHatch
 10
0.0
 20
0.0
 30
0.0
210
0.0
220
0.0
230
1.0
  2
SOLID
 70
     1
 71
     0
 91
        1
 92
        1
 93
        1
 72
     4
 94
        3
 73
     0
 74
     1
 95
       26
 96
       22
 40
0.0
 40
0.0
 40
0.0
 40
0.0
 40
1.0
 40
1.0
 40
1.0
 40
2.0
 40
2.0
 40
2.0
 40
3.0
 40
3.0
 40
3.0
 40
4.0
 40
4.0
 40
4.0
 40
5.0
 40
5.0
 40
5.0
 40
6.0
 40
6.0
 40
6.0
 40
7.0
 40
7.0
 40
7.0
 40
7.0
 10
87.71764320723726
 20
-125.7637274533681
 10
87.71764320723726
 20
-125.7637274533681
 10
87.71764320723726
 20
-124.6594020955713
 10
87.71764320723726
 20
-124.6594020955713
 10
87.71764320723726
 20
-124.6594020955713
 10
87.36486542954768
 20
-124.6594020955713
 10
87.36486542954768
 20
-124.6594020955713
 10
87.36486542954768
 20
-124.6594020955713
 10
87.36486542954768
 20
-124.5112629897055
 10
87.36486542954768
 20
-124.5112629897055
 10
87.71988251930267
 20
-124.4966213338932
 10
87.76966414906454
 20
-124.3336683174409
 10
87.80135902752883
 20
-124.2194634021049
 10
87.80135902752883
 20
-124.2194634021049
 10
87.95724959823639
 20
-124.2194634021049
 10
87.95724959823639
 20
-124.2194634021049
 10
87.95724959823639
 20
-124.2194634021049
 10
87.95724959823639
 20
-125.7637274533681
 10
87.95724959823639
 20
-125.7637274533681
 10
87.95724959823639
 20
-125.7637274533681
 10
87.71764320723726
 20
-125.7637274533681
 10
87.71764320723726
 20
-125.7637274533681
 97
        0
 97
        0
 75
     2
 76
     1
 98
        0
  0
ENDBLK
  5
B7
330
B4
100
AcDbEntity
  8
0
100
AcDbBlockEnd
  0
BLOCK
  5
C8
330
C6
100
AcDbEntity
  8
0
100
AcDbBlockBegin
  2
block 5
 70
     0
 10
0.0
 20
0.0
 30
0.0
  3
block 5
  1

  0
SPLINE
  5
CA
330
C6
100
AcDbEntity
  8
_U+30EC_U+30A4_U+30E4_U+30FC 1
370
     0
100
AcDbSpline
210
0.0
220
0.0
230
1.0
 70
    11
 71
     3
 72
    26
 73
    22
 74
     0
 42
0.0000000001
 43
0.0000000001
 12
1.0
 22
0.0
 32
0.0
 13
1.0
 23
0.0
 33
0.0
 40
0.0
 40
0.0
 40
0.0
 40
0.0
 40
1.0
 40
1.0
 40
1.0
 40
2.0
 40
2.0
 40
2.0
 40
3.0
 40
3.0
 40
3.0
 40
4.0
 40
4.0
 40
4.0
 40
5.0
 40
5.0
 40
5.0
 40
6.0
 40
6.0
 40
6.0
 40
7.0
 40
7.0
 40
7.0
 40
7.0
 10
91.3143228938381
 20
-139.2635063670938
 30
0.0
 10
91.3143228938381
 20
-139.2635063670938
 30
0.0
 10
91.3143228938381
 20
-138.1593532640713
 30
0.0
 10
91.3143228938381
 20
-138.1593532640713
 30
0.0
 10
91.3143228938381
 20
-138.1593532640713
 30
0.0
 10
90.96188962569703
 20
-138.1593532640713
 30
0.0
 10
90.96188962569703
 20
-138.1593532640713
 30
0.0
 10
90.96188962569703
 20
-138.1593532640713
 30
0.0
 10
90.96188962569703
 20
-138.0112141582055
 30
0.0
 10
90.96188962569703
 20
-138.0112141582055
 30
0.0
 10
91.31673446067776
 20
-137.996400247619
 30
0.0
 10
91.36634383566536
 20
-137.8334472311666
 30
0.0
 10
91.39803871412965
 20
-137.7190700610564
 30
0.0
 10
91.39803871412965
 20
-137.7190700610564
 30
0.0
 10
91.55410153961148
 20
-137.7190700610564
 30
0.0
 10
91.55410153961148
 20
-137.7190700610564
 30
0.0
 10
91.55410153961148
 20
-137.7190700610564
 30
0.0
 10
91.55410153961148
 20
-139.2635063670938
 30
0.0
 10
91.55410153961148
 20
-139.2635063670938
 30
0.0
 10
91.55410153961148
 20
-139.2635063670938
 30
0.0
 10
91.3143228938381
 20
-139.2635063670938
 30
0.0
 10
91.3143228938381
 20
-139.2635063670938
 30
0.0
  0
HATCH
  5
CB
330
C6
100
AcDbEntity
  8
_U+30EC_U+30A4_U+30E4_U+30FC 1
 62
     7
420
 16777215
100
AcDbHatch
 10
0.0
 20
0.0
 30
0.0
210
0.0
220
0.0
230
1.0
  2
SOLID
 70
     1
 71
     0
 91
        1
 92
        1
 93
        1
 72
     4
 94
        3
 73
     0
 74
     1
 95
       26
 96
       22
 40
0.0
 40
0.0
 40
0.0
 40
0.0
 40
1.0
 40
1.0
 40
1.0
 40
2.0
 40
2.0
 40
2.0
 40
3.0
 40
3.0
 40
3.0
 40
4.0
 40
4.0
 40
4.0
 40
5.0
 40
5.0
 40
5.0
 40
6.0
 40
6.0
 40
6.0
 40
7.0
 40
7.0
 40
7.0
 40
7.0
 10
91.3143228938381
 20
-139.2635063670938
 10
91.3143228938381
 20
-139.2635063670938
 10
91.3143228938381
 20
-138.1593532640713
 10
91.3143228938381
 20
-138.1593532640713
 10
91.3143228938381
 20
-138.1593532640713
 10
90.96188962569703
 20
-138.1593532640713
 10
90.96188962569703
 20
-138.1593532640713
 10
90.96188962569703
 20
-138.1593532640713
 10
90.96188962569703
 20
-138.0112141582055
 10
90.96188962569703
 20
-138.0112141582055
 10
91.31673446067776
 20
-137.996400247619
 10
91.36634383566536
 20
-137.8334472311666
 10
91.39803871412965
 20
-137.7190700610564
 10
91.39803871412965
 20
-137.7190700610564
 10
91.55410153961148
 20
-137.7190700610564
 10
91.55410153961148
 20
-137.7190700610564
 10
91.55410153961148
 20
-137.7190700610564
 10
91.55410153961148
 20
-139.2635063670938
 10
91.55410153961148
 20
-139.2635063670938
 10
91.55410153961148
 20
-139.2635063670938
 10
91.3143228938381
 20
-139.2635063670938
 10
91.3143228938381
 20
-139.2635063670938
 97
        0
 97
        0
 75
     2
 76
     1
 98
        0
  0
SPLINE
  5
CC
330
C6
100
AcDbEntity
  8
_U+30EC_U+30A4_U+30E4_U+30FC 1
370
     0
100
AcDbSpline
210
0.0
220
0.0
230
1.0
 70
    11
 71
     3
 72
    62
 73
    58
 74
     0
 42
0.0000000001
 43
0.0000000001
 12
1.0
 22
0.0
 32
0.0
 13
1.0
 23
0.0
 33
0.0
 40
0.0
 40
0.0
 40
0.0
 40
0.0
 40
1.0
 40
1.0
 40
1.0
 40
2.0
 40
2.0
 40
2.0
 40
3.0
 40
3.0
 40
3.0
 40
4.0
 40
4.0
 40
4.0
 40
5.0
 40
5.0
 40
5.0
 40
6.0
 40
6.0
 40
6.0
 40
7.0
 40
7.0
 40
7.0
 40
8.0
 40
8.0
 40
8.0
 40
9.0
 40
9.0
 40
9.0
 40
10.0
 40
10.0
 40
10.0
 40
11.0
 40
11.0
 40
11.0
 40
12.0
 40
12.0
 40
12.0
 40
13.0
 40
13.0
 40
13.0
 40
14.0
 40
14.0
 40
14.0
 40
15.0
 40
15.0
 40
15.0
 40
16.0
 40
16.0
 40
16.0
 40
17.0
 40
17.0
 40
17.0
 40
18.0
 40
18.0
 40
18.0
 40
19.0
 40
19.0
 40
19.0
 40
19.0
 10
92.61519094906843
 20
-139.314149270727
 30
0.0
 10
92.51356063225356
 20
-139.314149270727
 30
0.0
 10
92.28067217745067
 20
-139.293134188267
 30
0.0
 10
92.1473469821715
 20
-139.1070990320635
 30
0.0
 10
92.06810978601075
 20
-138.9947889192444
 30
0.0
 10
92.06363116187993
 20
-138.8955701692692
 30
0.0
 10
92.0591525377491
 20
-138.810820820332
 30
0.0
 10
92.0591525377491
 20
-138.810820820332
 30
0.0
 10
92.29410804984315
 20
-138.810820820332
 30
0.0
 10
92.29410804984315
 20
-138.810820820332
 30
0.0
 10
92.29651961668282
 20
-138.8848903732649
 30
0.0
 10
92.30788843178415
 20
-139.1195013758104
 30
0.0
 10
92.61071232493761
 20
-139.1195013758104
 30
0.0
 10
92.75781790215777
 20
-139.1195013758104
 30
0.0
 10
92.92042640906156
 20
-139.0499104470084
 30
0.0
 10
92.92042640906156
 20
-138.8215006163363
 30
0.0
 10
92.92042640906156
 20
-138.7050563889348
 30
0.0
 10
92.87977428233562
 20
-138.6564805425928
 30
0.0
 10
92.84601234658017
 20
-138.6247856641285
 30
0.0
 10
92.76677515041942
 20
-138.5507161111957
 30
0.0
 10
92.6424072034019
 20
-138.5379692579002
 30
0.0
 10
92.58349607060413
 20
-138.5379692579002
 30
0.0
 10
92.56317000724115
 20
-138.5379692579002
 30
0.0
 10
92.52492944735488
 20
-138.5400363151914
 30
0.0
 10
92.49530162618173
 20
-138.5441704297737
 30
0.0
 10
92.49530162618173
 20
-138.5441704297737
 30
0.0
 10
92.49530162618173
 20
-138.3495225348571
 30
0.0
 10
92.49530162618173
 20
-138.3495225348571
 30
0.0
 10
92.53595375290769
 20
-138.3560682162791
 30
0.0
 10
92.58142901331298
 20
-138.3581352735702
 30
0.0
 10
92.58797469473495
 20
-138.3581352735702
 30
0.0
 10
92.65825464263405
 20
-138.3581352735702
 30
0.0
 10
92.87081703407397
 20
-138.3367756815616
 30
0.0
 10
92.87081703407397
 20
-138.100097621725
 30
0.0
 10
92.87081703407397
 20
-137.9223306946861
 30
0.0
 10
92.7306016478243
 20
-137.8672091669221
 30
0.0
 10
92.61312389177728
 20
-137.8672091669221
 30
0.0
 10
92.33028155243827
 20
-137.8672091669221
 30
0.0
 10
92.32132430417661
 20
-138.100097621725
 30
0.0
 10
92.31684568004579
 20
-138.1717556078182
 30
0.0
 10
92.31684568004579
 20
-138.1717556078182
 30
0.0
 10
92.09980466447506
 20
-138.1717556078182
 30
0.0
 10
92.09980466447506
 20
-138.1717556078182
 30
0.0
 10
92.1087619127367
 20
-138.0470431512521
 30
0.0
 10
92.13804522436132
 20
-137.6704942147143
 30
0.0
 10
92.62655976416976
 20
-137.6704942147143
 30
0.0
 10
92.86633840994314
 20
-137.6704942147143
 30
0.0
 10
93.12403155223983
 20
-137.79761823812
 30
0.0
 10
93.12403155223983
 20
-138.093551940303
 30
0.0
 10
93.12403155223983
 20
-138.279931606055
 30
0.0
 10
93.02205672587644
 20
-138.3622693881525
 30
0.0
 10
92.91594778493074
 20
-138.4235920877899
 30
0.0
 10
92.98140459915048
 20
-138.4511528516719
 30
0.0
 10
93.17605249406711
 20
-138.5314235764783
 30
0.0
 10
93.17605249406711
 20
-138.8087537630409
 30
0.0
 10
93.17605249406711
 20
-139.1470621396924
 30
0.0
 10
92.91146916079991
 20
-139.314149270727
 30
0.0
 10
92.61519094906843
 20
-139.314149270727
 30
0.0
  0
HATCH
  5
CD
330
C6
100
AcDbEntity
  8
_U+30EC_U+30A4_U+30E4_U+30FC 1
 62
     7
420
 16777215
100
AcDbHatch
 10
0.0
 20
0.0
 30
0.0
210
0.0
220
0.0
230
1.0
  2
SOLID
 70
     1
 71
     0
 91
        1
 92
        1
 93
        1
 72
     4
 94
        3
 73
     0
 74
     1
 95
       62
 96
       58
 40
0.0
 40
0.0
 40
0.0
 40
0.0
 40
1.0
 40
1.0
 40
1.0
 40
2.0
 40
2.0
 40
2.0
 40
3.0
 40
3.0
 40
3.0
 40
4.0
 40
4.0
 40
4.0
 40
5.0
 40
5.0
 40
5.0
 40
6.0
 40
6.0
 40
6.0
 40
7.0
 40
7.0
 40
7.0
 40
8.0
 40
8.0
 40
8.0
 40
9.0
 40
9.0
 40
9.0
 40
10.0
 40
10.0
 40
10.0
 40
11.0
 40
11.0
 40
11.0
 40
12.0
 40
12.0
 40
12.0
 40
13.0
 40
13.0
 40
13.0
 40
14.0
 40
14.0
 40
14.0
 40
15.0
 40
15.0
 40
15.0
 40
16.0
 40
16.0
 40
16.0
 40
17.0
 40
17.0
 40
17.0
 40
18.0
 40
18.0
 40
18.0
 40
19.0
 40
19.0
 40
19.0
 40
19.0
 10
92.61519094906843
 20
-139.314149270727
 10
92.51356063225356
 20
-139.314149270727
 10
92.28067217745067
 20
-139.293134188267
 10
92.1473469821715
 20
-139.1070990320635
 10
92.06810978601075
 20
-138.9947889192444
 10
92.06363116187993
 20
-138.8955701692692
 10
92.0591525377491
 20
-138.810820820332
 10
92.0591525377491
 20
-138.810820820332
 10
92.29410804984315
 20
-138.810820820332
 10
92.29410804984315
 20
-138.810820820332
 10
92.29651961668282
 20
-138.8848903732649
 10
92.30788843178415
 20
-139.1195013758104
 10
92.61071232493761
 20
-139.1195013758104
 10
92.75781790215777
 20
-139.1195013758104
 10
92.92042640906156
 20
-139.0499104470084
 10
92.92042640906156
 20
-138.8215006163363
 10
92.92042640906156
 20
-138.7050563889348
 10
92.87977428233562
 20
-138.6564805425928
 10
92.84601234658017
 20
-138.6247856641285
 10
92.76677515041942
 20
-138.5507161111957
 10
92.6424072034019
 20
-138.5379692579002
 10
92.58349607060413
 20
-138.5379692579002
 10
92.56317000724115
 20
-138.5379692579002
 10
92.52492944735488
 20
-138.5400363151914
 10
92.49530162618173
 20
-138.5441704297737
 10
92.49530162618173
 20
-138.5441704297737
 10
92.49530162618173
 20
-138.3495225348571
 10
92.49530162618173
 20
-138.3495225348571
 10
92.53595375290769
 20
-138.3560682162791
 10
92.58142901331298
 20
-138.3581352735702
 10
92.58797469473495
 20
-138.3581352735702
 10
92.65825464263405
 20
-138.3581352735702
 10
92.87081703407397
 20
-138.3367756815616
 10
92.87081703407397
 20
-138.100097621725
 10
92.87081703407397
 20
-137.9223306946861
 10
92.7306016478243
 20
-137.8672091669221
 10
92.61312389177728
 20
-137.8672091669221
 10
92.33028155243827
 20
-137.8672091669221
 10
92.32132430417661
 20
-138.100097621725
 10
92.31684568004579
 20
-138.1717556078182
 10
92.31684568004579
 20
-138.1717556078182
 10
92.09980466447506
 20
-138.1717556078182
 10
92.09980466447506
 20
-138.1717556078182
 10
92.1087619127367
 20
-138.0470431512521
 10
92.13804522436132
 20
-137.6704942147143
 10
92.62655976416976
 20
-137.6704942147143
 10
92.86633840994314
 20
-137.6704942147143
 10
93.12403155223983
 20
-137.79761823812
 10
93.12403155223983
 20
-138.093551940303
 10
93.12403155223983
 20
-138.279931606055
 10
93.02205672587644
 20
-138.3622693881525
 10
92.91594778493074
 20
-138.4235920877899
 10
92.98140459915048
 20
-138.4511528516719
 10
93.17605249406711
 20
-138.5314235764783
 10
93.17605249406711
 20
-138.8087537630409
 10
93.17605249406711
 20
-139.1470621396924
 10
92.91146916079991
 20
-139.314149270727
 10
92.61519094906843
 20
-139.314149270727
 97
        0
 97
        0
 75
     2
 76
     1
 98
        0
  0
ENDBLK
  5
C9
330
C6
100
AcDbEntity
  8
0
100
AcDbBlockEnd
  0
BLOCK
  5
DC
330
DA
100
AcDbEntity
  8
0
100
AcDbBlockBegin
  2
block 6
 70
     0
 10
0.0
 20
0.0
 30
0.0
  3
block 6
  1

  0
SPLINE
  5
DE
330
DA
100
AcDbEntity
  8
_U+30EC_U+30A4_U+30E4_U+30FC 1
370
     0
100
AcDbSpline
210
0.0
220
0.0
230
1.0
 70
    11
 71
     3
 72
    62
 73
    58
 74
     0
 42
0.0000000001
 43
0.0000000001
 12
1.0
 22
0.0
 32
0.0
 13
1.0
 23
0.0
 33
0.0
 40
0.0
 40
0.0
 40
0.0
 40
0.0
 40
1.0
 40
1.0
 40
1.0
 40
2.0
 40
2.0
 40
2.0
 40
3.0
 40
3.0
 40
3.0
 40
4.0
 40
4.0
 40
4.0
 40
5.0
 40
5.0
 40
5.0
 40
6.0
 40
6.0
 40
6.0
 40
7.0
 40
7.0
 40
7.0
 40
8.0
 40
8.0
 40
8.0
 40
9.0
 40
9.0
 40
9.0
 40
10.0
 40
10.0
 40
10.0
 40
11.0
 40
11.0
 40
11.0
 40
12.0
 40
12.0
 40
12.0
 40
13.0
 40
13.0
 40
13.0
 40
14.0
 40
14.0
 40
14.0
 40
15.0
 40
15.0
 40
15.0
 40
16.0
 40
16.0
 40
16.0
 40
17.0
 40
17.0
 40
17.0
 40
18.0
 40
18.0
 40
18.0
 40
19.0
 40
19.0
 40
19.0
 40
19.0
 10
101.945198542222
 20
-133.9714951922016
 30
0.0
 10
101.945198542222
 20
-134.0731255090164
 30
0.0
 10
101.924183459762
 20
-134.3060139638193
 30
0.0
 10
101.7381483035585
 20
-134.4393391590985
 30
0.0
 10
101.6258381907394
 20
-134.5185763552593
 30
0.0
 10
101.5266194407642
 20
-134.5230549793901
 30
0.0
 10
101.441870091827
 20
-134.5275336035209
 30
0.0
 10
101.441870091827
 20
-134.5275336035209
 30
0.0
 10
101.441870091827
 20
-134.2925780914269
 30
0.0
 10
101.441870091827
 20
-134.2925780914269
 30
0.0
 10
101.5159396447599
 20
-134.2901665245872
 30
0.0
 10
101.7505506473054
 20
-134.2787977094859
 30
0.0
 10
101.7505506473054
 20
-133.9759738163324
 30
0.0
 10
101.7505506473054
 20
-133.8288682391122
 30
0.0
 10
101.6809597185034
 20
-133.6662597322084
 30
0.0
 10
101.4525498878313
 20
-133.6662597322084
 30
0.0
 10
101.3361056604299
 20
-133.6662597322084
 30
0.0
 10
101.2875298140878
 20
-133.7069118589344
 30
0.0
 10
101.2558349356235
 20
-133.7406737946898
 30
0.0
 10
101.1817653826907
 20
-133.8199109908506
 30
0.0
 10
101.1690185293952
 20
-133.9442789378681
 30
0.0
 10
101.1690185293952
 20
-134.0031900706659
 30
0.0
 10
101.1690185293952
 20
-134.0235161340289
 30
0.0
 10
101.1710855866864
 20
-134.0617566939151
 30
0.0
 10
101.1752197012687
 20
-134.0913845150883
 30
0.0
 10
101.1752197012687
 20
-134.0913845150883
 30
0.0
 10
100.9805718063521
 20
-134.0913845150883
 30
0.0
 10
100.9805718063521
 20
-134.0913845150883
 30
0.0
 10
100.9871174877741
 20
-134.0507323883623
 30
0.0
 10
100.9891845450652
 20
-134.005257127957
 30
0.0
 10
100.9891845450652
 20
-133.9987114465351
 30
0.0
 10
100.9891845450652
 20
-133.9284314986359
 30
0.0
 10
100.9678249530567
 20
-133.715869107196
 30
0.0
 10
100.73114689322
 20
-133.715869107196
 30
0.0
 10
100.5533799661811
 20
-133.715869107196
 30
0.0
 10
100.4982584384171
 20
-133.8560844934457
 30
0.0
 10
100.4982584384171
 20
-133.9735622494927
 30
0.0
 10
100.4982584384171
 20
-134.2564045888317
 30
0.0
 10
100.73114689322
 20
-134.2653618370934
 30
0.0
 10
100.8028048793132
 20
-134.2698404612242
 30
0.0
 10
100.8028048793132
 20
-134.2698404612242
 30
0.0
 10
100.8028048793132
 20
-134.486881476795
 30
0.0
 10
100.8028048793132
 20
-134.486881476795
 30
0.0
 10
100.6780924227471
 20
-134.4779242285333
 30
0.0
 10
100.3015434862093
 20
-134.4486409169087
 30
0.0
 10
100.3015434862093
 20
-133.9601263771003
 30
0.0
 10
100.3015434862093
 20
-133.7203477313269
 30
0.0
 10
100.4286675096151
 20
-133.4626545890302
 30
0.0
 10
100.724601211798
 20
-133.4626545890302
 30
0.0
 10
100.91098087755
 20
-133.4626545890302
 30
0.0
 10
100.9933186596475
 20
-133.5646294153936
 30
0.0
 10
101.054641359285
 20
-133.6707383563393
 30
0.0
 10
101.082202123167
 20
-133.6052815421195
 30
0.0
 10
101.1624728479733
 20
-133.4106336472029
 30
0.0
 10
101.4398030345359
 20
-133.4106336472029
 30
0.0
 10
101.7781114111874
 20
-133.4106336472029
 30
0.0
 10
101.945198542222
 20
-133.6752169804701
 30
0.0
 10
101.945198542222
 20
-133.9714951922016
 30
0.0
  0
HATCH
  5
DF
330
DA
100
AcDbEntity
  8
_U+30EC_U+30A4_U+30E4_U+30FC 1
 62
     7
420
 16777215
100
AcDbHatch
 10
0.0
 20
0.0
 30
0.0
210
0.0
220
0.0
230
1.0
  2
SOLID
 70
     1
 71
     0
 91
        1
 92
        1
 93
        1
 72
     4
 94
        3
 73
     0
 74
     1
 95
       62
 96
       58
 40
0.0
 40
0.0
 40
0.0
 40
0.0
 40
1.0
 40
1.0
 40
1.0
 40
2.0
 40
2.0
 40
2.0
 40
3.0
 40
3.0
 40
3.0
 40
4.0
 40
4.0
 40
4.0
 40
5.0
 40
5.0
 40
5.0
 40
6.0
 40
6.0
 40
6.0
 40
7.0
 40
7.0
 40
7.0
 40
8.0
 40
8.0
 40
8.0
 40
9.0
 40
9.0
 40
9.0
 40
10.0
 40
10.0
 40
10.0
 40
11.0
 40
11.0
 40
11.0
 40
12.0
 40
12.0
 40
12.0
 40
13.0
 40
13.0
 40
13.0
 40
14.0
 40
14.0
 40
14.0
 40
15.0
 40
15.0
 40
15.0
 40
16.0
 40
16.0
 40
16.0
 40
17.0
 40
17.0
 40
17.0
 40
18.0
 40
18.0
 40
18.0
 40
19.0
 40
19.0
 40
19.0
 40
19.0
 10
101.945198542222
 20
-133.9714951922016
 10
101.945198542222
 20
-134.0731255090164
 10
101.924183459762
 20
-134.3060139638193
 10
101.7381483035585
 20
-134.4393391590985
 10
101.6258381907394
 20
-134.5185763552593
 10
101.5266194407642
 20
-134.5230549793901
 10
101.441870091827
 20
-134.5275336035209
 10
101.441870091827
 20
-134.5275336035209
 10
101.441870091827
 20
-134.2925780914269
 10
101.441870091827
 20
-134.2925780914269
 10
101.5159396447599
 20
-134.2901665245872
 10
101.7505506473054
 20
-134.2787977094859
 10
101.7505506473054
 20
-133.9759738163324
 10
101.7505506473054
 20
-133.8288682391122
 10
101.6809597185034
 20
-133.6662597322084
 10
101.4525498878313
 20
-133.6662597322084
 10
101.3361056604299
 20
-133.6662597322084
 10
101.2875298140878
 20
-133.7069118589344
 10
101.2558349356235
 20
-133.7406737946898
 10
101.1817653826907
 20
-133.8199109908506
 10
101.1690185293952
 20
-133.9442789378681
 10
101.1690185293952
 20
-134.0031900706659
 10
101.1690185293952
 20
-134.0235161340289
 10
101.1710855866864
 20
-134.0617566939151
 10
101.1752197012687
 20
-134.0913845150883
 10
101.1752197012687
 20
-134.0913845150883
 10
100.9805718063521
 20
-134.0913845150883
 10
100.9805718063521
 20
-134.0913845150883
 10
100.9871174877741
 20
-134.0507323883623
 10
100.9891845450652
 20
-134.005257127957
 10
100.9891845450652
 20
-133.9987114465351
 10
100.9891845450652
 20
-133.9284314986359
 10
100.9678249530567
 20
-133.715869107196
 10
100.73114689322
 20
-133.715869107196
 10
100.5533799661811
 20
-133.715869107196
 10
100.4982584384171
 20
-133.8560844934457
 10
100.4982584384171
 20
-133.9735622494927
 10
100.4982584384171
 20
-134.2564045888317
 10
100.73114689322
 20
-134.2653618370934
 10
100.8028048793132
 20
-134.2698404612242
 10
100.8028048793132
 20
-134.2698404612242
 10
100.8028048793132
 20
-134.486881476795
 10
100.8028048793132
 20
-134.486881476795
 10
100.6780924227471
 20
-134.4779242285333
 10
100.3015434862093
 20
-134.4486409169087
 10
100.3015434862093
 20
-133.9601263771003
 10
100.3015434862093
 20
-133.7203477313269
 10
100.4286675096151
 20
-133.4626545890302
 10
100.724601211798
 20
-133.4626545890302
 10
100.91098087755
 20
-133.4626545890302
 10
100.9933186596475
 20
-133.5646294153936
 10
101.054641359285
 20
-133.6707383563393
 10
101.082202123167
 20
-133.6052815421195
 10
101.1624728479733
 20
-133.4106336472029
 10
101.4398030345359
 20
-133.4106336472029
 10
101.7781114111874
 20
-133.4106336472029
 10
101.945198542222
 20
-133.6752169804701
 10
101.945198542222
 20
-133.9714951922016
 97
        0
 97
        0
 75
     2
 76
     1
 98
        0
  0
POLYLINE
  5
E0
330
DA
100
AcDbEntity
  8
_U+30EC_U+30A4_U+30E4_U+30FC 1
370
     0
100
AcDb2dPolyline
 66
     1
 10
0.0
 20
0.0
 30
0.0
  0
VERTEX
  5
E1
330
E0
100
AcDbEntity
  8
_U+30EC_U+30A4_U+30E4_U+30FC 1
370
     0
100
AcDbVertex
100
AcDb2dVertex
 10
101.8945556385889
 20
-133.1749891160118
 30
0.0
  0
VERTEX
  5
E2
330
E0
100
AcDbEntity
  8
_U+30EC_U+30A4_U+30E4_U+30FC 1
370
     0
100
AcDbVertex
100
AcDb2dVertex
 10
101.6427191586171
 20
-133.1749891160118
 30
0.0
  0
VERTEX
  5
E3
330
E0
100
AcDbEntity
  8
_U+30EC_U+30A4_U+30E4_U+30FC 1
370
     0
100
AcDbVertex
100
AcDb2dVertex
 10
101.6427191586171
 20
-132.9059271586138
 30
0.0
  0
VERTEX
  5
E4
330
E0
100
AcDbEntity
  8
_U+30EC_U+30A4_U+30E4_U+30FC 1
370
     0
100
AcDbVertex
100
AcDb2dVertex
 10
101.8945556385889
 20
-132.9059271586138
 30
0.0
  0
VERTEX
  5
E5
330
E0
100
AcDbEntity
  8
_U+30EC_U+30A4_U+30E4_U+30FC 1
370
     0
100
AcDbVertex
100
AcDb2dVertex
 10
101.8945556385889
 20
-133.1749891160118
 30
0.0
  0
SEQEND
  5
E6
330
E0
100
AcDbEntity
  8
_U+30EC_U+30A4_U+30E4_U+30FC 1
370
     0
  0
HATCH
  5
E7
330
DA
100
AcDbEntity
  8
_U+30EC_U+30A4_U+30E4_U+30FC 1
 62
     7
420
 16777215
100
AcDbHatch
 10
0.0
 20
0.0
 30
0.0
210
0.0
220
0.0
230
1.0
  2
SOLID
 70
     1
 71
     0
 91
        1
 92
        1
 93
        4
 72
     1
 10
101.8945556385889
 20
-133.1749891160118
 11
101.6427191586171
 21
-133.1749891160118
 72
     1
 10
101.6427191586171
 20
-133.1749891160118
 11
101.6427191586171
 21
-132.9059271586138
 72
     1
 10
101.6427191586171
 20
-132.9059271586138
 11
101.8945556385889
 21
-132.9059271586138
 72
     1
 10
101.8945556385889
 20
-132.9059271586138
 11
101.8945556385889
 21
-133.1749891160118
 97
        0
 75
     2
 76
     1
 98
        0
  0
SPLINE
  5
E8
330
DA
100
AcDbEntity
  8
_U+30EC_U+30A4_U+30E4_U+30FC 1
370
     0
100
AcDbSpline
210
0.0
220
0.0
230
1.0
 70
    11
 71
     3
 72
    53
 73
    49
 74
     0
 42
0.0000000001
 43
0.0000000001
 12
1.0
 22
0.0
 32
0.0
 13
1.0
 23
0.0
 33
0.0
 40
0.0
 40
0.0
 40
0.0
 40
0.0
 40
1.0
 40
1.0
 40
1.0
 40
2.0
 40
2.0
 40
2.0
 40
3.0
 40
3.0
 40
3.0
 40
4.0
 40
4.0
 40
4.0
 40
5.0
 40
5.0
 40
5.0
 40
6.0
 40
6.0
 40
6.0
 40
7.0
 40
7.0
 40
7.0
 40
8.0
 40
8.0
 40
8.0
 40
9.0
 40
9.0
 40
9.0
 40
10.0
 40
10.0
 40
10.0
 40
11.0
 40
11.0
 40
11.0
 40
12.0
 40
12.0
 40
12.0
 40
13.0
 40
13.0
 40
13.0
 40
14.0
 40
14.0
 40
14.0
 40
15.0
 40
15.0
 40
15.0
 40
16.0
 40
16.0
 40
16.0
 40
16.0
 10
101.945198542222
 20
-132.1390489035972
 30
0.0
 10
101.945198542222
 20
-132.2227647238888
 30
0.0
 10
101.9283175743443
 20
-132.3309407221256
 30
0.0
 10
101.8649278174157
 20
-132.4398057394595
 30
0.0
 10
101.7550292714362
 20
-132.625151876566
 30
0.0
 10
101.6237711334482
 20
-132.6475449972201
 30
0.0
 10
101.5159396447599
 20
-132.667871060583
 30
0.0
 10
101.5159396447599
 20
-132.667871060583
 30
0.0
 10
101.5159396447599
 20
-132.4305039816493
 30
0.0
 10
101.5159396447599
 20
-132.4305039816493
 30
0.0
 10
101.7147216542588
 20
-132.3719373584001
 30
0.0
 10
101.744349475432
 20
-132.2362005962812
 30
0.0
 10
101.744349475432
 20
-132.1366373367575
 30
0.0
 10
101.744349475432
 20
-131.9874647022462
 30
0.0
 10
101.6447862159083
 20
-131.8245116857939
 30
0.0
 10
101.4122422706539
 20
-131.8245116857939
 30
0.0
 10
101.1562716760998
 20
-131.8245116857939
 30
0.0
 10
101.0863362377493
 20
-132.0167480138708
 30
0.0
 10
101.0863362377493
 20
-132.1455945850192
 30
0.0
 10
101.0863362377493
 20
-132.1797010303231
 30
0.0
 10
101.0863362377493
 20
-132.3309407221256
 30
0.0
 10
101.2155273184461
 20
-132.4260253575185
 30
0.0
 10
101.2155273184461
 20
-132.4260253575185
 30
0.0
 10
101.1965792932773
 20
-132.6137830614646
 30
0.0
 10
101.1965792932773
 20
-132.6137830614646
 30
0.0
 10
101.1965792932773
 20
-132.6137830614646
 30
0.0
 10
100.3501193325514
 20
-132.4849364903163
 30
0.0
 10
100.3501193325514
 20
-132.4849364903163
 30
0.0
 10
100.3501193325514
 20
-132.4849364903163
 30
0.0
 10
100.3501193325514
 20
-131.6529459306284
 30
0.0
 10
100.3501193325514
 20
-131.6529459306284
 30
0.0
 10
100.3501193325514
 20
-131.6529459306284
 30
0.0
 10
100.544767227468
 20
-131.6529459306284
 30
0.0
 10
100.544767227468
 20
-131.6529459306284
 30
0.0
 10
100.544767227468
 20
-131.6529459306284
 30
0.0
 10
100.544767227468
 20
-132.3106146587626
 30
0.0
 10
100.544767227468
 20
-132.3106146587626
 30
0.0
 10
100.544767227468
 20
-132.3106146587626
 30
0.0
 10
100.9678249530567
 20
-132.3808946066617
 30
0.0
 10
100.9678249530567
 20
-132.3808946066617
 30
0.0
 10
100.9340630173012
 20
-132.315437792442
 30
0.0
 10
100.8937554001238
 20
-132.2272433480196
 30
0.0
 10
100.8937554001238
 20
-132.1004638341624
 30
0.0
 10
100.8937554001238
 20
-131.8293348194732
 30
0.0
 10
101.0801350658758
 20
-131.5761203013074
 30
0.0
 10
101.393294245485
 20
-131.5761203013074
 30
0.0
 10
101.7105875396765
 20
-131.5761203013074
 30
0.0
 10
101.945198542222
 20
-131.8155544375322
 30
0.0
 10
101.945198542222
 20
-132.1390489035972
 30
0.0
  0
HATCH
  5
E9
330
DA
100
AcDbEntity
  8
_U+30EC_U+30A4_U+30E4_U+30FC 1
 62
     7
420
 16777215
100
AcDbHatch
 10
0.0
 20
0.0
 30
0.0
210
0.0
220
0.0
230
1.0
  2
SOLID
 70
     1
 71
     0
 91
        1
 92
        1
 93
        1
 72
     4
 94
        3
 73
     0
 74
     1
 95
       53
 96
       49
 40
0.0
 40
0.0
 40
0.0
 40
0.0
 40
1.0
 40
1.0
 40
1.0
 40
2.0
 40
2.0
 40
2.0
 40
3.0
 40
3.0
 40
3.0
 40
4.0
 40
4.0
 40
4.0
 40
5.0
 40
5.0
 40
5.0
 40
6.0
 40
6.0
 40
6.0
 40
7.0
 40
7.0
 40
7.0
 40
8.0
 40
8.0
 40
8.0
 40
9.0
 40
9.0
 40
9.0
 40
10.0
 40
10.0
 40
10.0
 40
11.0
 40
11.0
 40
11.0
 40
12.0
 40
12.0
 40
12.0
 40
13.0
 40
13.0
 40
13.0
 40
14.0
 40
14.0
 40
14.0
 40
15.0
 40
15.0
 40
15.0
 40
16.0
 40
16.0
 40
16.0
 40
16.0
 10
101.945198542222
 20
-132.1390489035972
 10
101.945198542222
 20
-132.2227647238888
 10
101.9283175743443
 20
-132.3309407221256
 10
101.8649278174157
 20
-132.4398057394595
 10
101.7550292714362
 20
-132.625151876566
 10
101.6237711334482
 20
-132.6475449972201
 10
101.5159396447599
 20
-132.667871060583
 10
101.5159396447599
 20
-132.667871060583
 10
101.5159396447599
 20
-132.4305039816493
 10
101.5159396447599
 20
-132.4305039816493
 10
101.7147216542588
 20
-132.3719373584001
 10
101.744349475432
 20
-132.2362005962812
 10
101.744349475432
 20
-132.1366373367575
 10
101.744349475432
 20
-131.9874647022462
 10
101.6447862159083
 20
-131.8245116857939
 10
101.4122422706539
 20
-131.8245116857939
 10
101.1562716760998
 20
-131.8245116857939
 10
101.0863362377493
 20
-132.0167480138708
 10
101.0863362377493
 20
-132.1455945850192
 10
101.0863362377493
 20
-132.1797010303231
 10
101.0863362377493
 20
-132.3309407221256
 10
101.2155273184461
 20
-132.4260253575185
 10
101.2155273184461
 20
-132.4260253575185
 10
101.1965792932773
 20
-132.6137830614646
 10
101.1965792932773
 20
-132.6137830614646
 10
101.1965792932773
 20
-132.6137830614646
 10
100.3501193325514
 20
-132.4849364903163
 10
100.3501193325514
 20
-132.4849364903163
 10
100.3501193325514
 20
-132.4849364903163
 10
100.3501193325514
 20
-131.6529459306284
 10
100.3501193325514
 20
-131.6529459306284
 10
100.3501193325514
 20
-131.6529459306284
 10
100.544767227468
 20
-131.6529459306284
 10
100.544767227468
 20
-131.6529459306284
 10
100.544767227468
 20
-131.6529459306284
 10
100.544767227468
 20
-132.3106146587626
 10
100.544767227468
 20
-132.3106146587626
 10
100.544767227468
 20
-132.3106146587626
 10
100.9678249530567
 20
-132.3808946066617
 10
100.9678249530567
 20
-132.3808946066617
 10
100.9340630173012
 20
-132.315437792442
 10
100.8937554001238
 20
-132.2272433480196
 10
100.8937554001238
 20
-132.1004638341624
 10
100.8937554001238
 20
-131.8293348194732
 10
101.0801350658758
 20
-131.5761203013074
 10
101.393294245485
 20
-131.5761203013074
 10
101.7105875396765
 20
-131.5761203013074
 10
101.945198542222
 20
-131.8155544375322
 10
101.945198542222
 20
-132.1390489035972
 97
        0
 97
        0
 75
     2
 76
     1
 98
        0
  0
ENDBLK
  5
DD
330
DA
100
AcDbEntity
  8
0
100
AcDbBlockEnd
  0
BLOCK
  5
F8
330
F6
100
AcDbEntity
  8
0
100
AcDbBlockBegin
  2
block 7
 70
     0
 10
0.0
 20
0.0
 30
0.0
  3
block 7
  1

  0
SPLINE
  5
FA
330
F6
100
AcDbEntity
  8
_U+30EC_U+30A4_U+30E4_U+30FC 1
370
     0
100
AcDbSpline
210
0.0
220
0.0
230
1.0
 70
    11
 71
     3
 72
    26
 73
    22
 74
     0
 42
0.0000000001
 43
0.0000000001
 12
1.0
 22
0.0
 32
0.0
 13
1.0
 23
0.0
 33
0.0
 40
0.0
 40
0.0
 40
0.0
 40
0.0
 40
1.0
 40
1.0
 40
1.0
 40
2.0
 40
2.0
 40
2.0
 40
3.0
 40
3.0
 40
3.0
 40
4.0
 40
4.0
 40
4.0
 40
5.0
 40
5.0
 40
5.0
 40
6.0
 40
6.0
 40
6.0
 40
7.0
 40
7.0
 40
7.0
 40
7.0
 10
80.89411483437716
 20
-130.0361626194007
 30
0.0
 10
80.89411483437716
 20
-130.0361626194007
 30
0.0
 10
79.78978947658034
 20
-130.0361626194007
 30
0.0
 10
79.78978947658034
 20
-130.0361626194007
 30
0.0
 10
79.78978947658034
 20
-130.0361626194007
 30
0.0
 10
79.78978947658034
 20
-130.3885958875418
 30
0.0
 10
79.78978947658034
 20
-130.3885958875418
 30
0.0
 10
79.78978947658034
 20
-130.3885958875418
 30
0.0
 10
79.64165037071459
 20
-130.3885958875418
 30
0.0
 10
79.64165037071459
 20
-130.3885958875418
 30
0.0
 10
79.62700871490227
 20
-130.033751052561
 30
0.0
 10
79.46405569844997
 20
-129.9841416775734
 30
0.0
 10
79.34985078311394
 20
-129.9524467991091
 30
0.0
 10
79.34985078311394
 20
-129.9524467991091
 30
0.0
 10
79.34985078311394
 20
-129.7963839736273
 30
0.0
 10
79.34985078311394
 20
-129.7963839736273
 30
0.0
 10
79.34985078311394
 20
-129.7963839736273
 30
0.0
 10
80.89411483437716
 20
-129.7963839736273
 30
0.0
 10
80.89411483437716
 20
-129.7963839736273
 30
0.0
 10
80.89411483437716
 20
-129.7963839736273
 30
0.0
 10
80.89411483437716
 20
-130.0361626194007
 30
0.0
 10
80.89411483437716
 20
-130.0361626194007
 30
0.0
  0
HATCH
  5
FB
330
F6
100
AcDbEntity
  8
_U+30EC_U+30A4_U+30E4_U+30FC 1
 62
     7
420
 16777215
100
AcDbHatch
 10
0.0
 20
0.0
 30
0.0
210
0.0
220
0.0
230
1.0
  2
SOLID
 70
     1
 71
     0
 91
        1
 92
        1
 93
        1
 72
     4
 94
        3
 73
     0
 74
     1
 95
       26
 96
       22
 40
0.0
 40
0.0
 40
0.0
 40
0.0
 40
1.0
 40
1.0
 40
1.0
 40
2.0
 40
2.0
 40
2.0
 40
3.0
 40
3.0
 40
3.0
 40
4.0
 40
4.0
 40
4.0
 40
5.0
 40
5.0
 40
5.0
 40
6.0
 40
6.0
 40
6.0
 40
7.0
 40
7.0
 40
7.0
 40
7.0
 10
80.89411483437716
 20
-130.0361626194007
 10
80.89411483437716
 20
-130.0361626194007
 10
79.78978947658034
 20
-130.0361626194007
 10
79.78978947658034
 20
-130.0361626194007
 10
79.78978947658034
 20
-130.0361626194007
 10
79.78978947658034
 20
-130.3885958875418
 10
79.78978947658034
 20
-130.3885958875418
 10
79.78978947658034
 20
-130.3885958875418
 10
79.64165037071459
 20
-130.3885958875418
 10
79.64165037071459
 20
-130.3885958875418
 10
79.62700871490227
 20
-130.033751052561
 10
79.46405569844997
 20
-129.9841416775734
 10
79.34985078311394
 20
-129.9524467991091
 10
79.34985078311394
 20
-129.9524467991091
 10
79.34985078311394
 20
-129.7963839736273
 10
79.34985078311394
 20
-129.7963839736273
 10
79.34985078311394
 20
-129.7963839736273
 10
80.89411483437716
 20
-129.7963839736273
 10
80.89411483437716
 20
-129.7963839736273
 10
80.89411483437716
 20
-129.7963839736273
 10
80.89411483437716
 20
-130.0361626194007
 10
80.89411483437716
 20
-130.0361626194007
 97
        0
 97
        0
 75
     2
 76
     1
 98
        0
  0
SPLINE
  5
FC
330
F6
100
AcDbEntity
  8
_U+30EC_U+30A4_U+30E4_U+30FC 1
370
     0
100
AcDbSpline
210
0.0
220
0.0
230
1.0
 70
    11
 71
     3
 72
    62
 73
    58
 74
     0
 42
0.0000000001
 43
0.0000000001
 12
1.0
 22
0.0
 32
0.0
 13
1.0
 23
0.0
 33
0.0
 40
0.0
 40
0.0
 40
0.0
 40
0.0
 40
1.0
 40
1.0
 40
1.0
 40
2.0
 40
2.0
 40
2.0
 40
3.0
 40
3.0
 40
3.0
 40
4.0
 40
4.0
 40
4.0
 40
5.0
 40
5.0
 40
5.0
 40
6.0
 40
6.0
 40
6.0
 40
7.0
 40
7.0
 40
7.0
 40
8.0
 40
8.0
 40
8.0
 40
9.0
 40
9.0
 40
9.0
 40
10.0
 40
10.0
 40
10.0
 40
11.0
 40
11.0
 40
11.0
 40
12.0
 40
12.0
 40
12.0
 40
13.0
 40
13.0
 40
13.0
 40
14.0
 40
14.0
 40
14.0
 40
15.0
 40
15.0
 40
15.0
 40
16.0
 40
16.0
 40
16.0
 40
17.0
 40
17.0
 40
17.0
 40
18.0
 40
18.0
 40
18.0
 40
19.0
 40
19.0
 40
19.0
 40
19.0
 10
80.94492999278461
 20
-128.7352945641703
 30
0.0
 10
80.94492999278461
 20
-128.8369248809852
 30
0.0
 10
80.92374265555031
 20
-129.0698133357881
 30
0.0
 10
80.73753524457257
 20
-129.2031385310673
 30
0.0
 10
80.62539738652768
 20
-129.282375727228
 30
0.0
 10
80.52600638177823
 20
-129.2868543513588
 30
0.0
 10
80.44142928761534
 20
-129.2913329754897
 30
0.0
 10
80.44142928761534
 20
-129.2913329754897
 30
0.0
 10
80.44142928761534
 20
-129.0563774633956
 30
0.0
 10
80.44142928761534
 20
-129.0563774633956
 30
0.0
 10
80.51549884054822
 20
-129.053965896556
 30
0.0
 10
80.750282097868
 20
-129.0425970814546
 30
0.0
 10
80.750282097868
 20
-128.7397731883012
 30
0.0
 10
80.750282097868
 20
-128.592667611081
 30
0.0
 10
80.68051891429168
 20
-128.4300591041772
 30
0.0
 10
80.45193682884535
 20
-128.4300591041772
 30
0.0
 10
80.33566485621817
 20
-128.4300591041772
 30
0.0
 10
80.28691675510188
 20
-128.4707112309032
 30
0.0
 10
80.25522187663759
 20
-128.5048176762071
 30
0.0
 10
80.18115232370472
 20
-128.5837103628193
 30
0.0
 10
80.16857772518355
 20
-128.7080783098369
 30
0.0
 10
80.16857772518355
 20
-128.7669894426346
 30
0.0
 10
80.16857772518355
 20
-128.7873155059976
 30
0.0
 10
80.17064478247471
 20
-128.8255560658839
 30
0.0
 10
80.17477889705701
 20
-128.8551838870571
 30
0.0
 10
80.17477889705701
 20
-128.8551838870571
 30
0.0
 10
79.98030325691465
 20
-128.8551838870571
 30
0.0
 10
79.98030325691465
 20
-128.8551838870571
 30
0.0
 10
79.9865044287881
 20
-128.8145317603311
 30
0.0
 10
79.98874374085351
 20
-128.7690564999258
 30
0.0
 10
79.98874374085351
 20
-128.7625108185038
 30
0.0
 10
79.98874374085351
 20
-128.6922308706047
 30
0.0
 10
79.96755640361923
 20
-128.4796684791648
 30
0.0
 10
79.73053383423404
 20
-128.4796684791648
 30
0.0
 10
79.5529391619694
 20
-128.4796684791648
 30
0.0
 10
79.4978176342054
 20
-128.6198838654145
 30
0.0
 10
79.4978176342054
 20
-128.7373616214615
 30
0.0
 10
79.4978176342054
 20
-129.0202039608005
 30
0.0
 10
79.73053383423404
 20
-129.0291612090622
 30
0.0
 10
79.80253632987576
 20
-129.033639833193
 30
0.0
 10
79.80253632987576
 20
-129.033639833193
 30
0.0
 10
79.80253632987576
 20
-129.2506808487637
 30
0.0
 10
79.80253632987576
 20
-129.2506808487637
 30
0.0
 10
79.67765161853545
 20
-129.2417236005021
 30
0.0
 10
79.30110268199765
 20
-129.2124402888774
 30
0.0
 10
79.30110268199765
 20
-128.723925749069
 30
0.0
 10
79.30110268199765
 20
-128.4841471032956
 30
0.0
 10
79.4280544506291
 20
-128.226453960999
 30
0.0
 10
79.72416040758633
 20
-128.226453960999
 30
0.0
 10
79.91036781856408
 20
-128.226453960999
 30
0.0
 10
79.99287785543581
 20
-128.3284287873624
 30
0.0
 10
80.05420055507327
 20
-128.434537728308
 30
0.0
 10
80.08176131895526
 20
-128.3690809140883
 30
0.0
 10
80.16220429853584
 20
-128.1744330191717
 30
0.0
 10
80.43936223032419
 20
-128.1744330191717
 30
0.0
 10
80.77784286174999
 20
-128.1744330191717
 30
0.0
 10
80.94492999278461
 20
-128.4390163524389
 30
0.0
 10
80.94492999278461
 20
-128.7352945641703
 30
0.0
  0
HATCH
  5
FD
330
F6
100
AcDbEntity
  8
_U+30EC_U+30A4_U+30E4_U+30FC 1
 62
     7
420
 16777215
100
AcDbHatch
 10
0.0
 20
0.0
 30
0.0
210
0.0
220
0.0
230
1.0
  2
SOLID
 70
     1
 71
     0
 91
        1
 92
        1
 93
        1
 72
     4
 94
        3
 73
     0
 74
     1
 95
       62
 96
       58
 40
0.0
 40
0.0
 40
0.0
 40
0.0
 40
1.0
 40
1.0
 40
1.0
 40
2.0
 40
2.0
 40
2.0
 40
3.0
 40
3.0
 40
3.0
 40
4.0
 40
4.0
 40
4.0
 40
5.0
 40
5.0
 40
5.0
 40
6.0
 40
6.0
 40
6.0
 40
7.0
 40
7.0
 40
7.0
 40
8.0
 40
8.0
 40
8.0
 40
9.0
 40
9.0
 40
9.0
 40
10.0
 40
10.0
 40
10.0
 40
11.0
 40
11.0
 40
11.0
 40
12.0
 40
12.0
 40
12.0
 40
13.0
 40
13.0
 40
13.0
 40
14.0
 40
14.0
 40
14.0
 40
15.0
 40
15.0
 40
15.0
 40
16.0
 40
16.0
 40
16.0
 40
17.0
 40
17.0
 40
17.0
 40
18.0
 40
18.0
 40
18.0
 40
19.0
 40
19.0
 40
19.0
 40
19.0
 10
80.94492999278461
 20
-128.7352945641703
 10
80.94492999278461
 20
-128.8369248809852
 10
80.92374265555031
 20
-129.0698133357881
 10
80.73753524457257
 20
-129.2031385310673
 10
80.62539738652768
 20
-129.282375727228
 10
80.52600638177823
 20
-129.2868543513588
 10
80.44142928761534
 20
-129.2913329754897
 10
80.44142928761534
 20
-129.2913329754897
 10
80.44142928761534
 20
-129.0563774633956
 10
80.44142928761534
 20
-129.0563774633956
 10
80.51549884054822
 20
-129.053965896556
 10
80.750282097868
 20
-129.0425970814546
 10
80.750282097868
 20
-128.7397731883012
 10
80.750282097868
 20
-128.592667611081
 10
80.68051891429168
 20
-128.4300591041772
 10
80.45193682884535
 20
-128.4300591041772
 10
80.33566485621817
 20
-128.4300591041772
 10
80.28691675510188
 20
-128.4707112309032
 10
80.25522187663759
 20
-128.5048176762071
 10
80.18115232370472
 20
-128.5837103628193
 10
80.16857772518355
 20
-128.7080783098369
 10
80.16857772518355
 20
-128.7669894426346
 10
80.16857772518355
 20
-128.7873155059976
 10
80.17064478247471
 20
-128.8255560658839
 10
80.17477889705701
 20
-128.8551838870571
 10
80.17477889705701
 20
-128.8551838870571
 10
79.98030325691465
 20
-128.8551838870571
 10
79.98030325691465
 20
-128.8551838870571
 10
79.9865044287881
 20
-128.8145317603311
 10
79.98874374085351
 20
-128.7690564999258
 10
79.98874374085351
 20
-128.7625108185038
 10
79.98874374085351
 20
-128.6922308706047
 10
79.96755640361923
 20
-128.4796684791648
 10
79.73053383423404
 20
-128.4796684791648
 10
79.5529391619694
 20
-128.4796684791648
 10
79.4978176342054
 20
-128.6198838654145
 10
79.4978176342054
 20
-128.7373616214615
 10
79.4978176342054
 20
-129.0202039608005
 10
79.73053383423404
 20
-129.0291612090622
 10
79.80253632987576
 20
-129.033639833193
 10
79.80253632987576
 20
-129.033639833193
 10
79.80253632987576
 20
-129.2506808487637
 10
79.80253632987576
 20
-129.2506808487637
 10
79.67765161853545
 20
-129.2417236005021
 10
79.30110268199765
 20
-129.2124402888774
 10
79.30110268199765
 20
-128.723925749069
 10
79.30110268199765
 20
-128.4841471032956
 10
79.4280544506291
 20
-128.226453960999
 10
79.72416040758633
 20
-128.226453960999
 10
79.91036781856408
 20
-128.226453960999
 10
79.99287785543581
 20
-128.3284287873624
 10
80.05420055507327
 20
-128.434537728308
 10
80.08176131895526
 20
-128.3690809140883
 10
80.16220429853584
 20
-128.1744330191717
 10
80.43936223032419
 20
-128.1744330191717
 10
80.77784286174999
 20
-128.1744330191717
 10
80.94492999278461
 20
-128.4390163524389
 10
80.94492999278461
 20
-128.7352945641703
 97
        0
 97
        0
 75
     2
 76
     1
 98
        0
  0
ENDBLK
  5
F9
330
F6
100
AcDbEntity
  8
0
100
AcDbBlockEnd
  0
ENDSEC
  0
SECTION
  2
ENTITIES
  0
POLYLINE
  5
41
330
1F
100
AcDbEntity
  8
_U+30EC_U+30A4_U+30E4_U+30FC 1
  6
AI-Linetype-1
 62
   251
420
  5855577
370
    25
100
AcDb2dPolyline
 66
     1
 10
0.0
 20
0.0
 30
0.0
  0
VERTEX
  5
42
330
41
100
AcDbEntity
  8
_U+30EC_U+30A4_U+30E4_U+30FC 1
  6
AI-Linetype-1
 62
   251
420
  5855577
370
    25
100
AcDbVertex
100
AcDb2dVertex
 10
86.57162918026263
 20
-122.137593302799
 30
0.0
  0
VERTEX
  5
43
330
41
100
AcDbEntity
  8
_U+30EC_U+30A4_U+30E4_U+30FC 1
  6
AI-Linetype-1
 62
   251
420
  5855577
370
    25
100
AcDbVertex
100
AcDb2dVertex
 10
84.69647422810182
 20
-122.137593302799
 30
0.0
  0
VERTEX
  5
44
330
41
100
AcDbEntity
  8
_U+30EC_U+30A4_U+30E4_U+30FC 1
  6
AI-Linetype-1
 62
   251
420
  5855577
370
    25
100
AcDbVertex
100
AcDb2dVertex
 10
84.69647422810182
 20
-136.6455794102831
 30
0.0
  0
VERTEX
  5
45
330
41
100
AcDbEntity
  8
_U+30EC_U+30A4_U+30E4_U+30FC 1
  6
AI-Linetype-1
 62
   251
420
  5855577
370
    25
100
AcDbVertex
100
AcDb2dVertex
 10
99.02789719746552
 20
-136.6455794102831
 30
0.0
  0
VERTEX
  5
46
330
41
100
AcDbEntity
  8
_U+30EC_U+30A4_U+30E4_U+30FC 1
  6
AI-Linetype-1
 62
   251
420
  5855577
370
    25
100
AcDbVertex
100
AcDb2dVertex
 10
99.02789719746552
 20
-134.5289127441456
 30
0.0
  0
SEQEND
  5
48
330
41
100
AcDbEntity
  8
_U+30EC_U+30A4_U+30E4_U+30FC 1
  6
AI-Linetype-1
 62
   251
420
  5855577
370
    25
  0
SPLINE
  5
49
330
1F
100
AcDbEntity
  8
_U+30EC_U+30A4_U+30E4_U+30FC 1
370
     0
100
AcDbSpline
210
0.0
220
0.0
230
1.0
 70
    11
 71
     3
 72
    44
 73
    40
 74
     0
 42
0.0000000001
 43
0.0000000001
 12
1.0
 22
0.0
 32
0.0
 13
1.0
 23
0.0
 33
0.0
 40
0.0
 40
0.0
 40
0.0
 40
0.0
 40
1.0
 40
1.0
 40
1.0
 40
2.0
 40
2.0
 40
2.0
 40
3.0
 40
3.0
 40
3.0
 40
4.0
 40
4.0
 40
4.0
 40
5.0
 40
5.0
 40
5.0
 40
6.0
 40
6.0
 40
6.0
 40
7.0
 40
7.0
 40
7.0
 40
8.0
 40
8.0
 40
8.0
 40
9.0
 40
9.0
 40
9.0
 40
10.0
 40
10.0
 40
10.0
 40
11.0
 40
11.0
 40
11.0
 40
12.0
 40
12.0
 40
12.0
 40
13.0
 40
13.0
 40
13.0
 40
13.0
 10
86.49066668232815
 20
-122.8596941359519
 30
0.0
 10
85.93878331184855
 20
-122.8596941359519
 30
0.0
 10
85.49089448561224
 20
-123.3075455247286
 30
0.0
 10
85.49089448561224
 20
-123.8601366357015
 30
0.0
 10
85.49089448561224
 20
-123.8601366357015
 30
0.0
 10
85.49089448561224
 20
-134.8596419107296
 30
0.0
 10
85.49089448561224
 20
-134.8596419107296
 30
0.0
 10
85.49089448561224
 20
-135.4122330217025
 30
0.0
 10
85.93878331184855
 20
-135.8600844104795
 30
0.0
 10
86.49066668232815
 20
-135.8600844104795
 30
0.0
 10
86.49066668232815
 20
-135.8600844104795
 30
0.0
 10
97.49070084613834
 20
-135.8600844104795
 30
0.0
 10
97.49070084613834
 20
-135.8600844104795
 30
0.0
 10
98.04258886437799
 20
-135.8600844104795
 30
0.0
 10
98.49043776507737
 20
-135.4122330217025
 30
0.0
 10
98.49043776507737
 20
-134.8596419107296
 30
0.0
 10
98.49043776507737
 20
-134.8596419107296
 30
0.0
 10
86.49066668232815
 20
-134.8596419107296
 30
0.0
 10
86.49066668232815
 20
-134.8596419107296
 30
0.0
 10
86.49066668232815
 20
-134.8596419107296
 30
0.0
 10
86.49066668232815
 20
-131.3601216338264
 30
0.0
 10
86.49066668232815
 20
-131.3601216338264
 30
0.0
 10
86.49066668232815
 20
-131.3601216338264
 30
0.0
 10
98.49043776507737
 20
-131.3601216338264
 30
0.0
 10
98.49043776507737
 20
-131.3601216338264
 30
0.0
 10
98.49043776507737
 20
-131.3601216338264
 30
0.0
 10
99.00997358515625
 20
-131.059696078346
 30
0.0
 10
99.00997358515625
 20
-131.059696078346
 30
0.0
 10
99.00997358515625
 20
-131.059696078346
 30
0.0
 10
103.7903971962749
 20
-131.059696078346
 30
0.0
 10
103.7903971962749
 20
-131.059696078346
 30
0.0
 10
104.1769331755583
 20
-131.059696078346
 30
0.0
 10
104.4904467786711
 20
-130.7468880228689
 30
0.0
 10
104.4904467786711
 20
-130.359643856299
 30
0.0
 10
104.4904467786711
 20
-130.359643856299
 30
0.0
 10
86.49066668232815
 20
-130.359643856299
 30
0.0
 10
86.49066668232815
 20
-130.359643856299
 30
0.0
 10
86.49066668232815
 20
-130.359643856299
 30
0.0
 10
86.49066668232815
 20
-122.8596941359519
 30
0.0
 10
86.49066668232815
 20
-122.8596941359519
 30
0.0
  0
HATCH
  5
4A
330
1F
100
AcDbEntity
  8
_U+30EC_U+30A4_U+30E4_U+30FC 1
 62
   253
420
 11711154
100
AcDbHatch
 10
0.0
 20
0.0
 30
0.0
210
0.0
220
0.0
230
1.0
  2
SOLID
 70
     1
 71
     0
 91
        1
 92
        1
 93
        1
 72
     4
 94
        3
 73
     0
 74
     1
 95
       44
 96
       40
 40
0.0
 40
0.0
 40
0.0
 40
0.0
 40
1.0
 40
1.0
 40
1.0
 40
2.0
 40
2.0
 40
2.0
 40
3.0
 40
3.0
 40
3.0
 40
4.0
 40
4.0
 40
4.0
 40
5.0
 40
5.0
 40
5.0
 40
6.0
 40
6.0
 40
6.0
 40
7.0
 40
7.0
 40
7.0
 40
8.0
 40
8.0
 40
8.0
 40
9.0
 40
9.0
 40
9.0
 40
10.0
 40
10.0
 40
10.0
 40
11.0
 40
11.0
 40
11.0
 40
12.0
 40
12.0
 40
12.0
 40
13.0
 40
13.0
 40
13.0
 40
13.0
 10
86.49066668232815
 20
-122.8596941359519
 10
85.93878331184855
 20
-122.8596941359519
 10
85.49089448561224
 20
-123.3075455247286
 10
85.49089448561224
 20
-123.8601366357015
 10
85.49089448561224
 20
-123.8601366357015
 10
85.49089448561224
 20
-134.8596419107296
 10
85.49089448561224
 20
-134.8596419107296
 10
85.49089448561224
 20
-135.4122330217025
 10
85.93878331184855
 20
-135.8600844104795
 10
86.49066668232815
 20
-135.8600844104795
 10
86.49066668232815
 20
-135.8600844104795
 10
97.49070084613834
 20
-135.8600844104795
 10
97.49070084613834
 20
-135.8600844104795
 10
98.04258886437799
 20
-135.8600844104795
 10
98.49043776507737
 20
-135.4122330217025
 10
98.49043776507737
 20
-134.8596419107296
 10
98.49043776507737
 20
-134.8596419107296
 10
86.49066668232815
 20
-134.8596419107296
 10
86.49066668232815
 20
-134.8596419107296
 10
86.49066668232815
 20
-134.8596419107296
 10
86.49066668232815
 20
-131.3601216338264
 10
86.49066668232815
 20
-131.3601216338264
 10
86.49066668232815
 20
-131.3601216338264
 10
98.49043776507737
 20
-131.3601216338264
 10
98.49043776507737
 20
-131.3601216338264
 10
98.49043776507737
 20
-131.3601216338264
 10
99.00997358515625
 20
-131.059696078346
 10
99.00997358515625
 20
-131.059696078346
 10
99.00997358515625
 20
-131.059696078346
 10
103.7903971962749
 20
-131.059696078346
 10
103.7903971962749
 20
-131.059696078346
 10
104.1769331755583
 20
-131.059696078346
 10
104.4904467786711
 20
-130.7468880228689
 10
104.4904467786711
 20
-130.359643856299
 10
104.4904467786711
 20
-130.359643856299
 10
86.49066668232815
 20
-130.359643856299
 10
86.49066668232815
 20
-130.359643856299
 10
86.49066668232815
 20
-130.359643856299
 10
86.49066668232815
 20
-122.8596941359519
 10
86.49066668232815
 20
-122.8596941359519
 97
        0
 97
        0
 75
     2
 76
     1
 98
        0
  0
POLYLINE
  5
4B
330
1F
100
AcDbEntity
  8
_U+30EC_U+30A4_U+30E4_U+30FC 1
 62
     7
420
 16777215
370
    25
100
AcDb2dPolyline
 66
     1
 10
0.0
 20
0.0
 30
0.0
  0
VERTEX
  5
4C
330
4B
100
AcDbEntity
  8
_U+30EC_U+30A4_U+30E4_U+30FC 1
 62
     7
420
 16777215
370
    25
100
AcDbVertex
100
AcDb2dVertex
 10
86.49066668232815
 20
-134.8596419107296
 30
0.0
  0
VERTEX
  5
4D
330
4B
100
AcDbEntity
  8
_U+30EC_U+30A4_U+30E4_U+30FC 1
 62
     7
420
 16777215
370
    25
100
AcDbVertex
100
AcDb2dVertex
 10
98.49043776507737
 20
-134.8596419107296
 30
0.0
  0
SEQEND
  5
4E
330
4B
100
AcDbEntity
  8
_U+30EC_U+30A4_U+30E4_U+30FC 1
 62
     7
420
 16777215
370
    25
  0
POLYLINE
  5
4F
330
1F
100
AcDbEntity
  8
_U+30EC_U+30A4_U+30E4_U+30FC 1
 62
     7
420
 16777215
370
    25
100
AcDb2dPolyline
 66
     1
 10
0.0
 20
0.0
 30
0.0
  0
VERTEX
  5
50
330
4F
100
AcDbEntity
  8
_U+30EC_U+30A4_U+30E4_U+30FC 1
 62
     7
420
 16777215
370
    25
100
AcDbVertex
100
AcDb2dVertex
 10
86.49066668232815
 20
-131.3601216338264
 30
0.0
  0
VERTEX
  5
51
330
4F
100
AcDbEntity
  8
_U+30EC_U+30A4_U+30E4_U+30FC 1
 62
     7
420
 16777215
370
    25
100
AcDbVertex
100
AcDb2dVertex
 10
98.49043776507737
 20
-131.3601216338264
 30
0.0
  0
SEQEND
  5
52
330
4F
100
AcDbEntity
  8
_U+30EC_U+30A4_U+30E4_U+30FC 1
 62
     7
420
 16777215
370
    25
  0
POLYLINE
  5
53
330
1F
100
AcDbEntity
  8
_U+30EC_U+30A4_U+30E4_U+30FC 1
 62
     7
420
 16777215
370
    25
100
AcDb2dPolyline
 66
     1
 10
0.0
 20
0.0
 30
0.0
  0
VERTEX
  5
54
330
53
100
AcDbEntity
  8
_U+30EC_U+30A4_U+30E4_U+30FC 1
 62
     7
420
 16777215
370
    25
100
AcDbVertex
100
AcDb2dVertex
 10
86.49066668232815
 20
-135.8600844104795
 30
0.0
  0
VERTEX
  5
55
330
53
100
AcDbEntity
  8
_U+30EC_U+30A4_U+30E4_U+30FC 1
 62
     7
420
 16777215
370
    25
100
AcDbVertex
100
AcDb2dVertex
 10
97.49070084613834
 20
-135.8600844104795
 30
0.0
  0
SEQEND
  5
56
330
53
100
AcDbEntity
  8
_U+30EC_U+30A4_U+30E4_U+30FC 1
 62
     7
420
 16777215
370
    25
  0
POLYLINE
  5
57
330
1F
100
AcDbEntity
  8
_U+30EC_U+30A4_U+30E4_U+30FC 1
 62
     7
420
 16777215
370
    25
100
AcDb2dPolyline
 66
     1
 10
0.0
 20
0.0
 30
0.0
  0
VERTEX
  5
58
330
57
100
AcDbEntity
  8
_U+30EC_U+30A4_U+30E4_U+30FC 1
 62
     7
420
 16777215
370
    25
100
AcDbVertex
100
AcDb2dVertex
 10
85.49089448561224
 20
-123.8601366357015
 30
0.0
  0
VERTEX
  5
59
330
57
100
AcDbEntity
  8
_U+30EC_U+30A4_U+30E4_U+30FC 1
 62
     7
420
 16777215
370
    25
100
AcDbVertex
100
AcDb2dVertex
 10
85.49089448561224
 20
-134.8596419107296
 30
0.0
  0
SEQEND
  5
5A
330
57
100
AcDbEntity
  8
_U+30EC_U+30A4_U+30E4_U+30FC 1
 62
     7
420
 16777215
370
    25
  0
POLYLINE
  5
5B
330
1F
100
AcDbEntity
  8
_U+30EC_U+30A4_U+30E4_U+30FC 1
 62
     7
420
 16777215
370
    25
100
AcDb2dPolyline
 66
     1
 10
0.0
 20
0.0
 30
0.0
  0
VERTEX
  5
5C
330
5B
100
AcDbEntity
  8
_U+30EC_U+30A4_U+30E4_U+30FC 1
 62
     7
420
 16777215
370
    25
100
AcDbVertex
100
AcDb2dVertex
 10
86.49066668232815
 20
-122.8596941359519
 30
0.0
  0
VERTEX
  5
5D
330
5B
100
AcDbEntity
  8
_U+30EC_U+30A4_U+30E4_U+30FC 1
 62
     7
420
 16777215
370
    25
100
AcDbVertex
100
AcDb2dVertex
 10
86.49066668232815
 20
-130.359643856299
 30
0.0
  0
SEQEND
  5
5E
330
5B
100
AcDbEntity
  8
_U+30EC_U+30A4_U+30E4_U+30FC 1
 62
     7
420
 16777215
370
    25
  0
POLYLINE
  5
5F
330
1F
100
AcDbEntity
  8
_U+30EC_U+30A4_U+30E4_U+30FC 1
 62
     7
420
 16777215
370
    25
100
AcDb2dPolyline
 66
     1
 10
0.0
 20
0.0
 30
0.0
  0
VERTEX
  5
60
330
5F
100
AcDbEntity
  8
_U+30EC_U+30A4_U+30E4_U+30FC 1
 62
     7
420
 16777215
370
    25
100
AcDbVertex
100
AcDb2dVertex
 10
86.49066668232815
 20
-130.359643856299
 30
0.0
  0
VERTEX
  5
61
330
5F
100
AcDbEntity
  8
_U+30EC_U+30A4_U+30E4_U+30FC 1
 62
     7
420
 16777215
370
    25
100
AcDbVertex
100
AcDb2dVertex
 10
104.4904467786711
 20
-130.359643856299
 30
0.0
  0
SEQEND
  5
62
330
5F
100
AcDbEntity
  8
_U+30EC_U+30A4_U+30E4_U+30FC 1
 62
     7
420
 16777215
370
    25
  0
POLYLINE
  5
63
330
1F
100
AcDbEntity
  8
_U+30EC_U+30A4_U+30E4_U+30FC 1
 62
     7
420
 16777215
370
    25
100
AcDb2dPolyline
 66
     1
 10
0.0
 20
0.0
 30
0.0
  0
VERTEX
  5
64
330
63
100
AcDbEntity
  8
_U+30EC_U+30A4_U+30E4_U+30FC 1
 62
     7
420
 16777215
370
    25
100
AcDbVertex
100
AcDb2dVertex
 10
86.49066668232815
 20
-131.3601216338264
 30
0.0
  0
VERTEX
  5
65
330
63
100
AcDbEntity
  8
_U+30EC_U+30A4_U+30E4_U+30FC 1
 62
     7
420
 16777215
370
    25
100
AcDbVertex
100
AcDb2dVertex
 10
86.49066668232815
 20
-134.8596419107296
 30
0.0
  0
SEQEND
  5
66
330
63
100
AcDbEntity
  8
_U+30EC_U+30A4_U+30E4_U+30FC 1
 62
     7
420
 16777215
370
    25
  0
POLYLINE
  5
67
330
1F
100
AcDbEntity
  8
_U+30EC_U+30A4_U+30E4_U+30FC 1
 62
     7
420
 16777215
370
    25
100
AcDb2dPolyline
 66
     1
 10
0.0
 20
0.0
 30
0.0
  0
VERTEX
  5
68
330
67
100
AcDbEntity
  8
_U+30EC_U+30A4_U+30E4_U+30FC 1
 62
     7
420
 16777215
370
    25
100
AcDbVertex
100
AcDb2dVertex
 10
99.00997358515625
 20
-131.059696078346
 30
0.0
  0
VERTEX
  5
69
330
67
100
AcDbEntity
  8
_U+30EC_U+30A4_U+30E4_U+30FC 1
 62
     7
420
 16777215
370
    25
100
AcDbVertex
100
AcDb2dVertex
 10
103.7903971962749
 20
-131.059696078346
 30
0.0
  0
SEQEND
  5
6A
330
67
100
AcDbEntity
  8
_U+30EC_U+30A4_U+30E4_U+30FC 1
 62
     7
420
 16777215
370
    25
  0
POLYLINE
  5
6B
330
1F
100
AcDbEntity
  8
_U+30EC_U+30A4_U+30E4_U+30FC 1
 62
     7
420
 16777215
370
    25
100
AcDb2dPolyline
 66
     1
 10
0.0
 20
0.0
 30
0.0
  0
VERTEX
  5
6C
330
6B
100
AcDbEntity
  8
_U+30EC_U+30A4_U+30E4_U+30FC 1
 62
     7
420
 16777215
370
    25
100
AcDbVertex
100
AcDb2dVertex
 10
98.49043776507737
 20
-131.3601216338264
 30
0.0
  0
VERTEX
  5
6D
330
6B
100
AcDbEntity
  8
_U+30EC_U+30A4_U+30E4_U+30FC 1
 62
     7
420
 16777215
370
    25
100
AcDbVertex
100
AcDb2dVertex
 10
99.00997358515625
 20
-131.059696078346
 30
0.0
  0
SEQEND
  5
6E
330
6B
100
AcDbEntity
  8
_U+30EC_U+30A4_U+30E4_U+30FC 1
 62
     7
420
 16777215
370
    25
  0
POLYLINE
  5
6F
330
1F
100
AcDbEntity
  8
_U+30EC_U+30A4_U+30E4_U+30FC 1
 62
     7
420
 16777215
370
     9
100
AcDb2dPolyline
 66
     1
 10
0.0
 20
0.0
 30
0.0
  0
VERTEX
  5
70
330
6F
100
AcDbEntity
  8
_U+30EC_U+30A4_U+30E4_U+30FC 1
 62
     7
420
 16777215
370
     9
100
AcDbVertex
100
AcDb2dVertex
 10
85.78373531147459
 20
-135.5672788549972
 30
0.0
  0
VERTEX
  5
71
330
6F
100
AcDbEntity
  8
_U+30EC_U+30A4_U+30E4_U+30FC 1
 62
     7
420
 16777215
370
     9
100
AcDbVertex
100
AcDb2dVertex
 10
81.49113542098793
 20
-139.8598435761464
 30
0.0
  0
SEQEND
  5
72
330
6F
100
AcDbEntity
  8
_U+30EC_U+30A4_U+30E4_U+30FC 1
 62
     7
420
 16777215
370
     9
  0
POLYLINE
  5
73
330
1F
100
AcDbEntity
  8
_U+30EC_U+30A4_U+30E4_U+30FC 1
 62
     7
420
 16777215
370
     9
100
AcDb2dPolyline
 66
     1
 10
0.0
 20
0.0
 30
0.0
  0
VERTEX
  5
74
330
73
100
AcDbEntity
  8
_U+30EC_U+30A4_U+30E4_U+30FC 1
 62
     7
420
 16777215
370
     9
100
AcDbVertex
100
AcDb2dVertex
 10
77.2784749729063
 20
-139.8598435761464
 30
0.0
  0
VERTEX
  5
75
330
73
100
AcDbEntity
  8
_U+30EC_U+30A4_U+30E4_U+30FC 1
 62
     7
420
 16777215
370
     9
100
AcDbVertex
100
AcDb2dVertex
 10
81.49113542098793
 20
-139.8598435761464
 30
0.0
  0
SEQEND
  5
76
330
73
100
AcDbEntity
  8
_U+30EC_U+30A4_U+30E4_U+30FC 1
 62
     7
420
 16777215
370
     9
  0
POLYLINE
  5
77
330
1F
100
AcDbEntity
  8
_U+30EC_U+30A4_U+30E4_U+30FC 1
 62
     7
420
 16777215
370
     9
100
AcDb2dPolyline
 66
     1
 10
0.0
 20
0.0
 30
0.0
  0
VERTEX
  5
78
330
77
100
AcDbEntity
  8
_U+30EC_U+30A4_U+30E4_U+30FC 1
 62
     7
420
 16777215
370
     9
100
AcDbVertex
100
AcDb2dVertex
 10
85.78373531147459
 20
-135.5672788549972
 30
0.0
  0
VERTEX
  5
79
330
77
100
AcDbEntity
  8
_U+30EC_U+30A4_U+30E4_U+30FC 1
 62
     7
420
 16777215
370
     9
100
AcDbVertex
100
AcDb2dVertex
 10
84.48494867794273
 20
-136.3169316325875
 30
0.0
  0
SEQEND
  5
7A
330
77
100
AcDbEntity
  8
_U+30EC_U+30A4_U+30E4_U+30FC 1
 62
     7
420
 16777215
370
     9
  0
POLYLINE
  5
7B
330
1F
100
AcDbEntity
  8
_U+30EC_U+30A4_U+30E4_U+30FC 1
 62
     7
420
 16777215
370
     9
100
AcDb2dPolyline
 66
     1
 10
0.0
 20
0.0
 30
0.0
  0
VERTEX
  5
7C
330
7B
100
AcDbEntity
  8
_U+30EC_U+30A4_U+30E4_U+30FC 1
 62
     7
420
 16777215
370
     9
100
AcDbVertex
100
AcDb2dVertex
 10
85.78373531147459
 20
-135.5672788549972
 30
0.0
  0
VERTEX
  5
7D
330
7B
100
AcDbEntity
  8
_U+30EC_U+30A4_U+30E4_U+30FC 1
 62
     7
420
 16777215
370
     9
100
AcDbVertex
100
AcDb2dVertex
 10
85.03408255282204
 20
-136.8660655213391
 30
0.0
  0
SEQEND
  5
7E
330
7B
100
AcDbEntity
  8
_U+30EC_U+30A4_U+30E4_U+30FC 1
 62
     7
420
 16777215
370
     9
  0
SPLINE
  5
7F
330
1F
100
AcDbEntity
  8
_U+30EC_U+30A4_U+30E4_U+30FC 1
 62
     7
420
 16777215
370
    25
100
AcDbSpline
210
0.0
220
0.0
230
1.0
 70
     8
 71
     3
 72
     8
 73
     4
 74
     0
 42
0.0000000001
 43
0.0000000001
 12
1.0
 22
0.0
 32
0.0
 13
1.0
 23
0.0
 33
0.0
 40
0.0
 40
0.0
 40
0.0
 40
0.0
 40
1.0
 40
1.0
 40
1.0
 40
1.0
 10
85.49089448561224
 20
-134.8596419107296
 30
0.0
 10
85.49089448561224
 20
-135.4122330217025
 30
0.0
 10
85.93878331184855
 20
-135.8600844104795
 30
0.0
 10
86.49066668232815
 20
-135.8600844104795
 30
0.0
  0
SPLINE
  5
80
330
1F
100
AcDbEntity
  8
_U+30EC_U+30A4_U+30E4_U+30FC 1
 62
     7
420
 16777215
370
    25
100
AcDbSpline
210
0.0
220
0.0
230
1.0
 70
     8
 71
     3
 72
     8
 73
     4
 74
     0
 42
0.0000000001
 43
0.0000000001
 12
1.0
 22
0.0
 32
0.0
 13
1.0
 23
0.0
 33
0.0
 40
0.0
 40
0.0
 40
0.0
 40
0.0
 40
1.0
 40
1.0
 40
1.0
 40
1.0
 10
86.49066668232815
 20
-122.8596941359519
 30
0.0
 10
85.93878331184855
 20
-122.8596941359519
 30
0.0
 10
85.49089448561224
 20
-123.3075455247286
 30
0.0
 10
85.49089448561224
 20
-123.8601366357015
 30
0.0
  0
SPLINE
  5
81
330
1F
100
AcDbEntity
  8
_U+30EC_U+30A4_U+30E4_U+30FC 1
 62
     7
420
 16777215
370
    25
100
AcDbSpline
210
0.0
220
0.0
230
1.0
 70
     8
 71
     3
 72
     8
 73
     4
 74
     0
 42
0.0000000001
 43
0.0000000001
 12
1.0
 22
0.0
 32
0.0
 13
1.0
 23
0.0
 33
0.0
 40
0.0
 40
0.0
 40
0.0
 40
0.0
 40
1.0
 40
1.0
 40
1.0
 40
1.0
 10
97.49070084613834
 20
-135.8600844104795
 30
0.0
 10
98.04258886437799
 20
-135.8600844104795
 30
0.0
 10
98.49043776507737
 20
-135.4122330217025
 30
0.0
 10
98.49043776507737
 20
-134.8596419107296
 30
0.0
  0
SPLINE
  5
82
330
1F
100
AcDbEntity
  8
_U+30EC_U+30A4_U+30E4_U+30FC 1
 62
     7
420
 16777215
370
    25
100
AcDbSpline
210
0.0
220
0.0
230
1.0
 70
     8
 71
     3
 72
     8
 73
     4
 74
     0
 42
0.0000000001
 43
0.0000000001
 12
1.0
 22
0.0
 32
0.0
 13
1.0
 23
0.0
 33
0.0
 40
0.0
 40
0.0
 40
0.0
 40
0.0
 40
1.0
 40
1.0
 40
1.0
 40
1.0
 10
103.7903971962749
 20
-131.059696078346
 30
0.0
 10
104.1769331755583
 20
-131.059696078346
 30
0.0
 10
104.4904467786711
 20
-130.7468880228689
 30
0.0
 10
104.4904467786711
 20
-130.359643856299
 30
0.0
  0
SPLINE
  5
83
330
1F
100
AcDbEntity
  8
_U+30EC_U+30A4_U+30E4_U+30FC 1
 62
     7
420
 16777215
370
     9
100
AcDbSpline
210
0.0
220
0.0
230
1.0
 70
    11
 71
     3
 72
    17
 73
    13
 74
     0
 42
0.0000000001
 43
0.0000000001
 12
1.0
 22
0.0
 32
0.0
 13
1.0
 23
0.0
 33
0.0
 40
0.0
 40
0.0
 40
0.0
 40
0.0
 40
1.0
 40
1.0
 40
1.0
 40
2.0
 40
2.0
 40
2.0
 40
3.0
 40
3.0
 40
3.0
 40
4.0
 40
4.0
 40
4.0
 40
4.0
 10
104.5903534427889
 20
-118.859934970285
 30
0.0
 10
104.5903534427889
 20
-118.8047958036323
 30
0.0
 10
104.5455506661541
 20
-118.7600283036434
 30
0.0
 10
104.4904467786711
 20
-118.7600283036434
 30
0.0
 10
104.4353076134111
 20
-118.7600283036434
 30
0.0
 10
104.3905401145532
 20
-118.8047958036323
 30
0.0
 10
104.3905401145532
 20
-118.859934970285
 30
0.0
 10
104.3905401145532
 20
-118.9150388591602
 30
0.0
 10
104.4353076134111
 20
-118.9598416369267
 30
0.0
 10
104.4904467786711
 20
-118.9598416369267
 30
0.0
 10
104.5455506661541
 20
-118.9598416369267
 30
0.0
 10
104.5903534427889
 20
-118.9150388591602
 30
0.0
 10
104.5903534427889
 20
-118.859934970285
 30
0.0
  0
SPLINE
  5
84
330
1F
100
AcDbEntity
  8
_U+30EC_U+30A4_U+30E4_U+30FC 1
 62
     7
420
 16777215
370
     9
100
AcDbSpline
210
0.0
220
0.0
230
1.0
 70
    11
 71
     3
 72
    17
 73
    13
 74
     0
 42
0.0000000001
 43
0.0000000001
 12
1.0
 22
0.0
 32
0.0
 13
1.0
 23
0.0
 33
0.0
 40
0.0
 40
0.0
 40
0.0
 40
0.0
 40
1.0
 40
1.0
 40
1.0
 40
2.0
 40
2.0
 40
2.0
 40
3.0
 40
3.0
 40
3.0
 40
4.0
 40
4.0
 40
4.0
 40
4.0
 10
86.59074973533038
 20
-118.859934970285
 30
0.0
 10
86.59074973533038
 20
-118.8047958036323
 30
0.0
 10
86.54594695869561
 20
-118.7600283036434
 30
0.0
 10
86.49084307121254
 20
-118.7600283036434
 30
0.0
 10
86.4357039059526
 20
-118.7600283036434
 30
0.0
 10
86.3909364070947
 20
-118.8047958036323
 30
0.0
 10
86.3909364070947
 20
-118.859934970285
 30
0.0
 10
86.3909364070947
 20
-118.9150388591602
 30
0.0
 10
86.4357039059526
 20
-118.9598416369267
 30
0.0
 10
86.49084307121254
 20
-118.9598416369267
 30
0.0
 10
86.54594695869561
 20
-118.9598416369267
 30
0.0
 10
86.59074973533038
 20
-118.9150388591602
 30
0.0
 10
86.59074973533038
 20
-118.859934970285
 30
0.0
  0
SPLINE
  5
85
330
1F
100
AcDbEntity
  8
_U+30EC_U+30A4_U+30E4_U+30FC 1
 62
     7
420
 16777215
370
     9
100
AcDbSpline
210
0.0
220
0.0
230
1.0
 70
    11
 71
     3
 72
    17
 73
    13
 74
     0
 42
0.0000000001
 43
0.0000000001
 12
1.0
 22
0.0
 32
0.0
 13
1.0
 23
0.0
 33
0.0
 40
0.0
 40
0.0
 40
0.0
 40
0.0
 40
1.0
 40
1.0
 40
1.0
 40
2.0
 40
2.0
 40
2.0
 40
3.0
 40
3.0
 40
3.0
 40
4.0
 40
4.0
 40
4.0
 40
4.0
 10
85.59080114973008
 20
-126.3598846906321
 30
0.0
 10
85.59080114973008
 20
-126.3047808017572
 30
0.0
 10
85.54603365087219
 20
-126.2599780239905
 30
0.0
 10
85.49089448561224
 20
-126.2599780239905
 30
0.0
 10
85.43579059812917
 20
-126.2599780239905
 30
0.0
 10
85.3909878214944
 20
-126.3047808017572
 30
0.0
 10
85.3909878214944
 20
-126.3598846906321
 30
0.0
 10
85.3909878214944
 20
-126.4150238572852
 30
0.0
 10
85.43579059812917
 20
-126.4598266350516
 30
0.0
 10
85.49089448561224
 20
-126.4598266350516
 30
0.0
 10
85.54603365087219
 20
-126.4598266350516
 30
0.0
 10
85.59080114973008
 20
-126.4150238572852
 30
0.0
 10
85.59080114973008
 20
-126.3598846906321
 30
0.0
  0
SPLINE
  5
86
330
1F
100
AcDbEntity
  8
_U+30EC_U+30A4_U+30E4_U+30FC 1
 62
     7
420
 16777215
370
     9
100
AcDbSpline
210
0.0
220
0.0
230
1.0
 70
    11
 71
     3
 72
    17
 73
    13
 74
     0
 42
0.0000000001
 43
0.0000000001
 12
1.0
 22
0.0
 32
0.0
 13
1.0
 23
0.0
 33
0.0
 40
0.0
 40
0.0
 40
0.0
 40
0.0
 40
1.0
 40
1.0
 40
1.0
 40
2.0
 40
2.0
 40
2.0
 40
3.0
 40
3.0
 40
3.0
 40
4.0
 40
4.0
 40
4.0
 40
4.0
 10
86.59057334644599
 20
-126.3598846906321
 30
0.0
 10
86.59057334644599
 20
-126.3047808017572
 30
0.0
 10
86.5458058475881
 20
-126.2599780239905
 30
0.0
 10
86.49066668232815
 20
-126.2599780239905
 30
0.0
 10
86.43556279484508
 20
-126.2599780239905
 30
0.0
 10
86.39076001821032
 20
-126.3047808017572
 30
0.0
 10
86.39076001821032
 20
-126.3598846906321
 30
0.0
 10
86.39076001821032
 20
-126.4150238572852
 30
0.0
 10
86.43556279484508
 20
-126.4598266350516
 30
0.0
 10
86.49066668232815
 20
-126.4598266350516
 30
0.0
 10
86.5458058475881
 20
-126.4598266350516
 30
0.0
 10
86.59057334644599
 20
-126.4150238572852
 30
0.0
 10
86.59057334644599
 20
-126.3598846906321
 30
0.0
  0
SPLINE
  5
87
330
1F
100
AcDbEntity
  8
_U+30EC_U+30A4_U+30E4_U+30FC 1
 62
     7
420
 16777215
370
     9
100
AcDbSpline
210
0.0
220
0.0
230
1.0
 70
    11
 71
     3
 72
    17
 73
    13
 74
     0
 42
0.0000000001
 43
0.0000000001
 12
1.0
 22
0.0
 32
0.0
 13
1.0
 23
0.0
 33
0.0
 40
0.0
 40
0.0
 40
0.0
 40
0.0
 40
1.0
 40
1.0
 40
1.0
 40
2.0
 40
2.0
 40
2.0
 40
3.0
 40
3.0
 40
3.0
 40
4.0
 40
4.0
 40
4.0
 40
4.0
 10
81.59104208510577
 20
-135.8600844104795
 30
0.0
 10
81.59104208510577
 20
-135.8049805216046
 30
0.0
 10
81.54627458624788
 20
-135.7601777438379
 30
0.0
 10
81.49113542098793
 20
-135.7601777438379
 30
0.0
 10
81.43532597796731
 20
-135.7601777438379
 30
0.0
 10
81.39055847910942
 20
-135.8049805216046
 30
0.0
 10
81.39055847910942
 20
-135.8600844104795
 30
0.0
 10
81.39055847910942
 20
-135.9152235771326
 30
0.0
 10
81.43532597796731
 20
-135.9599910771211
 30
0.0
 10
81.49113542098793
 20
-135.9599910771211
 30
0.0
 10
81.54627458624788
 20
-135.9599910771211
 30
0.0
 10
81.59104208510577
 20
-135.9152235771326
 30
0.0
 10
81.59104208510577
 20
-135.8600844104795
 30
0.0
  0
SPLINE
  5
88
330
1F
100
AcDbEntity
  8
_U+30EC_U+30A4_U+30E4_U+30FC 1
 62
     7
420
 16777215
370
     9
100
AcDbSpline
210
0.0
220
0.0
230
1.0
 70
    11
 71
     3
 72
    17
 73
    13
 74
     0
 42
0.0000000001
 43
0.0000000001
 12
1.0
 22
0.0
 32
0.0
 13
1.0
 23
0.0
 33
0.0
 40
0.0
 40
0.0
 40
0.0
 40
0.0
 40
1.0
 40
1.0
 40
1.0
 40
2.0
 40
2.0
 40
2.0
 40
3.0
 40
3.0
 40
3.0
 40
4.0
 40
4.0
 40
4.0
 40
4.0
 10
81.59104208510577
 20
-122.8596941359519
 30
0.0
 10
81.59104208510577
 20
-122.8045549692988
 30
0.0
 10
81.54627458624788
 20
-122.7597874693099
 30
0.0
 10
81.49113542098793
 20
-122.7597874693099
 30
0.0
 10
81.43532597796731
 20
-122.7597874693099
 30
0.0
 10
81.39055847910942
 20
-122.8045549692988
 30
0.0
 10
81.39055847910942
 20
-122.8596941359519
 30
0.0
 10
81.39055847910942
 20
-122.9155035803823
 30
0.0
 10
81.43532597796731
 20
-122.9602710803712
 30
0.0
 10
81.49113542098793
 20
-122.9602710803712
 30
0.0
 10
81.54627458624788
 20
-122.9602710803712
 30
0.0
 10
81.59104208510577
 20
-122.9155035803823
 30
0.0
 10
81.59104208510577
 20
-122.8596941359519
 30
0.0
  0
SPLINE
  5
89
330
1F
100
AcDbEntity
  8
_U+30EC_U+30A4_U+30E4_U+30FC 1
 62
     7
420
 16777215
370
     9
100
AcDbSpline
210
0.0
220
0.0
230
1.0
 70
    11
 71
     3
 72
    17
 73
    13
 74
     0
 42
0.0000000001
 43
0.0000000001
 12
1.0
 22
0.0
 32
0.0
 13
1.0
 23
0.0
 33
0.0
 40
0.0
 40
0.0
 40
0.0
 40
0.0
 40
1.0
 40
1.0
 40
1.0
 40
2.0
 40
2.0
 40
2.0
 40
3.0
 40
3.0
 40
3.0
 40
4.0
 40
4.0
 40
4.0
 40
4.0
 10
98.59037970697209
 20
-139.8598435761464
 30
0.0
 10
98.59037970697209
 20
-139.8047396872708
 30
0.0
 10
98.54557693033732
 20
-139.7599369095047
 30
0.0
 10
98.49043776507737
 20
-139.7599369095047
 30
0.0
 10
98.4353338775943
 20
-139.7599369095047
 30
0.0
 10
98.39053110095954
 20
-139.8047396872708
 30
0.0
 10
98.39053110095954
 20
-139.8598435761464
 30
0.0
 10
98.39053110095954
 20
-139.9149827427988
 30
0.0
 10
98.4353338775943
 20
-139.959750242788
 30
0.0
 10
98.49043776507737
 20
-139.959750242788
 30
0.0
 10
98.54557693033732
 20
-139.959750242788
 30
0.0
 10
98.59037970697209
 20
-139.9149827427988
 30
0.0
 10
98.59037970697209
 20
-139.8598435761464
 30
0.0
  0
SPLINE
  5
8A
330
1F
100
AcDbEntity
  8
_U+30EC_U+30A4_U+30E4_U+30FC 1
 62
     7
420
 16777215
370
     9
100
AcDbSpline
210
0.0
220
0.0
230
1.0
 70
    11
 71
     3
 72
    17
 73
    13
 74
     0
 42
0.0000000001
 43
0.0000000001
 12
1.0
 22
0.0
 32
0.0
 13
1.0
 23
0.0
 33
0.0
 40
0.0
 40
0.0
 40
0.0
 40
0.0
 40
1.0
 40
1.0
 40
1.0
 40
2.0
 40
2.0
 40
2.0
 40
3.0
 40
3.0
 40
3.0
 40
4.0
 40
4.0
 40
4.0
 40
4.0
 10
85.59080114973008
 20
-139.8598435761464
 30
0.0
 10
85.59080114973008
 20
-139.8047396872708
 30
0.0
 10
85.54603365087219
 20
-139.7599369095047
 30
0.0
 10
85.49089448561224
 20
-139.7599369095047
 30
0.0
 10
85.43579059812917
 20
-139.7599369095047
 30
0.0
 10
85.3909878214944
 20
-139.8047396872708
 30
0.0
 10
85.3909878214944
 20
-139.8598435761464
 30
0.0
 10
85.3909878214944
 20
-139.9149827427988
 30
0.0
 10
85.43579059812917
 20
-139.959750242788
 30
0.0
 10
85.49089448561224
 20
-139.959750242788
 30
0.0
 10
85.54603365087219
 20
-139.959750242788
 30
0.0
 10
85.59080114973008
 20
-139.9149827427988
 30
0.0
 10
85.59080114973008
 20
-139.8598435761464
 30
0.0
  0
SPLINE
  5
8B
330
1F
100
AcDbEntity
  8
_U+30EC_U+30A4_U+30E4_U+30FC 1
 62
     7
420
 16777215
370
     9
100
AcDbSpline
210
0.0
220
0.0
230
1.0
 70
    11
 71
     3
 72
    17
 73
    13
 74
     0
 42
0.0000000001
 43
0.0000000001
 12
1.0
 22
0.0
 32
0.0
 13
1.0
 23
0.0
 33
0.0
 40
0.0
 40
0.0
 40
0.0
 40
0.0
 40
1.0
 40
1.0
 40
1.0
 40
2.0
 40
2.0
 40
2.0
 40
3.0
 40
3.0
 40
3.0
 40
4.0
 40
4.0
 40
4.0
 40
4.0
 10
102.5908090493571
 20
-131.3601216338264
 30
0.0
 10
102.5908090493571
 20
-131.304982467174
 30
0.0
 10
102.5460062727223
 20
-131.2602149671848
 30
0.0
 10
102.4909023852392
 20
-131.2602149671848
 30
0.0
 10
102.4350929422186
 20
-131.2602149671848
 30
0.0
 10
102.3902901655838
 20
-131.304982467174
 30
0.0
 10
102.3902901655838
 20
-131.3601216338264
 30
0.0
 10
102.3902901655838
 20
-131.415225522702
 30
0.0
 10
102.4350929422186
 20
-131.4600283004681
 30
0.0
 10
102.4909023852392
 20
-131.4600283004681
 30
0.0
 10
102.5460062727223
 20
-131.4600283004681
 30
0.0
 10
102.5908090493571
 20
-131.415225522702
 30
0.0
 10
102.5908090493571
 20
-131.3601216338264
 30
0.0
  0
SPLINE
  5
8C
330
1F
100
AcDbEntity
  8
_U+30EC_U+30A4_U+30E4_U+30FC 1
 62
     7
420
 16777215
370
     9
100
AcDbSpline
210
0.0
220
0.0
230
1.0
 70
    11
 71
     3
 72
    17
 73
    13
 74
     0
 42
0.0000000001
 43
0.0000000001
 12
1.0
 22
0.0
 32
0.0
 13
1.0
 23
0.0
 33
0.0
 40
0.0
 40
0.0
 40
0.0
 40
0.0
 40
1.0
 40
1.0
 40
1.0
 40
2.0
 40
2.0
 40
2.0
 40
3.0
 40
3.0
 40
3.0
 40
4.0
 40
4.0
 40
4.0
 40
4.0
 10
102.5908090493571
 20
-134.8596419107296
 30
0.0
 10
102.5908090493571
 20
-134.8045027440765
 30
0.0
 10
102.5460062727223
 20
-134.7597352440879
 30
0.0
 10
102.4909023852392
 20
-134.7597352440879
 30
0.0
 10
102.4350929422186
 20
-134.7597352440879
 30
0.0
 10
102.3902901655838
 20
-134.8045027440765
 30
0.0
 10
102.3902901655838
 20
-134.8596419107296
 30
0.0
 10
102.3902901655838
 20
-134.91545135516
 30
0.0
 10
102.4350929422186
 20
-134.9602541329268
 30
0.0
 10
102.4909023852392
 20
-134.9602541329268
 30
0.0
 10
102.5460062727223
 20
-134.9602541329268
 30
0.0
 10
102.5908090493571
 20
-134.91545135516
 30
0.0
 10
102.5908090493571
 20
-134.8596419107296
 30
0.0
  0
INSERT
  5
8E
330
1F
100
AcDbEntity
  8
_U+30EC_U+30A4_U+30E4_U+30FC 1
100
AcDbBlockReference
  2
block 2
 10
0.0
 20
0.0
 30
0.0
  0
POLYLINE
  5
96
330
1F
100
AcDbEntity
  8
_U+30EC_U+30A4_U+30E4_U+30FC 1
 62
     7
420
 16777215
370
     9
100
AcDb2dPolyline
 66
     1
 10
0.0
 20
0.0
 30
0.0
  0
VERTEX
  5
97
330
96
100
AcDbEntity
  8
_U+30EC_U+30A4_U+30E4_U+30FC 1
 62
     7
420
 16777215
370
     9
100
AcDbVertex
100
AcDb2dVertex
 10
86.49084307121254
 20
-118.859934970285
 30
0.0
  0
VERTEX
  5
98
330
96
100
AcDbEntity
  8
_U+30EC_U+30A4_U+30E4_U+30FC 1
 62
     7
420
 16777215
370
     9
100
AcDbVertex
100
AcDb2dVertex
 10
104.4904467786711
 20
-118.859934970285
 30
0.0
  0
SEQEND
  5
99
330
96
100
AcDbEntity
  8
_U+30EC_U+30A4_U+30E4_U+30FC 1
 62
     7
420
 16777215
370
     9
  0
POLYLINE
  5
9A
330
1F
100
AcDbEntity
  8
_U+30EC_U+30A4_U+30E4_U+30FC 1
 62
     7
420
 16777215
370
     9
100
AcDb2dPolyline
 66
     1
 10
0.0
 20
0.0
 30
0.0
  0
VERTEX
  5
9B
330
9A
100
AcDbEntity
  8
_U+30EC_U+30A4_U+30E4_U+30FC 1
 62
     7
420
 16777215
370
     9
100
AcDbVertex
100
AcDb2dVertex
 10
86.49084307121254
 20
-121.3197133030034
 30
0.0
  0
VERTEX
  5
9C
330
9A
100
AcDbEntity
  8
_U+30EC_U+30A4_U+30E4_U+30FC 1
 62
     7
420
 16777215
370
     9
100
AcDbVertex
100
AcDb2dVertex
 10
86.49084307121254
 20
-117.8601627483128
 30
0.0
  0
SEQEND
  5
9D
330
9A
100
AcDbEntity
  8
_U+30EC_U+30A4_U+30E4_U+30FC 1
 62
     7
420
 16777215
370
     9
  0
POLYLINE
  5
9E
330
1F
100
AcDbEntity
  8
_U+30EC_U+30A4_U+30E4_U+30FC 1
 62
     7
420
 16777215
370
     9
100
AcDb2dPolyline
 66
     1
 10
0.0
 20
0.0
 30
0.0
  0
VERTEX
  5
9F
330
9E
100
AcDbEntity
  8
_U+30EC_U+30A4_U+30E4_U+30FC 1
 62
     7
420
 16777215
370
     9
100
AcDbVertex
100
AcDb2dVertex
 10
104.4904467786711
 20
-124.8199391354618
 30
0.0
  0
VERTEX
  5
A0
330
9E
100
AcDbEntity
  8
_U+30EC_U+30A4_U+30E4_U+30FC 1
 62
     7
420
 16777215
370
     9
100
AcDbVertex
100
AcDb2dVertex
 10
104.4904467786711
 20
-117.8601627483128
 30
0.0
  0
SEQEND
  5
A1
330
9E
100
AcDbEntity
  8
_U+30EC_U+30A4_U+30E4_U+30FC 1
 62
     7
420
 16777215
370
     9
  0
INSERT
  5
A3
330
1F
100
AcDbEntity
  8
_U+30EC_U+30A4_U+30E4_U+30FC 1
100
AcDbBlockReference
  2
block 3
 10
0.0
 20
0.0
 30
0.0
  0
POLYLINE
  5
AC
330
1F
100
AcDbEntity
  8
_U+30EC_U+30A4_U+30E4_U+30FC 1
 62
     7
420
 16777215
370
     9
100
AcDb2dPolyline
 66
     1
 10
0.0
 20
0.0
 30
0.0
  0
VERTEX
  5
AD
330
AC
100
AcDbEntity
  8
_U+30EC_U+30A4_U+30E4_U+30FC 1
 62
     7
420
 16777215
370
     9
100
AcDbVertex
100
AcDb2dVertex
 10
86.49066668232815
 20
-126.3598846906321
 30
0.0
  0
VERTEX
  5
AE
330
AC
100
AcDbEntity
  8
_U+30EC_U+30A4_U+30E4_U+30FC 1
 62
     7
420
 16777215
370
     9
100
AcDbVertex
100
AcDb2dVertex
 10
90.26097908613947
 20
-126.3598846906321
 30
0.0
  0
SEQEND
  5
AF
330
AC
100
AcDbEntity
  8
_U+30EC_U+30A4_U+30E4_U+30FC 1
 62
     7
420
 16777215
370
     9
  0
POLYLINE
  5
B0
330
1F
100
AcDbEntity
  8
_U+30EC_U+30A4_U+30E4_U+30FC 1
 62
     7
420
 16777215
370
     9
100
AcDb2dPolyline
 66
     1
 10
0.0
 20
0.0
 30
0.0
  0
VERTEX
  5
B1
330
B0
100
AcDbEntity
  8
_U+30EC_U+30A4_U+30E4_U+30FC 1
 62
     7
420
 16777215
370
     9
100
AcDbVertex
100
AcDb2dVertex
 10
84.49112228889634
 20
-126.3598846906321
 30
0.0
  0
VERTEX
  5
B2
330
B0
100
AcDbEntity
  8
_U+30EC_U+30A4_U+30E4_U+30FC 1
 62
     7
420
 16777215
370
     9
100
AcDbVertex
100
AcDb2dVertex
 10
86.49066668232815
 20
-126.3598846906321
 30
0.0
  0
SEQEND
  5
B3
330
B0
100
AcDbEntity
  8
_U+30EC_U+30A4_U+30E4_U+30FC 1
 62
     7
420
 16777215
370
     9
  0
INSERT
  5
B5
330
1F
100
AcDbEntity
  8
_U+30EC_U+30A4_U+30E4_U+30FC 1
100
AcDbBlockReference
  2
block 4
 10
0.0
 20
0.0
 30
0.0
  0
POLYLINE
  5
BA
330
1F
100
AcDbEntity
  8
_U+30EC_U+30A4_U+30E4_U+30FC 1
 62
     7
420
 16777215
370
     9
100
AcDb2dPolyline
 66
     1
 10
0.0
 20
0.0
 30
0.0
  0
VERTEX
  5
BB
330
BA
100
AcDbEntity
  8
_U+30EC_U+30A4_U+30E4_U+30FC 1
 62
     7
420
 16777215
370
     9
100
AcDbVertex
100
AcDb2dVertex
 10
85.49089448561224
 20
-139.8598435761464
 30
0.0
  0
VERTEX
  5
BC
330
BA
100
AcDbEntity
  8
_U+30EC_U+30A4_U+30E4_U+30FC 1
 62
     7
420
 16777215
370
     9
100
AcDbVertex
100
AcDb2dVertex
 10
98.49043776507737
 20
-139.8598435761464
 30
0.0
  0
SEQEND
  5
BD
330
BA
100
AcDbEntity
  8
_U+30EC_U+30A4_U+30E4_U+30FC 1
 62
     7
420
 16777215
370
     9
  0
POLYLINE
  5
BE
330
1F
100
AcDbEntity
  8
_U+30EC_U+30A4_U+30E4_U+30FC 1
 62
     7
420
 16777215
370
     9
100
AcDb2dPolyline
 66
     1
 10
0.0
 20
0.0
 30
0.0
  0
VERTEX
  5
BF
330
BE
100
AcDbEntity
  8
_U+30EC_U+30A4_U+30E4_U+30FC 1
 62
     7
420
 16777215
370
     9
100
AcDbVertex
100
AcDb2dVertex
 10
85.49089448561224
 20
-137.4000652434277
 30
0.0
  0
VERTEX
  5
C0
330
BE
100
AcDbEntity
  8
_U+30EC_U+30A4_U+30E4_U+30FC 1
 62
     7
420
 16777215
370
     9
100
AcDbVertex
100
AcDb2dVertex
 10
85.49089448561224
 20
-140.8603213536738
 30
0.0
  0
SEQEND
  5
C1
330
BE
100
AcDbEntity
  8
_U+30EC_U+30A4_U+30E4_U+30FC 1
 62
     7
420
 16777215
370
     9
  0
POLYLINE
  5
C2
330
1F
100
AcDbEntity
  8
_U+30EC_U+30A4_U+30E4_U+30FC 1
 62
     7
420
 16777215
370
     9
100
AcDb2dPolyline
 66
     1
 10
0.0
 20
0.0
 30
0.0
  0
VERTEX
  5
C3
330
C2
100
AcDbEntity
  8
_U+30EC_U+30A4_U+30E4_U+30FC 1
 62
     7
420
 16777215
370
     9
100
AcDbVertex
100
AcDb2dVertex
 10
98.49043776507737
 20
-137.4000652434277
 30
0.0
  0
VERTEX
  5
C4
330
C2
100
AcDbEntity
  8
_U+30EC_U+30A4_U+30E4_U+30FC 1
 62
     7
420
 16777215
370
     9
100
AcDbVertex
100
AcDb2dVertex
 10
98.49043776507737
 20
-140.8603213536738
 30
0.0
  0
SEQEND
  5
C5
330
C2
100
AcDbEntity
  8
_U+30EC_U+30A4_U+30E4_U+30FC 1
 62
     7
420
 16777215
370
     9
  0
INSERT
  5
C7
330
1F
100
AcDbEntity
  8
_U+30EC_U+30A4_U+30E4_U+30FC 1
100
AcDbBlockReference
  2
block 5
 10
0.0
 20
0.0
 30
0.0
  0
POLYLINE
  5
CE
330
1F
100
AcDbEntity
  8
_U+30EC_U+30A4_U+30E4_U+30FC 1
 62
     7
420
 16777215
370
     9
100
AcDb2dPolyline
 66
     1
 10
0.0
 20
0.0
 30
0.0
  0
VERTEX
  5
CF
330
CE
100
AcDbEntity
  8
_U+30EC_U+30A4_U+30E4_U+30FC 1
 62
     7
420
 16777215
370
     9
100
AcDbVertex
100
AcDb2dVertex
 10
102.4909023852392
 20
-134.8596419107296
 30
0.0
  0
VERTEX
  5
D0
330
CE
100
AcDbEntity
  8
_U+30EC_U+30A4_U+30E4_U+30FC 1
 62
     7
420
 16777215
370
     9
100
AcDbVertex
100
AcDb2dVertex
 10
102.4909023852392
 20
-131.3601216338264
 30
0.0
  0
SEQEND
  5
D1
330
CE
100
AcDbEntity
  8
_U+30EC_U+30A4_U+30E4_U+30FC 1
 62
     7
420
 16777215
370
     9
  0
POLYLINE
  5
D2
330
1F
100
AcDbEntity
  8
_U+30EC_U+30A4_U+30E4_U+30FC 1
 62
     7
420
 16777215
370
     9
100
AcDb2dPolyline
 66
     1
 10
0.0
 20
0.0
 30
0.0
  0
VERTEX
  5
D3
330
D2
100
AcDbEntity
  8
_U+30EC_U+30A4_U+30E4_U+30FC 1
 62
     7
420
 16777215
370
     9
100
AcDbVertex
100
AcDb2dVertex
 10
101.0308610335991
 20
-134.8596419107296
 30
0.0
  0
VERTEX
  5
D4
330
D2
100
AcDbEntity
  8
_U+30EC_U+30A4_U+30E4_U+30FC 1
 62
     7
420
 16777215
370
     9
100
AcDbVertex
100
AcDb2dVertex
 10
103.4906745819551
 20
-134.8596419107296
 30
0.0
  0
SEQEND
  5
D5
330
D2
100
AcDbEntity
  8
_U+30EC_U+30A4_U+30E4_U+30FC 1
 62
     7
420
 16777215
370
     9
  0
POLYLINE
  5
D6
330
1F
100
AcDbEntity
  8
_U+30EC_U+30A4_U+30E4_U+30FC 1
 62
     7
420
 16777215
370
     9
100
AcDb2dPolyline
 66
     1
 10
0.0
 20
0.0
 30
0.0
  0
VERTEX
  5
D7
330
D6
100
AcDbEntity
  8
_U+30EC_U+30A4_U+30E4_U+30FC 1
 62
     7
420
 16777215
370
     9
100
AcDbVertex
100
AcDb2dVertex
 10
101.0308610335991
 20
-131.3601216338264
 30
0.0
  0
VERTEX
  5
D8
330
D6
100
AcDbEntity
  8
_U+30EC_U+30A4_U+30E4_U+30FC 1
 62
     7
420
 16777215
370
     9
100
AcDbVertex
100
AcDb2dVertex
 10
103.4906745819551
 20
-131.3601216338264
 30
0.0
  0
SEQEND
  5
D9
330
D6
100
AcDbEntity
  8
_U+30EC_U+30A4_U+30E4_U+30FC 1
 62
     7
420
 16777215
370
     9
  0
INSERT
  5
DB
330
1F
100
AcDbEntity
  8
_U+30EC_U+30A4_U+30E4_U+30FC 1
100
AcDbBlockReference
  2
block 6
 10
0.0
 20
0.0
 30
0.0
  0
POLYLINE
  5
EA
330
1F
100
AcDbEntity
  8
_U+30EC_U+30A4_U+30E4_U+30FC 1
 62
     7
420
 16777215
370
     9
100
AcDb2dPolyline
 66
     1
 10
0.0
 20
0.0
 30
0.0
  0
VERTEX
  5
EB
330
EA
100
AcDbEntity
  8
_U+30EC_U+30A4_U+30E4_U+30FC 1
 62
     7
420
 16777215
370
     9
100
AcDbVertex
100
AcDb2dVertex
 10
81.49113542098793
 20
-135.8600844104795
 30
0.0
  0
VERTEX
  5
EC
330
EA
100
AcDbEntity
  8
_U+30EC_U+30A4_U+30E4_U+30FC 1
 62
     7
420
 16777215
370
     9
100
AcDbVertex
100
AcDb2dVertex
 10
81.49113542098793
 20
-122.8596941359519
 30
0.0
  0
SEQEND
  5
ED
330
EA
100
AcDbEntity
  8
_U+30EC_U+30A4_U+30E4_U+30FC 1
 62
     7
420
 16777215
370
     9
  0
POLYLINE
  5
EE
330
1F
100
AcDbEntity
  8
_U+30EC_U+30A4_U+30E4_U+30FC 1
 62
     7
420
 16777215
370
     9
100
AcDb2dPolyline
 66
     1
 10
0.0
 20
0.0
 30
0.0
  0
VERTEX
  5
EF
330
EE
100
AcDbEntity
  8
_U+30EC_U+30A4_U+30E4_U+30FC 1
 62
     7
420
 16777215
370
     9
100
AcDbVertex
100
AcDb2dVertex
 10
83.95094896934397
 20
-135.8600844104795
 30
0.0
  0
VERTEX
  5
F0
330
EE
100
AcDbEntity
  8
_U+30EC_U+30A4_U+30E4_U+30FC 1
 62
     7
420
 16777215
370
     9
100
AcDbVertex
100
AcDb2dVertex
 10
80.49069294651134
 20
-135.8600844104795
 30
0.0
  0
SEQEND
  5
F1
330
EE
100
AcDbEntity
  8
_U+30EC_U+30A4_U+30E4_U+30FC 1
 62
     7
420
 16777215
370
     9
  0
POLYLINE
  5
F2
330
1F
100
AcDbEntity
  8
_U+30EC_U+30A4_U+30E4_U+30FC 1
 62
     7
420
 16777215
370
     9
100
AcDb2dPolyline
 66
     1
 10
0.0
 20
0.0
 30
0.0
  0
VERTEX
  5
F3
330
F2
100
AcDbEntity
  8
_U+30EC_U+30A4_U+30E4_U+30FC 1
 62
     7
420
 16777215
370
     9
100
AcDbVertex
100
AcDb2dVertex
 10
83.95094896934397
 20
-122.8596941359519
 30
0.0
  0
VERTEX
  5
F4
330
F2
100
AcDbEntity
  8
_U+30EC_U+30A4_U+30E4_U+30FC 1
 62
     7
420
 16777215
370
     9
100
AcDbVertex
100
AcDb2dVertex
 10
80.49069294651134
 20
-122.8596941359519
 30
0.0
  0
SEQEND
  5
F5
330
F2
100
AcDbEntity
  8
_U+30EC_U+30A4_U+30E4_U+30FC 1
 62
     7
420
 16777215
370
     9
  0
INSERT
  5
F7
330
1F
100
AcDbEntity
  8
_U+30EC_U+30A4_U+30E4_U+30FC 1
100
AcDbBlockReference
  2
block 7
 10
0.0
 20
0.0
 30
0.0
  0
ENDSEC
  0
SECTION
  2
OBJECTS
  0
DICTIONARY
  5
C
330
0
100
AcDbDictionary
281
     1
  3
ACAD_GROUP
350
D
  3
ACAD_LAYOUT
350
1A
  3
ACAD_MATERIAL
350
3B
  3
ACAD_MLEADERSTYLE
350
FF
  3
ACAD_MLINESTYLE
350
17
  3
ACAD_PLOTSETTINGS
350
19
  3
ACAD_PLOTSTYLENAME
350
E
  3
ACAD_TABLESTYLE
350
FE
  3
ACAD_VISUALSTYLE
350
2A
  0
SUN
  5
3F
330
29
100
AcDbSun
 90
        1
290
     0
 63
     7
421
 16777215
 40
1.0
291
     1
 91
  2455826
 92
 54000000
292
     0
 70
     2
 71
   256
280
     1
  0
DICTIONARY
  5
D
102
{ACAD_REACTORS
330
C
102
}
330
C
100
AcDbDictionary
281
     1
  0
DICTIONARY
  5
1A
102
{ACAD_REACTORS
330
C
102
}
330
C
100
AcDbDictionary
281
     1
  3
Layout1
350
1E
  3
Layout2
350
26
  3
Model
350
22
  0
DICTIONARY
  5
3B
102
{ACAD_REACTORS
330
C
102
}
330
C
100
AcDbDictionary
281
     1
  3
ByBlock
350
3D
  3
ByLayer
350
3C
  3
Global
350
3E
  0
DICTIONARY
  5
FF
102
{ACAD_REACTORS
330
C
102
}
330
C
100
AcDbDictionary
281
     1
  0
DICTIONARY
  5
17
102
{ACAD_REACTORS
330
C
102
}
330
C
100
AcDbDictionary
281
     1
  3
Standard
350
18
  0
DICTIONARY
  5
19
102
{ACAD_REACTORS
330
C
102
}
330
C
100
AcDbDictionary
281
     1
  0
ACDBDICTIONARYWDFLT
  5
E
102
{ACAD_REACTORS
330
C
102
}
330
C
100
AcDbDictionary
281
     1
  3
Normal
350
F
100
AcDbDictionaryWithDefault
340
F
  0
DICTIONARY
  5
FE
102
{ACAD_REACTORS
330
C
102
}
330
C
100
AcDbDictionary
281
     1
  0
DICTIONARY
  5
2A
102
{ACAD_REACTORS
330
C
102
}
330
C
100
AcDbDictionary
281
     1
  3
2dWireframe
350
2F
  3
3D Hidden
350
31
  3
3dWireframe
350
30
  3
Basic
350
32
  3
Brighten
350
36
  3
ColorChange
350
3A
  3
Conceptual
350
34
  3
Dim
350
35
  3
Facepattern
350
39
  3
Flat
350
2B
  3
FlatWithEdges
350
2C
  3
Gouraud
350
2D
  3
GouraudWithEdges
350
2E
  3
Linepattern
350
38
  3
Realistic
350
33
  3
Thicken
350
37
  0
LAYOUT
  5
1E
102
{ACAD_REACTORS
330
1A
102
}
330
1A
100
AcDbPlotSettings
  1

  2
none_device
  4

  6

 40
0.0
 41
0.0
 42
0.0
 43
0.0
 44
0.0
 45
0.0
 46
0.0
 47
0.0
 48
0.0
 49
0.0
140
0.0
141
0.0
142
1.0
143
1.0
 70
   688
 72
     0
 73
     0
 74
     5
  7

 75
    16
 76
     0
 77
     2
 78
   300
147
1.0
148
0.0
149
0.0
100
AcDbLayout
  1
Layout1
 70
     1
 71
     1
 10
0.0
 20
0.0
 11
12.0
 21
9.0
 12
0.0
 22
0.0
 32
0.0
 14
1.000000000000000E+20
 24
1.000000000000000E+20
 34
1.000000000000000E+20
 15
-1.000000000000000E+20
 25
-1.000000000000000E+20
 35
-1.000000000000000E+20
146
0.0
 13
0.0
 23
0.0
 33
0.0
 16
1.0
 26
0.0
 36
0.0
 17
0.0
 27
1.0
 37
0.0
 76
     0
330
1B
  0
LAYOUT
  5
26
102
{ACAD_REACTORS
330
1A
102
}
330
1A
100
AcDbPlotSettings
  1

  2
none_device
  4

  6

 40
0.0
 41
0.0
 42
0.0
 43
0.0
 44
0.0
 45
0.0
 46
0.0
 47
0.0
 48
0.0
 49
0.0
140
0.0
141
0.0
142
1.0
143
1.0
 70
   688
 72
     0
 73
     0
 74
     5
  7

 75
    16
 76
     0
 77
     2
 78
   300
147
1.0
148
0.0
149
0.0
100
AcDbLayout
  1
Layout2
 70
     1
 71
     2
 10
0.0
 20
0.0
 11
0.0
 21
0.0
 12
0.0
 22
0.0
 32
0.0
 14
0.0
 24
0.0
 34
0.0
 15
0.0
 25
0.0
 35
0.0
146
0.0
 13
0.0
 23
0.0
 33
0.0
 16
1.0
 26
0.0
 36
0.0
 17
0.0
 27
1.0
 37
0.0
 76
     0
330
23
  0
LAYOUT
  5
22
102
{ACAD_REACTORS
330
1A
102
}
330
1A
100
AcDbPlotSettings
  1

  2
none_device
  4

  6

 40
0.0
 41
0.0
 42
0.0
 43
0.0
 44
0.0
 45
0.0
 46
0.0
 47
0.0
 48
0.0
 49
0.0
140
0.0
141
0.0
142
1.0
143
1.0
 70
  1712
 72
     0
 73
     0
 74
     0
  7

 75
     0
 76
     0
 77
     2
 78
   300
147
1.0
148
0.0
149
0.0
100
AcDbLayout
  1
Model
 70
     1
 71
     0
 10
0.0
 20
0.0
 11
12.0
 21
9.0
 12
0.0
 22
0.0
 32
0.0
 14
1.000000000000000E+20
 24
1.000000000000000E+20
 34
1.000000000000000E+20
 15
-1.000000000000000E+20
 25
-1.000000000000000E+20
 35
-1.000000000000000E+20
146
0.0
 13
0.0
 23
0.0
 33
0.0
 16
1.0
 26
0.0
 36
0.0
 17
0.0
 27
1.0
 37
0.0
 76
     0
330
1F
331
29
  0
MATERIAL
  5
3D
102
{ACAD_REACTORS
330
3B
102
}
330
3B
100
AcDbMaterial
  1
ByBlock
 72
     1
 94
      127
  0
MATERIAL
  5
3C
102
{ACAD_REACTORS
330
3B
102
}
330
3B
100
AcDbMaterial
  1
ByLayer
 72
     1
 94
      127
  0
MATERIAL
  5
3E
102
{ACAD_REACTORS
330
3B
102
}
330
3B
100
AcDbMaterial
  1
Global
 72
     1
 94
      127
  0
MLINESTYLE
  5
18
102
{ACAD_REACTORS
330
17
102
}
330
17
100
AcDbMlineStyle
  2
Standard
 70
     0
  3

 62
   256
 51
90.0
 52
90.0
 71
     2
 49
0.5
 62
   256
  6
BYLAYER
 49
-0.5
 62
   256
  6
BYLAYER
  0
ACDBPLACEHOLDER
  5
F
102
{ACAD_REACTORS
330
E
102
}
330
E
  0
VISUALSTYLE
  5
2F
102
{ACAD_REACTORS
330
2A
102
}
330
2A
100
AcDbVisualStyle
  2
2dWireframe
 70
     4
177
     2
291
     0
 71
     0
176
     1
 72
     2
176
     1
 73
     0
176
     1
 90
        0
176
     1
 40
-0.6
176
     1
 41
-30.0
176
     1
 62
     5
 63
     7
421
 16777215
176
     1
 74
     1
176
     1
 91
        4
176
     1
 64
     7
176
     1
 65
   257
176
     1
 75
     1
176
     1
175
     1
176
     1
 42
1.0
176
     1
 92
        0
176
     1
 66
   257
176
     1
 43
1.0
176
     1
 76
     1
176
     1
 77
     6
176
     1
 78
     2
176
     1
 67
     7
176
     1
 79
     5
176
     1
170
     0
176
     1
171
     0
176
     1
290
     0
176
     1
 93
        1
176
     1
 44
0.0
176
     1
173
     0
176
     1
  0
VISUALSTYLE
  5
31
102
{ACAD_REACTORS
330
2A
102
}
330
2A
100
AcDbVisualStyle
  2
3D Hidden
 70
     6
177
     2
291
     0
 71
     1
176
     1
 72
     2
176
     1
 73
     2
176
     1
 90
        0
176
     1
 40
-0.6
176
     1
 41
-30.0
176
     1
 62
     5
 63
     7
421
 16777215
176
     1
 74
     2
176
     1
 91
        2
176
     1
 64
     7
176
     1
 65
   257
176
     1
 75
     2
176
     1
175
     1
176
     1
 42
40.0
176
     1
 92
        0
176
     1
 66
   257
176
     1
 43
1.0
176
     1
 76
     1
176
     1
 77
     6
176
     1
 78
     2
176
     1
 67
     7
176
     1
 79
     3
176
     1
170
     0
176
     1
171
     0
176
     1
290
     0
176
     1
 93
        1
176
     1
 44
0.0
176
     1
173
     0
176
     1
  0
VISUALSTYLE
  5
30
102
{ACAD_REACTORS
330
2A
102
}
330
2A
100
AcDbVisualStyle
  2
3dWireframe
 70
     5
177
     2
291
     0
 71
     0
176
     1
 72
     2
176
     1
 73
     0
176
     1
 90
        0
176
     1
 40
-0.6
176
     1
 41
-30.0
176
     1
 62
     5
 63
     7
421
 16777215
176
     1
 74
     1
176
     1
 91
        4
176
     1
 64
     7
176
     1
 65
   257
176
     1
 75
     1
176
     1
175
     1
176
     1
 42
1.0
176
     1
 92
        0
176
     1
 66
   257
176
     1
 43
1.0
176
     1
 76
     1
176
     1
 77
     6
176
     1
 78
     2
176
     1
 67
     7
176
     1
 79
     5
176
     1
170
     0
176
     1
171
     0
176
     1
290
     0
176
     1
 93
        1
176
     1
 44
0.0
176
     1
173
     0
176
     1
  0
VISUALSTYLE
  5
32
102
{ACAD_REACTORS
330
2A
102
}
330
2A
100
AcDbVisualStyle
  2
Basic
 70
     7
177
     2
291
     1
 71
     1
176
     1
 72
     0
176
     1
 73
     1
176
     1
 90
        0
176
     1
 40
-0.6
176
     1
 41
-30.0
176
     1
 62
     5
 63
     7
421
 16777215
176
     1
 74
     0
176
     1
 91
        4
176
     1
 64
     7
176
     1
 65
   257
176
     1
 75
     1
176
     1
175
     1
176
     1
 42
1.0
176
     1
 92
        8
176
     1
 66
     7
176
     1
 43
1.0
176
     1
 76
     1
176
     1
 77
     6
176
     1
 78
     2
176
     1
 67
     7
176
     1
 79
     5
176
     1
170
     0
176
     1
171
     0
176
     1
290
     0
176
     1
 93
        1
176
     1
 44
0.0
176
     1
173
     0
176
     1
  0
VISUALSTYLE
  5
36
102
{ACAD_REACTORS
330
2A
102
}
330
2A
100
AcDbVisualStyle
  2
Brighten
 70
    12
177
     2
291
     1
 71
     2
176
     1
 72
     2
176
     1
 73
     0
176
     1
 90
        0
176
     1
 40
-0.6
176
     1
 41
-30.0
176
     1
 62
     5
 63
     7
421
 16777215
176
     1
 74
     1
176
     1
 91
        4
176
     1
 64
     7
176
     1
 65
   257
176
     1
 75
     1
176
     1
175
     1
176
     1
 42
1.0
176
     1
 92
        8
176
     1
 66
     7
176
     1
 43
1.0
176
     1
 76
     1
176
     1
 77
     6
176
     1
 78
     2
176
     1
 67
     7
176
     1
 79
     5
176
     1
170
     0
176
     1
171
     0
176
     1
290
     0
176
     1
 93
        1
176
     1
 44
50.0
176
     1
173
     0
176
     1
  0
VISUALSTYLE
  5
3A
102
{ACAD_REACTORS
330
2A
102
}
330
2A
100
AcDbVisualStyle
  2
ColorChange
 70
    16
177
     2
291
     1
 71
     2
176
     1
 72
     2
176
     1
 73
     3
176
     1
 90
        0
176
     1
 40
-0.6
176
     1
 41
-30.0
176
     1
 62
     5
 63
     8
421
  8421504
176
     1
 74
     1
176
     1
 91
        4
176
     1
 64
     7
176
     1
 65
   257
176
     1
 75
     1
176
     1
175
     1
176
     1
 42
1.0
176
     1
 92
        8
176
     1
 66
     8
424
  8421504
176
     1
 43
1.0
176
     1
 76
     1
176
     1
 77
     6
176
     1
 78
     2
176
     1
 67
     7
176
     1
 79
     5
176
     1
170
     0
176
     1
171
     0
176
     1
290
     0
176
     1
 93
        1
176
     1
 44
0.0
176
     1
173
     0
176
     1
  0
VISUALSTYLE
  5
34
102
{ACAD_REACTORS
330
2A
102
}
330
2A
100
AcDbVisualStyle
  2
Conceptual
 70
     9
177
     2
291
     0
 71
     3
176
     1
 72
     2
176
     1
 73
     0
176
     1
 90
        0
176
     1
 40
-0.6
176
     1
 41
-30.0
176
     1
 62
     5
 63
     7
421
 16777215
176
     1
 74
     2
176
     1
 91
        2
176
     1
 64
     7
176
     1
 65
   257
176
     1
 75
     1
176
     1
175
     1
176
     1
 42
40.0
176
     1
 92
        8
176
     1
 66
     7
176
     1
 43
1.0
176
     1
 76
     1
176
     1
 77
     6
176
     1
 78
     2
176
     1
 67
     7
176
     1
 79
     3
176
     1
170
     0
176
     1
171
     0
176
     1
290
     0
176
     1
 93
        1
176
     1
 44
0.0
176
     1
173
     0
176
     1
  0
VISUALSTYLE
  5
35
102
{ACAD_REACTORS
330
2A
102
}
330
2A
100
AcDbVisualStyle
  2
Dim
 70
    11
177
     2
291
     1
 71
     2
176
     1
 72
     2
176
     1
 73
     0
176
     1
 90
        0
176
     1
 40
-0.6
176
     1
 41
-30.0
176
     1
 62
     5
 63
     7
421
 16777215
176
     1
 74
     1
176
     1
 91
        4
176
     1
 64
     7
176
     1
 65
   257
176
     1
 75
     1
176
     1
175
     1
176
     1
 42
1.0
176
     1
 92
        8
176
     1
 66
     7
176
     1
 43
1.0
176
     1
 76
     1
176
     1
 77
     6
176
     1
 78
     2
176
     1
 67
     7
176
     1
 79
     5
176
     1
170
     0
176
     1
171
     0
176
     1
290
     0
176
     1
 93
        1
176
     1
 44
-50.0
176
     1
173
     0
176
     1
  0
VISUALSTYLE
  5
39
102
{ACAD_REACTORS
330
2A
102
}
330
2A
100
AcDbVisualStyle
  2
Facepattern
 70
    15
177
     2
291
     1
 71
     2
176
     1
 72
     2
176
     1
 73
     0
176
     1
 90
        0
176
     1
 40
-0.6
176
     1
 41
-30.0
176
     1
 62
     5
 63
     7
421
 16777215
176
     1
 74
     1
176
     1
 91
        4
176
     1
 64
     7
176
     1
 65
   257
176
     1
 75
     1
176
     1
175
     1
176
     1
 42
1.0
176
     1
 92
        8
176
     1
 66
     7
176
     1
 43
1.0
176
     1
 76
     1
176
     1
 77
     6
176
     1
 78
     2
176
     1
 67
     7
176
     1
 79
     5
176
     1
170
     0
176
     1
171
     0
176
     1
290
     0
176
     1
 93
        1
176
     1
 44
0.0
176
     1
173
     0
176
     1
  0
VISUALSTYLE
  5
2B
102
{ACAD_REACTORS
330
2A
102
}
330
2A
100
AcDbVisualStyle
  2
Flat
 70
     0
177
     2
291
     1
 71
     2
176
     1
 72
     1
176
     1
 73
     1
176
     1
 90
        2
176
     1
 40
-0.6
176
     1
 41
30.0
176
     1
 62
     5
 63
     7
421
 16777215
176
     1
 74
     0
176
     1
 91
        4
176
     1
 64
     7
176
     1
 65
   257
176
     1
 75
     1
176
     1
175
     1
176
     1
 42
1.0
176
     1
 92
        8
176
     1
 66
     7
176
     1
 43
1.0
176
     1
 76
     1
176
     1
 77
     6
176
     1
 78
     2
176
     1
 67
     7
176
     1
 79
     5
176
     1
170
     0
176
     1
171
     0
176
     1
290
     0
176
     1
 93
       13
176
     1
 44
0.0
176
     1
173
     0
176
     1
  0
VISUALSTYLE
  5
2C
102
{ACAD_REACTORS
330
2A
102
}
330
2A
100
AcDbVisualStyle
  2
FlatWithEdges
 70
     1
177
     2
291
     1
 71
     2
176
     1
 72
     1
176
     1
 73
     1
176
     1
 90
        2
176
     1
 40
-0.6
176
     1
 41
30.0
176
     1
 62
     5
 63
     7
421
 16777215
176
     1
 74
     1
176
     1
 91
        4
176
     1
 64
     7
176
     1
 65
   257
176
     1
 75
     1
176
     1
175
     1
176
     1
 42
1.0
176
     1
 92
        0
176
     1
 66
   257
176
     1
 43
1.0
176
     1
 76
     1
176
     1
 77
     6
176
     1
 78
     2
176
     1
 67
     7
176
     1
 79
     5
176
     1
170
     0
176
     1
171
     0
176
     1
290
     0
176
     1
 93
       13
176
     1
 44
0.0
176
     1
173
     0
176
     1
  0
VISUALSTYLE
  5
2D
102
{ACAD_REACTORS
330
2A
102
}
330
2A
100
AcDbVisualStyle
  2
Gouraud
 70
     2
177
     2
291
     1
 71
     2
176
     1
 72
     2
176
     1
 73
     1
176
     1
 90
        2
176
     1
 40
-0.6
176
     1
 41
30.0
176
     1
 62
     5
 63
     7
421
 16777215
176
     1
 74
     0
176
     1
 91
        4
176
     1
 64
     7
176
     1
 65
   257
176
     1
 75
     1
176
     1
175
     1
176
     1
 42
1.0
176
     1
 92
        0
176
     1
 66
     7
176
     1
 43
1.0
176
     1
 76
     1
176
     1
 77
     6
176
     1
 78
     2
176
     1
 67
     7
176
     1
 79
     5
176
     1
170
     0
176
     1
171
     0
176
     1
290
     0
176
     1
 93
       13
176
     1
 44
0.0
176
     1
173
     0
176
     1
  0
VISUALSTYLE
  5
2E
102
{ACAD_REACTORS
330
2A
102
}
330
2A
100
AcDbVisualStyle
  2
GouraudWithEdges
 70
     3
177
     2
291
     1
 71
     2
176
     1
 72
     2
176
     1
 73
     1
176
     1
 90
        2
176
     1
 40
-0.6
176
     1
 41
30.0
176
     1
 62
     5
 63
     7
421
 16777215
176
     1
 74
     1
176
     1
 91
        4
176
     1
 64
     7
176
     1
 65
   257
176
     1
 75
     1
176
     1
175
     1
176
     1
 42
1.0
176
     1
 92
        0
176
     1
 66
   257
176
     1
 43
1.0
176
     1
 76
     1
176
     1
 77
     6
176
     1
 78
     2
176
     1
 67
     7
176
     1
 79
     5
176
     1
170
     0
176
     1
171
     0
176
     1
290
     0
176
     1
 93
       13
176
     1
 44
0.0
176
     1
173
     0
176
     1
  0
VISUALSTYLE
  5
38
102
{ACAD_REACTORS
330
2A
102
}
330
2A
100
AcDbVisualStyle
  2
Linepattern
 70
    14
177
     2
291
     1
 71
     2
176
     1
 72
     2
176
     1
 73
     0
176
     1
 90
        0
176
     1
 40
-0.6
176
     1
 41
-30.0
176
     1
 62
     5
 63
     7
421
 16777215
176
     1
 74
     1
176
     1
 91
        4
176
     1
 64
     7
176
     1
 65
   257
176
     1
 75
     7
176
     1
175
     7
176
     1
 42
1.0
176
     1
 92
        8
176
     1
 66
     7
176
     1
 43
1.0
176
     1
 76
     1
176
     1
 77
     6
176
     1
 78
     2
176
     1
 67
     7
176
     1
 79
     5
176
     1
170
     0
176
     1
171
     0
176
     1
290
     0
176
     1
 93
        1
176
     1
 44
0.0
176
     1
173
     0
176
     1
  0
VISUALSTYLE
  5
33
102
{ACAD_REACTORS
330
2A
102
}
330
2A
100
AcDbVisualStyle
  2
Realistic
 70
     8
177
     2
291
     0
 71
     2
176
     1
 72
     2
176
     1
 73
     0
176
     1
 90
        0
176
     1
 40
-0.6
176
     1
 41
-30.0
176
     1
 62
     5
 63
     7
421
 16777215
176
     1
 74
     1
176
     1
 91
        0
176
     1
 64
     7
176
     1
 65
   257
176
     1
 75
     1
176
     1
175
     1
176
     1
 42
1.0
176
     1
 92
        8
176
     1
 66
     8
424
  7895160
176
     1
 43
1.0
176
     1
 76
     1
176
     1
 77
     6
176
     1
 78
     2
176
     1
 67
     7
176
     1
 79
     5
176
     1
170
     0
176
     1
171
     0
176
     1
290
     0
176
     1
 93
       13
176
     1
 44
0.0
176
     1
173
     0
176
     1
  0
VISUALSTYLE
  5
37
102
{ACAD_REACTORS
330
2A
102
}
330
2A
100
AcDbVisualStyle
  2
Thicken
 70
    13
177
     2
291
     1
 71
     2
176
     1
 72
     2
176
     1
 73
     0
176
     1
 90
        0
176
     1
 40
-0.6
176
     1
 41
-30.0
176
     1
 62
     5
 63
     7
421
 16777215
176
     1
 74
     1
176
     1
 91
        4
176
     1
 64
     7
176
     1
 65
   257
176
     1
 75
     1
176
     1
175
     1
176
     1
 42
1.0
176
     1
 92
       12
176
     1
 66
     7
176
     1
 43
1.0
176
     1
 76
     1
176
     1
 77
     6
176
     1
 78
     2
176
     1
 67
     7
176
     1
 79
     5
176
     1
170
     0
176
     1
171
     0
176
     1
290
     0
176
     1
 93
        1
176
     1
 44
0.0
176
     1
173
     0
176
     1
  0
ENDSEC
  0
EOF
