  0
SECTION
  2
HEADER
  9
$ACADVER
  1
AC1024
  9
$ACADMAINTVER
 70
     6
  9
$DWGCODEPAGE
  3
UNDEFINED
  9
$INSBASE
 10
0.0
 20
0.0
 30
0.0
  9
$EXTMIN
 10
1.000000000000000E+20
 20
1.000000000000000E+20
 30
1.000000000000000E+20
  9
$EXTMAX
 10
-1.000000000000000E+20
 20
-1.000000000000000E+20
 30
-1.000000000000000E+20
  9
$LIMMIN
 10
0.0
 20
0.0
  9
$LIMMAX
 10
12.0
 20
9.0
  9
$ORTHOMODE
 70
     0
  9
$REGENMODE
 70
     1
  9
$FILLMODE
 70
     1
  9
$QTEXTMODE
 70
     0
  9
$MIRRTEXT
 70
     1
  9
$LTSCALE
 40
1.0
  9
$ATTMODE
 70
     1
  9
$TEXTSIZE
 40
0.2
  9
$TRACEWID
 40
0.05
  9
$TEXTSTYLE
  7
Standard
  9
$CLAYER
  8
0
  9
$CELTYPE
  6
ByLayer
  9
$CECOLOR
 62
   256
  9
$CELTSCALE
 40
1.0
  9
$DISPSILH
 70
     0
  9
$DIMSCALE
 40
1.0
  9
$DIMASZ
 40
0.18
  9
$DIMEXO
 40
0.0625
  9
$DIMDLI
 40
0.38
  9
$DIMRND
 40
0.0
  9
$DIMDLE
 40
0.0
  9
$DIMEXE
 40
0.18
  9
$DIMTP
 40
0.0
  9
$DIMTM
 40
0.0
  9
$DIMTXT
 40
0.18
  9
$DIMCEN
 40
0.09
  9
$DIMTSZ
 40
0.0
  9
$DIMTOL
 70
     0
  9
$DIMLIM
 70
     0
  9
$DIMTIH
 70
     1
  9
$DIMTOH
 70
     1
  9
$DIMSE1
 70
     0
  9
$DIMSE2
 70
     0
  9
$DIMTAD
 70
     0
  9
$DIMZIN
 70
     0
  9
$DIMBLK
  1

  9
$DIMASO
 70
     1
  9
$DIMSHO
 70
     1
  9
$DIMPOST
  1

  9
$DIMAPOST
  1

  9
$DIMALT
 70
     0
  9
$DIMALTD
 70
     2
  9
$DIMALTF
 40
25.4
  9
$DIMLFAC
 40
1.0
  9
$DIMTOFL
 70
     0
  9
$DIMTVP
 40
0.0
  9
$DIMTIX
 70
     0
  9
$DIMSOXD
 70
     0
  9
$DIMSAH
 70
     0
  9
$DIMBLK1
  1

  9
$DIMBLK2
  1

  9
$DIMSTYLE
  2
Standard
  9
$DIMCLRD
 70
     0
  9
$DIMCLRE
 70
     0
  9
$DIMCLRT
 70
     0
  9
$DIMTFAC
 40
1.0
  9
$DIMGAP
 40
0.09
  9
$DIMJUST
 70
     0
  9
$DIMSD1
 70
     0
  9
$DIMSD2
 70
     0
  9
$DIMTOLJ
 70
     1
  9
$DIMTZIN
 70
     0
  9
$DIMALTZ
 70
     0
  9
$DIMALTTZ
 70
     0
  9
$DIMUPT
 70
     0
  9
$DIMDEC
 70
     4
  9
$DIMTDEC
 70
     4
  9
$DIMALTU
 70
     2
  9
$DIMALTTD
 70
     2
  9
$DIMTXSTY
  7
Standard
  9
$DIMAUNIT
 70
     0
  9
$DIMADEC
 70
     0
  9
$DIMALTRND
 40
0.0
  9
$DIMAZIN
 70
     0
  9
$DIMDSEP
 70
    46
  9
$DIMATFIT
 70
     3
  9
$DIMFRAC
 70
     0
  9
$DIMLDRBLK
  1

  9
$DIMLUNIT
 70
     2
  9
$DIMLWD
 70
    -2
  9
$DIMLWE
 70
    -2
  9
$DIMTMOVE
 70
     0
  9
$DIMFXL
 40
1.0
  9
$DIMFXLON
 70
     0
  9
$DIMJOGANG
 40
0.7853981633974483
  9
$DIMTFILL
 70
     0
  9
$DIMTFILLCLR
 70
     0
  9
$DIMARCSYM
 70
     0
  9
$DIMLTYPE
  6

  9
$DIMLTEX1
  6

  9
$DIMLTEX2
  6

  9
$DIMTXTDIRECTION
 70
     0
  9
$LUNITS
 70
     2
  9
$LUPREC
 70
     4
  9
$SKETCHINC
 40
0.1
  9
$FILLETRAD
 40
0.5
  9
$AUNITS
 70
     0
  9
$AUPREC
 70
     0
  9
$MENU
  1
.
  9
$ELEVATION
 40
0.0
  9
$PELEVATION
 40
0.0
  9
$THICKNESS
 40
0.0
  9
$LIMCHECK
 70
     0
  9
$CHAMFERA
 40
0.5
  9
$CHAMFERB
 40
0.5
  9
$CHAMFERC
 40
1.0
  9
$CHAMFERD
 40
0.0
  9
$SKPOLY
 70
     0
  9
$TDCREATE
 40
2457917.618773137
  9
$TDUCREATE
 40
2457917.243773148
  9
$TDUPDATE
 40
2457917.618773137
  9
$TDUUPDATE
 40
2457917.243773148
  9
$TDINDWG
 40
0.0000000116
  9
$TDUSRTIMER
 40
0.0000000116
  9
$USRTIMER
 70
     1
  9
$ANGBASE
 50
0.0
  9
$ANGDIR
 70
     0
  9
$PDMODE
 70
     0
  9
$PDSIZE
 40
0.0
  9
$PLINEWID
 40
0.0
  9
$SPLFRAME
 70
     0
  9
$SPLINETYPE
 70
     6
  9
$SPLINESEGS
 70
     8
  9
$HANDSEED
  5
101
  9
$SURFTAB1
 70
     6
  9
$SURFTAB2
 70
     6
  9
$SURFTYPE
 70
     6
  9
$SURFU
 70
     6
  9
$SURFV
 70
     6
  9
$UCSBASE
  2

  9
$UCSNAME
  2

  9
$UCSORG
 10
0.0
 20
0.0
 30
0.0
  9
$UCSXDIR
 10
1.0
 20
0.0
 30
0.0
  9
$UCSYDIR
 10
0.0
 20
1.0
 30
0.0
  9
$UCSORTHOREF
  2

  9
$UCSORTHOVIEW
 70
     0
  9
$UCSORGTOP
 10
0.0
 20
0.0
 30
0.0
  9
$UCSORGBOTTOM
 10
0.0
 20
0.0
 30
0.0
  9
$UCSORGLEFT
 10
0.0
 20
0.0
 30
0.0
  9
$UCSORGRIGHT
 10
0.0
 20
0.0
 30
0.0
  9
$UCSORGFRONT
 10
0.0
 20
0.0
 30
0.0
  9
$UCSORGBACK
 10
0.0
 20
0.0
 30
0.0
  9
$PUCSBASE
  2

  9
$PUCSNAME
  2

  9
$PUCSORG
 10
0.0
 20
0.0
 30
0.0
  9
$PUCSXDIR
 10
1.0
 20
0.0
 30
0.0
  9
$PUCSYDIR
 10
0.0
 20
1.0
 30
0.0
  9
$PUCSORTHOREF
  2

  9
$PUCSORTHOVIEW
 70
     0
  9
$PUCSORGTOP
 10
0.0
 20
0.0
 30
0.0
  9
$PUCSORGBOTTOM
 10
0.0
 20
0.0
 30
0.0
  9
$PUCSORGLEFT
 10
0.0
 20
0.0
 30
0.0
  9
$PUCSORGRIGHT
 10
0.0
 20
0.0
 30
0.0
  9
$PUCSORGFRONT
 10
0.0
 20
0.0
 30
0.0
  9
$PUCSORGBACK
 10
0.0
 20
0.0
 30
0.0
  9
$USERI1
 70
     0
  9
$USERI2
 70
     0
  9
$USERI3
 70
     0
  9
$USERI4
 70
     0
  9
$USERI5
 70
     0
  9
$USERR1
 40
0.0
  9
$USERR2
 40
0.0
  9
$USERR3
 40
0.0
  9
$USERR4
 40
0.0
  9
$USERR5
 40
0.0
  9
$WORLDVIEW
 70
     1
  9
$SHADEDGE
 70
     3
  9
$SHADEDIF
 70
    70
  9
$TILEMODE
 70
     1
  9
$MAXACTVP
 70
    64
  9
$PINSBASE
 10
0.0
 20
0.0
 30
0.0
  9
$PLIMCHECK
 70
     0
  9
$PEXTMIN
 10
1.000000000000000E+20
 20
1.000000000000000E+20
 30
1.000000000000000E+20
  9
$PEXTMAX
 10
-1.000000000000000E+20
 20
-1.000000000000000E+20
 30
-1.000000000000000E+20
  9
$PLIMMIN
 10
0.0
 20
0.0
  9
$PLIMMAX
 10
12.0
 20
9.0
  9
$UNITMODE
 70
     0
  9
$VISRETAIN
 70
     1
  9
$PLINEGEN
 70
     0
  9
$PSLTSCALE
 70
     1
  9
$TREEDEPTH
 70
  3020
  9
$CMLSTYLE
  2
Standard
  9
$CMLJUST
 70
     0
  9
$CMLSCALE
 40
1.0
  9
$PROXYGRAPHICS
 70
     1
  9
$MEASUREMENT
 70
     0
  9
$CELWEIGHT
370
    -1
  9
$ENDCAPS
280
     0
  9
$JOINSTYLE
280
     0
  9
$LWDISPLAY
290
     1
  9
$INSUNITS
 70
     1
  9
$HYPERLINKBASE
  1

  9
$STYLESHEET
  1

  9
$XEDIT
290
     1
  9
$CEPSNTYPE
380
     0
  9
$PSTYLEMODE
290
     1
  9
$FINGERPRINTGUID
  2
{84E6FEA5-6F72-78D2-5E08-8C5D61B42749}
  9
$VERSIONGUID
  2
{FAEB1C32-E019-11D5-929B-00C0DF256EC4}
  9
$EXTNAMES
290
     1
  9
$PSVPSCALE
 40
0.0
  9
$OLESTARTUP
290
     0
  9
$SORTENTS
280
   127
  9
$INDEXCTL
280
     0
  9
$HIDETEXT
280
     1
  9
$XCLIPFRAME
280
     2
  9
$HALOGAP
280
     0
  9
$OBSCOLOR
 70
   257
  9
$OBSLTYPE
280
     0
  9
$INTERSECTIONDISPLAY
280
     0
  9
$INTERSECTIONCOLOR
 70
   257
  9
$DIMASSOC
280
     2
  9
$PROJECTNAME
  1

  9
$CAMERADISPLAY
290
     0
  9
$LENSLENGTH
 40
50.0
  9
$CAMERAHEIGHT
 40
0.0
  9
$STEPSPERSEC
 40
2.0
  9
$STEPSIZE
 40
6.0
  9
$3DDWFPREC
 40
2.0
  9
$PSOLWIDTH
 40
0.25
  9
$PSOLHEIGHT
 40
4.0
  9
$LOFTANG1
 40
1.570796326794897
  9
$LOFTANG2
 40
1.570796326794897
  9
$LOFTMAG1
 40
0.0
  9
$LOFTMAG2
 40
0.0
  9
$LOFTPARAM
 70
     7
  9
$LOFTNORMALS
280
     1
  9
$LATITUDE
 40
37.795
  9
$LONGITUDE
 40
-122.394
  9
$NORTHDIRECTION
 40
0.0
  9
$TIMEZONE
 70
 -8000
  9
$LIGHTGLYPHDISPLAY
280
     1
  9
$TILEMODELIGHTSYNCH
280
     1
  9
$CMATERIAL
347
3C
  9
$SOLIDHIST
280
     1
  9
$SHOWHIST
280
     1
  9
$DWFFRAME
280
     2
  9
$DGNFRAME
280
     2
  9
$REALWORLDSCALE
290
     1
  9
$INTERFERECOLOR
 62
   256
  9
$CSHADOW
280
     0
  9
$SHADOWPLANELOCATION
 40
0.0
  0
ENDSEC
  0
SECTION
  2
CLASSES
  0
CLASS
  1
ACDBDICTIONARYWDFLT
  2
AcDbDictionaryWithDefault
  3
ObjectDBX Classes
 90
        0
 91
        4
280
     0
281
     0
  0
CLASS
  1
VISUALSTYLE
  2
AcDbVisualStyle
  3
ObjectDBX Classes
 90
     4095
 91
        4
280
     0
281
     0
  0
CLASS
  1
MATERIAL
  2
AcDbMaterial
  3
ObjectDBX Classes
 90
     1153
 91
        4
280
     0
281
     0
  0
CLASS
  1
SUN
  2
AcDbSun
  3
SCENEOE
 90
     1024
 91
        4
280
     0
281
     0
  0
ENDSEC
  0
SECTION
  2
TABLES
  0
TABLE
  2
VPORT
  5
8
330
0
100
AcDbSymbolTable
 70
     1
  0
VPORT
  5
29
330
8
100
AcDbSymbolTableRecord
100
AcDbViewportTableRecord
  2
*Active
 70
     0
 10
0.0
 20
0.0
 11
1.0
 21
1.0
 12
0.0
 22
0.0
 13
0.0
 23
0.0
 14
0.5
 24
0.5
 15
0.5
 25
0.5
 16
0.0
 26
0.0
 36
1.0
 17
91.00082462281999
 27
-128.4993055234307
 37
0.0
 40
256.9986110468615
 41
0.7081814508812795
 42
50.0
 43
0.0
 44
0.0
 50
0.0
 51
0.0
 71
     0
 72
   100
 73
     1
 74
     3
 75
     0
 76
     0
 77
     0
 78
     0
281
     0
 65
     1
110
0.0
120
0.0
130
0.0
111
1.0
121
0.0
131
0.0
112
0.0
122
1.0
132
0.0
 79
     0
146
0.0
 60
     3
 61
     5
292
     1
282
     1
141
0.0
142
0.0
 63
   250
361
3F
  0
ENDTAB
  0
TABLE
  2
LTYPE
  5
5
330
0
100
AcDbSymbolTable
 70
     2
  0
LTYPE
  5
14
330
5
100
AcDbSymbolTableRecord
100
AcDbLinetypeTableRecord
  2
ByBlock
 70
     0
  3

 72
    65
 73
     0
 40
0.0
  0
LTYPE
  5
15
330
5
100
AcDbSymbolTableRecord
100
AcDbLinetypeTableRecord
  2
ByLayer
 70
     0
  3

 72
    65
 73
     0
 40
0.0
  0
LTYPE
  5
16
330
5
100
AcDbSymbolTableRecord
100
AcDbLinetypeTableRecord
  2
Continuous
 70
     0
  3
Solid line
 72
    65
 73
     0
 40
0.0
  0
LTYPE
  5
47
330
5
100
AcDbSymbolTableRecord
100
AcDbLinetypeTableRecord
  2
AI-Linetype-1
 70
     0
  3
Adobe Illustrator Linetype No. 1
 72
    65
 73
     2
 40
1.411111110758333
 49
0.7055555553791667
 74
     0
 49
-0.7055555553791667
 74
     0
  0
ENDTAB
  0
TABLE
  2
LAYER
  5
2
330
0
100
AcDbSymbolTable
 70
     2
  0
LAYER
  5
10
330
2
100
AcDbSymbolTableRecord
100
AcDbLayerTableRecord
  2
0
 70
     0
 62
     7
  6
Continuous
370
    -3
390
F
347
3E
  0
LAYER
  5
40
330
2
100
AcDbSymbolTableRecord
100
AcDbLayerTableRecord
  2
_U+30EC_U+30A4_U+30E4_U+30FC 1
 70
     0
 62
     7
  6
Continuous
370
    -3
390
F
347
3E
  0
ENDTAB
  0
TABLE
  2
STYLE
  5
3
330
0
100
AcDbSymbolTable
 70
     1
  0
STYLE
  5
11
330
3
100
AcDbSymbolTableRecord
100
AcDbTextStyleTableRecord
  2
Standard
 70
     0
 40
0.0
 41
1.0
 50
0.0
 71
     0
 42
0.2
  3
txt
  4

  0
ENDTAB
  0
TABLE
  2
VIEW
  5
6
330
0
100
AcDbSymbolTable
 70
     0
  0
ENDTAB
  0
TABLE
  2
UCS
  5
7
330
0
100
AcDbSymbolTable
 70
     0
  0
ENDTAB
  0
TABLE
  2
APPID
  5
9
330
0
100
AcDbSymbolTable
 70
     1
  0
APPID
  5
12
330
9
100
AcDbSymbolTableRecord
100
AcDbRegAppTableRecord
  2
ACAD
 70
     0
  0
ENDTAB
  0
TABLE
  2
DIMSTYLE
  5
A
330
0
100
AcDbSymbolTable
 70
     1
100
AcDbDimStyleTable
  0
DIMSTYLE
105
27
330
A
100
AcDbSymbolTableRecord
100
AcDbDimStyleTableRecord
  2
Standard
 70
     0
178
     0
340
11
  0
ENDTAB
  0
TABLE
  2
BLOCK_RECORD
  5
1
330
0
100
AcDbSymbolTable
 70
     7
  0
BLOCK_RECORD
  5
1F
330
1
100
AcDbSymbolTableRecord
100
AcDbBlockTableRecord
  2
*Model_Space
340
22
 70
     0
280
     1
281
     0
  0
BLOCK_RECORD
  5
1B
330
1
100
AcDbSymbolTableRecord
100
AcDbBlockTableRecord
  2
*Paper_Space
340
1E
 70
     0
280
     1
281
     0
  0
BLOCK_RECORD
  5
23
330
1
100
AcDbSymbolTableRecord
100
AcDbBlockTableRecord
  2
*Paper_Space0
340
26
 70
     0
280
     1
281
     0
  0
BLOCK_RECORD
  5
8D
330
1
100
AcDbSymbolTableRecord
100
AcDbBlockTableRecord
  2
block 2
340
0
102
{BLKREFS
331
8E
102
}
 70
     0
280
     1
281
     0
  0
BLOCK_RECORD
  5
A2
330
1
100
AcDbSymbolTableRecord
100
AcDbBlockTableRecord
  2
block 3
340
0
102
{BLKREFS
331
A3
102
}
 70
     0
280
     1
281
     0
  0
BLOCK_RECORD
  5
B4
330
1
100
AcDbSymbolTableRecord
100
AcDbBlockTableRecord
  2
block 4
340
0
102
{BLKREFS
331
B5
102
}
 70
     0
280
     1
281
     0
  0
BLOCK_RECORD
  5
C6
330
1
100
AcDbSymbolTableRecord
100
AcDbBlockTableRecord
  2
block 5
340
0
102
{BLKREFS
331
C7
102
}
 70
     0
280
     1
281
     0
  0
BLOCK_RECORD
  5
DA
330
1
100
AcDbSymbolTableRecord
100
AcDbBlockTableRecord
  2
block 6
340
0
102
{BLKREFS
331
DB
102
}
 70
     0
280
     1
281
     0
  0
BLOCK_RECORD
  5
EE
330
1
100
AcDbSymbolTableRecord
100
AcDbBlockTableRecord
  2
block 7
340
0
102
{BLKREFS
331
EF
102
}
 70
     0
280
     1
281
     0
  0
ENDTAB
  0
ENDSEC
  0
SECTION
  2
BLOCKS
  0
BLOCK
  5
20
330
1F
100
AcDbEntity
  8
0
100
AcDbBlockBegin
  2
*Model_Space
 70
     0
 10
0.0
 20
0.0
 30
0.0
  3
*Model_Space
  1

  0
ENDBLK
  5
21
330
1F
100
AcDbEntity
  8
0
100
AcDbBlockEnd
  0
BLOCK
  5
1C
330
1B
100
AcDbEntity
 67
     1
  8
0
100
AcDbBlockBegin
  2
*Paper_Space
 70
     0
 10
0.0
 20
0.0
 30
0.0
  3
*Paper_Space
  1

  0
ENDBLK
  5
1D
330
1B
100
AcDbEntity
 67
     1
  8
0
100
AcDbBlockEnd
  0
BLOCK
  5
24
330
23
100
AcDbEntity
  8
0
100
AcDbBlockBegin
  2
*Paper_Space0
 70
     0
 10
0.0
 20
0.0
 30
0.0
  3
*Paper_Space0
  1

  0
ENDBLK
  5
25
330
23
100
AcDbEntity
  8
0
100
AcDbBlockEnd
  0
BLOCK
  5
8F
330
8D
100
AcDbEntity
  8
0
100
AcDbBlockBegin
  2
block 2
 70
     0
 10
0.0
 20
0.0
 30
0.0
  3
block 2
  1

  0
SPLINE
  5
91
330
8D
100
AcDbEntity
  8
_U+30EC_U+30A4_U+30E4_U+30FC 1
370
     0
100
AcDbSpline
210
0.0
220
0.0
230
1.0
 70
    11
 71
     3
 72
    26
 73
    22
 74
     0
 42
0.0000000001
 43
0.0000000001
 12
1.0
 22
0.0
 32
0.0
 13
1.0
 23
0.0
 33
0.0
 40
0.0
 40
0.0
 40
0.0
 40
0.0
 40
1.0
 40
1.0
 40
1.0
 40
2.0
 40
2.0
 40
2.0
 40
3.0
 40
3.0
 40
3.0
 40
4.0
 40
4.0
 40
4.0
 40
5.0
 40
5.0
 40
5.0
 40
6.0
 40
6.0
 40
6.0
 40
7.0
 40
7.0
 40
7.0
 40
7.0
 10
77.96509465281775
 20
-138.7133246180994
 30
0.0
 10
77.96509465281775
 20
-138.7133246180994
 30
0.0
 10
77.96509465281775
 20
-137.6091715150769
 30
0.0
 10
77.96509465281775
 20
-137.6091715150769
 30
0.0
 10
77.96509465281775
 20
-137.6091715150769
 30
0.0
 10
77.61231687512817
 20
-137.6091715150769
 30
0.0
 10
77.61231687512817
 20
-137.6091715150769
 30
0.0
 10
77.61231687512817
 20
-137.6091715150769
 30
0.0
 10
77.61231687512817
 20
-137.4610324092111
 30
0.0
 10
77.61231687512817
 20
-137.4610324092111
 30
0.0
 10
77.96733396488317
 20
-137.4462184986246
 30
0.0
 10
78.01711559464503
 20
-137.2832654821723
 30
0.0
 10
78.04863821833507
 20
-137.1688883120619
 30
0.0
 10
78.04863821833507
 20
-137.1688883120619
 30
0.0
 10
78.20470104381688
 20
-137.1688883120619
 30
0.0
 10
78.20470104381688
 20
-137.1688883120619
 30
0.0
 10
78.20470104381688
 20
-137.1688883120619
 30
0.0
 10
78.20470104381688
 20
-138.7133246180994
 30
0.0
 10
78.20470104381688
 20
-138.7133246180994
 30
0.0
 10
78.20470104381688
 20
-138.7133246180994
 30
0.0
 10
77.96509465281775
 20
-138.7133246180994
 30
0.0
 10
77.96509465281775
 20
-138.7133246180994
 30
0.0
  0
HATCH
  5
92
330
8D
100
AcDbEntity
  8
_U+30EC_U+30A4_U+30E4_U+30FC 1
 62
   179
420
  2234388
100
AcDbHatch
 10
0.0
 20
0.0
 30
0.0
210
0.0
220
0.0
230
1.0
  2
SOLID
 70
     1
 71
     0
 91
        1
 92
        1
 93
        1
 72
     4
 94
        3
 73
     0
 74
     1
 95
       26
 96
       22
 40
0.0
 40
0.0
 40
0.0
 40
0.0
 40
1.0
 40
1.0
 40
1.0
 40
2.0
 40
2.0
 40
2.0
 40
3.0
 40
3.0
 40
3.0
 40
4.0
 40
4.0
 40
4.0
 40
5.0
 40
5.0
 40
5.0
 40
6.0
 40
6.0
 40
6.0
 40
7.0
 40
7.0
 40
7.0
 40
7.0
 10
77.96509465281775
 20
-138.7133246180994
 10
77.96509465281775
 20
-138.7133246180994
 10
77.96509465281775
 20
-137.6091715150769
 10
77.96509465281775
 20
-137.6091715150769
 10
77.96509465281775
 20
-137.6091715150769
 10
77.61231687512817
 20
-137.6091715150769
 10
77.61231687512817
 20
-137.6091715150769
 10
77.61231687512817
 20
-137.6091715150769
 10
77.61231687512817
 20
-137.4610324092111
 10
77.61231687512817
 20
-137.4610324092111
 10
77.96733396488317
 20
-137.4462184986246
 10
78.01711559464503
 20
-137.2832654821723
 10
78.04863821833507
 20
-137.1688883120619
 10
78.04863821833507
 20
-137.1688883120619
 10
78.20470104381688
 20
-137.1688883120619
 10
78.20470104381688
 20
-137.1688883120619
 10
78.20470104381688
 20
-137.1688883120619
 10
78.20470104381688
 20
-138.7133246180994
 10
78.20470104381688
 20
-138.7133246180994
 10
78.20470104381688
 20
-138.7133246180994
 10
77.96509465281775
 20
-138.7133246180994
 10
77.96509465281775
 20
-138.7133246180994
 97
        0
 97
        0
 75
     2
 76
     1
 98
        0
  0
SPLINE
  5
93
330
8D
100
AcDbEntity
  8
_U+30EC_U+30A4_U+30E4_U+30FC 1
370
     0
100
AcDbSpline
210
0.0
220
0.0
230
1.0
 70
    11
 71
     3
 72
    44
 73
    40
 74
     0
 42
0.0000000001
 43
0.0000000001
 12
1.0
 22
0.0
 32
0.0
 13
1.0
 23
0.0
 33
0.0
 40
0.0
 40
0.0
 40
0.0
 40
0.0
 40
1.0
 40
1.0
 40
1.0
 40
2.0
 40
2.0
 40
2.0
 40
3.0
 40
3.0
 40
3.0
 40
4.0
 40
4.0
 40
4.0
 40
5.0
 40
5.0
 40
5.0
 40
6.0
 40
6.0
 40
6.0
 40
7.0
 40
7.0
 40
7.0
 40
8.0
 40
8.0
 40
8.0
 40
9.0
 40
9.0
 40
9.0
 40
10.0
 40
10.0
 40
10.0
 40
11.0
 40
11.0
 40
11.0
 40
12.0
 40
12.0
 40
12.0
 40
13.0
 40
13.0
 40
13.0
 40
13.0
 10
79.82424043143283
 20
-138.7133246180994
 30
0.0
 10
79.79943574393903
 20
-138.6688828863397
 30
0.0
 10
79.77669811373639
 20
-138.6161729254154
 30
0.0
 10
79.77445880167097
 20
-138.3853515279037
 30
0.0
 10
79.76998017754015
 20
-138.142127786645
 30
0.0
 10
79.70676267538582
 20
-138.0721923482945
 30
0.0
 10
79.51676565937429
 20
-138.0721923482945
 30
0.0
 10
79.51676565937429
 20
-138.0721923482945
 30
0.0
 10
79.08044431616739
 20
-138.0721923482945
 30
0.0
 10
79.08044431616739
 20
-138.0721923482945
 30
0.0
 10
79.08044431616739
 20
-138.0721923482945
 30
0.0
 10
79.08044431616739
 20
-138.7133246180994
 30
0.0
 10
79.08044431616739
 20
-138.7133246180994
 30
0.0
 10
79.08044431616739
 20
-138.7133246180994
 30
0.0
 10
78.82946911006694
 20
-138.7133246180994
 30
0.0
 10
78.82946911006694
 20
-138.7133246180994
 30
0.0
 10
78.82946911006694
 20
-138.7133246180994
 30
0.0
 10
78.82946911006694
 20
-137.1688883120619
 30
0.0
 10
78.82946911006694
 20
-137.1688883120619
 30
0.0
 10
78.82946911006694
 20
-137.1688883120619
 30
0.0
 10
79.55069984990399
 20
-137.1688883120619
 30
0.0
 10
79.55069984990399
 20
-137.1688883120619
 30
0.0
 10
79.87850068532552
 20
-137.1688883120619
 30
0.0
 10
80.05712888623572
 20
-137.3404540672274
 30
0.0
 10
80.05712888623572
 20
-137.5964246617815
 30
0.0
 10
80.05712888623572
 20
-137.6470675654146
 30
0.0
 10
80.04817163797408
 20
-137.7297498570606
 30
0.0
 10
80.00062932027762
 20
-137.810020581867
 30
0.0
 10
79.93723956334902
 20
-137.913717955973
 30
0.0
 10
79.86730412499845
 20
-137.9326659811418
 30
0.0
 10
79.80167505600444
 20
-137.9495469490196
 30
0.0
 10
79.94860837845034
 20
-137.9919216234881
 30
0.0
 10
80.0209553836406
 20
-138.0404974698302
 30
0.0
 10
80.02543400777142
 20
-138.3557237067305
 30
0.0
 10
80.02991263190225
 20
-138.6265082118712
 30
0.0
 10
80.06849770133705
 20
-138.6582030903355
 30
0.0
 10
80.14084470652729
 20
-138.7133246180994
 30
0.0
 10
80.14084470652729
 20
-138.7133246180994
 30
0.0
 10
79.82424043143283
 20
-138.7133246180994
 30
0.0
 10
79.82424043143283
 20
-138.7133246180994
 30
0.0
  0
SPLINE
  5
94
330
8D
100
AcDbEntity
  8
_U+30EC_U+30A4_U+30E4_U+30FC 1
370
     0
100
AcDbSpline
210
0.0
220
0.0
230
1.0
 70
    11
 71
     3
 72
    20
 73
    16
 74
     0
 42
0.0000000001
 43
0.0000000001
 12
1.0
 22
0.0
 32
0.0
 13
1.0
 23
0.0
 33
0.0
 40
0.0
 40
0.0
 40
0.0
 40
0.0
 40
1.0
 40
1.0
 40
1.0
 40
2.0
 40
2.0
 40
2.0
 40
3.0
 40
3.0
 40
3.0
 40
4.0
 40
4.0
 40
4.0
 40
5.0
 40
5.0
 40
5.0
 40
5.0
 10
79.55517847403482
 20
-137.3804171748563
 30
0.0
 10
79.55517847403482
 20
-137.3804171748563
 30
0.0
 10
79.08044431616739
 20
-137.3804171748563
 30
0.0
 10
79.08044431616739
 20
-137.3804171748563
 30
0.0
 10
79.08044431616739
 20
-137.3804171748563
 30
0.0
 10
79.08044431616739
 20
-137.8606634855001
 30
0.0
 10
79.08044431616739
 20
-137.8606634855001
 30
0.0
 10
79.08044431616739
 20
-137.8606634855001
 30
0.0
 10
79.5529391619694
 20
-137.8606634855001
 30
0.0
 10
79.5529391619694
 20
-137.8606634855001
 30
0.0
 10
79.65922035768936
 20
-137.8606634855001
 30
0.0
 10
79.80391436806985
 20
-137.7845268752761
 30
0.0
 10
79.80391436806985
 20
-137.6133056296592
 30
0.0
 10
79.80391436806985
 20
-137.535101962144
 30
0.0
 10
79.76774086547474
 20
-137.3804171748563
 30
0.0
 10
79.55517847403482
 20
-137.3804171748563
 30
0.0
  0
HATCH
  5
95
330
8D
100
AcDbEntity
  8
_U+30EC_U+30A4_U+30E4_U+30FC 1
 62
   179
420
  2234388
100
AcDbHatch
 10
0.0
 20
0.0
 30
0.0
210
0.0
220
0.0
230
1.0
  2
SOLID
 70
     1
 71
     0
 91
        2
 92
        1
 93
        1
 72
     4
 94
        3
 73
     0
 74
     1
 95
       44
 96
       40
 40
0.0
 40
0.0
 40
0.0
 40
0.0
 40
1.0
 40
1.0
 40
1.0
 40
2.0
 40
2.0
 40
2.0
 40
3.0
 40
3.0
 40
3.0
 40
4.0
 40
4.0
 40
4.0
 40
5.0
 40
5.0
 40
5.0
 40
6.0
 40
6.0
 40
6.0
 40
7.0
 40
7.0
 40
7.0
 40
8.0
 40
8.0
 40
8.0
 40
9.0
 40
9.0
 40
9.0
 40
10.0
 40
10.0
 40
10.0
 40
11.0
 40
11.0
 40
11.0
 40
12.0
 40
12.0
 40
12.0
 40
13.0
 40
13.0
 40
13.0
 40
13.0
 10
79.82424043143283
 20
-138.7133246180994
 10
79.79943574393903
 20
-138.6688828863397
 10
79.77669811373639
 20
-138.6161729254154
 10
79.77445880167097
 20
-138.3853515279037
 10
79.76998017754015
 20
-138.142127786645
 10
79.70676267538582
 20
-138.0721923482945
 10
79.51676565937429
 20
-138.0721923482945
 10
79.51676565937429
 20
-138.0721923482945
 10
79.08044431616739
 20
-138.0721923482945
 10
79.08044431616739
 20
-138.0721923482945
 10
79.08044431616739
 20
-138.0721923482945
 10
79.08044431616739
 20
-138.7133246180994
 10
79.08044431616739
 20
-138.7133246180994
 10
79.08044431616739
 20
-138.7133246180994
 10
78.82946911006694
 20
-138.7133246180994
 10
78.82946911006694
 20
-138.7133246180994
 10
78.82946911006694
 20
-138.7133246180994
 10
78.82946911006694
 20
-137.1688883120619
 10
78.82946911006694
 20
-137.1688883120619
 10
78.82946911006694
 20
-137.1688883120619
 10
79.55069984990399
 20
-137.1688883120619
 10
79.55069984990399
 20
-137.1688883120619
 10
79.87850068532552
 20
-137.1688883120619
 10
80.05712888623572
 20
-137.3404540672274
 10
80.05712888623572
 20
-137.5964246617815
 10
80.05712888623572
 20
-137.6470675654146
 10
80.04817163797408
 20
-137.7297498570606
 10
80.00062932027762
 20
-137.810020581867
 10
79.93723956334902
 20
-137.913717955973
 10
79.86730412499845
 20
-137.9326659811418
 10
79.80167505600444
 20
-137.9495469490196
 10
79.94860837845034
 20
-137.9919216234881
 10
80.0209553836406
 20
-138.0404974698302
 10
80.02543400777142
 20
-138.3557237067305
 10
80.02991263190225
 20
-138.6265082118712
 10
80.06849770133705
 20
-138.6582030903355
 10
80.14084470652729
 20
-138.7133246180994
 10
80.14084470652729
 20
-138.7133246180994
 10
79.82424043143283
 20
-138.7133246180994
 10
79.82424043143283
 20
-138.7133246180994
 97
        0
 97
        0
 92
        1
 93
        1
 72
     4
 94
        3
 73
     0
 74
     1
 95
       20
 96
       16
 40
0.0
 40
0.0
 40
0.0
 40
0.0
 40
1.0
 40
1.0
 40
1.0
 40
2.0
 40
2.0
 40
2.0
 40
3.0
 40
3.0
 40
3.0
 40
4.0
 40
4.0
 40
4.0
 40
5.0
 40
5.0
 40
5.0
 40
5.0
 10
79.55517847403482
 20
-137.3804171748563
 10
79.55517847403482
 20
-137.3804171748563
 10
79.08044431616739
 20
-137.3804171748563
 10
79.08044431616739
 20
-137.3804171748563
 10
79.08044431616739
 20
-137.3804171748563
 10
79.08044431616739
 20
-137.8606634855001
 10
79.08044431616739
 20
-137.8606634855001
 10
79.08044431616739
 20
-137.8606634855001
 10
79.5529391619694
 20
-137.8606634855001
 10
79.5529391619694
 20
-137.8606634855001
 10
79.65922035768936
 20
-137.8606634855001
 10
79.80391436806985
 20
-137.7845268752761
 10
79.80391436806985
 20
-137.6133056296592
 10
79.80391436806985
 20
-137.535101962144
 10
79.76774086547474
 20
-137.3804171748563
 10
79.55517847403482
 20
-137.3804171748563
 97
        0
 97
        0
 75
     2
 76
     1
 98
        0
  0
ENDBLK
  5
90
330
8D
100
AcDbEntity
  8
0
100
AcDbBlockEnd
  0
BLOCK
  5
A4
330
A2
100
AcDbEntity
  8
0
100
AcDbBlockBegin
  2
block 3
 70
     0
 10
0.0
 20
0.0
 30
0.0
  3
block 3
  1

  0
SPLINE
  5
A6
330
A2
100
AcDbEntity
  8
_U+30EC_U+30A4_U+30E4_U+30FC 1
370
     0
100
AcDbSpline
210
0.0
220
0.0
230
1.0
 70
    11
 71
     3
 72
    26
 73
    22
 74
     0
 42
0.0000000001
 43
0.0000000001
 12
1.0
 22
0.0
 32
0.0
 13
1.0
 23
0.0
 33
0.0
 40
0.0
 40
0.0
 40
0.0
 40
0.0
 40
1.0
 40
1.0
 40
1.0
 40
2.0
 40
2.0
 40
2.0
 40
3.0
 40
3.0
 40
3.0
 40
4.0
 40
4.0
 40
4.0
 40
5.0
 40
5.0
 40
5.0
 40
6.0
 40
6.0
 40
6.0
 40
7.0
 40
7.0
 40
7.0
 40
7.0
 10
94.78215600929057
 20
-118.2635823272049
 30
0.0
 10
94.78215600929057
 20
-118.2635823272049
 30
0.0
 10
94.78215600929057
 20
-117.1592569694081
 30
0.0
 10
94.78215600929057
 20
-117.1592569694081
 30
0.0
 10
94.78215600929057
 20
-117.1592569694081
 30
0.0
 10
94.42972274114952
 20
-117.1592569694081
 30
0.0
 10
94.42972274114952
 20
-117.1592569694081
 30
0.0
 10
94.42972274114952
 20
-117.1592569694081
 30
0.0
 10
94.42972274114952
 20
-117.0112901183166
 30
0.0
 10
94.42972274114952
 20
-117.0112901183166
 30
0.0
 10
94.78456757613026
 20
-116.9964762077301
 30
0.0
 10
94.83417695111785
 20
-116.8335231912777
 30
0.0
 10
94.86587182958215
 20
-116.7193182759417
 30
0.0
 10
94.86587182958215
 20
-116.7193182759417
 30
0.0
 10
95.02193465506396
 20
-116.7193182759417
 30
0.0
 10
95.02193465506396
 20
-116.7193182759417
 30
0.0
 10
95.02193465506396
 20
-116.7193182759417
 30
0.0
 10
95.02193465506396
 20
-118.2635823272049
 30
0.0
 10
95.02193465506396
 20
-118.2635823272049
 30
0.0
 10
95.02193465506396
 20
-118.2635823272049
 30
0.0
 10
94.78215600929057
 20
-118.2635823272049
 30
0.0
 10
94.78215600929057
 20
-118.2635823272049
 30
0.0
  0
HATCH
  5
A7
330
A2
100
AcDbEntity
  8
_U+30EC_U+30A4_U+30E4_U+30FC 1
 62
   179
420
  2234388
100
AcDbHatch
 10
0.0
 20
0.0
 30
0.0
210
0.0
220
0.0
230
1.0
  2
SOLID
 70
     1
 71
     0
 91
        1
 92
        1
 93
        1
 72
     4
 94
        3
 73
     0
 74
     1
 95
       26
 96
       22
 40
0.0
 40
0.0
 40
0.0
 40
0.0
 40
1.0
 40
1.0
 40
1.0
 40
2.0
 40
2.0
 40
2.0
 40
3.0
 40
3.0
 40
3.0
 40
4.0
 40
4.0
 40
4.0
 40
5.0
 40
5.0
 40
5.0
 40
6.0
 40
6.0
 40
6.0
 40
7.0
 40
7.0
 40
7.0
 40
7.0
 10
94.78215600929057
 20
-118.2635823272049
 10
94.78215600929057
 20
-118.2635823272049
 10
94.78215600929057
 20
-117.1592569694081
 10
94.78215600929057
 20
-117.1592569694081
 10
94.78215600929057
 20
-117.1592569694081
 10
94.42972274114952
 20
-117.1592569694081
 10
94.42972274114952
 20
-117.1592569694081
 10
94.42972274114952
 20
-117.1592569694081
 10
94.42972274114952
 20
-117.0112901183166
 10
94.42972274114952
 20
-117.0112901183166
 10
94.78456757613026
 20
-116.9964762077301
 10
94.83417695111785
 20
-116.8335231912777
 10
94.86587182958215
 20
-116.7193182759417
 10
94.86587182958215
 20
-116.7193182759417
 10
95.02193465506396
 20
-116.7193182759417
 10
95.02193465506396
 20
-116.7193182759417
 10
95.02193465506396
 20
-116.7193182759417
 10
95.02193465506396
 20
-118.2635823272049
 10
95.02193465506396
 20
-118.2635823272049
 10
95.02193465506396
 20
-118.2635823272049
 10
94.78215600929057
 20
-118.2635823272049
 10
94.78215600929057
 20
-118.2635823272049
 97
        0
 97
        0
 75
     2
 76
     1
 98
        0
  0
SPLINE
  5
A8
330
A2
100
AcDbEntity
  8
_U+30EC_U+30A4_U+30E4_U+30FC 1
370
     0
100
AcDbSpline
210
0.0
220
0.0
230
1.0
 70
    11
 71
     3
 72
    29
 73
    25
 74
     0
 42
0.0000000001
 43
0.0000000001
 12
1.0
 22
0.0
 32
0.0
 13
1.0
 23
0.0
 33
0.0
 40
0.0
 40
0.0
 40
0.0
 40
0.0
 40
1.0
 40
1.0
 40
1.0
 40
2.0
 40
2.0
 40
2.0
 40
3.0
 40
3.0
 40
3.0
 40
4.0
 40
4.0
 40
4.0
 40
5.0
 40
5.0
 40
5.0
 40
6.0
 40
6.0
 40
6.0
 40
7.0
 40
7.0
 40
7.0
 40
8.0
 40
8.0
 40
8.0
 40
8.0
 10
96.09198131278256
 20
-118.3142252308381
 30
0.0
 10
95.80707191615241
 20
-118.3142252308381
 30
0.0
 10
95.53594290146324
 20
-118.1767659209766
 30
0.0
 10
95.53594290146324
 20
-117.8277777483208
 30
0.0
 10
95.53594290146324
 20
-117.5718071537668
 30
0.0
 10
95.68752710281423
 20
-117.4765502635996
 30
0.0
 10
95.80052623473043
 20
-117.4152275639622
 30
0.0
 10
95.66720103945126
 20
-117.3559719216159
 30
0.0
 10
95.58555227645084
 20
-117.2417670062798
 30
0.0
 10
95.58555227645084
 20
-117.0810533018929
 30
0.0
 10
95.58555227645084
 20
-116.8059624273957
 30
0.0
 10
95.79811466789076
 20
-116.6705701748254
 30
0.0
 10
96.09198131278256
 20
-116.6705701748254
 30
0.0
 10
96.39514971548455
 20
-116.6705701748254
 30
0.0
 10
96.59841034911429
 20
-116.8144029113346
 30
0.0
 10
96.59841034911429
 20
-117.0810533018929
 30
0.0
 10
96.59841034911429
 20
-117.2417670062798
 30
0.0
 10
96.51503903837124
 20
-117.3559719216159
 30
0.0
 10
96.38136933354355
 20
-117.4152275639622
 30
0.0
 10
96.47645396893644
 20
-117.4660427223696
 30
0.0
 10
96.64595266681074
 20
-117.5612996125368
 30
0.0
 10
96.64595266681074
 20
-117.8236436337385
 30
0.0
 10
96.64595266681074
 20
-118.1981255129852
 30
0.0
 10
96.3476073977881
 20
-118.3142252308381
 30
0.0
 10
96.09198131278256
 20
-118.3142252308381
 30
0.0
  0
SPLINE
  5
A9
330
A2
100
AcDbEntity
  8
_U+30EC_U+30A4_U+30E4_U+30FC 1
370
     0
100
AcDbSpline
210
0.0
220
0.0
230
1.0
 70
    11
 71
     3
 72
    17
 73
    13
 74
     0
 42
0.0000000001
 43
0.0000000001
 12
1.0
 22
0.0
 32
0.0
 13
1.0
 23
0.0
 33
0.0
 40
0.0
 40
0.0
 40
0.0
 40
0.0
 40
1.0
 40
1.0
 40
1.0
 40
2.0
 40
2.0
 40
2.0
 40
3.0
 40
3.0
 40
3.0
 40
4.0
 40
4.0
 40
4.0
 40
4.0
 10
96.09198131278256
 20
-117.5232313074248
 30
0.0
 10
95.93833005414042
 20
-117.5232313074248
 30
0.0
 10
95.77572154723663
 20
-117.6098754588788
 30
0.0
 10
95.77572154723663
 20
-117.8129638377343
 30
0.0
 10
95.77572154723663
 20
-118.0182915286552
 30
0.0
 10
95.91111379980696
 20
-118.1195773359215
 30
0.0
 10
96.09198131278256
 20
-118.1195773359215
 30
0.0
 10
96.29110783183
 20
-118.1195773359215
 30
0.0
 10
96.40858558787703
 20
-117.9969319366466
 30
0.0
 10
96.40858558787703
 20
-117.819337264382
 30
0.0
 10
96.40858558787703
 20
-117.5971286055834
 30
0.0
 10
96.23460826587191
 20
-117.5232313074248
 30
0.0
 10
96.09198131278256
 20
-117.5232313074248
 30
0.0
  0
SPLINE
  5
AA
330
A2
100
AcDbEntity
  8
_U+30EC_U+30A4_U+30E4_U+30FC 1
370
     0
100
AcDbSpline
210
0.0
220
0.0
230
1.0
 70
    11
 71
     3
 72
    17
 73
    13
 74
     0
 42
0.0000000001
 43
0.0000000001
 12
1.0
 22
0.0
 32
0.0
 13
1.0
 23
0.0
 33
0.0
 40
0.0
 40
0.0
 40
0.0
 40
0.0
 40
1.0
 40
1.0
 40
1.0
 40
2.0
 40
2.0
 40
2.0
 40
3.0
 40
3.0
 40
3.0
 40
4.0
 40
4.0
 40
4.0
 40
4.0
 10
96.09198131278256
 20
-116.8631510124509
 30
0.0
 10
95.9159369334863
 20
-116.8631510124509
 30
0.0
 10
95.82533092222423
 20
-116.9582356478438
 30
0.0
 10
95.82533092222423
 20
-117.0936279004141
 30
0.0
 10
95.82533092222423
 20
-117.2164455544632
 30
0.0
 10
95.9021565515453
 20
-117.3349568391559
 30
0.0
 10
96.09198131278256
 20
-117.3349568391559
 30
0.0
 10
96.28215058356835
 20
-117.3349568391559
 30
0.0
 10
96.35897621288943
 20
-117.2164455544632
 30
0.0
 10
96.35897621288943
 20
-117.0936279004141
 30
0.0
 10
96.35897621288943
 20
-116.9582356478438
 30
0.0
 10
96.2663031443362
 20
-116.8631510124509
 30
0.0
 10
96.09198131278256
 20
-116.8631510124509
 30
0.0
  0
HATCH
  5
AB
330
A2
100
AcDbEntity
  8
_U+30EC_U+30A4_U+30E4_U+30FC 1
 62
   179
420
  2234388
100
AcDbHatch
 10
0.0
 20
0.0
 30
0.0
210
0.0
220
0.0
230
1.0
  2
SOLID
 70
     1
 71
     0
 91
        3
 92
        1
 93
        1
 72
     4
 94
        3
 73
     0
 74
     1
 95
       29
 96
       25
 40
0.0
 40
0.0
 40
0.0
 40
0.0
 40
1.0
 40
1.0
 40
1.0
 40
2.0
 40
2.0
 40
2.0
 40
3.0
 40
3.0
 40
3.0
 40
4.0
 40
4.0
 40
4.0
 40
5.0
 40
5.0
 40
5.0
 40
6.0
 40
6.0
 40
6.0
 40
7.0
 40
7.0
 40
7.0
 40
8.0
 40
8.0
 40
8.0
 40
8.0
 10
96.09198131278256
 20
-118.3142252308381
 10
95.80707191615241
 20
-118.3142252308381
 10
95.53594290146324
 20
-118.1767659209766
 10
95.53594290146324
 20
-117.8277777483208
 10
95.53594290146324
 20
-117.5718071537668
 10
95.68752710281423
 20
-117.4765502635996
 10
95.80052623473043
 20
-117.4152275639622
 10
95.66720103945126
 20
-117.3559719216159
 10
95.58555227645084
 20
-117.2417670062798
 10
95.58555227645084
 20
-117.0810533018929
 10
95.58555227645084
 20
-116.8059624273957
 10
95.79811466789076
 20
-116.6705701748254
 10
96.09198131278256
 20
-116.6705701748254
 10
96.39514971548455
 20
-116.6705701748254
 10
96.59841034911429
 20
-116.8144029113346
 10
96.59841034911429
 20
-117.0810533018929
 10
96.59841034911429
 20
-117.2417670062798
 10
96.51503903837124
 20
-117.3559719216159
 10
96.38136933354355
 20
-117.4152275639622
 10
96.47645396893644
 20
-117.4660427223696
 10
96.64595266681074
 20
-117.5612996125368
 10
96.64595266681074
 20
-117.8236436337385
 10
96.64595266681074
 20
-118.1981255129852
 10
96.3476073977881
 20
-118.3142252308381
 10
96.09198131278256
 20
-118.3142252308381
 97
        0
 97
        0
 92
        1
 93
        1
 72
     4
 94
        3
 73
     0
 74
     1
 95
       17
 96
       13
 40
0.0
 40
0.0
 40
0.0
 40
0.0
 40
1.0
 40
1.0
 40
1.0
 40
2.0
 40
2.0
 40
2.0
 40
3.0
 40
3.0
 40
3.0
 40
4.0
 40
4.0
 40
4.0
 40
4.0
 10
96.09198131278256
 20
-117.5232313074248
 10
95.93833005414042
 20
-117.5232313074248
 10
95.77572154723663
 20
-117.6098754588788
 10
95.77572154723663
 20
-117.8129638377343
 10
95.77572154723663
 20
-118.0182915286552
 10
95.91111379980696
 20
-118.1195773359215
 10
96.09198131278256
 20
-118.1195773359215
 10
96.29110783183
 20
-118.1195773359215
 10
96.40858558787703
 20
-117.9969319366466
 10
96.40858558787703
 20
-117.819337264382
 10
96.40858558787703
 20
-117.5971286055834
 10
96.23460826587191
 20
-117.5232313074248
 10
96.09198131278256
 20
-117.5232313074248
 97
        0
 97
        0
 92
        1
 93
        1
 72
     4
 94
        3
 73
     0
 74
     1
 95
       17
 96
       13
 40
0.0
 40
0.0
 40
0.0
 40
0.0
 40
1.0
 40
1.0
 40
1.0
 40
2.0
 40
2.0
 40
2.0
 40
3.0
 40
3.0
 40
3.0
 40
4.0
 40
4.0
 40
4.0
 40
4.0
 10
96.09198131278256
 20
-116.8631510124509
 10
95.9159369334863
 20
-116.8631510124509
 10
95.82533092222423
 20
-116.9582356478438
 10
95.82533092222423
 20
-117.0936279004141
 10
95.82533092222423
 20
-117.2164455544632
 10
95.9021565515453
 20
-117.3349568391559
 10
96.09198131278256
 20
-117.3349568391559
 10
96.28215058356835
 20
-117.3349568391559
 10
96.35897621288943
 20
-117.2164455544632
 10
96.35897621288943
 20
-117.0936279004141
 10
96.35897621288943
 20
-116.9582356478438
 10
96.2663031443362
 20
-116.8631510124509
 10
96.09198131278256
 20
-116.8631510124509
 97
        0
 97
        0
 75
     2
 76
     1
 98
        0
  0
ENDBLK
  5
A5
330
A2
100
AcDbEntity
  8
0
100
AcDbBlockEnd
  0
BLOCK
  5
B6
330
B4
100
AcDbEntity
  8
0
100
AcDbBlockBegin
  2
block 4
 70
     0
 10
0.0
 20
0.0
 30
0.0
  3
block 4
  1

  0
SPLINE
  5
B8
330
B4
100
AcDbEntity
  8
_U+30EC_U+30A4_U+30E4_U+30FC 1
370
     0
100
AcDbSpline
210
0.0
220
0.0
230
1.0
 70
    11
 71
     3
 72
    26
 73
    22
 74
     0
 42
0.0000000001
 43
0.0000000001
 12
1.0
 22
0.0
 32
0.0
 13
1.0
 23
0.0
 33
0.0
 40
0.0
 40
0.0
 40
0.0
 40
0.0
 40
1.0
 40
1.0
 40
1.0
 40
2.0
 40
2.0
 40
2.0
 40
3.0
 40
3.0
 40
3.0
 40
4.0
 40
4.0
 40
4.0
 40
5.0
 40
5.0
 40
5.0
 40
6.0
 40
6.0
 40
6.0
 40
7.0
 40
7.0
 40
7.0
 40
7.0
 10
87.68525930967591
 20
-124.762927214903
 30
0.0
 10
87.68525930967591
 20
-124.762927214903
 30
0.0
 10
87.68525930967591
 20
-123.6586018571062
 30
0.0
 10
87.68525930967591
 20
-123.6586018571062
 30
0.0
 10
87.68525930967591
 20
-123.6586018571062
 30
0.0
 10
87.33248153198633
 20
-123.6586018571062
 30
0.0
 10
87.33248153198633
 20
-123.6586018571062
 30
0.0
 10
87.33248153198633
 20
-123.6586018571062
 30
0.0
 10
87.33248153198633
 20
-123.5104627512404
 30
0.0
 10
87.33248153198633
 20
-123.5104627512404
 30
0.0
 10
87.68749862174133
 20
-123.4958210954281
 30
0.0
 10
87.73728025150318
 20
-123.3328680789758
 30
0.0
 10
87.76897512996749
 20
-123.2186631636398
 30
0.0
 10
87.76897512996749
 20
-123.2186631636398
 30
0.0
 10
87.92486570067504
 20
-123.2186631636398
 30
0.0
 10
87.92486570067504
 20
-123.2186631636398
 30
0.0
 10
87.92486570067504
 20
-123.2186631636398
 30
0.0
 10
87.92486570067504
 20
-124.762927214903
 30
0.0
 10
87.92486570067504
 20
-124.762927214903
 30
0.0
 10
87.92486570067504
 20
-124.762927214903
 30
0.0
 10
87.68525930967591
 20
-124.762927214903
 30
0.0
 10
87.68525930967591
 20
-124.762927214903
 30
0.0
  0
HATCH
  5
B9
330
B4
100
AcDbEntity
  8
_U+30EC_U+30A4_U+30E4_U+30FC 1
 62
   179
420
  2234388
100
AcDbHatch
 10
0.0
 20
0.0
 30
0.0
210
0.0
220
0.0
230
1.0
  2
SOLID
 70
     1
 71
     0
 91
        1
 92
        1
 93
        1
 72
     4
 94
        3
 73
     0
 74
     1
 95
       26
 96
       22
 40
0.0
 40
0.0
 40
0.0
 40
0.0
 40
1.0
 40
1.0
 40
1.0
 40
2.0
 40
2.0
 40
2.0
 40
3.0
 40
3.0
 40
3.0
 40
4.0
 40
4.0
 40
4.0
 40
5.0
 40
5.0
 40
5.0
 40
6.0
 40
6.0
 40
6.0
 40
7.0
 40
7.0
 40
7.0
 40
7.0
 10
87.68525930967591
 20
-124.762927214903
 10
87.68525930967591
 20
-124.762927214903
 10
87.68525930967591
 20
-123.6586018571062
 10
87.68525930967591
 20
-123.6586018571062
 10
87.68525930967591
 20
-123.6586018571062
 10
87.33248153198633
 20
-123.6586018571062
 10
87.33248153198633
 20
-123.6586018571062
 10
87.33248153198633
 20
-123.6586018571062
 10
87.33248153198633
 20
-123.5104627512404
 10
87.33248153198633
 20
-123.5104627512404
 10
87.68749862174133
 20
-123.4958210954281
 10
87.73728025150318
 20
-123.3328680789758
 10
87.76897512996749
 20
-123.2186631636398
 10
87.76897512996749
 20
-123.2186631636398
 10
87.92486570067504
 20
-123.2186631636398
 10
87.92486570067504
 20
-123.2186631636398
 10
87.92486570067504
 20
-123.2186631636398
 10
87.92486570067504
 20
-124.762927214903
 10
87.92486570067504
 20
-124.762927214903
 10
87.92486570067504
 20
-124.762927214903
 10
87.68525930967591
 20
-124.762927214903
 10
87.68525930967591
 20
-124.762927214903
 97
        0
 97
        0
 75
     2
 76
     1
 98
        0
  0
ENDBLK
  5
B7
330
B4
100
AcDbEntity
  8
0
100
AcDbBlockEnd
  0
BLOCK
  5
C8
330
C6
100
AcDbEntity
  8
0
100
AcDbBlockBegin
  2
block 5
 70
     0
 10
0.0
 20
0.0
 30
0.0
  3
block 5
  1

  0
SPLINE
  5
CA
330
C6
100
AcDbEntity
  8
_U+30EC_U+30A4_U+30E4_U+30FC 1
370
     0
100
AcDbSpline
210
0.0
220
0.0
230
1.0
 70
    11
 71
     3
 72
    26
 73
    22
 74
     0
 42
0.0000000001
 43
0.0000000001
 12
1.0
 22
0.0
 32
0.0
 13
1.0
 23
0.0
 33
0.0
 40
0.0
 40
0.0
 40
0.0
 40
0.0
 40
1.0
 40
1.0
 40
1.0
 40
2.0
 40
2.0
 40
2.0
 40
3.0
 40
3.0
 40
3.0
 40
4.0
 40
4.0
 40
4.0
 40
5.0
 40
5.0
 40
5.0
 40
6.0
 40
6.0
 40
6.0
 40
7.0
 40
7.0
 40
7.0
 40
7.0
 10
80.86155868204156
 20
-130.0361626194007
 30
0.0
 10
80.86155868204156
 20
-130.0361626194007
 30
0.0
 10
79.75723332424472
 20
-130.0361626194007
 30
0.0
 10
79.75723332424472
 20
-130.0361626194007
 30
0.0
 10
79.75723332424472
 20
-130.0361626194007
 30
0.0
 10
79.75723332424472
 20
-130.3885958875418
 30
0.0
 10
79.75723332424472
 20
-130.3885958875418
 30
0.0
 10
79.75723332424472
 20
-130.3885958875418
 30
0.0
 10
79.60909421837898
 20
-130.3885958875418
 30
0.0
 10
79.60909421837898
 20
-130.3885958875418
 30
0.0
 10
79.59445256256667
 20
-130.033751052561
 30
0.0
 10
79.43149954611435
 20
-129.9841416775734
 30
0.0
 10
79.31729463077832
 20
-129.9524467991091
 30
0.0
 10
79.31729463077832
 20
-129.9524467991091
 30
0.0
 10
79.31729463077832
 20
-129.7963839736273
 30
0.0
 10
79.31729463077832
 20
-129.7963839736273
 30
0.0
 10
79.31729463077832
 20
-129.7963839736273
 30
0.0
 10
80.86155868204156
 20
-129.7963839736273
 30
0.0
 10
80.86155868204156
 20
-129.7963839736273
 30
0.0
 10
80.86155868204156
 20
-129.7963839736273
 30
0.0
 10
80.86155868204156
 20
-130.0361626194007
 30
0.0
 10
80.86155868204156
 20
-130.0361626194007
 30
0.0
  0
HATCH
  5
CB
330
C6
100
AcDbEntity
  8
_U+30EC_U+30A4_U+30E4_U+30FC 1
 62
   179
420
  2234388
100
AcDbHatch
 10
0.0
 20
0.0
 30
0.0
210
0.0
220
0.0
230
1.0
  2
SOLID
 70
     1
 71
     0
 91
        1
 92
        1
 93
        1
 72
     4
 94
        3
 73
     0
 74
     1
 95
       26
 96
       22
 40
0.0
 40
0.0
 40
0.0
 40
0.0
 40
1.0
 40
1.0
 40
1.0
 40
2.0
 40
2.0
 40
2.0
 40
3.0
 40
3.0
 40
3.0
 40
4.0
 40
4.0
 40
4.0
 40
5.0
 40
5.0
 40
5.0
 40
6.0
 40
6.0
 40
6.0
 40
7.0
 40
7.0
 40
7.0
 40
7.0
 10
80.86155868204156
 20
-130.0361626194007
 10
80.86155868204156
 20
-130.0361626194007
 10
79.75723332424472
 20
-130.0361626194007
 10
79.75723332424472
 20
-130.0361626194007
 10
79.75723332424472
 20
-130.0361626194007
 10
79.75723332424472
 20
-130.3885958875418
 10
79.75723332424472
 20
-130.3885958875418
 10
79.75723332424472
 20
-130.3885958875418
 10
79.60909421837898
 20
-130.3885958875418
 10
79.60909421837898
 20
-130.3885958875418
 10
79.59445256256667
 20
-130.033751052561
 10
79.43149954611435
 20
-129.9841416775734
 10
79.31729463077832
 20
-129.9524467991091
 10
79.31729463077832
 20
-129.9524467991091
 10
79.31729463077832
 20
-129.7963839736273
 10
79.31729463077832
 20
-129.7963839736273
 10
79.31729463077832
 20
-129.7963839736273
 10
80.86155868204156
 20
-129.7963839736273
 10
80.86155868204156
 20
-129.7963839736273
 10
80.86155868204156
 20
-129.7963839736273
 10
80.86155868204156
 20
-130.0361626194007
 10
80.86155868204156
 20
-130.0361626194007
 97
        0
 97
        0
 75
     2
 76
     1
 98
        0
  0
SPLINE
  5
CC
330
C6
100
AcDbEntity
  8
_U+30EC_U+30A4_U+30E4_U+30FC 1
370
     0
100
AcDbSpline
210
0.0
220
0.0
230
1.0
 70
    11
 71
     3
 72
    62
 73
    58
 74
     0
 42
0.0000000001
 43
0.0000000001
 12
1.0
 22
0.0
 32
0.0
 13
1.0
 23
0.0
 33
0.0
 40
0.0
 40
0.0
 40
0.0
 40
0.0
 40
1.0
 40
1.0
 40
1.0
 40
2.0
 40
2.0
 40
2.0
 40
3.0
 40
3.0
 40
3.0
 40
4.0
 40
4.0
 40
4.0
 40
5.0
 40
5.0
 40
5.0
 40
6.0
 40
6.0
 40
6.0
 40
7.0
 40
7.0
 40
7.0
 40
8.0
 40
8.0
 40
8.0
 40
9.0
 40
9.0
 40
9.0
 40
10.0
 40
10.0
 40
10.0
 40
11.0
 40
11.0
 40
11.0
 40
12.0
 40
12.0
 40
12.0
 40
13.0
 40
13.0
 40
13.0
 40
14.0
 40
14.0
 40
14.0
 40
15.0
 40
15.0
 40
15.0
 40
16.0
 40
16.0
 40
16.0
 40
17.0
 40
17.0
 40
17.0
 40
18.0
 40
18.0
 40
18.0
 40
19.0
 40
19.0
 40
19.0
 40
19.0
 10
80.91237384044899
 20
-128.7352945641703
 30
0.0
 10
80.91237384044899
 20
-128.8369248809852
 30
0.0
 10
80.89118650321471
 20
-129.0698133357881
 30
0.0
 10
80.70497909223695
 20
-129.2031385310673
 30
0.0
 10
80.59284123419206
 20
-129.282375727228
 30
0.0
 10
80.49345022944262
 20
-129.2868543513588
 30
0.0
 10
80.40887313527973
 20
-129.2913329754897
 30
0.0
 10
80.40887313527973
 20
-129.2913329754897
 30
0.0
 10
80.40887313527973
 20
-129.0563774633956
 30
0.0
 10
80.40887313527973
 20
-129.0563774633956
 30
0.0
 10
80.4829426882126
 20
-129.053965896556
 30
0.0
 10
80.71772594553238
 20
-129.0425970814546
 30
0.0
 10
80.71772594553238
 20
-128.7397731883012
 30
0.0
 10
80.71772594553238
 20
-128.592667611081
 30
0.0
 10
80.64796276195607
 20
-128.4300591041772
 30
0.0
 10
80.41938067650975
 20
-128.4300591041772
 30
0.0
 10
80.30310870388256
 20
-128.4300591041772
 30
0.0
 10
80.25436060276627
 20
-128.4707112309032
 30
0.0
 10
80.22266572430198
 20
-128.5048176762071
 30
0.0
 10
80.1485961713691
 20
-128.5837103628193
 30
0.0
 10
80.13602157284794
 20
-128.7080783098369
 30
0.0
 10
80.13602157284794
 20
-128.7669894426346
 30
0.0
 10
80.13602157284794
 20
-128.7873155059976
 30
0.0
 10
80.1380886301391
 20
-128.8255560658839
 30
0.0
 10
80.1422227447214
 20
-128.8551838870571
 30
0.0
 10
80.1422227447214
 20
-128.8551838870571
 30
0.0
 10
79.94774710457904
 20
-128.8551838870571
 30
0.0
 10
79.94774710457904
 20
-128.8551838870571
 30
0.0
 10
79.9539482764525
 20
-128.8145317603311
 30
0.0
 10
79.9561875885179
 20
-128.7690564999258
 30
0.0
 10
79.9561875885179
 20
-128.7625108185038
 30
0.0
 10
79.9561875885179
 20
-128.6922308706047
 30
0.0
 10
79.93500025128361
 20
-128.4796684791648
 30
0.0
 10
79.69797768189842
 20
-128.4796684791648
 30
0.0
 10
79.5203830096338
 20
-128.4796684791648
 30
0.0
 10
79.4652614818698
 20
-128.6198838654145
 30
0.0
 10
79.4652614818698
 20
-128.7373616214615
 30
0.0
 10
79.4652614818698
 20
-129.0202039608005
 30
0.0
 10
79.69797768189842
 20
-129.0291612090622
 30
0.0
 10
79.76998017754015
 20
-129.033639833193
 30
0.0
 10
79.76998017754015
 20
-129.033639833193
 30
0.0
 10
79.76998017754015
 20
-129.2506808487637
 30
0.0
 10
79.76998017754015
 20
-129.2506808487637
 30
0.0
 10
79.64509546619983
 20
-129.2417236005021
 30
0.0
 10
79.26854652966203
 20
-129.2124402888774
 30
0.0
 10
79.26854652966203
 20
-128.723925749069
 30
0.0
 10
79.26854652966203
 20
-128.4841471032956
 30
0.0
 10
79.39549829829349
 20
-128.226453960999
 30
0.0
 10
79.69160425525071
 20
-128.226453960999
 30
0.0
 10
79.87781166622847
 20
-128.226453960999
 30
0.0
 10
79.9603217031002
 20
-128.3284287873624
 30
0.0
 10
80.02164440273765
 20
-128.434537728308
 30
0.0
 10
80.04920516661964
 20
-128.3690809140883
 30
0.0
 10
80.12964814620022
 20
-128.1744330191717
 30
0.0
 10
80.40680607798858
 20
-128.1744330191717
 30
0.0
 10
80.74528670941437
 20
-128.1744330191717
 30
0.0
 10
80.91237384044899
 20
-128.4390163524389
 30
0.0
 10
80.91237384044899
 20
-128.7352945641703
 30
0.0
  0
HATCH
  5
CD
330
C6
100
AcDbEntity
  8
_U+30EC_U+30A4_U+30E4_U+30FC 1
 62
   179
420
  2234388
100
AcDbHatch
 10
0.0
 20
0.0
 30
0.0
210
0.0
220
0.0
230
1.0
  2
SOLID
 70
     1
 71
     0
 91
        1
 92
        1
 93
        1
 72
     4
 94
        3
 73
     0
 74
     1
 95
       62
 96
       58
 40
0.0
 40
0.0
 40
0.0
 40
0.0
 40
1.0
 40
1.0
 40
1.0
 40
2.0
 40
2.0
 40
2.0
 40
3.0
 40
3.0
 40
3.0
 40
4.0
 40
4.0
 40
4.0
 40
5.0
 40
5.0
 40
5.0
 40
6.0
 40
6.0
 40
6.0
 40
7.0
 40
7.0
 40
7.0
 40
8.0
 40
8.0
 40
8.0
 40
9.0
 40
9.0
 40
9.0
 40
10.0
 40
10.0
 40
10.0
 40
11.0
 40
11.0
 40
11.0
 40
12.0
 40
12.0
 40
12.0
 40
13.0
 40
13.0
 40
13.0
 40
14.0
 40
14.0
 40
14.0
 40
15.0
 40
15.0
 40
15.0
 40
16.0
 40
16.0
 40
16.0
 40
17.0
 40
17.0
 40
17.0
 40
18.0
 40
18.0
 40
18.0
 40
19.0
 40
19.0
 40
19.0
 40
19.0
 10
80.91237384044899
 20
-128.7352945641703
 10
80.91237384044899
 20
-128.8369248809852
 10
80.89118650321471
 20
-129.0698133357881
 10
80.70497909223695
 20
-129.2031385310673
 10
80.59284123419206
 20
-129.282375727228
 10
80.49345022944262
 20
-129.2868543513588
 10
80.40887313527973
 20
-129.2913329754897
 10
80.40887313527973
 20
-129.2913329754897
 10
80.40887313527973
 20
-129.0563774633956
 10
80.40887313527973
 20
-129.0563774633956
 10
80.4829426882126
 20
-129.053965896556
 10
80.71772594553238
 20
-129.0425970814546
 10
80.71772594553238
 20
-128.7397731883012
 10
80.71772594553238
 20
-128.592667611081
 10
80.64796276195607
 20
-128.4300591041772
 10
80.41938067650975
 20
-128.4300591041772
 10
80.30310870388256
 20
-128.4300591041772
 10
80.25436060276627
 20
-128.4707112309032
 10
80.22266572430198
 20
-128.5048176762071
 10
80.1485961713691
 20
-128.5837103628193
 10
80.13602157284794
 20
-128.7080783098369
 10
80.13602157284794
 20
-128.7669894426346
 10
80.13602157284794
 20
-128.7873155059976
 10
80.1380886301391
 20
-128.8255560658839
 10
80.1422227447214
 20
-128.8551838870571
 10
80.1422227447214
 20
-128.8551838870571
 10
79.94774710457904
 20
-128.8551838870571
 10
79.94774710457904
 20
-128.8551838870571
 10
79.9539482764525
 20
-128.8145317603311
 10
79.9561875885179
 20
-128.7690564999258
 10
79.9561875885179
 20
-128.7625108185038
 10
79.9561875885179
 20
-128.6922308706047
 10
79.93500025128361
 20
-128.4796684791648
 10
79.69797768189842
 20
-128.4796684791648
 10
79.5203830096338
 20
-128.4796684791648
 10
79.4652614818698
 20
-128.6198838654145
 10
79.4652614818698
 20
-128.7373616214615
 10
79.4652614818698
 20
-129.0202039608005
 10
79.69797768189842
 20
-129.0291612090622
 10
79.76998017754015
 20
-129.033639833193
 10
79.76998017754015
 20
-129.033639833193
 10
79.76998017754015
 20
-129.2506808487637
 10
79.76998017754015
 20
-129.2506808487637
 10
79.64509546619983
 20
-129.2417236005021
 10
79.26854652966203
 20
-129.2124402888774
 10
79.26854652966203
 20
-128.723925749069
 10
79.26854652966203
 20
-128.4841471032956
 10
79.39549829829349
 20
-128.226453960999
 10
79.69160425525071
 20
-128.226453960999
 10
79.87781166622847
 20
-128.226453960999
 10
79.9603217031002
 20
-128.3284287873624
 10
80.02164440273765
 20
-128.434537728308
 10
80.04920516661964
 20
-128.3690809140883
 10
80.12964814620022
 20
-128.1744330191717
 10
80.40680607798858
 20
-128.1744330191717
 10
80.74528670941437
 20
-128.1744330191717
 10
80.91237384044899
 20
-128.4390163524389
 10
80.91237384044899
 20
-128.7352945641703
 97
        0
 97
        0
 75
     2
 76
     1
 98
        0
  0
ENDBLK
  5
C9
330
C6
100
AcDbEntity
  8
0
100
AcDbBlockEnd
  0
BLOCK
  5
DC
330
DA
100
AcDbEntity
  8
0
100
AcDbBlockBegin
  2
block 6
 70
     0
 10
0.0
 20
0.0
 30
0.0
  3
block 6
  1

  0
SPLINE
  5
DE
330
DA
100
AcDbEntity
  8
_U+30EC_U+30A4_U+30E4_U+30FC 1
370
     0
100
AcDbSpline
210
0.0
220
0.0
230
1.0
 70
    11
 71
     3
 72
    26
 73
    22
 74
     0
 42
0.0000000001
 43
0.0000000001
 12
1.0
 22
0.0
 32
0.0
 13
1.0
 23
0.0
 33
0.0
 40
0.0
 40
0.0
 40
0.0
 40
0.0
 40
1.0
 40
1.0
 40
1.0
 40
2.0
 40
2.0
 40
2.0
 40
3.0
 40
3.0
 40
3.0
 40
4.0
 40
4.0
 40
4.0
 40
5.0
 40
5.0
 40
5.0
 40
6.0
 40
6.0
 40
6.0
 40
7.0
 40
7.0
 40
7.0
 40
7.0
 10
91.28176674150248
 20
-139.2635063670938
 30
0.0
 10
91.28176674150248
 20
-139.2635063670938
 30
0.0
 10
91.28176674150248
 20
-138.1593532640713
 30
0.0
 10
91.28176674150248
 20
-138.1593532640713
 30
0.0
 10
91.28176674150248
 20
-138.1593532640713
 30
0.0
 10
90.92933347336142
 20
-138.1593532640713
 30
0.0
 10
90.92933347336142
 20
-138.1593532640713
 30
0.0
 10
90.92933347336142
 20
-138.1593532640713
 30
0.0
 10
90.92933347336142
 20
-138.0112141582055
 30
0.0
 10
90.92933347336142
 20
-138.0112141582055
 30
0.0
 10
91.28417830834215
 20
-137.996400247619
 30
0.0
 10
91.33378768332975
 20
-137.8334472311666
 30
0.0
 10
91.36548256179405
 20
-137.7190700610564
 30
0.0
 10
91.36548256179405
 20
-137.7190700610564
 30
0.0
 10
91.52137313250161
 20
-137.7190700610564
 30
0.0
 10
91.52137313250161
 20
-137.7190700610564
 30
0.0
 10
91.52137313250161
 20
-137.7190700610564
 30
0.0
 10
91.52137313250161
 20
-139.2635063670938
 30
0.0
 10
91.52137313250161
 20
-139.2635063670938
 30
0.0
 10
91.52137313250161
 20
-139.2635063670938
 30
0.0
 10
91.28176674150248
 20
-139.2635063670938
 30
0.0
 10
91.28176674150248
 20
-139.2635063670938
 30
0.0
  0
HATCH
  5
DF
330
DA
100
AcDbEntity
  8
_U+30EC_U+30A4_U+30E4_U+30FC 1
 62
   179
420
  2234388
100
AcDbHatch
 10
0.0
 20
0.0
 30
0.0
210
0.0
220
0.0
230
1.0
  2
SOLID
 70
     1
 71
     0
 91
        1
 92
        1
 93
        1
 72
     4
 94
        3
 73
     0
 74
     1
 95
       26
 96
       22
 40
0.0
 40
0.0
 40
0.0
 40
0.0
 40
1.0
 40
1.0
 40
1.0
 40
2.0
 40
2.0
 40
2.0
 40
3.0
 40
3.0
 40
3.0
 40
4.0
 40
4.0
 40
4.0
 40
5.0
 40
5.0
 40
5.0
 40
6.0
 40
6.0
 40
6.0
 40
7.0
 40
7.0
 40
7.0
 40
7.0
 10
91.28176674150248
 20
-139.2635063670938
 10
91.28176674150248
 20
-139.2635063670938
 10
91.28176674150248
 20
-138.1593532640713
 10
91.28176674150248
 20
-138.1593532640713
 10
91.28176674150248
 20
-138.1593532640713
 10
90.92933347336142
 20
-138.1593532640713
 10
90.92933347336142
 20
-138.1593532640713
 10
90.92933347336142
 20
-138.1593532640713
 10
90.92933347336142
 20
-138.0112141582055
 10
90.92933347336142
 20
-138.0112141582055
 10
91.28417830834215
 20
-137.996400247619
 10
91.33378768332975
 20
-137.8334472311666
 10
91.36548256179405
 20
-137.7190700610564
 10
91.36548256179405
 20
-137.7190700610564
 10
91.52137313250161
 20
-137.7190700610564
 10
91.52137313250161
 20
-137.7190700610564
 10
91.52137313250161
 20
-137.7190700610564
 10
91.52137313250161
 20
-139.2635063670938
 10
91.52137313250161
 20
-139.2635063670938
 10
91.52137313250161
 20
-139.2635063670938
 10
91.28176674150248
 20
-139.2635063670938
 10
91.28176674150248
 20
-139.2635063670938
 97
        0
 97
        0
 75
     2
 76
     1
 98
        0
  0
SPLINE
  5
E0
330
DA
100
AcDbEntity
  8
_U+30EC_U+30A4_U+30E4_U+30FC 1
370
     0
100
AcDbSpline
210
0.0
220
0.0
230
1.0
 70
    11
 71
     3
 72
    62
 73
    58
 74
     0
 42
0.0000000001
 43
0.0000000001
 12
1.0
 22
0.0
 32
0.0
 13
1.0
 23
0.0
 33
0.0
 40
0.0
 40
0.0
 40
0.0
 40
0.0
 40
1.0
 40
1.0
 40
1.0
 40
2.0
 40
2.0
 40
2.0
 40
3.0
 40
3.0
 40
3.0
 40
4.0
 40
4.0
 40
4.0
 40
5.0
 40
5.0
 40
5.0
 40
6.0
 40
6.0
 40
6.0
 40
7.0
 40
7.0
 40
7.0
 40
8.0
 40
8.0
 40
8.0
 40
9.0
 40
9.0
 40
9.0
 40
10.0
 40
10.0
 40
10.0
 40
11.0
 40
11.0
 40
11.0
 40
12.0
 40
12.0
 40
12.0
 40
13.0
 40
13.0
 40
13.0
 40
14.0
 40
14.0
 40
14.0
 40
15.0
 40
15.0
 40
15.0
 40
16.0
 40
16.0
 40
16.0
 40
17.0
 40
17.0
 40
17.0
 40
18.0
 40
18.0
 40
18.0
 40
19.0
 40
19.0
 40
19.0
 40
19.0
 10
92.58246254195855
 20
-139.314149270727
 30
0.0
 10
92.48083222514369
 20
-139.314149270727
 30
0.0
 10
92.2479437703408
 20
-139.293134188267
 30
0.0
 10
92.11461857506163
 20
-139.1070990320635
 30
0.0
 10
92.03538137890088
 20
-138.9947889192444
 30
0.0
 10
92.03090275477005
 20
-138.8955701692692
 30
0.0
 10
92.02642413063923
 20
-138.810820820332
 30
0.0
 10
92.02642413063923
 20
-138.810820820332
 30
0.0
 10
92.26137964273327
 20
-138.810820820332
 30
0.0
 10
92.26137964273327
 20
-138.810820820332
 30
0.0
 10
92.26379120957294
 20
-138.8848903732649
 30
0.0
 10
92.27516002467426
 20
-139.1195013758104
 30
0.0
 10
92.57798391782774
 20
-139.1195013758104
 30
0.0
 10
92.7250894950479
 20
-139.1195013758104
 30
0.0
 10
92.88769800195169
 20
-139.0499104470084
 30
0.0
 10
92.88769800195169
 20
-138.8215006163363
 30
0.0
 10
92.88769800195169
 20
-138.7050563889348
 30
0.0
 10
92.84704587522575
 20
-138.6564805425928
 30
0.0
 10
92.8132839394703
 20
-138.6247856641285
 30
0.0
 10
92.73404674330955
 20
-138.5507161111957
 30
0.0
 10
92.60967879629203
 20
-138.5379692579002
 30
0.0
 10
92.55076766349426
 20
-138.5379692579002
 30
0.0
 10
92.53044160013128
 20
-138.5379692579002
 30
0.0
 10
92.492201040245
 20
-138.5400363151914
 30
0.0
 10
92.46257321907186
 20
-138.5441704297737
 30
0.0
 10
92.46257321907186
 20
-138.5441704297737
 30
0.0
 10
92.46257321907186
 20
-138.3495225348571
 30
0.0
 10
92.46257321907186
 20
-138.3495225348571
 30
0.0
 10
92.50322534579782
 20
-138.3560682162791
 30
0.0
 10
92.54870060620311
 20
-138.3581352735702
 30
0.0
 10
92.55524628762508
 20
-138.3581352735702
 30
0.0
 10
92.62552623552418
 20
-138.3581352735702
 30
0.0
 10
92.8380886269641
 20
-138.3367756815616
 30
0.0
 10
92.8380886269641
 20
-138.100097621725
 30
0.0
 10
92.8380886269641
 20
-137.9223306946861
 30
0.0
 10
92.69787324071443
 20
-137.8672091669221
 30
0.0
 10
92.5803954846674
 20
-137.8672091669221
 30
0.0
 10
92.2975531453284
 20
-137.8672091669221
 30
0.0
 10
92.28859589706674
 20
-138.100097621725
 30
0.0
 10
92.28411727293592
 20
-138.1717556078182
 30
0.0
 10
92.28411727293592
 20
-138.1717556078182
 30
0.0
 10
92.06707625736517
 20
-138.1717556078182
 30
0.0
 10
92.06707625736517
 20
-138.1717556078182
 30
0.0
 10
92.07603350562682
 20
-138.0470431512521
 30
0.0
 10
92.10531681725145
 20
-137.6704942147143
 30
0.0
 10
92.59383135705988
 20
-137.6704942147143
 30
0.0
 10
92.83361000283327
 20
-137.6704942147143
 30
0.0
 10
93.09130314512996
 20
-137.79761823812
 30
0.0
 10
93.09130314512996
 20
-138.093551940303
 30
0.0
 10
93.09130314512996
 20
-138.279931606055
 30
0.0
 10
92.98932831876657
 20
-138.3622693881525
 30
0.0
 10
92.88321937782086
 20
-138.4235920877899
 30
0.0
 10
92.94867619204061
 20
-138.4511528516719
 30
0.0
 10
93.14332408695724
 20
-138.5314235764783
 30
0.0
 10
93.14332408695724
 20
-138.8087537630409
 30
0.0
 10
93.14332408695724
 20
-139.1470621396924
 30
0.0
 10
92.87874075369004
 20
-139.314149270727
 30
0.0
 10
92.58246254195855
 20
-139.314149270727
 30
0.0
  0
HATCH
  5
E1
330
DA
100
AcDbEntity
  8
_U+30EC_U+30A4_U+30E4_U+30FC 1
 62
   179
420
  2234388
100
AcDbHatch
 10
0.0
 20
0.0
 30
0.0
210
0.0
220
0.0
230
1.0
  2
SOLID
 70
     1
 71
     0
 91
        1
 92
        1
 93
        1
 72
     4
 94
        3
 73
     0
 74
     1
 95
       62
 96
       58
 40
0.0
 40
0.0
 40
0.0
 40
0.0
 40
1.0
 40
1.0
 40
1.0
 40
2.0
 40
2.0
 40
2.0
 40
3.0
 40
3.0
 40
3.0
 40
4.0
 40
4.0
 40
4.0
 40
5.0
 40
5.0
 40
5.0
 40
6.0
 40
6.0
 40
6.0
 40
7.0
 40
7.0
 40
7.0
 40
8.0
 40
8.0
 40
8.0
 40
9.0
 40
9.0
 40
9.0
 40
10.0
 40
10.0
 40
10.0
 40
11.0
 40
11.0
 40
11.0
 40
12.0
 40
12.0
 40
12.0
 40
13.0
 40
13.0
 40
13.0
 40
14.0
 40
14.0
 40
14.0
 40
15.0
 40
15.0
 40
15.0
 40
16.0
 40
16.0
 40
16.0
 40
17.0
 40
17.0
 40
17.0
 40
18.0
 40
18.0
 40
18.0
 40
19.0
 40
19.0
 40
19.0
 40
19.0
 10
92.58246254195855
 20
-139.314149270727
 10
92.48083222514369
 20
-139.314149270727
 10
92.2479437703408
 20
-139.293134188267
 10
92.11461857506163
 20
-139.1070990320635
 10
92.03538137890088
 20
-138.9947889192444
 10
92.03090275477005
 20
-138.8955701692692
 10
92.02642413063923
 20
-138.810820820332
 10
92.02642413063923
 20
-138.810820820332
 10
92.26137964273327
 20
-138.810820820332
 10
92.26137964273327
 20
-138.810820820332
 10
92.26379120957294
 20
-138.8848903732649
 10
92.27516002467426
 20
-139.1195013758104
 10
92.57798391782774
 20
-139.1195013758104
 10
92.7250894950479
 20
-139.1195013758104
 10
92.88769800195169
 20
-139.0499104470084
 10
92.88769800195169
 20
-138.8215006163363
 10
92.88769800195169
 20
-138.7050563889348
 10
92.84704587522575
 20
-138.6564805425928
 10
92.8132839394703
 20
-138.6247856641285
 10
92.73404674330955
 20
-138.5507161111957
 10
92.60967879629203
 20
-138.5379692579002
 10
92.55076766349426
 20
-138.5379692579002
 10
92.53044160013128
 20
-138.5379692579002
 10
92.492201040245
 20
-138.5400363151914
 10
92.46257321907186
 20
-138.5441704297737
 10
92.46257321907186
 20
-138.5441704297737
 10
92.46257321907186
 20
-138.3495225348571
 10
92.46257321907186
 20
-138.3495225348571
 10
92.50322534579782
 20
-138.3560682162791
 10
92.54870060620311
 20
-138.3581352735702
 10
92.55524628762508
 20
-138.3581352735702
 10
92.62552623552418
 20
-138.3581352735702
 10
92.8380886269641
 20
-138.3367756815616
 10
92.8380886269641
 20
-138.100097621725
 10
92.8380886269641
 20
-137.9223306946861
 10
92.69787324071443
 20
-137.8672091669221
 10
92.5803954846674
 20
-137.8672091669221
 10
92.2975531453284
 20
-137.8672091669221
 10
92.28859589706674
 20
-138.100097621725
 10
92.28411727293592
 20
-138.1717556078182
 10
92.28411727293592
 20
-138.1717556078182
 10
92.06707625736517
 20
-138.1717556078182
 10
92.06707625736517
 20
-138.1717556078182
 10
92.07603350562682
 20
-138.0470431512521
 10
92.10531681725145
 20
-137.6704942147143
 10
92.59383135705988
 20
-137.6704942147143
 10
92.83361000283327
 20
-137.6704942147143
 10
93.09130314512996
 20
-137.79761823812
 10
93.09130314512996
 20
-138.093551940303
 10
93.09130314512996
 20
-138.279931606055
 10
92.98932831876657
 20
-138.3622693881525
 10
92.88321937782086
 20
-138.4235920877899
 10
92.94867619204061
 20
-138.4511528516719
 10
93.14332408695724
 20
-138.5314235764783
 10
93.14332408695724
 20
-138.8087537630409
 10
93.14332408695724
 20
-139.1470621396924
 10
92.87874075369004
 20
-139.314149270727
 10
92.58246254195855
 20
-139.314149270727
 97
        0
 97
        0
 75
     2
 76
     1
 98
        0
  0
ENDBLK
  5
DD
330
DA
100
AcDbEntity
  8
0
100
AcDbBlockEnd
  0
BLOCK
  5
F0
330
EE
100
AcDbEntity
  8
0
100
AcDbBlockBegin
  2
block 7
 70
     0
 10
0.0
 20
0.0
 30
0.0
  3
block 7
  1

  0
SPLINE
  5
F2
330
EE
100
AcDbEntity
  8
_U+30EC_U+30A4_U+30E4_U+30FC 1
370
     0
100
AcDbSpline
210
0.0
220
0.0
230
1.0
 70
    11
 71
     3
 72
    32
 73
    28
 74
     0
 42
0.0000000001
 43
0.0000000001
 12
1.0
 22
0.0
 32
0.0
 13
1.0
 23
0.0
 33
0.0
 40
0.0
 40
0.0
 40
0.0
 40
0.0
 40
1.0
 40
1.0
 40
1.0
 40
2.0
 40
2.0
 40
2.0
 40
3.0
 40
3.0
 40
3.0
 40
4.0
 40
4.0
 40
4.0
 40
5.0
 40
5.0
 40
5.0
 40
6.0
 40
6.0
 40
6.0
 40
7.0
 40
7.0
 40
7.0
 40
8.0
 40
8.0
 40
8.0
 40
9.0
 40
9.0
 40
9.0
 40
9.0
 10
101.9124701351122
 20
-132.3798610780161
 30
0.0
 10
101.9124701351122
 20
-132.9317653747532
 30
0.0
 10
101.358498781084
 20
-132.9407226230148
 30
0.0
 10
101.14455835145
 20
-132.9407226230148
 30
0.0
 10
100.9140814634868
 20
-132.9407226230148
 30
0.0
 10
100.2667480218083
 20
-132.9203965596519
 30
0.0
 10
100.2667480218083
 20
-132.3392089512902
 30
0.0
 10
100.2667480218083
 20
-132.1538628141838
 30
0.0
 10
100.3366834601589
 20
-131.8916910477562
 30
0.0
 10
100.668790664937
 20
-131.8510389210303
 30
0.0
 10
100.668790664937
 20
-131.8510389210303
 30
0.0
 10
100.668790664937
 20
-132.0794487517024
 30
0.0
 10
100.668790664937
 20
-132.0794487517024
 30
0.0
 10
100.6116020798818
 20
-132.0904730572552
 30
0.0
 10
100.4634629740161
 20
-132.1245795025591
 30
0.0
 10
100.4634629740161
 20
-132.3416205181299
 30
0.0
 10
100.4634629740161
 20
-132.6537461690935
 30
0.0
 10
100.7914360642119
 20
-132.6964653531106
 30
0.0
 10
100.9964192455842
 20
-132.7102457350516
 30
0.0
 10
100.9182155780691
 20
-132.6106824755279
 30
0.0
 10
100.8589599357228
 20
-132.5383354703376
 30
0.0
 10
100.8589599357228
 20
-132.3440320849695
 30
0.0
 10
100.8589599357228
 20
-132.1517957568926
 30
0.0
 10
100.9671359339596
 20
-131.8283012908277
 30
0.0
 10
101.3733126916706
 20
-131.8283012908277
 30
0.0
 10
101.6926730431532
 20
-131.8283012908277
 30
0.0
 10
101.9124701351122
 20
-132.0408636822676
 30
0.0
 10
101.9124701351122
 20
-132.3798610780161
 30
0.0
  0
SPLINE
  5
F3
330
EE
100
AcDbEntity
  8
_U+30EC_U+30A4_U+30E4_U+30FC 1
370
     0
100
AcDbSpline
210
0.0
220
0.0
230
1.0
 70
    11
 71
     3
 72
    17
 73
    13
 74
     0
 42
0.0000000001
 43
0.0000000001
 12
1.0
 22
0.0
 32
0.0
 13
1.0
 23
0.0
 33
0.0
 40
0.0
 40
0.0
 40
0.0
 40
0.0
 40
1.0
 40
1.0
 40
1.0
 40
2.0
 40
2.0
 40
2.0
 40
3.0
 40
3.0
 40
3.0
 40
4.0
 40
4.0
 40
4.0
 40
4.0
 10
101.0536078306394
 20
-132.3619465814928
 30
0.0
 10
101.0536078306394
 20
-132.6423773539922
 30
0.0
 10
101.2651366934337
 20
-132.6830294807181
 30
0.0
 10
101.3815809208352
 20
-132.6830294807181
 30
0.0
 10
101.5572807905829
 20
-132.6830294807181
 30
0.0
 10
101.7202338070352
 20
-132.5813991639033
 30
0.0
 10
101.7202338070352
 20
-132.3846842116955
 30
0.0
 10
101.7202338070352
 20
-132.2558376405472
 30
0.0
 10
101.6609781646889
 20
-132.068079936601
 30
0.0
 10
101.3753797489617
 20
-132.068079936601
 30
0.0
 10
101.151104032872
 20
-132.068079936601
 30
0.0
 10
101.0536078306394
 20
-132.2172525711124
 30
0.0
 10
101.0536078306394
 20
-132.3619465814928
 30
0.0
  0
HATCH
  5
F4
330
EE
100
AcDbEntity
  8
_U+30EC_U+30A4_U+30E4_U+30FC 1
 62
   179
420
  2234388
100
AcDbHatch
 10
0.0
 20
0.0
 30
0.0
210
0.0
220
0.0
230
1.0
  2
SOLID
 70
     1
 71
     0
 91
        2
 92
        1
 93
        1
 72
     4
 94
        3
 73
     0
 74
     1
 95
       32
 96
       28
 40
0.0
 40
0.0
 40
0.0
 40
0.0
 40
1.0
 40
1.0
 40
1.0
 40
2.0
 40
2.0
 40
2.0
 40
3.0
 40
3.0
 40
3.0
 40
4.0
 40
4.0
 40
4.0
 40
5.0
 40
5.0
 40
5.0
 40
6.0
 40
6.0
 40
6.0
 40
7.0
 40
7.0
 40
7.0
 40
8.0
 40
8.0
 40
8.0
 40
9.0
 40
9.0
 40
9.0
 40
9.0
 10
101.9124701351122
 20
-132.3798610780161
 10
101.9124701351122
 20
-132.9317653747532
 10
101.358498781084
 20
-132.9407226230148
 10
101.14455835145
 20
-132.9407226230148
 10
100.9140814634868
 20
-132.9407226230148
 10
100.2667480218083
 20
-132.9203965596519
 10
100.2667480218083
 20
-132.3392089512902
 10
100.2667480218083
 20
-132.1538628141838
 10
100.3366834601589
 20
-131.8916910477562
 10
100.668790664937
 20
-131.8510389210303
 10
100.668790664937
 20
-131.8510389210303
 10
100.668790664937
 20
-132.0794487517024
 10
100.668790664937
 20
-132.0794487517024
 10
100.6116020798818
 20
-132.0904730572552
 10
100.4634629740161
 20
-132.1245795025591
 10
100.4634629740161
 20
-132.3416205181299
 10
100.4634629740161
 20
-132.6537461690935
 10
100.7914360642119
 20
-132.6964653531106
 10
100.9964192455842
 20
-132.7102457350516
 10
100.9182155780691
 20
-132.6106824755279
 10
100.8589599357228
 20
-132.5383354703376
 10
100.8589599357228
 20
-132.3440320849695
 10
100.8589599357228
 20
-132.1517957568926
 10
100.9671359339596
 20
-131.8283012908277
 10
101.3733126916706
 20
-131.8283012908277
 10
101.6926730431532
 20
-131.8283012908277
 10
101.9124701351122
 20
-132.0408636822676
 10
101.9124701351122
 20
-132.3798610780161
 97
        0
 97
        0
 92
        1
 93
        1
 72
     4
 94
        3
 73
     0
 74
     1
 95
       17
 96
       13
 40
0.0
 40
0.0
 40
0.0
 40
0.0
 40
1.0
 40
1.0
 40
1.0
 40
2.0
 40
2.0
 40
2.0
 40
3.0
 40
3.0
 40
3.0
 40
4.0
 40
4.0
 40
4.0
 40
4.0
 10
101.0536078306394
 20
-132.3619465814928
 10
101.0536078306394
 20
-132.6423773539922
 10
101.2651366934337
 20
-132.6830294807181
 10
101.3815809208352
 20
-132.6830294807181
 10
101.5572807905829
 20
-132.6830294807181
 10
101.7202338070352
 20
-132.5813991639033
 10
101.7202338070352
 20
-132.3846842116955
 10
101.7202338070352
 20
-132.2558376405472
 10
101.6609781646889
 20
-132.068079936601
 10
101.3753797489617
 20
-132.068079936601
 10
101.151104032872
 20
-132.068079936601
 10
101.0536078306394
 20
-132.2172525711124
 10
101.0536078306394
 20
-132.3619465814928
 97
        0
 97
        0
 75
     2
 76
     1
 98
        0
  0
POLYLINE
  5
F5
330
EE
100
AcDbEntity
  8
_U+30EC_U+30A4_U+30E4_U+30FC 1
370
     0
100
AcDb2dPolyline
 66
     1
 10
0.0
 20
0.0
 30
0.0
  0
VERTEX
  5
F6
330
F5
100
AcDbEntity
  8
_U+30EC_U+30A4_U+30E4_U+30FC 1
370
     0
100
AcDbVertex
100
AcDb2dVertex
 10
101.861827231479
 20
-131.5971353837674
 30
0.0
  0
VERTEX
  5
F7
330
F5
100
AcDbEntity
  8
_U+30EC_U+30A4_U+30E4_U+30FC 1
370
     0
100
AcDbVertex
100
AcDb2dVertex
 10
101.6099907515072
 20
-131.5971353837674
 30
0.0
  0
VERTEX
  5
F8
330
F5
100
AcDbEntity
  8
_U+30EC_U+30A4_U+30E4_U+30FC 1
370
     0
100
AcDbVertex
100
AcDb2dVertex
 10
101.6099907515072
 20
-131.3280734263694
 30
0.0
  0
VERTEX
  5
F9
330
F5
100
AcDbEntity
  8
_U+30EC_U+30A4_U+30E4_U+30FC 1
370
     0
100
AcDbVertex
100
AcDb2dVertex
 10
101.861827231479
 20
-131.3280734263694
 30
0.0
  0
VERTEX
  5
FA
330
F5
100
AcDbEntity
  8
_U+30EC_U+30A4_U+30E4_U+30FC 1
370
     0
100
AcDbVertex
100
AcDb2dVertex
 10
101.861827231479
 20
-131.5971353837674
 30
0.0
  0
SEQEND
  5
FB
330
F5
100
AcDbEntity
  8
_U+30EC_U+30A4_U+30E4_U+30FC 1
370
     0
  0
HATCH
  5
FC
330
EE
100
AcDbEntity
  8
_U+30EC_U+30A4_U+30E4_U+30FC 1
 62
   179
420
  2234388
100
AcDbHatch
 10
0.0
 20
0.0
 30
0.0
210
0.0
220
0.0
230
1.0
  2
SOLID
 70
     1
 71
     0
 91
        1
 92
        1
 93
        4
 72
     1
 10
101.861827231479
 20
-131.5971353837674
 11
101.6099907515072
 21
-131.5971353837674
 72
     1
 10
101.6099907515072
 20
-131.5971353837674
 11
101.6099907515072
 21
-131.3280734263694
 72
     1
 10
101.6099907515072
 20
-131.3280734263694
 11
101.861827231479
 21
-131.3280734263694
 72
     1
 10
101.861827231479
 20
-131.3280734263694
 11
101.861827231479
 21
-131.5971353837674
 97
        0
 75
     2
 76
     1
 98
        0
  0
SPLINE
  5
FD
330
EE
100
AcDbEntity
  8
_U+30EC_U+30A4_U+30E4_U+30FC 1
370
     0
100
AcDbSpline
210
0.0
220
0.0
230
1.0
 70
    11
 71
     3
 72
    53
 73
    49
 74
     0
 42
0.0000000001
 43
0.0000000001
 12
1.0
 22
0.0
 32
0.0
 13
1.0
 23
0.0
 33
0.0
 40
0.0
 40
0.0
 40
0.0
 40
0.0
 40
1.0
 40
1.0
 40
1.0
 40
2.0
 40
2.0
 40
2.0
 40
3.0
 40
3.0
 40
3.0
 40
4.0
 40
4.0
 40
4.0
 40
5.0
 40
5.0
 40
5.0
 40
6.0
 40
6.0
 40
6.0
 40
7.0
 40
7.0
 40
7.0
 40
8.0
 40
8.0
 40
8.0
 40
9.0
 40
9.0
 40
9.0
 40
10.0
 40
10.0
 40
10.0
 40
11.0
 40
11.0
 40
11.0
 40
12.0
 40
12.0
 40
12.0
 40
13.0
 40
13.0
 40
13.0
 40
14.0
 40
14.0
 40
14.0
 40
15.0
 40
15.0
 40
15.0
 40
16.0
 40
16.0
 40
16.0
 40
16.0
 10
101.9124701351122
 20
-130.5611951713528
 30
0.0
 10
101.9124701351122
 20
-130.6449109916443
 30
0.0
 10
101.8955891672344
 20
-130.7530869898812
 30
0.0
 10
101.8321994103058
 20
-130.8619520072151
 30
0.0
 10
101.7223008643264
 20
-131.0472981443215
 30
0.0
 10
101.5910427263384
 20
-131.0696912649756
 30
0.0
 10
101.48321123765
 20
-131.0900173283386
 30
0.0
 10
101.48321123765
 20
-131.0900173283386
 30
0.0
 10
101.48321123765
 20
-130.8526502494049
 30
0.0
 10
101.48321123765
 20
-130.8526502494049
 30
0.0
 10
101.681993247149
 20
-130.7940836261556
 30
0.0
 10
101.7116210683221
 20
-130.6583468640368
 30
0.0
 10
101.7116210683221
 20
-130.5587836045131
 30
0.0
 10
101.7116210683221
 20
-130.4096109700018
 30
0.0
 10
101.6120578087984
 20
-130.2466579535495
 30
0.0
 10
101.379513863544
 20
-130.2466579535495
 30
0.0
 10
101.1235432689899
 20
-130.2466579535495
 30
0.0
 10
101.0536078306394
 20
-130.4388942816264
 30
0.0
 10
101.0536078306394
 20
-130.5677408527747
 30
0.0
 10
101.0536078306394
 20
-130.6018472980787
 30
0.0
 10
101.0536078306394
 20
-130.7530869898812
 30
0.0
 10
101.1827989113362
 20
-130.8481716252741
 30
0.0
 10
101.1827989113362
 20
-130.8481716252741
 30
0.0
 10
101.1638508861674
 20
-131.0359293292202
 30
0.0
 10
101.1638508861674
 20
-131.0359293292202
 30
0.0
 10
101.1638508861674
 20
-131.0359293292202
 30
0.0
 10
100.3173909254415
 20
-130.9070827580719
 30
0.0
 10
100.3173909254415
 20
-130.9070827580719
 30
0.0
 10
100.3173909254415
 20
-130.9070827580719
 30
0.0
 10
100.3173909254415
 20
-130.075092198384
 30
0.0
 10
100.3173909254415
 20
-130.075092198384
 30
0.0
 10
100.3173909254415
 20
-130.075092198384
 30
0.0
 10
100.5120388203581
 20
-130.075092198384
 30
0.0
 10
100.5120388203581
 20
-130.075092198384
 30
0.0
 10
100.5120388203581
 20
-130.075092198384
 30
0.0
 10
100.5120388203581
 20
-130.7327609265182
 30
0.0
 10
100.5120388203581
 20
-130.7327609265182
 30
0.0
 10
100.5120388203581
 20
-130.7327609265182
 30
0.0
 10
100.9350965459468
 20
-130.8030408744173
 30
0.0
 10
100.9350965459468
 20
-130.8030408744173
 30
0.0
 10
100.9013346101913
 20
-130.7375840601975
 30
0.0
 10
100.8610269930139
 20
-130.6493896157752
 30
0.0
 10
100.8610269930139
 20
-130.522610101918
 30
0.0
 10
100.8610269930139
 20
-130.2514810872288
 30
0.0
 10
101.0474066587659
 20
-129.9982665690629
 30
0.0
 10
101.3605658383751
 20
-129.9982665690629
 30
0.0
 10
101.6778591325667
 20
-129.9982665690629
 30
0.0
 10
101.9124701351122
 20
-130.2377007052878
 30
0.0
 10
101.9124701351122
 20
-130.5611951713528
 30
0.0
  0
HATCH
  5
FE
330
EE
100
AcDbEntity
  8
_U+30EC_U+30A4_U+30E4_U+30FC 1
 62
   179
420
  2234388
100
AcDbHatch
 10
0.0
 20
0.0
 30
0.0
210
0.0
220
0.0
230
1.0
  2
SOLID
 70
     1
 71
     0
 91
        1
 92
        1
 93
        1
 72
     4
 94
        3
 73
     0
 74
     1
 95
       53
 96
       49
 40
0.0
 40
0.0
 40
0.0
 40
0.0
 40
1.0
 40
1.0
 40
1.0
 40
2.0
 40
2.0
 40
2.0
 40
3.0
 40
3.0
 40
3.0
 40
4.0
 40
4.0
 40
4.0
 40
5.0
 40
5.0
 40
5.0
 40
6.0
 40
6.0
 40
6.0
 40
7.0
 40
7.0
 40
7.0
 40
8.0
 40
8.0
 40
8.0
 40
9.0
 40
9.0
 40
9.0
 40
10.0
 40
10.0
 40
10.0
 40
11.0
 40
11.0
 40
11.0
 40
12.0
 40
12.0
 40
12.0
 40
13.0
 40
13.0
 40
13.0
 40
14.0
 40
14.0
 40
14.0
 40
15.0
 40
15.0
 40
15.0
 40
16.0
 40
16.0
 40
16.0
 40
16.0
 10
101.9124701351122
 20
-130.5611951713528
 10
101.9124701351122
 20
-130.6449109916443
 10
101.8955891672344
 20
-130.7530869898812
 10
101.8321994103058
 20
-130.8619520072151
 10
101.7223008643264
 20
-131.0472981443215
 10
101.5910427263384
 20
-131.0696912649756
 10
101.48321123765
 20
-131.0900173283386
 10
101.48321123765
 20
-131.0900173283386
 10
101.48321123765
 20
-130.8526502494049
 10
101.48321123765
 20
-130.8526502494049
 10
101.681993247149
 20
-130.7940836261556
 10
101.7116210683221
 20
-130.6583468640368
 10
101.7116210683221
 20
-130.5587836045131
 10
101.7116210683221
 20
-130.4096109700018
 10
101.6120578087984
 20
-130.2466579535495
 10
101.379513863544
 20
-130.2466579535495
 10
101.1235432689899
 20
-130.2466579535495
 10
101.0536078306394
 20
-130.4388942816264
 10
101.0536078306394
 20
-130.5677408527747
 10
101.0536078306394
 20
-130.6018472980787
 10
101.0536078306394
 20
-130.7530869898812
 10
101.1827989113362
 20
-130.8481716252741
 10
101.1827989113362
 20
-130.8481716252741
 10
101.1638508861674
 20
-131.0359293292202
 10
101.1638508861674
 20
-131.0359293292202
 10
101.1638508861674
 20
-131.0359293292202
 10
100.3173909254415
 20
-130.9070827580719
 10
100.3173909254415
 20
-130.9070827580719
 10
100.3173909254415
 20
-130.9070827580719
 10
100.3173909254415
 20
-130.075092198384
 10
100.3173909254415
 20
-130.075092198384
 10
100.3173909254415
 20
-130.075092198384
 10
100.5120388203581
 20
-130.075092198384
 10
100.5120388203581
 20
-130.075092198384
 10
100.5120388203581
 20
-130.075092198384
 10
100.5120388203581
 20
-130.7327609265182
 10
100.5120388203581
 20
-130.7327609265182
 10
100.5120388203581
 20
-130.7327609265182
 10
100.9350965459468
 20
-130.8030408744173
 10
100.9350965459468
 20
-130.8030408744173
 10
100.9013346101913
 20
-130.7375840601975
 10
100.8610269930139
 20
-130.6493896157752
 10
100.8610269930139
 20
-130.522610101918
 10
100.8610269930139
 20
-130.2514810872288
 10
101.0474066587659
 20
-129.9982665690629
 10
101.3605658383751
 20
-129.9982665690629
 10
101.6778591325667
 20
-129.9982665690629
 10
101.9124701351122
 20
-130.2377007052878
 10
101.9124701351122
 20
-130.5611951713528
 97
        0
 97
        0
 75
     2
 76
     1
 98
        0
  0
ENDBLK
  5
F1
330
EE
100
AcDbEntity
  8
0
100
AcDbBlockEnd
  0
ENDSEC
  0
SECTION
  2
ENTITIES
  0
POLYLINE
  5
41
330
1F
100
AcDbEntity
  8
_U+30EC_U+30A4_U+30E4_U+30FC 1
  6
AI-Linetype-1
 62
   251
420
  5855577
370
    25
100
AcDb2dPolyline
 66
     1
 10
0.0
 20
0.0
 30
0.0
  0
VERTEX
  5
42
330
41
100
AcDbEntity
  8
_U+30EC_U+30A4_U+30E4_U+30FC 1
  6
AI-Linetype-1
 62
   251
420
  5855577
370
    25
100
AcDbVertex
100
AcDb2dVertex
 10
86.75870723104542
 20
-121.9753155250618
 30
0.0
  0
VERTEX
  5
43
330
41
100
AcDbEntity
  8
_U+30EC_U+30A4_U+30E4_U+30FC 1
  6
AI-Linetype-1
 62
   251
420
  5855577
370
    25
100
AcDbVertex
100
AcDb2dVertex
 10
84.66684089552449
 20
-121.9753155250618
 30
0.0
  0
VERTEX
  5
44
330
41
100
AcDbEntity
  8
_U+30EC_U+30A4_U+30E4_U+30FC 1
  6
AI-Linetype-1
 62
   251
420
  5855577
370
    25
100
AcDbVertex
100
AcDb2dVertex
 10
84.66684089552449
 20
-136.791982188024
 30
0.0
  0
VERTEX
  5
45
330
41
100
AcDbEntity
  8
_U+30EC_U+30A4_U+30E4_U+30FC 1
  6
AI-Linetype-1
 62
   251
420
  5855577
370
    25
100
AcDbVertex
100
AcDb2dVertex
 10
99.21874997519532
 20
-136.791982188024
 30
0.0
  0
VERTEX
  5
46
330
41
100
AcDbEntity
  8
_U+30EC_U+30A4_U+30E4_U+30FC 1
  6
AI-Linetype-1
 62
   251
420
  5855577
370
    25
100
AcDbVertex
100
AcDb2dVertex
 10
99.21874997519532
 20
-134.3225377441969
 30
0.0
  0
SEQEND
  5
48
330
41
100
AcDbEntity
  8
_U+30EC_U+30A4_U+30E4_U+30FC 1
  6
AI-Linetype-1
 62
   251
420
  5855577
370
    25
  0
SPLINE
  5
49
330
1F
100
AcDbEntity
  8
_U+30EC_U+30A4_U+30E4_U+30FC 1
370
     0
100
AcDbSpline
210
0.0
220
0.0
230
1.0
 70
    11
 71
     3
 72
    44
 73
    40
 74
     0
 42
0.0000000001
 43
0.0000000001
 12
1.0
 22
0.0
 32
0.0
 13
1.0
 23
0.0
 33
0.0
 40
0.0
 40
0.0
 40
0.0
 40
0.0
 40
1.0
 40
1.0
 40
1.0
 40
2.0
 40
2.0
 40
2.0
 40
3.0
 40
3.0
 40
3.0
 40
4.0
 40
4.0
 40
4.0
 40
5.0
 40
5.0
 40
5.0
 40
6.0
 40
6.0
 40
6.0
 40
7.0
 40
7.0
 40
7.0
 40
8.0
 40
8.0
 40
8.0
 40
9.0
 40
9.0
 40
9.0
 40
10.0
 40
10.0
 40
10.0
 40
11.0
 40
11.0
 40
11.0
 40
12.0
 40
12.0
 40
12.0
 40
13.0
 40
13.0
 40
13.0
 40
13.0
 10
86.45761140539368
 20
-122.8593413581741
 30
0.0
 10
85.90569058614102
 20
-122.8593413581741
 30
0.0
 10
85.45783920867778
 20
-123.3071927469509
 30
0.0
 10
85.45783920867778
 20
-123.8591135801464
 30
0.0
 10
85.45783920867778
 20
-123.8591135801464
 30
0.0
 10
85.45783920867778
 20
-134.8592891329518
 30
0.0
 10
85.45783920867778
 20
-134.8592891329518
 30
0.0
 10
85.45783920867778
 20
-135.4118802439247
 30
0.0
 10
85.90569058614102
 20
-135.8597669104793
 30
0.0
 10
86.45761140539368
 20
-135.8597669104793
 30
0.0
 10
86.45761140539368
 20
-135.8597669104793
 30
0.0
 10
97.457610291427
 20
-135.8597669104793
 30
0.0
 10
97.457610291427
 20
-135.8597669104793
 30
0.0
 10
98.00953111067966
 20
-135.8597669104793
 30
0.0
 10
98.45738248814291
 20
-135.4118802439247
 30
0.0
 10
98.45738248814291
 20
-134.8592891329518
 30
0.0
 10
98.45738248814291
 20
-134.8592891329518
 30
0.0
 10
86.45761140539368
 20
-134.8592891329518
 30
0.0
 10
86.45761140539368
 20
-134.8592891329518
 30
0.0
 10
86.45761140539368
 20
-134.8592891329518
 30
0.0
 10
86.45761140539368
 20
-128.3590763567991
 30
0.0
 10
86.45761140539368
 20
-128.3590763567991
 30
0.0
 10
86.45761140539368
 20
-128.3590763567991
 30
0.0
 10
98.45738248814291
 20
-128.3590763567991
 30
0.0
 10
98.45738248814291
 20
-128.3590763567991
 30
0.0
 10
98.45738248814291
 20
-128.3590763567991
 30
0.0
 10
98.97691830822178
 20
-128.0593563568742
 30
0.0
 10
98.97691830822178
 20
-128.0593563568742
 30
0.0
 10
98.97691830822178
 20
-128.0593563568742
 30
0.0
 10
103.7580095751349
 20
-128.0593563568742
 30
0.0
 10
103.7580095751349
 20
-128.0593563568742
 30
0.0
 10
104.1445481763846
 20
-128.0593563568742
 30
0.0
 10
104.4580617794973
 20
-127.7458780236192
 30
0.0
 10
104.4580617794973
 20
-127.3593394126047
 30
0.0
 10
104.4580617794973
 20
-127.3593394126047
 30
0.0
 10
86.45761140539368
 20
-127.3593394126047
 30
0.0
 10
86.45761140539368
 20
-127.3593394126047
 30
0.0
 10
86.45761140539368
 20
-127.3593394126047
 30
0.0
 10
86.45761140539368
 20
-122.8593413581741
 30
0.0
 10
86.45761140539368
 20
-122.8593413581741
 30
0.0
  0
HATCH
  5
4A
330
1F
100
AcDbEntity
  8
_U+30EC_U+30A4_U+30E4_U+30FC 1
 62
   253
420
 11711154
100
AcDbHatch
 10
0.0
 20
0.0
 30
0.0
210
0.0
220
0.0
230
1.0
  2
SOLID
 70
     1
 71
     0
 91
        1
 92
        1
 93
        1
 72
     4
 94
        3
 73
     0
 74
     1
 95
       44
 96
       40
 40
0.0
 40
0.0
 40
0.0
 40
0.0
 40
1.0
 40
1.0
 40
1.0
 40
2.0
 40
2.0
 40
2.0
 40
3.0
 40
3.0
 40
3.0
 40
4.0
 40
4.0
 40
4.0
 40
5.0
 40
5.0
 40
5.0
 40
6.0
 40
6.0
 40
6.0
 40
7.0
 40
7.0
 40
7.0
 40
8.0
 40
8.0
 40
8.0
 40
9.0
 40
9.0
 40
9.0
 40
10.0
 40
10.0
 40
10.0
 40
11.0
 40
11.0
 40
11.0
 40
12.0
 40
12.0
 40
12.0
 40
13.0
 40
13.0
 40
13.0
 40
13.0
 10
86.45761140539368
 20
-122.8593413581741
 10
85.90569058614102
 20
-122.8593413581741
 10
85.45783920867778
 20
-123.3071927469509
 10
85.45783920867778
 20
-123.8591135801464
 10
85.45783920867778
 20
-123.8591135801464
 10
85.45783920867778
 20
-134.8592891329518
 10
85.45783920867778
 20
-134.8592891329518
 10
85.45783920867778
 20
-135.4118802439247
 10
85.90569058614102
 20
-135.8597669104793
 10
86.45761140539368
 20
-135.8597669104793
 10
86.45761140539368
 20
-135.8597669104793
 10
97.457610291427
 20
-135.8597669104793
 10
97.457610291427
 20
-135.8597669104793
 10
98.00953111067966
 20
-135.8597669104793
 10
98.45738248814291
 20
-135.4118802439247
 10
98.45738248814291
 20
-134.8592891329518
 10
98.45738248814291
 20
-134.8592891329518
 10
86.45761140539368
 20
-134.8592891329518
 10
86.45761140539368
 20
-134.8592891329518
 10
86.45761140539368
 20
-134.8592891329518
 10
86.45761140539368
 20
-128.3590763567991
 10
86.45761140539368
 20
-128.3590763567991
 10
86.45761140539368
 20
-128.3590763567991
 10
98.45738248814291
 20
-128.3590763567991
 10
98.45738248814291
 20
-128.3590763567991
 10
98.45738248814291
 20
-128.3590763567991
 10
98.97691830822178
 20
-128.0593563568742
 10
98.97691830822178
 20
-128.0593563568742
 10
98.97691830822178
 20
-128.0593563568742
 10
103.7580095751349
 20
-128.0593563568742
 10
103.7580095751349
 20
-128.0593563568742
 10
104.1445481763846
 20
-128.0593563568742
 10
104.4580617794973
 20
-127.7458780236192
 10
104.4580617794973
 20
-127.3593394126047
 10
104.4580617794973
 20
-127.3593394126047
 10
86.45761140539368
 20
-127.3593394126047
 10
86.45761140539368
 20
-127.3593394126047
 10
86.45761140539368
 20
-127.3593394126047
 10
86.45761140539368
 20
-122.8593413581741
 10
86.45761140539368
 20
-122.8593413581741
 97
        0
 97
        0
 75
     2
 76
     1
 98
        0
  0
POLYLINE
  5
4B
330
1F
100
AcDbEntity
  8
_U+30EC_U+30A4_U+30E4_U+30FC 1
 62
   179
420
  2234388
370
    25
100
AcDb2dPolyline
 66
     1
 10
0.0
 20
0.0
 30
0.0
  0
VERTEX
  5
4C
330
4B
100
AcDbEntity
  8
_U+30EC_U+30A4_U+30E4_U+30FC 1
 62
   179
420
  2234388
370
    25
100
AcDbVertex
100
AcDb2dVertex
 10
86.45761140539368
 20
-134.8592891329518
 30
0.0
  0
VERTEX
  5
4D
330
4B
100
AcDbEntity
  8
_U+30EC_U+30A4_U+30E4_U+30FC 1
 62
   179
420
  2234388
370
    25
100
AcDbVertex
100
AcDb2dVertex
 10
98.45738248814291
 20
-134.8592891329518
 30
0.0
  0
SEQEND
  5
4E
330
4B
100
AcDbEntity
  8
_U+30EC_U+30A4_U+30E4_U+30FC 1
 62
   179
420
  2234388
370
    25
  0
POLYLINE
  5
4F
330
1F
100
AcDbEntity
  8
_U+30EC_U+30A4_U+30E4_U+30FC 1
 62
   179
420
  2234388
370
    25
100
AcDb2dPolyline
 66
     1
 10
0.0
 20
0.0
 30
0.0
  0
VERTEX
  5
50
330
4F
100
AcDbEntity
  8
_U+30EC_U+30A4_U+30E4_U+30FC 1
 62
   179
420
  2234388
370
    25
100
AcDbVertex
100
AcDb2dVertex
 10
86.45761140539368
 20
-128.3590763567991
 30
0.0
  0
VERTEX
  5
51
330
4F
100
AcDbEntity
  8
_U+30EC_U+30A4_U+30E4_U+30FC 1
 62
   179
420
  2234388
370
    25
100
AcDbVertex
100
AcDb2dVertex
 10
98.45738248814291
 20
-128.3590763567991
 30
0.0
  0
SEQEND
  5
52
330
4F
100
AcDbEntity
  8
_U+30EC_U+30A4_U+30E4_U+30FC 1
 62
   179
420
  2234388
370
    25
  0
POLYLINE
  5
53
330
1F
100
AcDbEntity
  8
_U+30EC_U+30A4_U+30E4_U+30FC 1
 62
   179
420
  2234388
370
    25
100
AcDb2dPolyline
 66
     1
 10
0.0
 20
0.0
 30
0.0
  0
VERTEX
  5
54
330
53
100
AcDbEntity
  8
_U+30EC_U+30A4_U+30E4_U+30FC 1
 62
   179
420
  2234388
370
    25
100
AcDbVertex
100
AcDb2dVertex
 10
86.45761140539368
 20
-135.8597669104793
 30
0.0
  0
VERTEX
  5
55
330
53
100
AcDbEntity
  8
_U+30EC_U+30A4_U+30E4_U+30FC 1
 62
   179
420
  2234388
370
    25
100
AcDbVertex
100
AcDb2dVertex
 10
97.457610291427
 20
-135.8597669104793
 30
0.0
  0
SEQEND
  5
56
330
53
100
AcDbEntity
  8
_U+30EC_U+30A4_U+30E4_U+30FC 1
 62
   179
420
  2234388
370
    25
  0
POLYLINE
  5
57
330
1F
100
AcDbEntity
  8
_U+30EC_U+30A4_U+30E4_U+30FC 1
 62
   179
420
  2234388
370
    25
100
AcDb2dPolyline
 66
     1
 10
0.0
 20
0.0
 30
0.0
  0
VERTEX
  5
58
330
57
100
AcDbEntity
  8
_U+30EC_U+30A4_U+30E4_U+30FC 1
 62
   179
420
  2234388
370
    25
100
AcDbVertex
100
AcDb2dVertex
 10
85.45783920867778
 20
-123.8591135801464
 30
0.0
  0
VERTEX
  5
59
330
57
100
AcDbEntity
  8
_U+30EC_U+30A4_U+30E4_U+30FC 1
 62
   179
420
  2234388
370
    25
100
AcDbVertex
100
AcDb2dVertex
 10
85.45783920867778
 20
-134.8592891329518
 30
0.0
  0
SEQEND
  5
5A
330
57
100
AcDbEntity
  8
_U+30EC_U+30A4_U+30E4_U+30FC 1
 62
   179
420
  2234388
370
    25
  0
POLYLINE
  5
5B
330
1F
100
AcDbEntity
  8
_U+30EC_U+30A4_U+30E4_U+30FC 1
 62
   179
420
  2234388
370
    25
100
AcDb2dPolyline
 66
     1
 10
0.0
 20
0.0
 30
0.0
  0
VERTEX
  5
5C
330
5B
100
AcDbEntity
  8
_U+30EC_U+30A4_U+30E4_U+30FC 1
 62
   179
420
  2234388
370
    25
100
AcDbVertex
100
AcDb2dVertex
 10
86.45761140539368
 20
-122.8593413581741
 30
0.0
  0
VERTEX
  5
5D
330
5B
100
AcDbEntity
  8
_U+30EC_U+30A4_U+30E4_U+30FC 1
 62
   179
420
  2234388
370
    25
100
AcDbVertex
100
AcDb2dVertex
 10
86.45761140539368
 20
-127.3593394126047
 30
0.0
  0
SEQEND
  5
5E
330
5B
100
AcDbEntity
  8
_U+30EC_U+30A4_U+30E4_U+30FC 1
 62
   179
420
  2234388
370
    25
  0
POLYLINE
  5
5F
330
1F
100
AcDbEntity
  8
_U+30EC_U+30A4_U+30E4_U+30FC 1
 62
   179
420
  2234388
370
    25
100
AcDb2dPolyline
 66
     1
 10
0.0
 20
0.0
 30
0.0
  0
VERTEX
  5
60
330
5F
100
AcDbEntity
  8
_U+30EC_U+30A4_U+30E4_U+30FC 1
 62
   179
420
  2234388
370
    25
100
AcDbVertex
100
AcDb2dVertex
 10
86.45761140539368
 20
-127.3593394126047
 30
0.0
  0
VERTEX
  5
61
330
5F
100
AcDbEntity
  8
_U+30EC_U+30A4_U+30E4_U+30FC 1
 62
   179
420
  2234388
370
    25
100
AcDbVertex
100
AcDb2dVertex
 10
104.4580617794973
 20
-127.3593394126047
 30
0.0
  0
SEQEND
  5
62
330
5F
100
AcDbEntity
  8
_U+30EC_U+30A4_U+30E4_U+30FC 1
 62
   179
420
  2234388
370
    25
  0
POLYLINE
  5
63
330
1F
100
AcDbEntity
  8
_U+30EC_U+30A4_U+30E4_U+30FC 1
 62
   179
420
  2234388
370
    25
100
AcDb2dPolyline
 66
     1
 10
0.0
 20
0.0
 30
0.0
  0
VERTEX
  5
64
330
63
100
AcDbEntity
  8
_U+30EC_U+30A4_U+30E4_U+30FC 1
 62
   179
420
  2234388
370
    25
100
AcDbVertex
100
AcDb2dVertex
 10
86.45761140539368
 20
-128.3590763567991
 30
0.0
  0
VERTEX
  5
65
330
63
100
AcDbEntity
  8
_U+30EC_U+30A4_U+30E4_U+30FC 1
 62
   179
420
  2234388
370
    25
100
AcDbVertex
100
AcDb2dVertex
 10
86.45761140539368
 20
-134.8592891329518
 30
0.0
  0
SEQEND
  5
66
330
63
100
AcDbEntity
  8
_U+30EC_U+30A4_U+30E4_U+30FC 1
 62
   179
420
  2234388
370
    25
  0
POLYLINE
  5
67
330
1F
100
AcDbEntity
  8
_U+30EC_U+30A4_U+30E4_U+30FC 1
 62
   179
420
  2234388
370
    25
100
AcDb2dPolyline
 66
     1
 10
0.0
 20
0.0
 30
0.0
  0
VERTEX
  5
68
330
67
100
AcDbEntity
  8
_U+30EC_U+30A4_U+30E4_U+30FC 1
 62
   179
420
  2234388
370
    25
100
AcDbVertex
100
AcDb2dVertex
 10
98.97691830822178
 20
-128.0593563568742
 30
0.0
  0
VERTEX
  5
69
330
67
100
AcDbEntity
  8
_U+30EC_U+30A4_U+30E4_U+30FC 1
 62
   179
420
  2234388
370
    25
100
AcDbVertex
100
AcDb2dVertex
 10
103.7580095751349
 20
-128.0593563568742
 30
0.0
  0
SEQEND
  5
6A
330
67
100
AcDbEntity
  8
_U+30EC_U+30A4_U+30E4_U+30FC 1
 62
   179
420
  2234388
370
    25
  0
POLYLINE
  5
6B
330
1F
100
AcDbEntity
  8
_U+30EC_U+30A4_U+30E4_U+30FC 1
 62
   179
420
  2234388
370
    25
100
AcDb2dPolyline
 66
     1
 10
0.0
 20
0.0
 30
0.0
  0
VERTEX
  5
6C
330
6B
100
AcDbEntity
  8
_U+30EC_U+30A4_U+30E4_U+30FC 1
 62
   179
420
  2234388
370
    25
100
AcDbVertex
100
AcDb2dVertex
 10
98.45738248814291
 20
-128.3590763567991
 30
0.0
  0
VERTEX
  5
6D
330
6B
100
AcDbEntity
  8
_U+30EC_U+30A4_U+30E4_U+30FC 1
 62
   179
420
  2234388
370
    25
100
AcDbVertex
100
AcDb2dVertex
 10
98.97691830822178
 20
-128.0593563568742
 30
0.0
  0
SEQEND
  5
6E
330
6B
100
AcDbEntity
  8
_U+30EC_U+30A4_U+30E4_U+30FC 1
 62
   179
420
  2234388
370
    25
  0
POLYLINE
  5
6F
330
1F
100
AcDbEntity
  8
_U+30EC_U+30A4_U+30E4_U+30FC 1
 62
   179
420
  2234388
370
     9
100
AcDb2dPolyline
 66
     1
 10
0.0
 20
0.0
 30
0.0
  0
VERTEX
  5
70
330
6F
100
AcDbEntity
  8
_U+30EC_U+30A4_U+30E4_U+30FC 1
 62
   179
420
  2234388
370
     9
100
AcDbVertex
100
AcDb2dVertex
 10
85.75068003454011
 20
-135.5662205216639
 30
0.0
  0
VERTEX
  5
71
330
6F
100
AcDbEntity
  8
_U+30EC_U+30A4_U+30E4_U+30FC 1
 62
   179
420
  2234388
370
     9
100
AcDbVertex
100
AcDb2dVertex
 10
81.45808014405347
 20
-139.8594907983686
 30
0.0
  0
SEQEND
  5
72
330
6F
100
AcDbEntity
  8
_U+30EC_U+30A4_U+30E4_U+30FC 1
 62
   179
420
  2234388
370
     9
  0
POLYLINE
  5
73
330
1F
100
AcDbEntity
  8
_U+30EC_U+30A4_U+30E4_U+30FC 1
 62
   179
420
  2234388
370
     9
100
AcDb2dPolyline
 66
     1
 10
0.0
 20
0.0
 30
0.0
  0
VERTEX
  5
74
330
73
100
AcDbEntity
  8
_U+30EC_U+30A4_U+30E4_U+30FC 1
 62
   179
420
  2234388
370
     9
100
AcDbVertex
100
AcDb2dVertex
 10
77.24541969597183
 20
-139.8594907983686
 30
0.0
  0
VERTEX
  5
75
330
73
100
AcDbEntity
  8
_U+30EC_U+30A4_U+30E4_U+30FC 1
 62
   179
420
  2234388
370
     9
100
AcDbVertex
100
AcDb2dVertex
 10
81.45808014405347
 20
-139.8594907983686
 30
0.0
  0
SEQEND
  5
76
330
73
100
AcDbEntity
  8
_U+30EC_U+30A4_U+30E4_U+30FC 1
 62
   179
420
  2234388
370
     9
  0
POLYLINE
  5
77
330
1F
100
AcDbEntity
  8
_U+30EC_U+30A4_U+30E4_U+30FC 1
 62
   179
420
  2234388
370
     9
100
AcDb2dPolyline
 66
     1
 10
0.0
 20
0.0
 30
0.0
  0
VERTEX
  5
78
330
77
100
AcDbEntity
  8
_U+30EC_U+30A4_U+30E4_U+30FC 1
 62
   179
420
  2234388
370
     9
100
AcDbVertex
100
AcDb2dVertex
 10
85.75068003454011
 20
-135.5662205216639
 30
0.0
  0
VERTEX
  5
79
330
77
100
AcDbEntity
  8
_U+30EC_U+30A4_U+30E4_U+30FC 1
 62
   179
420
  2234388
370
     9
100
AcDbVertex
100
AcDb2dVertex
 10
84.45185812323137
 20
-136.3165788548098
 30
0.0
  0
SEQEND
  5
7A
330
77
100
AcDbEntity
  8
_U+30EC_U+30A4_U+30E4_U+30FC 1
 62
   179
420
  2234388
370
     9
  0
POLYLINE
  5
7B
330
1F
100
AcDbEntity
  8
_U+30EC_U+30A4_U+30E4_U+30FC 1
 62
   179
420
  2234388
370
     9
100
AcDb2dPolyline
 66
     1
 10
0.0
 20
0.0
 30
0.0
  0
VERTEX
  5
7C
330
7B
100
AcDbEntity
  8
_U+30EC_U+30A4_U+30E4_U+30FC 1
 62
   179
420
  2234388
370
     9
100
AcDbVertex
100
AcDb2dVertex
 10
85.75068003454011
 20
-135.5662205216639
 30
0.0
  0
VERTEX
  5
7D
330
7B
100
AcDbEntity
  8
_U+30EC_U+30A4_U+30E4_U+30FC 1
 62
   179
420
  2234388
370
     9
100
AcDbVertex
100
AcDb2dVertex
 10
85.00102727588758
 20
-136.8657127435613
 30
0.0
  0
SEQEND
  5
7E
330
7B
100
AcDbEntity
  8
_U+30EC_U+30A4_U+30E4_U+30FC 1
 62
   179
420
  2234388
370
     9
  0
SPLINE
  5
7F
330
1F
100
AcDbEntity
  8
_U+30EC_U+30A4_U+30E4_U+30FC 1
 62
   179
420
  2234388
370
    25
100
AcDbSpline
210
0.0
220
0.0
230
1.0
 70
     8
 71
     3
 72
     8
 73
     4
 74
     0
 42
0.0000000001
 43
0.0000000001
 12
1.0
 22
0.0
 32
0.0
 13
1.0
 23
0.0
 33
0.0
 40
0.0
 40
0.0
 40
0.0
 40
0.0
 40
1.0
 40
1.0
 40
1.0
 40
1.0
 10
85.45783920867778
 20
-134.8592891329518
 30
0.0
 10
85.45783920867778
 20
-135.4118802439247
 30
0.0
 10
85.90569058614102
 20
-135.8597669104793
 30
0.0
 10
86.45761140539368
 20
-135.8597669104793
 30
0.0
  0
SPLINE
  5
80
330
1F
100
AcDbEntity
  8
_U+30EC_U+30A4_U+30E4_U+30FC 1
 62
   179
420
  2234388
370
    25
100
AcDbSpline
210
0.0
220
0.0
230
1.0
 70
     8
 71
     3
 72
     8
 73
     4
 74
     0
 42
0.0000000001
 43
0.0000000001
 12
1.0
 22
0.0
 32
0.0
 13
1.0
 23
0.0
 33
0.0
 40
0.0
 40
0.0
 40
0.0
 40
0.0
 40
1.0
 40
1.0
 40
1.0
 40
1.0
 10
86.45761140539368
 20
-122.8593413581741
 30
0.0
 10
85.90569058614102
 20
-122.8593413581741
 30
0.0
 10
85.45783920867778
 20
-123.3071927469509
 30
0.0
 10
85.45783920867778
 20
-123.8591135801464
 30
0.0
  0
SPLINE
  5
81
330
1F
100
AcDbEntity
  8
_U+30EC_U+30A4_U+30E4_U+30FC 1
 62
   179
420
  2234388
370
    25
100
AcDbSpline
210
0.0
220
0.0
230
1.0
 70
     8
 71
     3
 72
     8
 73
     4
 74
     0
 42
0.0000000001
 43
0.0000000001
 12
1.0
 22
0.0
 32
0.0
 13
1.0
 23
0.0
 33
0.0
 40
0.0
 40
0.0
 40
0.0
 40
0.0
 40
1.0
 40
1.0
 40
1.0
 40
1.0
 10
97.457610291427
 20
-135.8597669104793
 30
0.0
 10
98.00953111067966
 20
-135.8597669104793
 30
0.0
 10
98.45738248814291
 20
-135.4118802439247
 30
0.0
 10
98.45738248814291
 20
-134.8592891329518
 30
0.0
  0
SPLINE
  5
82
330
1F
100
AcDbEntity
  8
_U+30EC_U+30A4_U+30E4_U+30FC 1
 62
   179
420
  2234388
370
    25
100
AcDbSpline
210
0.0
220
0.0
230
1.0
 70
     8
 71
     3
 72
     8
 73
     4
 74
     0
 42
0.0000000001
 43
0.0000000001
 12
1.0
 22
0.0
 32
0.0
 13
1.0
 23
0.0
 33
0.0
 40
0.0
 40
0.0
 40
0.0
 40
0.0
 40
1.0
 40
1.0
 40
1.0
 40
1.0
 10
103.7580095751349
 20
-128.0593563568742
 30
0.0
 10
104.1445481763846
 20
-128.0593563568742
 30
0.0
 10
104.4580617794973
 20
-127.7458780236192
 30
0.0
 10
104.4580617794973
 20
-127.3593394126047
 30
0.0
  0
SPLINE
  5
83
330
1F
100
AcDbEntity
  8
_U+30EC_U+30A4_U+30E4_U+30FC 1
 62
   179
420
  2234388
370
     9
100
AcDbSpline
210
0.0
220
0.0
230
1.0
 70
    11
 71
     3
 72
    17
 73
    13
 74
     0
 42
0.0000000001
 43
0.0000000001
 12
1.0
 22
0.0
 32
0.0
 13
1.0
 23
0.0
 33
0.0
 40
0.0
 40
0.0
 40
0.0
 40
0.0
 40
1.0
 40
1.0
 40
1.0
 40
2.0
 40
2.0
 40
2.0
 40
3.0
 40
3.0
 40
3.0
 40
4.0
 40
4.0
 40
4.0
 40
4.0
 10
104.5579684436151
 20
-118.8595821925072
 30
0.0
 10
104.5579684436151
 20
-118.8044783036323
 30
0.0
 10
104.5131656669803
 20
-118.7596755258656
 30
0.0
 10
104.4580617794973
 20
-118.7596755258656
 30
0.0
 10
104.4029226142373
 20
-118.7596755258656
 30
0.0
 10
104.3581551153794
 20
-118.8044783036323
 30
0.0
 10
104.3581551153794
 20
-118.8595821925072
 30
0.0
 10
104.3581551153794
 20
-118.9147213591603
 30
0.0
 10
104.4029226142373
 20
-118.9594888591489
 30
0.0
 10
104.4580617794973
 20
-118.9594888591489
 30
0.0
 10
104.5131656669803
 20
-118.9594888591489
 30
0.0
 10
104.5579684436151
 20
-118.9147213591603
 30
0.0
 10
104.5579684436151
 20
-118.8595821925072
 30
0.0
  0
SPLINE
  5
84
330
1F
100
AcDbEntity
  8
_U+30EC_U+30A4_U+30E4_U+30FC 1
 62
   179
420
  2234388
370
     9
100
AcDbSpline
210
0.0
220
0.0
230
1.0
 70
    11
 71
     3
 72
    17
 73
    13
 74
     0
 42
0.0000000001
 43
0.0000000001
 12
1.0
 22
0.0
 32
0.0
 13
1.0
 23
0.0
 33
0.0
 40
0.0
 40
0.0
 40
0.0
 40
0.0
 40
1.0
 40
1.0
 40
1.0
 40
2.0
 40
2.0
 40
2.0
 40
3.0
 40
3.0
 40
3.0
 40
4.0
 40
4.0
 40
4.0
 40
4.0
 10
86.55751806951152
 20
-118.8595821925072
 30
0.0
 10
86.55751806951152
 20
-118.8044783036323
 30
0.0
 10
86.51271529287675
 20
-118.7596755258656
 30
0.0
 10
86.45761140539368
 20
-118.7596755258656
 30
0.0
 10
86.40247224013373
 20
-118.7596755258656
 30
0.0
 10
86.35770474127585
 20
-118.8044783036323
 30
0.0
 10
86.35770474127585
 20
-118.8595821925072
 30
0.0
 10
86.35770474127585
 20
-118.9147213591603
 30
0.0
 10
86.40247224013373
 20
-118.9594888591489
 30
0.0
 10
86.45761140539368
 20
-118.9594888591489
 30
0.0
 10
86.51271529287675
 20
-118.9594888591489
 30
0.0
 10
86.55751806951152
 20
-118.9147213591603
 30
0.0
 10
86.55751806951152
 20
-118.8595821925072
 30
0.0
  0
SPLINE
  5
85
330
1F
100
AcDbEntity
  8
_U+30EC_U+30A4_U+30E4_U+30FC 1
 62
   179
420
  2234388
370
     9
100
AcDbSpline
210
0.0
220
0.0
230
1.0
 70
    11
 71
     3
 72
    17
 73
    13
 74
     0
 42
0.0000000001
 43
0.0000000001
 12
1.0
 22
0.0
 32
0.0
 13
1.0
 23
0.0
 33
0.0
 40
0.0
 40
0.0
 40
0.0
 40
0.0
 40
1.0
 40
1.0
 40
1.0
 40
2.0
 40
2.0
 40
2.0
 40
3.0
 40
3.0
 40
3.0
 40
4.0
 40
4.0
 40
4.0
 40
4.0
 10
85.5577458727956
 20
-125.3590894131048
 30
0.0
 10
85.5577458727956
 20
-125.3039855242295
 30
0.0
 10
85.51294309616085
 20
-125.2591827464631
 30
0.0
 10
85.45783920867778
 20
-125.2591827464631
 30
0.0
 10
85.40270004341782
 20
-125.2591827464631
 30
0.0
 10
85.35793254455994
 20
-125.3039855242295
 30
0.0
 10
85.35793254455994
 20
-125.3590894131048
 30
0.0
 10
85.35793254455994
 20
-125.4148988575352
 30
0.0
 10
85.40270004341782
 20
-125.4597016353016
 30
0.0
 10
85.45783920867778
 20
-125.4597016353016
 30
0.0
 10
85.51294309616085
 20
-125.4597016353016
 30
0.0
 10
85.5577458727956
 20
-125.4148988575352
 30
0.0
 10
85.5577458727956
 20
-125.3590894131048
 30
0.0
  0
SPLINE
  5
86
330
1F
100
AcDbEntity
  8
_U+30EC_U+30A4_U+30E4_U+30FC 1
 62
   179
420
  2234388
370
     9
100
AcDbSpline
210
0.0
220
0.0
230
1.0
 70
    11
 71
     3
 72
    17
 73
    13
 74
     0
 42
0.0000000001
 43
0.0000000001
 12
1.0
 22
0.0
 32
0.0
 13
1.0
 23
0.0
 33
0.0
 40
0.0
 40
0.0
 40
0.0
 40
0.0
 40
1.0
 40
1.0
 40
1.0
 40
2.0
 40
2.0
 40
2.0
 40
3.0
 40
3.0
 40
3.0
 40
4.0
 40
4.0
 40
4.0
 40
4.0
 10
86.55751806951152
 20
-125.3590894131048
 30
0.0
 10
86.55751806951152
 20
-125.3039855242295
 30
0.0
 10
86.51271529287675
 20
-125.2591827464631
 30
0.0
 10
86.45761140539368
 20
-125.2591827464631
 30
0.0
 10
86.40247224013373
 20
-125.2591827464631
 30
0.0
 10
86.35770474127585
 20
-125.3039855242295
 30
0.0
 10
86.35770474127585
 20
-125.3590894131048
 30
0.0
 10
86.35770474127585
 20
-125.4148988575352
 30
0.0
 10
86.40247224013373
 20
-125.4597016353016
 30
0.0
 10
86.45761140539368
 20
-125.4597016353016
 30
0.0
 10
86.51271529287675
 20
-125.4597016353016
 30
0.0
 10
86.55751806951152
 20
-125.4148988575352
 30
0.0
 10
86.55751806951152
 20
-125.3590894131048
 30
0.0
  0
SPLINE
  5
87
330
1F
100
AcDbEntity
  8
_U+30EC_U+30A4_U+30E4_U+30FC 1
 62
   179
420
  2234388
370
     9
100
AcDbSpline
210
0.0
220
0.0
230
1.0
 70
    11
 71
     3
 72
    17
 73
    13
 74
     0
 42
0.0000000001
 43
0.0000000001
 12
1.0
 22
0.0
 32
0.0
 13
1.0
 23
0.0
 33
0.0
 40
0.0
 40
0.0
 40
0.0
 40
0.0
 40
1.0
 40
1.0
 40
1.0
 40
2.0
 40
2.0
 40
2.0
 40
3.0
 40
3.0
 40
3.0
 40
4.0
 40
4.0
 40
4.0
 40
4.0
 10
81.55798886849944
 20
-135.8597669104793
 30
0.0
 10
81.55798886849944
 20
-135.8039574660488
 30
0.0
 10
81.51318609073272
 20
-135.7591546882827
 30
0.0
 10
81.45808014405347
 20
-135.7591546882827
 30
0.0
 10
81.40227070103283
 20
-135.7591546882827
 30
0.0
 10
81.35746792439808
 20
-135.8039574660488
 30
0.0
 10
81.35746792439808
 20
-135.8597669104793
 30
0.0
 10
81.35746792439808
 20
-135.9148707993548
 30
0.0
 10
81.40227070103283
 20
-135.9596735771209
 30
0.0
 10
81.45808014405347
 20
-135.9596735771209
 30
0.0
 10
81.51318609073272
 20
-135.9596735771209
 30
0.0
 10
81.55798886849944
 20
-135.9148707993548
 30
0.0
 10
81.55798886849944
 20
-135.8597669104793
 30
0.0
  0
SPLINE
  5
88
330
1F
100
AcDbEntity
  8
_U+30EC_U+30A4_U+30E4_U+30FC 1
 62
   179
420
  2234388
370
     9
100
AcDbSpline
210
0.0
220
0.0
230
1.0
 70
    11
 71
     3
 72
    17
 73
    13
 74
     0
 42
0.0000000001
 43
0.0000000001
 12
1.0
 22
0.0
 32
0.0
 13
1.0
 23
0.0
 33
0.0
 40
0.0
 40
0.0
 40
0.0
 40
0.0
 40
1.0
 40
1.0
 40
1.0
 40
2.0
 40
2.0
 40
2.0
 40
3.0
 40
3.0
 40
3.0
 40
4.0
 40
4.0
 40
4.0
 40
4.0
 10
81.55798886849944
 20
-122.8593413581741
 30
0.0
 10
81.55798886849944
 20
-122.8042021915211
 30
0.0
 10
81.51318609073272
 20
-122.7594346915325
 30
0.0
 10
81.45808014405347
 20
-122.7594346915325
 30
0.0
 10
81.40227070103283
 20
-122.7594346915325
 30
0.0
 10
81.35746792439808
 20
-122.8042021915211
 30
0.0
 10
81.35746792439808
 20
-122.8593413581741
 30
0.0
 10
81.35746792439808
 20
-122.9144452470491
 30
0.0
 10
81.40227070103283
 20
-122.9592480248158
 30
0.0
 10
81.45808014405347
 20
-122.9592480248158
 30
0.0
 10
81.51318609073272
 20
-122.9592480248158
 30
0.0
 10
81.55798886849944
 20
-122.9144452470491
 30
0.0
 10
81.55798886849944
 20
-122.8593413581741
 30
0.0
  0
SPLINE
  5
89
330
1F
100
AcDbEntity
  8
_U+30EC_U+30A4_U+30E4_U+30FC 1
 62
   179
420
  2234388
370
     9
100
AcDbSpline
210
0.0
220
0.0
230
1.0
 70
    11
 71
     3
 72
    17
 73
    13
 74
     0
 42
0.0000000001
 43
0.0000000001
 12
1.0
 22
0.0
 32
0.0
 13
1.0
 23
0.0
 33
0.0
 40
0.0
 40
0.0
 40
0.0
 40
0.0
 40
1.0
 40
1.0
 40
1.0
 40
2.0
 40
2.0
 40
2.0
 40
3.0
 40
3.0
 40
3.0
 40
4.0
 40
4.0
 40
4.0
 40
4.0
 10
98.55729164202735
 20
-139.8594907983686
 30
0.0
 10
98.55729164202735
 20
-139.804386909493
 30
0.0
 10
98.51248886426063
 20
-139.759584131727
 30
0.0
 10
98.45738248814291
 20
-139.759584131727
 30
0.0
 10
98.40224332288295
 20
-139.759584131727
 30
0.0
 10
98.35747582402507
 20
-139.804386909493
 30
0.0
 10
98.35747582402507
 20
-139.8594907983686
 30
0.0
 10
98.35747582402507
 20
-139.914629965021
 30
0.0
 10
98.40224332288295
 20
-139.9594327427878
 30
0.0
 10
98.45738248814291
 20
-139.9594327427878
 30
0.0
 10
98.51248886426063
 20
-139.9594327427878
 30
0.0
 10
98.55729164202735
 20
-139.914629965021
 30
0.0
 10
98.55729164202735
 20
-139.8594907983686
 30
0.0
  0
SPLINE
  5
8A
330
1F
100
AcDbEntity
  8
_U+30EC_U+30A4_U+30E4_U+30FC 1
 62
   179
420
  2234388
370
     9
100
AcDbSpline
210
0.0
220
0.0
230
1.0
 70
    11
 71
     3
 72
    17
 73
    13
 74
     0
 42
0.0000000001
 43
0.0000000001
 12
1.0
 22
0.0
 32
0.0
 13
1.0
 23
0.0
 33
0.0
 40
0.0
 40
0.0
 40
0.0
 40
0.0
 40
1.0
 40
1.0
 40
1.0
 40
2.0
 40
2.0
 40
2.0
 40
3.0
 40
3.0
 40
3.0
 40
4.0
 40
4.0
 40
4.0
 40
4.0
 10
85.5577458727956
 20
-139.8594907983686
 30
0.0
 10
85.5577458727956
 20
-139.804386909493
 30
0.0
 10
85.51294309616085
 20
-139.759584131727
 30
0.0
 10
85.45783920867778
 20
-139.759584131727
 30
0.0
 10
85.40270004341782
 20
-139.759584131727
 30
0.0
 10
85.35793254455994
 20
-139.804386909493
 30
0.0
 10
85.35793254455994
 20
-139.8594907983686
 30
0.0
 10
85.35793254455994
 20
-139.914629965021
 30
0.0
 10
85.40270004341782
 20
-139.9594327427878
 30
0.0
 10
85.45783920867778
 20
-139.9594327427878
 30
0.0
 10
85.51294309616085
 20
-139.9594327427878
 30
0.0
 10
85.5577458727956
 20
-139.914629965021
 30
0.0
 10
85.5577458727956
 20
-139.8594907983686
 30
0.0
  0
SPLINE
  5
8B
330
1F
100
AcDbEntity
  8
_U+30EC_U+30A4_U+30E4_U+30FC 1
 62
   179
420
  2234388
370
     9
100
AcDbSpline
210
0.0
220
0.0
230
1.0
 70
    11
 71
     3
 72
    17
 73
    13
 74
     0
 42
0.0000000001
 43
0.0000000001
 12
1.0
 22
0.0
 32
0.0
 13
1.0
 23
0.0
 33
0.0
 40
0.0
 40
0.0
 40
0.0
 40
0.0
 40
1.0
 40
1.0
 40
1.0
 40
2.0
 40
2.0
 40
2.0
 40
3.0
 40
3.0
 40
3.0
 40
4.0
 40
4.0
 40
4.0
 40
4.0
 10
102.5584240501833
 20
-128.3590763567991
 30
0.0
 10
102.5584240501833
 20
-128.3039724679239
 30
0.0
 10
102.5136212735485
 20
-128.2591696901575
 30
0.0
 10
102.4585173860655
 20
-128.2591696901575
 30
0.0
 10
102.4027079430448
 20
-128.2591696901575
 30
0.0
 10
102.3579051664101
 20
-128.3039724679239
 30
0.0
 10
102.3579051664101
 20
-128.3590763567991
 30
0.0
 10
102.3579051664101
 20
-128.4148858012296
 30
0.0
 10
102.4027079430448
 20
-128.4596885789963
 30
0.0
 10
102.4585173860655
 20
-128.4596885789963
 30
0.0
 10
102.5136212735485
 20
-128.4596885789963
 30
0.0
 10
102.5584240501833
 20
-128.4148858012296
 30
0.0
 10
102.5584240501833
 20
-128.3590763567991
 30
0.0
  0
SPLINE
  5
8C
330
1F
100
AcDbEntity
  8
_U+30EC_U+30A4_U+30E4_U+30FC 1
 62
   179
420
  2234388
370
     9
100
AcDbSpline
210
0.0
220
0.0
230
1.0
 70
    11
 71
     3
 72
    17
 73
    13
 74
     0
 42
0.0000000001
 43
0.0000000001
 12
1.0
 22
0.0
 32
0.0
 13
1.0
 23
0.0
 33
0.0
 40
0.0
 40
0.0
 40
0.0
 40
0.0
 40
1.0
 40
1.0
 40
1.0
 40
2.0
 40
2.0
 40
2.0
 40
3.0
 40
3.0
 40
3.0
 40
4.0
 40
4.0
 40
4.0
 40
4.0
 10
102.5584240501833
 20
-134.8592891329518
 30
0.0
 10
102.5584240501833
 20
-134.8041852440769
 30
0.0
 10
102.5136212735485
 20
-134.7593824663102
 30
0.0
 10
102.4585173860655
 20
-134.7593824663102
 30
0.0
 10
102.4027079430448
 20
-134.7593824663102
 30
0.0
 10
102.3579051664101
 20
-134.8041852440769
 30
0.0
 10
102.3579051664101
 20
-134.8592891329518
 30
0.0
 10
102.3579051664101
 20
-134.9144282996049
 30
0.0
 10
102.4027079430448
 20
-134.9591957995935
 30
0.0
 10
102.4585173860655
 20
-134.9591957995935
 30
0.0
 10
102.5136212735485
 20
-134.9591957995935
 30
0.0
 10
102.5584240501833
 20
-134.9144282996049
 30
0.0
 10
102.5584240501833
 20
-134.8592891329518
 30
0.0
  0
INSERT
  5
8E
330
1F
100
AcDbEntity
  8
_U+30EC_U+30A4_U+30E4_U+30FC 1
100
AcDbBlockReference
  2
block 2
 10
0.0
 20
0.0
 30
0.0
  0
POLYLINE
  5
96
330
1F
100
AcDbEntity
  8
_U+30EC_U+30A4_U+30E4_U+30FC 1
 62
   179
420
  2234388
370
     9
100
AcDb2dPolyline
 66
     1
 10
0.0
 20
0.0
 30
0.0
  0
VERTEX
  5
97
330
96
100
AcDbEntity
  8
_U+30EC_U+30A4_U+30E4_U+30FC 1
 62
   179
420
  2234388
370
     9
100
AcDbVertex
100
AcDb2dVertex
 10
86.45761140539368
 20
-118.8595821925072
 30
0.0
  0
VERTEX
  5
98
330
96
100
AcDbEntity
  8
_U+30EC_U+30A4_U+30E4_U+30FC 1
 62
   179
420
  2234388
370
     9
100
AcDbVertex
100
AcDb2dVertex
 10
104.4580617794973
 20
-118.8595821925072
 30
0.0
  0
SEQEND
  5
99
330
96
100
AcDbEntity
  8
_U+30EC_U+30A4_U+30E4_U+30FC 1
 62
   179
420
  2234388
370
     9
  0
POLYLINE
  5
9A
330
1F
100
AcDbEntity
  8
_U+30EC_U+30A4_U+30E4_U+30FC 1
 62
   179
420
  2234388
370
     9
100
AcDb2dPolyline
 66
     1
 10
0.0
 20
0.0
 30
0.0
  0
VERTEX
  5
9B
330
9A
100
AcDbEntity
  8
_U+30EC_U+30A4_U+30E4_U+30FC 1
 62
   179
420
  2234388
370
     9
100
AcDbVertex
100
AcDb2dVertex
 10
86.45761140539368
 20
-121.3193958030035
 30
0.0
  0
VERTEX
  5
9C
330
9A
100
AcDbEntity
  8
_U+30EC_U+30A4_U+30E4_U+30FC 1
 62
   179
420
  2234388
370
     9
100
AcDbVertex
100
AcDb2dVertex
 10
86.45761140539368
 20
-117.8591396927574
 30
0.0
  0
SEQEND
  5
9D
330
9A
100
AcDbEntity
  8
_U+30EC_U+30A4_U+30E4_U+30FC 1
 62
   179
420
  2234388
370
     9
  0
POLYLINE
  5
9E
330
1F
100
AcDbEntity
  8
_U+30EC_U+30A4_U+30E4_U+30FC 1
 62
   179
420
  2234388
370
     9
100
AcDb2dPolyline
 66
     1
 10
0.0
 20
0.0
 30
0.0
  0
VERTEX
  5
9F
330
9E
100
AcDbEntity
  8
_U+30EC_U+30A4_U+30E4_U+30FC 1
 62
   179
420
  2234388
370
     9
100
AcDbVertex
100
AcDb2dVertex
 10
104.4580617794973
 20
-124.819586357684
 30
0.0
  0
VERTEX
  5
A0
330
9E
100
AcDbEntity
  8
_U+30EC_U+30A4_U+30E4_U+30FC 1
 62
   179
420
  2234388
370
     9
100
AcDbVertex
100
AcDb2dVertex
 10
104.4580617794973
 20
-117.8591396927574
 30
0.0
  0
SEQEND
  5
A1
330
9E
100
AcDbEntity
  8
_U+30EC_U+30A4_U+30E4_U+30FC 1
 62
   179
420
  2234388
370
     9
  0
INSERT
  5
A3
330
1F
100
AcDbEntity
  8
_U+30EC_U+30A4_U+30E4_U+30FC 1
100
AcDbBlockReference
  2
block 3
 10
0.0
 20
0.0
 30
0.0
  0
POLYLINE
  5
AC
330
1F
100
AcDbEntity
  8
_U+30EC_U+30A4_U+30E4_U+30FC 1
 62
   179
420
  2234388
370
     9
100
AcDb2dPolyline
 66
     1
 10
0.0
 20
0.0
 30
0.0
  0
VERTEX
  5
AD
330
AC
100
AcDbEntity
  8
_U+30EC_U+30A4_U+30E4_U+30FC 1
 62
   179
420
  2234388
370
     9
100
AcDbVertex
100
AcDb2dVertex
 10
86.45761140539368
 20
-125.3590894131048
 30
0.0
  0
VERTEX
  5
AE
330
AC
100
AcDbEntity
  8
_U+30EC_U+30A4_U+30E4_U+30FC 1
 62
   179
420
  2234388
370
     9
100
AcDbVertex
100
AcDb2dVertex
 10
90.227923809205
 20
-125.3590894131048
 30
0.0
  0
SEQEND
  5
AF
330
AC
100
AcDbEntity
  8
_U+30EC_U+30A4_U+30E4_U+30FC 1
 62
   179
420
  2234388
370
     9
  0
POLYLINE
  5
B0
330
1F
100
AcDbEntity
  8
_U+30EC_U+30A4_U+30E4_U+30FC 1
 62
   179
420
  2234388
370
     9
100
AcDb2dPolyline
 66
     1
 10
0.0
 20
0.0
 30
0.0
  0
VERTEX
  5
B1
330
B0
100
AcDbEntity
  8
_U+30EC_U+30A4_U+30E4_U+30FC 1
 62
   179
420
  2234388
370
     9
100
AcDbVertex
100
AcDb2dVertex
 10
84.45806701196187
 20
-125.3590894131048
 30
0.0
  0
VERTEX
  5
B2
330
B0
100
AcDbEntity
  8
_U+30EC_U+30A4_U+30E4_U+30FC 1
 62
   179
420
  2234388
370
     9
100
AcDbVertex
100
AcDb2dVertex
 10
86.45761140539368
 20
-125.3590894131048
 30
0.0
  0
SEQEND
  5
B3
330
B0
100
AcDbEntity
  8
_U+30EC_U+30A4_U+30E4_U+30FC 1
 62
   179
420
  2234388
370
     9
  0
INSERT
  5
B5
330
1F
100
AcDbEntity
  8
_U+30EC_U+30A4_U+30E4_U+30FC 1
100
AcDbBlockReference
  2
block 4
 10
0.0
 20
0.0
 30
0.0
  0
POLYLINE
  5
BA
330
1F
100
AcDbEntity
  8
_U+30EC_U+30A4_U+30E4_U+30FC 1
 62
   179
420
  2234388
370
     9
100
AcDb2dPolyline
 66
     1
 10
0.0
 20
0.0
 30
0.0
  0
VERTEX
  5
BB
330
BA
100
AcDbEntity
  8
_U+30EC_U+30A4_U+30E4_U+30FC 1
 62
   179
420
  2234388
370
     9
100
AcDbVertex
100
AcDb2dVertex
 10
81.45808014405347
 20
-135.8597669104793
 30
0.0
  0
VERTEX
  5
BC
330
BA
100
AcDbEntity
  8
_U+30EC_U+30A4_U+30E4_U+30FC 1
 62
   179
420
  2234388
370
     9
100
AcDbVertex
100
AcDb2dVertex
 10
81.45808014405347
 20
-122.8593413581741
 30
0.0
  0
SEQEND
  5
BD
330
BA
100
AcDbEntity
  8
_U+30EC_U+30A4_U+30E4_U+30FC 1
 62
   179
420
  2234388
370
     9
  0
POLYLINE
  5
BE
330
1F
100
AcDbEntity
  8
_U+30EC_U+30A4_U+30E4_U+30FC 1
 62
   179
420
  2234388
370
     9
100
AcDb2dPolyline
 66
     1
 10
0.0
 20
0.0
 30
0.0
  0
VERTEX
  5
BF
330
BE
100
AcDbEntity
  8
_U+30EC_U+30A4_U+30E4_U+30FC 1
 62
   179
420
  2234388
370
     9
100
AcDbVertex
100
AcDb2dVertex
 10
83.91785841463262
 20
-135.8597669104793
 30
0.0
  0
VERTEX
  5
C0
330
BE
100
AcDbEntity
  8
_U+30EC_U+30A4_U+30E4_U+30FC 1
 62
   179
420
  2234388
370
     9
100
AcDbVertex
100
AcDb2dVertex
 10
80.4576023918
 20
-135.8597669104793
 30
0.0
  0
SEQEND
  5
C1
330
BE
100
AcDbEntity
  8
_U+30EC_U+30A4_U+30E4_U+30FC 1
 62
   179
420
  2234388
370
     9
  0
POLYLINE
  5
C2
330
1F
100
AcDbEntity
  8
_U+30EC_U+30A4_U+30E4_U+30FC 1
 62
   179
420
  2234388
370
     9
100
AcDb2dPolyline
 66
     1
 10
0.0
 20
0.0
 30
0.0
  0
VERTEX
  5
C3
330
C2
100
AcDbEntity
  8
_U+30EC_U+30A4_U+30E4_U+30FC 1
 62
   179
420
  2234388
370
     9
100
AcDbVertex
100
AcDb2dVertex
 10
83.91785841463262
 20
-122.8593413581741
 30
0.0
  0
VERTEX
  5
C4
330
C2
100
AcDbEntity
  8
_U+30EC_U+30A4_U+30E4_U+30FC 1
 62
   179
420
  2234388
370
     9
100
AcDbVertex
100
AcDb2dVertex
 10
80.4576023918
 20
-122.8593413581741
 30
0.0
  0
SEQEND
  5
C5
330
C2
100
AcDbEntity
  8
_U+30EC_U+30A4_U+30E4_U+30FC 1
 62
   179
420
  2234388
370
     9
  0
INSERT
  5
C7
330
1F
100
AcDbEntity
  8
_U+30EC_U+30A4_U+30E4_U+30FC 1
100
AcDbBlockReference
  2
block 5
 10
0.0
 20
0.0
 30
0.0
  0
POLYLINE
  5
CE
330
1F
100
AcDbEntity
  8
_U+30EC_U+30A4_U+30E4_U+30FC 1
 62
   179
420
  2234388
370
     9
100
AcDb2dPolyline
 66
     1
 10
0.0
 20
0.0
 30
0.0
  0
VERTEX
  5
CF
330
CE
100
AcDbEntity
  8
_U+30EC_U+30A4_U+30E4_U+30FC 1
 62
   179
420
  2234388
370
     9
100
AcDbVertex
100
AcDb2dVertex
 10
85.45783920867778
 20
-139.8594907983686
 30
0.0
  0
VERTEX
  5
D0
330
CE
100
AcDbEntity
  8
_U+30EC_U+30A4_U+30E4_U+30FC 1
 62
   179
420
  2234388
370
     9
100
AcDbVertex
100
AcDb2dVertex
 10
98.45738248814291
 20
-139.8594907983686
 30
0.0
  0
SEQEND
  5
D1
330
CE
100
AcDbEntity
  8
_U+30EC_U+30A4_U+30E4_U+30FC 1
 62
   179
420
  2234388
370
     9
  0
POLYLINE
  5
D2
330
1F
100
AcDbEntity
  8
_U+30EC_U+30A4_U+30E4_U+30FC 1
 62
   179
420
  2234388
370
     9
100
AcDb2dPolyline
 66
     1
 10
0.0
 20
0.0
 30
0.0
  0
VERTEX
  5
D3
330
D2
100
AcDbEntity
  8
_U+30EC_U+30A4_U+30E4_U+30FC 1
 62
   179
420
  2234388
370
     9
100
AcDbVertex
100
AcDb2dVertex
 10
85.45783920867778
 20
-137.3997124656499
 30
0.0
  0
VERTEX
  5
D4
330
D2
100
AcDbEntity
  8
_U+30EC_U+30A4_U+30E4_U+30FC 1
 62
   179
420
  2234388
370
     9
100
AcDbVertex
100
AcDb2dVertex
 10
85.45783920867778
 20
-140.8592630203405
 30
0.0
  0
SEQEND
  5
D5
330
D2
100
AcDbEntity
  8
_U+30EC_U+30A4_U+30E4_U+30FC 1
 62
   179
420
  2234388
370
     9
  0
POLYLINE
  5
D6
330
1F
100
AcDbEntity
  8
_U+30EC_U+30A4_U+30E4_U+30FC 1
 62
   179
420
  2234388
370
     9
100
AcDb2dPolyline
 66
     1
 10
0.0
 20
0.0
 30
0.0
  0
VERTEX
  5
D7
330
D6
100
AcDbEntity
  8
_U+30EC_U+30A4_U+30E4_U+30FC 1
 62
   179
420
  2234388
370
     9
100
AcDbVertex
100
AcDb2dVertex
 10
98.45738248814291
 20
-137.3997124656499
 30
0.0
  0
VERTEX
  5
D8
330
D6
100
AcDbEntity
  8
_U+30EC_U+30A4_U+30E4_U+30FC 1
 62
   179
420
  2234388
370
     9
100
AcDbVertex
100
AcDb2dVertex
 10
98.45738248814291
 20
-140.8592630203405
 30
0.0
  0
SEQEND
  5
D9
330
D6
100
AcDbEntity
  8
_U+30EC_U+30A4_U+30E4_U+30FC 1
 62
   179
420
  2234388
370
     9
  0
INSERT
  5
DB
330
1F
100
AcDbEntity
  8
_U+30EC_U+30A4_U+30E4_U+30FC 1
100
AcDbBlockReference
  2
block 6
 10
0.0
 20
0.0
 30
0.0
  0
POLYLINE
  5
E2
330
1F
100
AcDbEntity
  8
_U+30EC_U+30A4_U+30E4_U+30FC 1
 62
   179
420
  2234388
370
     9
100
AcDb2dPolyline
 66
     1
 10
0.0
 20
0.0
 30
0.0
  0
VERTEX
  5
E3
330
E2
100
AcDbEntity
  8
_U+30EC_U+30A4_U+30E4_U+30FC 1
 62
   179
420
  2234388
370
     9
100
AcDbVertex
100
AcDb2dVertex
 10
102.4585173860655
 20
-134.8592891329518
 30
0.0
  0
VERTEX
  5
E4
330
E2
100
AcDbEntity
  8
_U+30EC_U+30A4_U+30E4_U+30FC 1
 62
   179
420
  2234388
370
     9
100
AcDbVertex
100
AcDb2dVertex
 10
102.4585173860655
 20
-128.3590763567991
 30
0.0
  0
SEQEND
  5
E5
330
E2
100
AcDbEntity
  8
_U+30EC_U+30A4_U+30E4_U+30FC 1
 62
   179
420
  2234388
370
     9
  0
POLYLINE
  5
E6
330
1F
100
AcDbEntity
  8
_U+30EC_U+30A4_U+30E4_U+30FC 1
 62
   179
420
  2234388
370
     9
100
AcDb2dPolyline
 66
     1
 10
0.0
 20
0.0
 30
0.0
  0
VERTEX
  5
E7
330
E6
100
AcDbEntity
  8
_U+30EC_U+30A4_U+30E4_U+30FC 1
 62
   179
420
  2234388
370
     9
100
AcDbVertex
100
AcDb2dVertex
 10
100.9984760344253
 20
-134.8592891329518
 30
0.0
  0
VERTEX
  5
E8
330
E6
100
AcDbEntity
  8
_U+30EC_U+30A4_U+30E4_U+30FC 1
 62
   179
420
  2234388
370
     9
100
AcDbVertex
100
AcDb2dVertex
 10
103.4582895827814
 20
-134.8592891329518
 30
0.0
  0
SEQEND
  5
E9
330
E6
100
AcDbEntity
  8
_U+30EC_U+30A4_U+30E4_U+30FC 1
 62
   179
420
  2234388
370
     9
  0
POLYLINE
  5
EA
330
1F
100
AcDbEntity
  8
_U+30EC_U+30A4_U+30E4_U+30FC 1
 62
   179
420
  2234388
370
     9
100
AcDb2dPolyline
 66
     1
 10
0.0
 20
0.0
 30
0.0
  0
VERTEX
  5
EB
330
EA
100
AcDbEntity
  8
_U+30EC_U+30A4_U+30E4_U+30FC 1
 62
   179
420
  2234388
370
     9
100
AcDbVertex
100
AcDb2dVertex
 10
100.9984760344253
 20
-128.3590763567991
 30
0.0
  0
VERTEX
  5
EC
330
EA
100
AcDbEntity
  8
_U+30EC_U+30A4_U+30E4_U+30FC 1
 62
   179
420
  2234388
370
     9
100
AcDbVertex
100
AcDb2dVertex
 10
103.4582895827814
 20
-128.3590763567991
 30
0.0
  0
SEQEND
  5
ED
330
EA
100
AcDbEntity
  8
_U+30EC_U+30A4_U+30E4_U+30FC 1
 62
   179
420
  2234388
370
     9
  0
INSERT
  5
EF
330
1F
100
AcDbEntity
  8
_U+30EC_U+30A4_U+30E4_U+30FC 1
100
AcDbBlockReference
  2
block 7
 10
0.0
 20
0.0
 30
0.0
  0
ENDSEC
  0
SECTION
  2
OBJECTS
  0
DICTIONARY
  5
C
330
0
100
AcDbDictionary
281
     1
  3
ACAD_GROUP
350
D
  3
ACAD_LAYOUT
350
1A
  3
ACAD_MATERIAL
350
3B
  3
ACAD_MLEADERSTYLE
350
100
  3
ACAD_MLINESTYLE
350
17
  3
ACAD_PLOTSETTINGS
350
19
  3
ACAD_PLOTSTYLENAME
350
E
  3
ACAD_TABLESTYLE
350
FF
  3
ACAD_VISUALSTYLE
350
2A
  0
SUN
  5
3F
330
29
100
AcDbSun
 90
        1
290
     0
 63
     7
421
 16777215
 40
1.0
291
     1
 91
  2455826
 92
 54000000
292
     0
 70
     2
 71
   256
280
     1
  0
DICTIONARY
  5
D
102
{ACAD_REACTORS
330
C
102
}
330
C
100
AcDbDictionary
281
     1
  0
DICTIONARY
  5
1A
102
{ACAD_REACTORS
330
C
102
}
330
C
100
AcDbDictionary
281
     1
  3
Layout1
350
1E
  3
Layout2
350
26
  3
Model
350
22
  0
DICTIONARY
  5
3B
102
{ACAD_REACTORS
330
C
102
}
330
C
100
AcDbDictionary
281
     1
  3
ByBlock
350
3D
  3
ByLayer
350
3C
  3
Global
350
3E
  0
DICTIONARY
  5
100
102
{ACAD_REACTORS
330
C
102
}
330
C
100
AcDbDictionary
281
     1
  0
DICTIONARY
  5
17
102
{ACAD_REACTORS
330
C
102
}
330
C
100
AcDbDictionary
281
     1
  3
Standard
350
18
  0
DICTIONARY
  5
19
102
{ACAD_REACTORS
330
C
102
}
330
C
100
AcDbDictionary
281
     1
  0
ACDBDICTIONARYWDFLT
  5
E
102
{ACAD_REACTORS
330
C
102
}
330
C
100
AcDbDictionary
281
     1
  3
Normal
350
F
100
AcDbDictionaryWithDefault
340
F
  0
DICTIONARY
  5
FF
102
{ACAD_REACTORS
330
C
102
}
330
C
100
AcDbDictionary
281
     1
  0
DICTIONARY
  5
2A
102
{ACAD_REACTORS
330
C
102
}
330
C
100
AcDbDictionary
281
     1
  3
2dWireframe
350
2F
  3
3D Hidden
350
31
  3
3dWireframe
350
30
  3
Basic
350
32
  3
Brighten
350
36
  3
ColorChange
350
3A
  3
Conceptual
350
34
  3
Dim
350
35
  3
Facepattern
350
39
  3
Flat
350
2B
  3
FlatWithEdges
350
2C
  3
Gouraud
350
2D
  3
GouraudWithEdges
350
2E
  3
Linepattern
350
38
  3
Realistic
350
33
  3
Thicken
350
37
  0
LAYOUT
  5
1E
102
{ACAD_REACTORS
330
1A
102
}
330
1A
100
AcDbPlotSettings
  1

  2
none_device
  4

  6

 40
0.0
 41
0.0
 42
0.0
 43
0.0
 44
0.0
 45
0.0
 46
0.0
 47
0.0
 48
0.0
 49
0.0
140
0.0
141
0.0
142
1.0
143
1.0
 70
   688
 72
     0
 73
     0
 74
     5
  7

 75
    16
 76
     0
 77
     2
 78
   300
147
1.0
148
0.0
149
0.0
100
AcDbLayout
  1
Layout1
 70
     1
 71
     1
 10
0.0
 20
0.0
 11
12.0
 21
9.0
 12
0.0
 22
0.0
 32
0.0
 14
1.000000000000000E+20
 24
1.000000000000000E+20
 34
1.000000000000000E+20
 15
-1.000000000000000E+20
 25
-1.000000000000000E+20
 35
-1.000000000000000E+20
146
0.0
 13
0.0
 23
0.0
 33
0.0
 16
1.0
 26
0.0
 36
0.0
 17
0.0
 27
1.0
 37
0.0
 76
     0
330
1B
  0
LAYOUT
  5
26
102
{ACAD_REACTORS
330
1A
102
}
330
1A
100
AcDbPlotSettings
  1

  2
none_device
  4

  6

 40
0.0
 41
0.0
 42
0.0
 43
0.0
 44
0.0
 45
0.0
 46
0.0
 47
0.0
 48
0.0
 49
0.0
140
0.0
141
0.0
142
1.0
143
1.0
 70
   688
 72
     0
 73
     0
 74
     5
  7

 75
    16
 76
     0
 77
     2
 78
   300
147
1.0
148
0.0
149
0.0
100
AcDbLayout
  1
Layout2
 70
     1
 71
     2
 10
0.0
 20
0.0
 11
0.0
 21
0.0
 12
0.0
 22
0.0
 32
0.0
 14
0.0
 24
0.0
 34
0.0
 15
0.0
 25
0.0
 35
0.0
146
0.0
 13
0.0
 23
0.0
 33
0.0
 16
1.0
 26
0.0
 36
0.0
 17
0.0
 27
1.0
 37
0.0
 76
     0
330
23
  0
LAYOUT
  5
22
102
{ACAD_REACTORS
330
1A
102
}
330
1A
100
AcDbPlotSettings
  1

  2
none_device
  4

  6

 40
0.0
 41
0.0
 42
0.0
 43
0.0
 44
0.0
 45
0.0
 46
0.0
 47
0.0
 48
0.0
 49
0.0
140
0.0
141
0.0
142
1.0
143
1.0
 70
  1712
 72
     0
 73
     0
 74
     0
  7

 75
     0
 76
     0
 77
     2
 78
   300
147
1.0
148
0.0
149
0.0
100
AcDbLayout
  1
Model
 70
     1
 71
     0
 10
0.0
 20
0.0
 11
12.0
 21
9.0
 12
0.0
 22
0.0
 32
0.0
 14
1.000000000000000E+20
 24
1.000000000000000E+20
 34
1.000000000000000E+20
 15
-1.000000000000000E+20
 25
-1.000000000000000E+20
 35
-1.000000000000000E+20
146
0.0
 13
0.0
 23
0.0
 33
0.0
 16
1.0
 26
0.0
 36
0.0
 17
0.0
 27
1.0
 37
0.0
 76
     0
330
1F
331
29
  0
MATERIAL
  5
3D
102
{ACAD_REACTORS
330
3B
102
}
330
3B
100
AcDbMaterial
  1
ByBlock
 72
     1
 94
      127
  0
MATERIAL
  5
3C
102
{ACAD_REACTORS
330
3B
102
}
330
3B
100
AcDbMaterial
  1
ByLayer
 72
     1
 94
      127
  0
MATERIAL
  5
3E
102
{ACAD_REACTORS
330
3B
102
}
330
3B
100
AcDbMaterial
  1
Global
 72
     1
 94
      127
  0
MLINESTYLE
  5
18
102
{ACAD_REACTORS
330
17
102
}
330
17
100
AcDbMlineStyle
  2
Standard
 70
     0
  3

 62
   256
 51
90.0
 52
90.0
 71
     2
 49
0.5
 62
   256
  6
BYLAYER
 49
-0.5
 62
   256
  6
BYLAYER
  0
ACDBPLACEHOLDER
  5
F
102
{ACAD_REACTORS
330
E
102
}
330
E
  0
VISUALSTYLE
  5
2F
102
{ACAD_REACTORS
330
2A
102
}
330
2A
100
AcDbVisualStyle
  2
2dWireframe
 70
     4
177
     2
291
     0
 71
     0
176
     1
 72
     2
176
     1
 73
     0
176
     1
 90
        0
176
     1
 40
-0.6
176
     1
 41
-30.0
176
     1
 62
     5
 63
     7
421
 16777215
176
     1
 74
     1
176
     1
 91
        4
176
     1
 64
     7
176
     1
 65
   257
176
     1
 75
     1
176
     1
175
     1
176
     1
 42
1.0
176
     1
 92
        0
176
     1
 66
   257
176
     1
 43
1.0
176
     1
 76
     1
176
     1
 77
     6
176
     1
 78
     2
176
     1
 67
     7
176
     1
 79
     5
176
     1
170
     0
176
     1
171
     0
176
     1
290
     0
176
     1
 93
        1
176
     1
 44
0.0
176
     1
173
     0
176
     1
  0
VISUALSTYLE
  5
31
102
{ACAD_REACTORS
330
2A
102
}
330
2A
100
AcDbVisualStyle
  2
3D Hidden
 70
     6
177
     2
291
     0
 71
     1
176
     1
 72
     2
176
     1
 73
     2
176
     1
 90
        0
176
     1
 40
-0.6
176
     1
 41
-30.0
176
     1
 62
     5
 63
     7
421
 16777215
176
     1
 74
     2
176
     1
 91
        2
176
     1
 64
     7
176
     1
 65
   257
176
     1
 75
     2
176
     1
175
     1
176
     1
 42
40.0
176
     1
 92
        0
176
     1
 66
   257
176
     1
 43
1.0
176
     1
 76
     1
176
     1
 77
     6
176
     1
 78
     2
176
     1
 67
     7
176
     1
 79
     3
176
     1
170
     0
176
     1
171
     0
176
     1
290
     0
176
     1
 93
        1
176
     1
 44
0.0
176
     1
173
     0
176
     1
  0
VISUALSTYLE
  5
30
102
{ACAD_REACTORS
330
2A
102
}
330
2A
100
AcDbVisualStyle
  2
3dWireframe
 70
     5
177
     2
291
     0
 71
     0
176
     1
 72
     2
176
     1
 73
     0
176
     1
 90
        0
176
     1
 40
-0.6
176
     1
 41
-30.0
176
     1
 62
     5
 63
     7
421
 16777215
176
     1
 74
     1
176
     1
 91
        4
176
     1
 64
     7
176
     1
 65
   257
176
     1
 75
     1
176
     1
175
     1
176
     1
 42
1.0
176
     1
 92
        0
176
     1
 66
   257
176
     1
 43
1.0
176
     1
 76
     1
176
     1
 77
     6
176
     1
 78
     2
176
     1
 67
     7
176
     1
 79
     5
176
     1
170
     0
176
     1
171
     0
176
     1
290
     0
176
     1
 93
        1
176
     1
 44
0.0
176
     1
173
     0
176
     1
  0
VISUALSTYLE
  5
32
102
{ACAD_REACTORS
330
2A
102
}
330
2A
100
AcDbVisualStyle
  2
Basic
 70
     7
177
     2
291
     1
 71
     1
176
     1
 72
     0
176
     1
 73
     1
176
     1
 90
        0
176
     1
 40
-0.6
176
     1
 41
-30.0
176
     1
 62
     5
 63
     7
421
 16777215
176
     1
 74
     0
176
     1
 91
        4
176
     1
 64
     7
176
     1
 65
   257
176
     1
 75
     1
176
     1
175
     1
176
     1
 42
1.0
176
     1
 92
        8
176
     1
 66
     7
176
     1
 43
1.0
176
     1
 76
     1
176
     1
 77
     6
176
     1
 78
     2
176
     1
 67
     7
176
     1
 79
     5
176
     1
170
     0
176
     1
171
     0
176
     1
290
     0
176
     1
 93
        1
176
     1
 44
0.0
176
     1
173
     0
176
     1
  0
VISUALSTYLE
  5
36
102
{ACAD_REACTORS
330
2A
102
}
330
2A
100
AcDbVisualStyle
  2
Brighten
 70
    12
177
     2
291
     1
 71
     2
176
     1
 72
     2
176
     1
 73
     0
176
     1
 90
        0
176
     1
 40
-0.6
176
     1
 41
-30.0
176
     1
 62
     5
 63
     7
421
 16777215
176
     1
 74
     1
176
     1
 91
        4
176
     1
 64
     7
176
     1
 65
   257
176
     1
 75
     1
176
     1
175
     1
176
     1
 42
1.0
176
     1
 92
        8
176
     1
 66
     7
176
     1
 43
1.0
176
     1
 76
     1
176
     1
 77
     6
176
     1
 78
     2
176
     1
 67
     7
176
     1
 79
     5
176
     1
170
     0
176
     1
171
     0
176
     1
290
     0
176
     1
 93
        1
176
     1
 44
50.0
176
     1
173
     0
176
     1
  0
VISUALSTYLE
  5
3A
102
{ACAD_REACTORS
330
2A
102
}
330
2A
100
AcDbVisualStyle
  2
ColorChange
 70
    16
177
     2
291
     1
 71
     2
176
     1
 72
     2
176
     1
 73
     3
176
     1
 90
        0
176
     1
 40
-0.6
176
     1
 41
-30.0
176
     1
 62
     5
 63
     8
421
  8421504
176
     1
 74
     1
176
     1
 91
        4
176
     1
 64
     7
176
     1
 65
   257
176
     1
 75
     1
176
     1
175
     1
176
     1
 42
1.0
176
     1
 92
        8
176
     1
 66
     8
424
  8421504
176
     1
 43
1.0
176
     1
 76
     1
176
     1
 77
     6
176
     1
 78
     2
176
     1
 67
     7
176
     1
 79
     5
176
     1
170
     0
176
     1
171
     0
176
     1
290
     0
176
     1
 93
        1
176
     1
 44
0.0
176
     1
173
     0
176
     1
  0
VISUALSTYLE
  5
34
102
{ACAD_REACTORS
330
2A
102
}
330
2A
100
AcDbVisualStyle
  2
Conceptual
 70
     9
177
     2
291
     0
 71
     3
176
     1
 72
     2
176
     1
 73
     0
176
     1
 90
        0
176
     1
 40
-0.6
176
     1
 41
-30.0
176
     1
 62
     5
 63
     7
421
 16777215
176
     1
 74
     2
176
     1
 91
        2
176
     1
 64
     7
176
     1
 65
   257
176
     1
 75
     1
176
     1
175
     1
176
     1
 42
40.0
176
     1
 92
        8
176
     1
 66
     7
176
     1
 43
1.0
176
     1
 76
     1
176
     1
 77
     6
176
     1
 78
     2
176
     1
 67
     7
176
     1
 79
     3
176
     1
170
     0
176
     1
171
     0
176
     1
290
     0
176
     1
 93
        1
176
     1
 44
0.0
176
     1
173
     0
176
     1
  0
VISUALSTYLE
  5
35
102
{ACAD_REACTORS
330
2A
102
}
330
2A
100
AcDbVisualStyle
  2
Dim
 70
    11
177
     2
291
     1
 71
     2
176
     1
 72
     2
176
     1
 73
     0
176
     1
 90
        0
176
     1
 40
-0.6
176
     1
 41
-30.0
176
     1
 62
     5
 63
     7
421
 16777215
176
     1
 74
     1
176
     1
 91
        4
176
     1
 64
     7
176
     1
 65
   257
176
     1
 75
     1
176
     1
175
     1
176
     1
 42
1.0
176
     1
 92
        8
176
     1
 66
     7
176
     1
 43
1.0
176
     1
 76
     1
176
     1
 77
     6
176
     1
 78
     2
176
     1
 67
     7
176
     1
 79
     5
176
     1
170
     0
176
     1
171
     0
176
     1
290
     0
176
     1
 93
        1
176
     1
 44
-50.0
176
     1
173
     0
176
     1
  0
VISUALSTYLE
  5
39
102
{ACAD_REACTORS
330
2A
102
}
330
2A
100
AcDbVisualStyle
  2
Facepattern
 70
    15
177
     2
291
     1
 71
     2
176
     1
 72
     2
176
     1
 73
     0
176
     1
 90
        0
176
     1
 40
-0.6
176
     1
 41
-30.0
176
     1
 62
     5
 63
     7
421
 16777215
176
     1
 74
     1
176
     1
 91
        4
176
     1
 64
     7
176
     1
 65
   257
176
     1
 75
     1
176
     1
175
     1
176
     1
 42
1.0
176
     1
 92
        8
176
     1
 66
     7
176
     1
 43
1.0
176
     1
 76
     1
176
     1
 77
     6
176
     1
 78
     2
176
     1
 67
     7
176
     1
 79
     5
176
     1
170
     0
176
     1
171
     0
176
     1
290
     0
176
     1
 93
        1
176
     1
 44
0.0
176
     1
173
     0
176
     1
  0
VISUALSTYLE
  5
2B
102
{ACAD_REACTORS
330
2A
102
}
330
2A
100
AcDbVisualStyle
  2
Flat
 70
     0
177
     2
291
     1
 71
     2
176
     1
 72
     1
176
     1
 73
     1
176
     1
 90
        2
176
     1
 40
-0.6
176
     1
 41
30.0
176
     1
 62
     5
 63
     7
421
 16777215
176
     1
 74
     0
176
     1
 91
        4
176
     1
 64
     7
176
     1
 65
   257
176
     1
 75
     1
176
     1
175
     1
176
     1
 42
1.0
176
     1
 92
        8
176
     1
 66
     7
176
     1
 43
1.0
176
     1
 76
     1
176
     1
 77
     6
176
     1
 78
     2
176
     1
 67
     7
176
     1
 79
     5
176
     1
170
     0
176
     1
171
     0
176
     1
290
     0
176
     1
 93
       13
176
     1
 44
0.0
176
     1
173
     0
176
     1
  0
VISUALSTYLE
  5
2C
102
{ACAD_REACTORS
330
2A
102
}
330
2A
100
AcDbVisualStyle
  2
FlatWithEdges
 70
     1
177
     2
291
     1
 71
     2
176
     1
 72
     1
176
     1
 73
     1
176
     1
 90
        2
176
     1
 40
-0.6
176
     1
 41
30.0
176
     1
 62
     5
 63
     7
421
 16777215
176
     1
 74
     1
176
     1
 91
        4
176
     1
 64
     7
176
     1
 65
   257
176
     1
 75
     1
176
     1
175
     1
176
     1
 42
1.0
176
     1
 92
        0
176
     1
 66
   257
176
     1
 43
1.0
176
     1
 76
     1
176
     1
 77
     6
176
     1
 78
     2
176
     1
 67
     7
176
     1
 79
     5
176
     1
170
     0
176
     1
171
     0
176
     1
290
     0
176
     1
 93
       13
176
     1
 44
0.0
176
     1
173
     0
176
     1
  0
VISUALSTYLE
  5
2D
102
{ACAD_REACTORS
330
2A
102
}
330
2A
100
AcDbVisualStyle
  2
Gouraud
 70
     2
177
     2
291
     1
 71
     2
176
     1
 72
     2
176
     1
 73
     1
176
     1
 90
        2
176
     1
 40
-0.6
176
     1
 41
30.0
176
     1
 62
     5
 63
     7
421
 16777215
176
     1
 74
     0
176
     1
 91
        4
176
     1
 64
     7
176
     1
 65
   257
176
     1
 75
     1
176
     1
175
     1
176
     1
 42
1.0
176
     1
 92
        0
176
     1
 66
     7
176
     1
 43
1.0
176
     1
 76
     1
176
     1
 77
     6
176
     1
 78
     2
176
     1
 67
     7
176
     1
 79
     5
176
     1
170
     0
176
     1
171
     0
176
     1
290
     0
176
     1
 93
       13
176
     1
 44
0.0
176
     1
173
     0
176
     1
  0
VISUALSTYLE
  5
2E
102
{ACAD_REACTORS
330
2A
102
}
330
2A
100
AcDbVisualStyle
  2
GouraudWithEdges
 70
     3
177
     2
291
     1
 71
     2
176
     1
 72
     2
176
     1
 73
     1
176
     1
 90
        2
176
     1
 40
-0.6
176
     1
 41
30.0
176
     1
 62
     5
 63
     7
421
 16777215
176
     1
 74
     1
176
     1
 91
        4
176
     1
 64
     7
176
     1
 65
   257
176
     1
 75
     1
176
     1
175
     1
176
     1
 42
1.0
176
     1
 92
        0
176
     1
 66
   257
176
     1
 43
1.0
176
     1
 76
     1
176
     1
 77
     6
176
     1
 78
     2
176
     1
 67
     7
176
     1
 79
     5
176
     1
170
     0
176
     1
171
     0
176
     1
290
     0
176
     1
 93
       13
176
     1
 44
0.0
176
     1
173
     0
176
     1
  0
VISUALSTYLE
  5
38
102
{ACAD_REACTORS
330
2A
102
}
330
2A
100
AcDbVisualStyle
  2
Linepattern
 70
    14
177
     2
291
     1
 71
     2
176
     1
 72
     2
176
     1
 73
     0
176
     1
 90
        0
176
     1
 40
-0.6
176
     1
 41
-30.0
176
     1
 62
     5
 63
     7
421
 16777215
176
     1
 74
     1
176
     1
 91
        4
176
     1
 64
     7
176
     1
 65
   257
176
     1
 75
     7
176
     1
175
     7
176
     1
 42
1.0
176
     1
 92
        8
176
     1
 66
     7
176
     1
 43
1.0
176
     1
 76
     1
176
     1
 77
     6
176
     1
 78
     2
176
     1
 67
     7
176
     1
 79
     5
176
     1
170
     0
176
     1
171
     0
176
     1
290
     0
176
     1
 93
        1
176
     1
 44
0.0
176
     1
173
     0
176
     1
  0
VISUALSTYLE
  5
33
102
{ACAD_REACTORS
330
2A
102
}
330
2A
100
AcDbVisualStyle
  2
Realistic
 70
     8
177
     2
291
     0
 71
     2
176
     1
 72
     2
176
     1
 73
     0
176
     1
 90
        0
176
     1
 40
-0.6
176
     1
 41
-30.0
176
     1
 62
     5
 63
     7
421
 16777215
176
     1
 74
     1
176
     1
 91
        0
176
     1
 64
     7
176
     1
 65
   257
176
     1
 75
     1
176
     1
175
     1
176
     1
 42
1.0
176
     1
 92
        8
176
     1
 66
     8
424
  7895160
176
     1
 43
1.0
176
     1
 76
     1
176
     1
 77
     6
176
     1
 78
     2
176
     1
 67
     7
176
     1
 79
     5
176
     1
170
     0
176
     1
171
     0
176
     1
290
     0
176
     1
 93
       13
176
     1
 44
0.0
176
     1
173
     0
176
     1
  0
VISUALSTYLE
  5
37
102
{ACAD_REACTORS
330
2A
102
}
330
2A
100
AcDbVisualStyle
  2
Thicken
 70
    13
177
     2
291
     1
 71
     2
176
     1
 72
     2
176
     1
 73
     0
176
     1
 90
        0
176
     1
 40
-0.6
176
     1
 41
-30.0
176
     1
 62
     5
 63
     7
421
 16777215
176
     1
 74
     1
176
     1
 91
        4
176
     1
 64
     7
176
     1
 65
   257
176
     1
 75
     1
176
     1
175
     1
176
     1
 42
1.0
176
     1
 92
       12
176
     1
 66
     7
176
     1
 43
1.0
176
     1
 76
     1
176
     1
 77
     6
176
     1
 78
     2
176
     1
 67
     7
176
     1
 79
     5
176
     1
170
     0
176
     1
171
     0
176
     1
290
     0
176
     1
 93
        1
176
     1
 44
0.0
176
     1
173
     0
176
     1
  0
ENDSEC
  0
EOF
