  0
SECTION
  2
HEADER
  9
$ACADVER
  1
AC1024
  9
$ACADMAINTVER
 70
     6
  9
$DWGCODEPAGE
  3
UNDEFINED
  9
$INSBASE
 10
0.0
 20
0.0
 30
0.0
  9
$EXTMIN
 10
1.000000000000000E+20
 20
1.000000000000000E+20
 30
1.000000000000000E+20
  9
$EXTMAX
 10
-1.000000000000000E+20
 20
-1.000000000000000E+20
 30
-1.000000000000000E+20
  9
$LIMMIN
 10
0.0
 20
0.0
  9
$LIMMAX
 10
12.0
 20
9.0
  9
$ORTHOMODE
 70
     0
  9
$REGENMODE
 70
     1
  9
$FILLMODE
 70
     1
  9
$QTEXTMODE
 70
     0
  9
$MIRRTEXT
 70
     1
  9
$LTSCALE
 40
1.0
  9
$ATTMODE
 70
     1
  9
$TEXTSIZE
 40
0.2
  9
$TRACEWID
 40
0.05
  9
$TEXTSTYLE
  7
Standard
  9
$CLAYER
  8
0
  9
$CELTYPE
  6
ByLayer
  9
$CECOLOR
 62
   256
  9
$CELTSCALE
 40
1.0
  9
$DISPSILH
 70
     0
  9
$DIMSCALE
 40
1.0
  9
$DIMASZ
 40
0.18
  9
$DIMEXO
 40
0.0625
  9
$DIMDLI
 40
0.38
  9
$DIMRND
 40
0.0
  9
$DIMDLE
 40
0.0
  9
$DIMEXE
 40
0.18
  9
$DIMTP
 40
0.0
  9
$DIMTM
 40
0.0
  9
$DIMTXT
 40
0.18
  9
$DIMCEN
 40
0.09
  9
$DIMTSZ
 40
0.0
  9
$DIMTOL
 70
     0
  9
$DIMLIM
 70
     0
  9
$DIMTIH
 70
     1
  9
$DIMTOH
 70
     1
  9
$DIMSE1
 70
     0
  9
$DIMSE2
 70
     0
  9
$DIMTAD
 70
     0
  9
$DIMZIN
 70
     0
  9
$DIMBLK
  1

  9
$DIMASO
 70
     1
  9
$DIMSHO
 70
     1
  9
$DIMPOST
  1

  9
$DIMAPOST
  1

  9
$DIMALT
 70
     0
  9
$DIMALTD
 70
     2
  9
$DIMALTF
 40
25.4
  9
$DIMLFAC
 40
1.0
  9
$DIMTOFL
 70
     0
  9
$DIMTVP
 40
0.0
  9
$DIMTIX
 70
     0
  9
$DIMSOXD
 70
     0
  9
$DIMSAH
 70
     0
  9
$DIMBLK1
  1

  9
$DIMBLK2
  1

  9
$DIMSTYLE
  2
Standard
  9
$DIMCLRD
 70
     0
  9
$DIMCLRE
 70
     0
  9
$DIMCLRT
 70
     0
  9
$DIMTFAC
 40
1.0
  9
$DIMGAP
 40
0.09
  9
$DIMJUST
 70
     0
  9
$DIMSD1
 70
     0
  9
$DIMSD2
 70
     0
  9
$DIMTOLJ
 70
     1
  9
$DIMTZIN
 70
     0
  9
$DIMALTZ
 70
     0
  9
$DIMALTTZ
 70
     0
  9
$DIMUPT
 70
     0
  9
$DIMDEC
 70
     4
  9
$DIMTDEC
 70
     4
  9
$DIMALTU
 70
     2
  9
$DIMALTTD
 70
     2
  9
$DIMTXSTY
  7
Standard
  9
$DIMAUNIT
 70
     0
  9
$DIMADEC
 70
     0
  9
$DIMALTRND
 40
0.0
  9
$DIMAZIN
 70
     0
  9
$DIMDSEP
 70
    46
  9
$DIMATFIT
 70
     3
  9
$DIMFRAC
 70
     0
  9
$DIMLDRBLK
  1

  9
$DIMLUNIT
 70
     2
  9
$DIMLWD
 70
    -2
  9
$DIMLWE
 70
    -2
  9
$DIMTMOVE
 70
     0
  9
$DIMFXL
 40
1.0
  9
$DIMFXLON
 70
     0
  9
$DIMJOGANG
 40
0.7853981633974483
  9
$DIMTFILL
 70
     0
  9
$DIMTFILLCLR
 70
     0
  9
$DIMARCSYM
 70
     0
  9
$DIMLTYPE
  6

  9
$DIMLTEX1
  6

  9
$DIMLTEX2
  6

  9
$DIMTXTDIRECTION
 70
     0
  9
$LUNITS
 70
     2
  9
$LUPREC
 70
     4
  9
$SKETCHINC
 40
0.1
  9
$FILLETRAD
 40
0.5
  9
$AUNITS
 70
     0
  9
$AUPREC
 70
     0
  9
$MENU
  1
.
  9
$ELEVATION
 40
0.0
  9
$PELEVATION
 40
0.0
  9
$THICKNESS
 40
0.0
  9
$LIMCHECK
 70
     0
  9
$CHAMFERA
 40
0.5
  9
$CHAMFERB
 40
0.5
  9
$CHAMFERC
 40
1.0
  9
$CHAMFERD
 40
0.0
  9
$SKPOLY
 70
     0
  9
$TDCREATE
 40
2457917.61869213
  9
$TDUCREATE
 40
2457917.24369213
  9
$TDUPDATE
 40
2457917.61869213
  9
$TDUUPDATE
 40
2457917.24369213
  9
$TDINDWG
 40
0.0000000116
  9
$TDUSRTIMER
 40
0.0000000116
  9
$USRTIMER
 70
     1
  9
$ANGBASE
 50
0.0
  9
$ANGDIR
 70
     0
  9
$PDMODE
 70
     0
  9
$PDSIZE
 40
0.0
  9
$PLINEWID
 40
0.0
  9
$SPLFRAME
 70
     0
  9
$SPLINETYPE
 70
     6
  9
$SPLINESEGS
 70
     8
  9
$HANDSEED
  5
D3
  9
$SURFTAB1
 70
     6
  9
$SURFTAB2
 70
     6
  9
$SURFTYPE
 70
     6
  9
$SURFU
 70
     6
  9
$SURFV
 70
     6
  9
$UCSBASE
  2

  9
$UCSNAME
  2

  9
$UCSORG
 10
0.0
 20
0.0
 30
0.0
  9
$UCSXDIR
 10
1.0
 20
0.0
 30
0.0
  9
$UCSYDIR
 10
0.0
 20
1.0
 30
0.0
  9
$UCSORTHOREF
  2

  9
$UCSORTHOVIEW
 70
     0
  9
$UCSORGTOP
 10
0.0
 20
0.0
 30
0.0
  9
$UCSORGBOTTOM
 10
0.0
 20
0.0
 30
0.0
  9
$UCSORGLEFT
 10
0.0
 20
0.0
 30
0.0
  9
$UCSORGRIGHT
 10
0.0
 20
0.0
 30
0.0
  9
$UCSORGFRONT
 10
0.0
 20
0.0
 30
0.0
  9
$UCSORGBACK
 10
0.0
 20
0.0
 30
0.0
  9
$PUCSBASE
  2

  9
$PUCSNAME
  2

  9
$PUCSORG
 10
0.0
 20
0.0
 30
0.0
  9
$PUCSXDIR
 10
1.0
 20
0.0
 30
0.0
  9
$PUCSYDIR
 10
0.0
 20
1.0
 30
0.0
  9
$PUCSORTHOREF
  2

  9
$PUCSORTHOVIEW
 70
     0
  9
$PUCSORGTOP
 10
0.0
 20
0.0
 30
0.0
  9
$PUCSORGBOTTOM
 10
0.0
 20
0.0
 30
0.0
  9
$PUCSORGLEFT
 10
0.0
 20
0.0
 30
0.0
  9
$PUCSORGRIGHT
 10
0.0
 20
0.0
 30
0.0
  9
$PUCSORGFRONT
 10
0.0
 20
0.0
 30
0.0
  9
$PUCSORGBACK
 10
0.0
 20
0.0
 30
0.0
  9
$USERI1
 70
     0
  9
$USERI2
 70
     0
  9
$USERI3
 70
     0
  9
$USERI4
 70
     0
  9
$USERI5
 70
     0
  9
$USERR1
 40
0.0
  9
$USERR2
 40
0.0
  9
$USERR3
 40
0.0
  9
$USERR4
 40
0.0
  9
$USERR5
 40
0.0
  9
$WORLDVIEW
 70
     1
  9
$SHADEDGE
 70
     3
  9
$SHADEDIF
 70
    70
  9
$TILEMODE
 70
     1
  9
$MAXACTVP
 70
    64
  9
$PINSBASE
 10
0.0
 20
0.0
 30
0.0
  9
$PLIMCHECK
 70
     0
  9
$PEXTMIN
 10
1.000000000000000E+20
 20
1.000000000000000E+20
 30
1.000000000000000E+20
  9
$PEXTMAX
 10
-1.000000000000000E+20
 20
-1.000000000000000E+20
 30
-1.000000000000000E+20
  9
$PLIMMIN
 10
0.0
 20
0.0
  9
$PLIMMAX
 10
12.0
 20
9.0
  9
$UNITMODE
 70
     0
  9
$VISRETAIN
 70
     1
  9
$PLINEGEN
 70
     0
  9
$PSLTSCALE
 70
     1
  9
$TREEDEPTH
 70
  3020
  9
$CMLSTYLE
  2
Standard
  9
$CMLJUST
 70
     0
  9
$CMLSCALE
 40
1.0
  9
$PROXYGRAPHICS
 70
     1
  9
$MEASUREMENT
 70
     0
  9
$CELWEIGHT
370
    -1
  9
$ENDCAPS
280
     0
  9
$JOINSTYLE
280
     0
  9
$LWDISPLAY
290
     1
  9
$INSUNITS
 70
     1
  9
$HYPERLINKBASE
  1

  9
$STYLESHEET
  1

  9
$XEDIT
290
     1
  9
$CEPSNTYPE
380
     0
  9
$PSTYLEMODE
290
     1
  9
$FINGERPRINTGUID
  2
{3A443753-21CD-485D-5B5C-0976BCF2B0C5}
  9
$VERSIONGUID
  2
{FAEB1C32-E019-11D5-929B-00C0DF256EC4}
  9
$EXTNAMES
290
     1
  9
$PSVPSCALE
 40
0.0
  9
$OLESTARTUP
290
     0
  9
$SORTENTS
280
   127
  9
$INDEXCTL
280
     0
  9
$HIDETEXT
280
     1
  9
$XCLIPFRAME
280
     2
  9
$HALOGAP
280
     0
  9
$OBSCOLOR
 70
   257
  9
$OBSLTYPE
280
     0
  9
$INTERSECTIONDISPLAY
280
     0
  9
$INTERSECTIONCOLOR
 70
   257
  9
$DIMASSOC
280
     2
  9
$PROJECTNAME
  1

  9
$CAMERADISPLAY
290
     0
  9
$LENSLENGTH
 40
50.0
  9
$CAMERAHEIGHT
 40
0.0
  9
$STEPSPERSEC
 40
2.0
  9
$STEPSIZE
 40
6.0
  9
$3DDWFPREC
 40
2.0
  9
$PSOLWIDTH
 40
0.25
  9
$PSOLHEIGHT
 40
4.0
  9
$LOFTANG1
 40
1.570796326794897
  9
$LOFTANG2
 40
1.570796326794897
  9
$LOFTMAG1
 40
0.0
  9
$LOFTMAG2
 40
0.0
  9
$LOFTPARAM
 70
     7
  9
$LOFTNORMALS
280
     1
  9
$LATITUDE
 40
37.795
  9
$LONGITUDE
 40
-122.394
  9
$NORTHDIRECTION
 40
0.0
  9
$TIMEZONE
 70
 -8000
  9
$LIGHTGLYPHDISPLAY
280
     1
  9
$TILEMODELIGHTSYNCH
280
     1
  9
$CMATERIAL
347
3C
  9
$SOLIDHIST
280
     1
  9
$SHOWHIST
280
     1
  9
$DWFFRAME
280
     2
  9
$DGNFRAME
280
     2
  9
$REALWORLDSCALE
290
     1
  9
$INTERFERECOLOR
 62
   256
  9
$CSHADOW
280
     0
  9
$SHADOWPLANELOCATION
 40
0.0
  0
ENDSEC
  0
SECTION
  2
CLASSES
  0
CLASS
  1
ACDBDICTIONARYWDFLT
  2
AcDbDictionaryWithDefault
  3
ObjectDBX Classes
 90
        0
 91
        4
280
     0
281
     0
  0
CLASS
  1
VISUALSTYLE
  2
AcDbVisualStyle
  3
ObjectDBX Classes
 90
     4095
 91
        4
280
     0
281
     0
  0
CLASS
  1
MATERIAL
  2
AcDbMaterial
  3
ObjectDBX Classes
 90
     1153
 91
        4
280
     0
281
     0
  0
CLASS
  1
SUN
  2
AcDbSun
  3
SCENEOE
 90
     1024
 91
        4
280
     0
281
     0
  0
ENDSEC
  0
SECTION
  2
TABLES
  0
TABLE
  2
VPORT
  5
8
330
0
100
AcDbSymbolTable
 70
     1
  0
VPORT
  5
29
330
8
100
AcDbSymbolTableRecord
100
AcDbViewportTableRecord
  2
*Active
 70
     0
 10
0.0
 20
0.0
 11
1.0
 21
1.0
 12
0.0
 22
0.0
 13
0.0
 23
0.0
 14
0.5
 24
0.5
 15
0.5
 25
0.5
 16
0.0
 26
0.0
 36
1.0
 17
91.00082462281999
 27
-128.4993055234307
 37
0.0
 40
256.9986110468615
 41
0.7081814508812795
 42
50.0
 43
0.0
 44
0.0
 50
0.0
 51
0.0
 71
     0
 72
   100
 73
     1
 74
     3
 75
     0
 76
     0
 77
     0
 78
     0
281
     0
 65
     1
110
0.0
120
0.0
130
0.0
111
1.0
121
0.0
131
0.0
112
0.0
122
1.0
132
0.0
 79
     0
146
0.0
 60
     3
 61
     5
292
     1
282
     1
141
0.0
142
0.0
 63
   250
361
3F
  0
ENDTAB
  0
TABLE
  2
LTYPE
  5
5
330
0
100
AcDbSymbolTable
 70
     1
  0
LTYPE
  5
14
330
5
100
AcDbSymbolTableRecord
100
AcDbLinetypeTableRecord
  2
ByBlock
 70
     0
  3

 72
    65
 73
     0
 40
0.0
  0
LTYPE
  5
15
330
5
100
AcDbSymbolTableRecord
100
AcDbLinetypeTableRecord
  2
ByLayer
 70
     0
  3

 72
    65
 73
     0
 40
0.0
  0
LTYPE
  5
16
330
5
100
AcDbSymbolTableRecord
100
AcDbLinetypeTableRecord
  2
Continuous
 70
     0
  3
Solid line
 72
    65
 73
     0
 40
0.0
  0
ENDTAB
  0
TABLE
  2
LAYER
  5
2
330
0
100
AcDbSymbolTable
 70
     2
  0
LAYER
  5
10
330
2
100
AcDbSymbolTableRecord
100
AcDbLayerTableRecord
  2
0
 70
     0
 62
     7
  6
Continuous
370
    -3
390
F
347
3E
  0
LAYER
  5
40
330
2
100
AcDbSymbolTableRecord
100
AcDbLayerTableRecord
  2
_U+30EC_U+30A4_U+30E4_U+30FC 1
 70
     0
 62
     7
  6
Continuous
370
    -3
390
F
347
3E
  0
ENDTAB
  0
TABLE
  2
STYLE
  5
3
330
0
100
AcDbSymbolTable
 70
     1
  0
STYLE
  5
11
330
3
100
AcDbSymbolTableRecord
100
AcDbTextStyleTableRecord
  2
Standard
 70
     0
 40
0.0
 41
1.0
 50
0.0
 71
     0
 42
0.2
  3
txt
  4

  0
ENDTAB
  0
TABLE
  2
VIEW
  5
6
330
0
100
AcDbSymbolTable
 70
     0
  0
ENDTAB
  0
TABLE
  2
UCS
  5
7
330
0
100
AcDbSymbolTable
 70
     0
  0
ENDTAB
  0
TABLE
  2
APPID
  5
9
330
0
100
AcDbSymbolTable
 70
     1
  0
APPID
  5
12
330
9
100
AcDbSymbolTableRecord
100
AcDbRegAppTableRecord
  2
ACAD
 70
     0
  0
ENDTAB
  0
TABLE
  2
DIMSTYLE
  5
A
330
0
100
AcDbSymbolTable
 70
     1
100
AcDbDimStyleTable
  0
DIMSTYLE
105
27
330
A
100
AcDbSymbolTableRecord
100
AcDbDimStyleTableRecord
  2
Standard
 70
     0
178
     0
340
11
  0
ENDTAB
  0
TABLE
  2
BLOCK_RECORD
  5
1
330
0
100
AcDbSymbolTable
 70
     6
  0
BLOCK_RECORD
  5
1F
330
1
100
AcDbSymbolTableRecord
100
AcDbBlockTableRecord
  2
*Model_Space
340
22
 70
     0
280
     1
281
     0
  0
BLOCK_RECORD
  5
1B
330
1
100
AcDbSymbolTableRecord
100
AcDbBlockTableRecord
  2
*Paper_Space
340
1E
 70
     0
280
     1
281
     0
  0
BLOCK_RECORD
  5
23
330
1
100
AcDbSymbolTableRecord
100
AcDbBlockTableRecord
  2
*Paper_Space0
340
26
 70
     0
280
     1
281
     0
  0
BLOCK_RECORD
  5
85
330
1
100
AcDbSymbolTableRecord
100
AcDbBlockTableRecord
  2
block 2
340
0
102
{BLKREFS
331
86
102
}
 70
     0
280
     1
281
     0
  0
BLOCK_RECORD
  5
99
330
1
100
AcDbSymbolTableRecord
100
AcDbBlockTableRecord
  2
block 3
340
0
102
{BLKREFS
331
9A
102
}
 70
     0
280
     1
281
     0
  0
BLOCK_RECORD
  5
AD
330
1
100
AcDbSymbolTableRecord
100
AcDbBlockTableRecord
  2
block 4
340
0
102
{BLKREFS
331
AE
102
}
 70
     0
280
     1
281
     0
  0
BLOCK_RECORD
  5
B8
330
1
100
AcDbSymbolTableRecord
100
AcDbBlockTableRecord
  2
block 5
340
0
102
{BLKREFS
331
B9
102
}
 70
     0
280
     1
281
     0
  0
BLOCK_RECORD
  5
CB
330
1
100
AcDbSymbolTableRecord
100
AcDbBlockTableRecord
  2
block 6
340
0
102
{BLKREFS
331
CC
102
}
 70
     0
280
     1
281
     0
  0
ENDTAB
  0
ENDSEC
  0
SECTION
  2
BLOCKS
  0
BLOCK
  5
20
330
1F
100
AcDbEntity
  8
0
100
AcDbBlockBegin
  2
*Model_Space
 70
     0
 10
0.0
 20
0.0
 30
0.0
  3
*Model_Space
  1

  0
ENDBLK
  5
21
330
1F
100
AcDbEntity
  8
0
100
AcDbBlockEnd
  0
BLOCK
  5
1C
330
1B
100
AcDbEntity
 67
     1
  8
0
100
AcDbBlockBegin
  2
*Paper_Space
 70
     0
 10
0.0
 20
0.0
 30
0.0
  3
*Paper_Space
  1

  0
ENDBLK
  5
1D
330
1B
100
AcDbEntity
 67
     1
  8
0
100
AcDbBlockEnd
  0
BLOCK
  5
24
330
23
100
AcDbEntity
  8
0
100
AcDbBlockBegin
  2
*Paper_Space0
 70
     0
 10
0.0
 20
0.0
 30
0.0
  3
*Paper_Space0
  1

  0
ENDBLK
  5
25
330
23
100
AcDbEntity
  8
0
100
AcDbBlockEnd
  0
BLOCK
  5
87
330
85
100
AcDbEntity
  8
0
100
AcDbBlockBegin
  2
block 2
 70
     0
 10
0.0
 20
0.0
 30
0.0
  3
block 2
  1

  0
SPLINE
  5
89
330
85
100
AcDbEntity
  8
_U+30EC_U+30A4_U+30E4_U+30FC 1
370
     0
100
AcDbSpline
210
0.0
220
0.0
230
1.0
 70
    11
 71
     3
 72
    26
 73
    22
 74
     0
 42
0.0000000001
 43
0.0000000001
 12
1.0
 22
0.0
 32
0.0
 13
1.0
 23
0.0
 33
0.0
 40
0.0
 40
0.0
 40
0.0
 40
0.0
 40
1.0
 40
1.0
 40
1.0
 40
2.0
 40
2.0
 40
2.0
 40
3.0
 40
3.0
 40
3.0
 40
4.0
 40
4.0
 40
4.0
 40
5.0
 40
5.0
 40
5.0
 40
6.0
 40
6.0
 40
6.0
 40
7.0
 40
7.0
 40
7.0
 40
7.0
 10
83.40352238583316
 20
-118.7114447402874
 30
0.0
 10
83.40352238583316
 20
-118.7114447402874
 30
0.0
 10
83.40352238583316
 20
-117.6071193824906
 30
0.0
 10
83.40352238583316
 20
-117.6071193824906
 30
0.0
 10
83.40352238583316
 20
-117.6071193824906
 30
0.0
 10
83.05108911769209
 20
-117.6071193824906
 30
0.0
 10
83.05108911769209
 20
-117.6071193824906
 30
0.0
 10
83.05108911769209
 20
-117.6071193824906
 30
0.0
 10
83.05108911769209
 20
-117.4591525313991
 30
0.0
 10
83.05108911769209
 20
-117.4591525313991
 30
0.0
 10
83.40593395267283
 20
-117.4443386208125
 30
0.0
 10
83.45554332766042
 20
-117.2813856043602
 30
0.0
 10
83.48723820612472
 20
-117.1671806890242
 30
0.0
 10
83.48723820612472
 20
-117.1671806890242
 30
0.0
 10
83.64330103160654
 20
-117.1671806890242
 30
0.0
 10
83.64330103160654
 20
-117.1671806890242
 30
0.0
 10
83.64330103160654
 20
-117.1671806890242
 30
0.0
 10
83.64330103160654
 20
-118.7114447402874
 30
0.0
 10
83.64330103160654
 20
-118.7114447402874
 30
0.0
 10
83.64330103160654
 20
-118.7114447402874
 30
0.0
 10
83.40352238583316
 20
-118.7114447402874
 30
0.0
 10
83.40352238583316
 20
-118.7114447402874
 30
0.0
  0
HATCH
  5
8A
330
85
100
AcDbEntity
  8
_U+30EC_U+30A4_U+30E4_U+30FC 1
 62
   179
420
  2234388
100
AcDbHatch
 10
0.0
 20
0.0
 30
0.0
210
0.0
220
0.0
230
1.0
  2
SOLID
 70
     1
 71
     0
 91
        1
 92
        1
 93
        1
 72
     4
 94
        3
 73
     0
 74
     1
 95
       26
 96
       22
 40
0.0
 40
0.0
 40
0.0
 40
0.0
 40
1.0
 40
1.0
 40
1.0
 40
2.0
 40
2.0
 40
2.0
 40
3.0
 40
3.0
 40
3.0
 40
4.0
 40
4.0
 40
4.0
 40
5.0
 40
5.0
 40
5.0
 40
6.0
 40
6.0
 40
6.0
 40
7.0
 40
7.0
 40
7.0
 40
7.0
 10
83.40352238583316
 20
-118.7114447402874
 10
83.40352238583316
 20
-118.7114447402874
 10
83.40352238583316
 20
-117.6071193824906
 10
83.40352238583316
 20
-117.6071193824906
 10
83.40352238583316
 20
-117.6071193824906
 10
83.05108911769209
 20
-117.6071193824906
 10
83.05108911769209
 20
-117.6071193824906
 10
83.05108911769209
 20
-117.6071193824906
 10
83.05108911769209
 20
-117.4591525313991
 10
83.05108911769209
 20
-117.4591525313991
 10
83.40593395267283
 20
-117.4443386208125
 10
83.45554332766042
 20
-117.2813856043602
 10
83.48723820612472
 20
-117.1671806890242
 10
83.48723820612472
 20
-117.1671806890242
 10
83.64330103160654
 20
-117.1671806890242
 10
83.64330103160654
 20
-117.1671806890242
 10
83.64330103160654
 20
-117.1671806890242
 10
83.64330103160654
 20
-118.7114447402874
 10
83.64330103160654
 20
-118.7114447402874
 10
83.64330103160654
 20
-118.7114447402874
 10
83.40352238583316
 20
-118.7114447402874
 10
83.40352238583316
 20
-118.7114447402874
 97
        0
 97
        0
 75
     2
 76
     1
 98
        0
  0
SPLINE
  5
8B
330
85
100
AcDbEntity
  8
_U+30EC_U+30A4_U+30E4_U+30FC 1
370
     0
100
AcDbSpline
210
0.0
220
0.0
230
1.0
 70
    11
 71
     3
 72
    62
 73
    58
 74
     0
 42
0.0000000001
 43
0.0000000001
 12
1.0
 22
0.0
 32
0.0
 13
1.0
 23
0.0
 33
0.0
 40
0.0
 40
0.0
 40
0.0
 40
0.0
 40
1.0
 40
1.0
 40
1.0
 40
2.0
 40
2.0
 40
2.0
 40
3.0
 40
3.0
 40
3.0
 40
4.0
 40
4.0
 40
4.0
 40
5.0
 40
5.0
 40
5.0
 40
6.0
 40
6.0
 40
6.0
 40
7.0
 40
7.0
 40
7.0
 40
8.0
 40
8.0
 40
8.0
 40
9.0
 40
9.0
 40
9.0
 40
10.0
 40
10.0
 40
10.0
 40
11.0
 40
11.0
 40
11.0
 40
12.0
 40
12.0
 40
12.0
 40
13.0
 40
13.0
 40
13.0
 40
14.0
 40
14.0
 40
14.0
 40
15.0
 40
15.0
 40
15.0
 40
16.0
 40
16.0
 40
16.0
 40
17.0
 40
17.0
 40
17.0
 40
18.0
 40
18.0
 40
18.0
 40
19.0
 40
19.0
 40
19.0
 40
19.0
 10
84.7043904410635
 20
-118.7620876439206
 30
0.0
 10
84.60276012424862
 20
-118.7620876439206
 30
0.0
 10
84.36987166944573
 20
-118.7410725614606
 30
0.0
 10
84.23654647416656
 20
-118.5550374052571
 30
0.0
 10
84.15730927800581
 20
-118.4427272924379
 30
0.0
 10
84.15283065387499
 20
-118.3435085424627
 30
0.0
 10
84.14835202974416
 20
-118.2587591935256
 30
0.0
 10
84.14835202974416
 20
-118.2587591935256
 30
0.0
 10
84.3833075418382
 20
-118.2587591935256
 30
0.0
 10
84.3833075418382
 20
-118.2587591935256
 30
0.0
 10
84.38571910867788
 20
-118.3328287464585
 30
0.0
 10
84.39708792377921
 20
-118.567439749004
 30
0.0
 10
84.69991181693267
 20
-118.567439749004
 30
0.0
 10
84.84701739415283
 20
-118.567439749004
 30
0.0
 10
85.00962590105662
 20
-118.4978488202019
 30
0.0
 10
85.00962590105662
 20
-118.2694389895299
 30
0.0
 10
85.00962590105662
 20
-118.1529947621284
 30
0.0
 10
84.96897377433068
 20
-118.1044189157864
 30
0.0
 10
84.93521183857523
 20
-118.0727240373221
 30
0.0
 10
84.85597464241448
 20
-117.9986544843892
 30
0.0
 10
84.73160669539696
 20
-117.9859076310938
 30
0.0
 10
84.67269556259919
 20
-117.9859076310938
 30
0.0
 10
84.65236949923622
 20
-117.9859076310938
 30
0.0
 10
84.61412893934994
 20
-117.987974688385
 30
0.0
 10
84.58450111817679
 20
-117.9921088029673
 30
0.0
 10
84.58450111817679
 20
-117.9921088029673
 30
0.0
 10
84.58450111817679
 20
-117.7974609080506
 30
0.0
 10
84.58450111817679
 20
-117.7974609080506
 30
0.0
 10
84.62515324490275
 20
-117.8038343346984
 30
0.0
 10
84.67062850530804
 20
-117.8060736467638
 30
0.0
 10
84.67717418673001
 20
-117.8060736467638
 30
0.0
 10
84.74745413462911
 20
-117.8060736467638
 30
0.0
 10
84.96001652606903
 20
-117.7848863095295
 30
0.0
 10
84.96001652606903
 20
-117.5478637401443
 30
0.0
 10
84.96001652606903
 20
-117.3702690678797
 30
0.0
 10
84.81980113981936
 20
-117.3151475401157
 30
0.0
 10
84.70232338377234
 20
-117.3151475401157
 30
0.0
 10
84.41948104443333
 20
-117.3151475401157
 30
0.0
 10
84.41052379617167
 20
-117.5478637401443
 30
0.0
 10
84.40604517204085
 20
-117.619866235786
 30
0.0
 10
84.40604517204085
 20
-117.619866235786
 30
0.0
 10
84.18900415647012
 20
-117.619866235786
 30
0.0
 10
84.18900415647012
 20
-117.619866235786
 30
0.0
 10
84.19796140473176
 20
-117.4949815244457
 30
0.0
 10
84.22724471635638
 20
-117.1184325879079
 30
0.0
 10
84.71575925616482
 20
-117.1184325879079
 30
0.0
 10
84.9555379019382
 20
-117.1184325879079
 30
0.0
 10
85.21323104423489
 20
-117.2453843565393
 30
0.0
 10
85.21323104423489
 20
-117.5414903134966
 30
0.0
 10
85.21323104423489
 20
-117.7276977244743
 30
0.0
 10
85.1112562178715
 20
-117.8102077613461
 30
0.0
 10
85.0051472769258
 20
-117.8715304609835
 30
0.0
 10
85.07060409114554
 20
-117.8990912248655
 30
0.0
 10
85.26525198606217
 20
-117.9793619496718
 30
0.0
 10
85.26525198606217
 20
-118.2566921362344
 30
0.0
 10
85.26525198606217
 20
-118.595000512886
 30
0.0
 10
85.00066865279497
 20
-118.7620876439206
 30
0.0
 10
84.7043904410635
 20
-118.7620876439206
 30
0.0
  0
HATCH
  5
8C
330
85
100
AcDbEntity
  8
_U+30EC_U+30A4_U+30E4_U+30FC 1
 62
   179
420
  2234388
100
AcDbHatch
 10
0.0
 20
0.0
 30
0.0
210
0.0
220
0.0
230
1.0
  2
SOLID
 70
     1
 71
     0
 91
        1
 92
        1
 93
        1
 72
     4
 94
        3
 73
     0
 74
     1
 95
       62
 96
       58
 40
0.0
 40
0.0
 40
0.0
 40
0.0
 40
1.0
 40
1.0
 40
1.0
 40
2.0
 40
2.0
 40
2.0
 40
3.0
 40
3.0
 40
3.0
 40
4.0
 40
4.0
 40
4.0
 40
5.0
 40
5.0
 40
5.0
 40
6.0
 40
6.0
 40
6.0
 40
7.0
 40
7.0
 40
7.0
 40
8.0
 40
8.0
 40
8.0
 40
9.0
 40
9.0
 40
9.0
 40
10.0
 40
10.0
 40
10.0
 40
11.0
 40
11.0
 40
11.0
 40
12.0
 40
12.0
 40
12.0
 40
13.0
 40
13.0
 40
13.0
 40
14.0
 40
14.0
 40
14.0
 40
15.0
 40
15.0
 40
15.0
 40
16.0
 40
16.0
 40
16.0
 40
17.0
 40
17.0
 40
17.0
 40
18.0
 40
18.0
 40
18.0
 40
19.0
 40
19.0
 40
19.0
 40
19.0
 10
84.7043904410635
 20
-118.7620876439206
 10
84.60276012424862
 20
-118.7620876439206
 10
84.36987166944573
 20
-118.7410725614606
 10
84.23654647416656
 20
-118.5550374052571
 10
84.15730927800581
 20
-118.4427272924379
 10
84.15283065387499
 20
-118.3435085424627
 10
84.14835202974416
 20
-118.2587591935256
 10
84.14835202974416
 20
-118.2587591935256
 10
84.3833075418382
 20
-118.2587591935256
 10
84.3833075418382
 20
-118.2587591935256
 10
84.38571910867788
 20
-118.3328287464585
 10
84.39708792377921
 20
-118.567439749004
 10
84.69991181693267
 20
-118.567439749004
 10
84.84701739415283
 20
-118.567439749004
 10
85.00962590105662
 20
-118.4978488202019
 10
85.00962590105662
 20
-118.2694389895299
 10
85.00962590105662
 20
-118.1529947621284
 10
84.96897377433068
 20
-118.1044189157864
 10
84.93521183857523
 20
-118.0727240373221
 10
84.85597464241448
 20
-117.9986544843892
 10
84.73160669539696
 20
-117.9859076310938
 10
84.67269556259919
 20
-117.9859076310938
 10
84.65236949923622
 20
-117.9859076310938
 10
84.61412893934994
 20
-117.987974688385
 10
84.58450111817679
 20
-117.9921088029673
 10
84.58450111817679
 20
-117.9921088029673
 10
84.58450111817679
 20
-117.7974609080506
 10
84.58450111817679
 20
-117.7974609080506
 10
84.62515324490275
 20
-117.8038343346984
 10
84.67062850530804
 20
-117.8060736467638
 10
84.67717418673001
 20
-117.8060736467638
 10
84.74745413462911
 20
-117.8060736467638
 10
84.96001652606903
 20
-117.7848863095295
 10
84.96001652606903
 20
-117.5478637401443
 10
84.96001652606903
 20
-117.3702690678797
 10
84.81980113981936
 20
-117.3151475401157
 10
84.70232338377234
 20
-117.3151475401157
 10
84.41948104443333
 20
-117.3151475401157
 10
84.41052379617167
 20
-117.5478637401443
 10
84.40604517204085
 20
-117.619866235786
 10
84.40604517204085
 20
-117.619866235786
 10
84.18900415647012
 20
-117.619866235786
 10
84.18900415647012
 20
-117.619866235786
 10
84.19796140473176
 20
-117.4949815244457
 10
84.22724471635638
 20
-117.1184325879079
 10
84.71575925616482
 20
-117.1184325879079
 10
84.9555379019382
 20
-117.1184325879079
 10
85.21323104423489
 20
-117.2453843565393
 10
85.21323104423489
 20
-117.5414903134966
 10
85.21323104423489
 20
-117.7276977244743
 10
85.1112562178715
 20
-117.8102077613461
 10
85.0051472769258
 20
-117.8715304609835
 10
85.07060409114554
 20
-117.8990912248655
 10
85.26525198606217
 20
-117.9793619496718
 10
85.26525198606217
 20
-118.2566921362344
 10
85.26525198606217
 20
-118.595000512886
 10
85.00066865279497
 20
-118.7620876439206
 10
84.7043904410635
 20
-118.7620876439206
 97
        0
 97
        0
 75
     2
 76
     1
 98
        0
  0
ENDBLK
  5
88
330
85
100
AcDbEntity
  8
0
100
AcDbBlockEnd
  0
BLOCK
  5
9B
330
99
100
AcDbEntity
  8
0
100
AcDbBlockBegin
  2
block 3
 70
     0
 10
0.0
 20
0.0
 30
0.0
  3
block 3
  1

  0
SPLINE
  5
9D
330
99
100
AcDbEntity
  8
_U+30EC_U+30A4_U+30E4_U+30FC 1
370
     0
100
AcDbSpline
210
0.0
220
0.0
230
1.0
 70
    11
 71
     3
 72
    44
 73
    40
 74
     0
 42
0.0000000001
 43
0.0000000001
 12
1.0
 22
0.0
 32
0.0
 13
1.0
 23
0.0
 33
0.0
 40
0.0
 40
0.0
 40
0.0
 40
0.0
 40
1.0
 40
1.0
 40
1.0
 40
2.0
 40
2.0
 40
2.0
 40
3.0
 40
3.0
 40
3.0
 40
4.0
 40
4.0
 40
4.0
 40
5.0
 40
5.0
 40
5.0
 40
6.0
 40
6.0
 40
6.0
 40
7.0
 40
7.0
 40
7.0
 40
8.0
 40
8.0
 40
8.0
 40
9.0
 40
9.0
 40
9.0
 40
10.0
 40
10.0
 40
10.0
 40
11.0
 40
11.0
 40
11.0
 40
12.0
 40
12.0
 40
12.0
 40
13.0
 40
13.0
 40
13.0
 40
13.0
 10
88.05509031001748
 20
-138.1297254428981
 30
0.0
 10
87.82220185521459
 20
-138.2885443447682
 30
0.0
 10
87.72263859569087
 20
-138.362613897701
 30
0.0
 10
87.6706176538636
 20
-138.506274379436
 30
0.0
 10
87.6706176538636
 20
-138.506274379436
 30
0.0
 10
88.50295272309997
 20
-138.506274379436
 30
0.0
 10
88.50295272309997
 20
-138.506274379436
 30
0.0
 10
88.50295272309997
 20
-138.506274379436
 30
0.0
 10
88.50295272309997
 20
-138.7116020703568
 30
0.0
 10
88.50295272309997
 20
-138.7116020703568
 30
0.0
 10
88.50295272309997
 20
-138.7116020703568
 30
0.0
 10
87.40396726330526
 20
-138.7116020703568
 30
0.0
 10
87.40396726330526
 20
-138.7116020703568
 30
0.0
 10
87.43807370860924
 20
-138.3540011589879
 30
0.0
 10
87.50800914695981
 20
-138.2757974914727
 30
0.0
 10
87.91935354789864
 20
-137.9774522224501
 30
0.0
 10
88.19289412942747
 20
-137.7786702129512
 30
0.0
 10
88.26317407732657
 20
-137.7108018318918
 30
0.0
 10
88.26317407732657
 20
-137.5733425220303
 30
0.0
 10
88.26317407732657
 20
-137.4548312373377
 30
0.0
 10
88.1863484480055
 20
-137.3239176088982
 30
0.0
 10
87.97585311385673
 20
-137.3239176088982
 30
0.0
 10
87.69783390819707
 20
-137.3239176088982
 30
0.0
 10
87.68887665993542
 20
-137.5543944968614
 30
0.0
 10
87.6843980358046
 20
-137.6708387242629
 30
0.0
 10
87.6843980358046
 20
-137.6708387242629
 30
0.0
 10
87.4446193900312
 20
-137.6708387242629
 30
0.0
 10
87.4446193900312
 20
-137.6708387242629
 30
0.0
 10
87.45357663829286
 20
-137.5437147008571
 30
0.0
 10
87.46494545339418
 20
-137.4317490975865
 30
0.0
 10
87.55107284052544
 20
-137.3132378128939
 30
0.0
 10
87.66855059657244
 20
-137.1523518537327
 30
0.0
 10
87.86733260607137
 20
-137.1185899179773
 30
0.0
 10
87.99170055308889
 20
-137.1185899179773
 30
0.0
 10
88.28797876482037
 20
-137.1185899179773
 30
0.0
 10
88.50949840452193
 20
-137.3025580168896
 30
0.0
 10
88.50949840452193
 20
-137.5754095793214
 30
0.0
 10
88.50949840452193
 20
-137.804163919542
 30
0.0
 10
88.38513045750442
 20
-137.9033826695172
 30
0.0
 10
88.05509031001748
 20
-138.1297254428981
 30
0.0
  0
HATCH
  5
9E
330
99
100
AcDbEntity
  8
_U+30EC_U+30A4_U+30E4_U+30FC 1
 62
   179
420
  2234388
100
AcDbHatch
 10
0.0
 20
0.0
 30
0.0
210
0.0
220
0.0
230
1.0
  2
SOLID
 70
     1
 71
     0
 91
        1
 92
        1
 93
        1
 72
     4
 94
        3
 73
     0
 74
     1
 95
       44
 96
       40
 40
0.0
 40
0.0
 40
0.0
 40
0.0
 40
1.0
 40
1.0
 40
1.0
 40
2.0
 40
2.0
 40
2.0
 40
3.0
 40
3.0
 40
3.0
 40
4.0
 40
4.0
 40
4.0
 40
5.0
 40
5.0
 40
5.0
 40
6.0
 40
6.0
 40
6.0
 40
7.0
 40
7.0
 40
7.0
 40
8.0
 40
8.0
 40
8.0
 40
9.0
 40
9.0
 40
9.0
 40
10.0
 40
10.0
 40
10.0
 40
11.0
 40
11.0
 40
11.0
 40
12.0
 40
12.0
 40
12.0
 40
13.0
 40
13.0
 40
13.0
 40
13.0
 10
88.05509031001748
 20
-138.1297254428981
 10
87.82220185521459
 20
-138.2885443447682
 10
87.72263859569087
 20
-138.362613897701
 10
87.6706176538636
 20
-138.506274379436
 10
87.6706176538636
 20
-138.506274379436
 10
88.50295272309997
 20
-138.506274379436
 10
88.50295272309997
 20
-138.506274379436
 10
88.50295272309997
 20
-138.506274379436
 10
88.50295272309997
 20
-138.7116020703568
 10
88.50295272309997
 20
-138.7116020703568
 10
88.50295272309997
 20
-138.7116020703568
 10
87.40396726330526
 20
-138.7116020703568
 10
87.40396726330526
 20
-138.7116020703568
 10
87.43807370860924
 20
-138.3540011589879
 10
87.50800914695981
 20
-138.2757974914727
 10
87.91935354789864
 20
-137.9774522224501
 10
88.19289412942747
 20
-137.7786702129512
 10
88.26317407732657
 20
-137.7108018318918
 10
88.26317407732657
 20
-137.5733425220303
 10
88.26317407732657
 20
-137.4548312373377
 10
88.1863484480055
 20
-137.3239176088982
 10
87.97585311385673
 20
-137.3239176088982
 10
87.69783390819707
 20
-137.3239176088982
 10
87.68887665993542
 20
-137.5543944968614
 10
87.6843980358046
 20
-137.6708387242629
 10
87.6843980358046
 20
-137.6708387242629
 10
87.4446193900312
 20
-137.6708387242629
 10
87.4446193900312
 20
-137.6708387242629
 10
87.45357663829286
 20
-137.5437147008571
 10
87.46494545339418
 20
-137.4317490975865
 10
87.55107284052544
 20
-137.3132378128939
 10
87.66855059657244
 20
-137.1523518537327
 10
87.86733260607137
 20
-137.1185899179773
 10
87.99170055308889
 20
-137.1185899179773
 10
88.28797876482037
 20
-137.1185899179773
 10
88.50949840452193
 20
-137.3025580168896
 10
88.50949840452193
 20
-137.5754095793214
 10
88.50949840452193
 20
-137.804163919542
 10
88.38513045750442
 20
-137.9033826695172
 10
88.05509031001748
 20
-138.1297254428981
 97
        0
 97
        0
 75
     2
 76
     1
 98
        0
  0
SPLINE
  5
9F
330
99
100
AcDbEntity
  8
_U+30EC_U+30A4_U+30E4_U+30FC 1
370
     0
100
AcDbSpline
210
0.0
220
0.0
230
1.0
 70
    11
 71
     3
 72
    44
 73
    40
 74
     0
 42
0.0000000001
 43
0.0000000001
 12
1.0
 22
0.0
 32
0.0
 13
1.0
 23
0.0
 33
0.0
 40
0.0
 40
0.0
 40
0.0
 40
0.0
 40
1.0
 40
1.0
 40
1.0
 40
2.0
 40
2.0
 40
2.0
 40
3.0
 40
3.0
 40
3.0
 40
4.0
 40
4.0
 40
4.0
 40
5.0
 40
5.0
 40
5.0
 40
6.0
 40
6.0
 40
6.0
 40
7.0
 40
7.0
 40
7.0
 40
8.0
 40
8.0
 40
8.0
 40
9.0
 40
9.0
 40
9.0
 40
10.0
 40
10.0
 40
10.0
 40
11.0
 40
11.0
 40
11.0
 40
12.0
 40
12.0
 40
12.0
 40
13.0
 40
13.0
 40
13.0
 40
13.0
 10
89.3128946716822
 20
-138.1297254428981
 30
0.0
 10
89.08000621687931
 20
-138.2885443447682
 30
0.0
 10
88.98044295735559
 20
-138.362613897701
 30
0.0
 10
88.92876652507684
 20
-138.506274379436
 30
0.0
 10
88.92876652507684
 20
-138.506274379436
 30
0.0
 10
89.76041257521615
 20
-138.506274379436
 30
0.0
 10
89.76041257521615
 20
-138.506274379436
 30
0.0
 10
89.76041257521615
 20
-138.506274379436
 30
0.0
 10
89.76041257521615
 20
-138.7116020703568
 30
0.0
 10
89.76041257521615
 20
-138.7116020703568
 30
0.0
 10
89.76041257521615
 20
-138.7116020703568
 30
0.0
 10
88.66177162496997
 20
-138.7116020703568
 30
0.0
 10
88.66177162496997
 20
-138.7116020703568
 30
0.0
 10
88.69587807027395
 20
-138.3540011589879
 30
0.0
 10
88.76581350862452
 20
-138.2757974914727
 30
0.0
 10
89.17715790956335
 20
-137.9774522224501
 30
0.0
 10
89.4506984910922
 20
-137.7786702129512
 30
0.0
 10
89.52097843899129
 20
-137.7108018318918
 30
0.0
 10
89.52097843899129
 20
-137.5733425220303
 30
0.0
 10
89.52097843899129
 20
-137.4548312373377
 30
0.0
 10
89.44415280967021
 20
-137.3239176088982
 30
0.0
 10
89.23365747552145
 20
-137.3239176088982
 30
0.0
 10
88.9556382698618
 20
-137.3239176088982
 30
0.0
 10
88.94668102160014
 20
-137.5543944968614
 30
0.0
 10
88.94220239746932
 20
-137.6708387242629
 30
0.0
 10
88.94220239746932
 20
-137.6708387242629
 30
0.0
 10
88.70242375169593
 20
-137.6708387242629
 30
0.0
 10
88.70242375169593
 20
-137.6708387242629
 30
0.0
 10
88.7117255095061
 20
-137.5437147008571
 30
0.0
 10
88.7227498150589
 20
-137.4317490975865
 30
0.0
 10
88.80887720219015
 20
-137.3132378128939
 30
0.0
 10
88.92635495823717
 20
-137.1523518537327
 30
0.0
 10
89.12513696773608
 20
-137.1185899179773
 30
0.0
 10
89.2495049147536
 20
-137.1185899179773
 30
0.0
 10
89.54578312648509
 20
-137.1185899179773
 30
0.0
 10
89.76730276618665
 20
-137.3025580168896
 30
0.0
 10
89.76730276618665
 20
-137.5754095793214
 30
0.0
 10
89.76730276618665
 20
-137.804163919542
 30
0.0
 10
89.64293481916913
 20
-137.9033826695172
 30
0.0
 10
89.3128946716822
 20
-138.1297254428981
 30
0.0
  0
HATCH
  5
A0
330
99
100
AcDbEntity
  8
_U+30EC_U+30A4_U+30E4_U+30FC 1
 62
   179
420
  2234388
100
AcDbHatch
 10
0.0
 20
0.0
 30
0.0
210
0.0
220
0.0
230
1.0
  2
SOLID
 70
     1
 71
     0
 91
        1
 92
        1
 93
        1
 72
     4
 94
        3
 73
     0
 74
     1
 95
       44
 96
       40
 40
0.0
 40
0.0
 40
0.0
 40
0.0
 40
1.0
 40
1.0
 40
1.0
 40
2.0
 40
2.0
 40
2.0
 40
3.0
 40
3.0
 40
3.0
 40
4.0
 40
4.0
 40
4.0
 40
5.0
 40
5.0
 40
5.0
 40
6.0
 40
6.0
 40
6.0
 40
7.0
 40
7.0
 40
7.0
 40
8.0
 40
8.0
 40
8.0
 40
9.0
 40
9.0
 40
9.0
 40
10.0
 40
10.0
 40
10.0
 40
11.0
 40
11.0
 40
11.0
 40
12.0
 40
12.0
 40
12.0
 40
13.0
 40
13.0
 40
13.0
 40
13.0
 10
89.3128946716822
 20
-138.1297254428981
 10
89.08000621687931
 20
-138.2885443447682
 10
88.98044295735559
 20
-138.362613897701
 10
88.92876652507684
 20
-138.506274379436
 10
88.92876652507684
 20
-138.506274379436
 10
89.76041257521615
 20
-138.506274379436
 10
89.76041257521615
 20
-138.506274379436
 10
89.76041257521615
 20
-138.506274379436
 10
89.76041257521615
 20
-138.7116020703568
 10
89.76041257521615
 20
-138.7116020703568
 10
89.76041257521615
 20
-138.7116020703568
 10
88.66177162496997
 20
-138.7116020703568
 10
88.66177162496997
 20
-138.7116020703568
 10
88.69587807027395
 20
-138.3540011589879
 10
88.76581350862452
 20
-138.2757974914727
 10
89.17715790956335
 20
-137.9774522224501
 10
89.4506984910922
 20
-137.7786702129512
 10
89.52097843899129
 20
-137.7108018318918
 10
89.52097843899129
 20
-137.5733425220303
 10
89.52097843899129
 20
-137.4548312373377
 10
89.44415280967021
 20
-137.3239176088982
 10
89.23365747552145
 20
-137.3239176088982
 10
88.9556382698618
 20
-137.3239176088982
 10
88.94668102160014
 20
-137.5543944968614
 10
88.94220239746932
 20
-137.6708387242629
 10
88.94220239746932
 20
-137.6708387242629
 10
88.70242375169593
 20
-137.6708387242629
 10
88.70242375169593
 20
-137.6708387242629
 10
88.7117255095061
 20
-137.5437147008571
 10
88.7227498150589
 20
-137.4317490975865
 10
88.80887720219015
 20
-137.3132378128939
 10
88.92635495823717
 20
-137.1523518537327
 10
89.12513696773608
 20
-137.1185899179773
 10
89.2495049147536
 20
-137.1185899179773
 10
89.54578312648509
 20
-137.1185899179773
 10
89.76730276618665
 20
-137.3025580168896
 10
89.76730276618665
 20
-137.5754095793214
 10
89.76730276618665
 20
-137.804163919542
 10
89.64293481916913
 20
-137.9033826695172
 10
89.3128946716822
 20
-138.1297254428981
 97
        0
 97
        0
 75
     2
 76
     1
 98
        0
  0
ENDBLK
  5
9C
330
99
100
AcDbEntity
  8
0
100
AcDbBlockEnd
  0
BLOCK
  5
AF
330
AD
100
AcDbEntity
  8
0
100
AcDbBlockBegin
  2
block 4
 70
     0
 10
0.0
 20
0.0
 30
0.0
  3
block 4
  1

  0
SPLINE
  5
B1
330
AD
100
AcDbEntity
  8
_U+30EC_U+30A4_U+30E4_U+30FC 1
370
     0
100
AcDbSpline
210
0.0
220
0.0
230
1.0
 70
    11
 71
     3
 72
    26
 73
    22
 74
     0
 42
0.0000000001
 43
0.0000000001
 12
1.0
 22
0.0
 32
0.0
 13
1.0
 23
0.0
 33
0.0
 40
0.0
 40
0.0
 40
0.0
 40
0.0
 40
1.0
 40
1.0
 40
1.0
 40
2.0
 40
2.0
 40
2.0
 40
3.0
 40
3.0
 40
3.0
 40
4.0
 40
4.0
 40
4.0
 40
5.0
 40
5.0
 40
5.0
 40
6.0
 40
6.0
 40
6.0
 40
7.0
 40
7.0
 40
7.0
 40
7.0
 10
102.4495605212626
 20
-129.9841416775734
 30
0.0
 10
102.4495605212626
 20
-129.9841416775734
 30
0.0
 10
101.34540741824
 20
-129.9841416775734
 30
0.0
 10
101.34540741824
 20
-129.9841416775734
 30
0.0
 10
101.34540741824
 20
-129.9841416775734
 30
0.0
 10
101.34540741824
 20
-130.3365749457145
 30
0.0
 10
101.34540741824
 20
-130.3365749457145
 30
0.0
 10
101.34540741824
 20
-130.3365749457145
 30
0.0
 10
101.1972683123743
 20
-130.3365749457145
 30
0.0
 10
101.1972683123743
 20
-130.3365749457145
 30
0.0
 10
101.1824544017877
 20
-129.9817301107337
 30
0.0
 10
101.0195013853354
 20
-129.9321207357461
 30
0.0
 10
100.9051242152251
 20
-129.9004258572818
 30
0.0
 10
100.9051242152251
 20
-129.9004258572818
 30
0.0
 10
100.9051242152251
 20
-129.7443630318
 30
0.0
 10
100.9051242152251
 20
-129.7443630318
 30
0.0
 10
100.9051242152251
 20
-129.7443630318
 30
0.0
 10
102.4495605212626
 20
-129.7443630318
 30
0.0
 10
102.4495605212626
 20
-129.7443630318
 30
0.0
 10
102.4495605212626
 20
-129.7443630318
 30
0.0
 10
102.4495605212626
 20
-129.9841416775734
 30
0.0
 10
102.4495605212626
 20
-129.9841416775734
 30
0.0
  0
HATCH
  5
B2
330
AD
100
AcDbEntity
  8
_U+30EC_U+30A4_U+30E4_U+30FC 1
 62
   179
420
  2234388
100
AcDbHatch
 10
0.0
 20
0.0
 30
0.0
210
0.0
220
0.0
230
1.0
  2
SOLID
 70
     1
 71
     0
 91
        1
 92
        1
 93
        1
 72
     4
 94
        3
 73
     0
 74
     1
 95
       26
 96
       22
 40
0.0
 40
0.0
 40
0.0
 40
0.0
 40
1.0
 40
1.0
 40
1.0
 40
2.0
 40
2.0
 40
2.0
 40
3.0
 40
3.0
 40
3.0
 40
4.0
 40
4.0
 40
4.0
 40
5.0
 40
5.0
 40
5.0
 40
6.0
 40
6.0
 40
6.0
 40
7.0
 40
7.0
 40
7.0
 40
7.0
 10
102.4495605212626
 20
-129.9841416775734
 10
102.4495605212626
 20
-129.9841416775734
 10
101.34540741824
 20
-129.9841416775734
 10
101.34540741824
 20
-129.9841416775734
 10
101.34540741824
 20
-129.9841416775734
 10
101.34540741824
 20
-130.3365749457145
 10
101.34540741824
 20
-130.3365749457145
 10
101.34540741824
 20
-130.3365749457145
 10
101.1972683123743
 20
-130.3365749457145
 10
101.1972683123743
 20
-130.3365749457145
 10
101.1824544017877
 20
-129.9817301107337
 10
101.0195013853354
 20
-129.9321207357461
 10
100.9051242152251
 20
-129.9004258572818
 10
100.9051242152251
 20
-129.9004258572818
 10
100.9051242152251
 20
-129.7443630318
 10
100.9051242152251
 20
-129.7443630318
 10
100.9051242152251
 20
-129.7443630318
 10
102.4495605212626
 20
-129.7443630318
 10
102.4495605212626
 20
-129.7443630318
 10
102.4495605212626
 20
-129.7443630318
 10
102.4495605212626
 20
-129.9841416775734
 10
102.4495605212626
 20
-129.9841416775734
 97
        0
 97
        0
 75
     2
 76
     1
 98
        0
  0
SPLINE
  5
B3
330
AD
100
AcDbEntity
  8
_U+30EC_U+30A4_U+30E4_U+30FC 1
370
     0
100
AcDbSpline
210
0.0
220
0.0
230
1.0
 70
    11
 71
     3
 72
    29
 73
    25
 74
     0
 42
0.0000000001
 43
0.0000000001
 12
1.0
 22
0.0
 32
0.0
 13
1.0
 23
0.0
 33
0.0
 40
0.0
 40
0.0
 40
0.0
 40
0.0
 40
1.0
 40
1.0
 40
1.0
 40
2.0
 40
2.0
 40
2.0
 40
3.0
 40
3.0
 40
3.0
 40
4.0
 40
4.0
 40
4.0
 40
5.0
 40
5.0
 40
5.0
 40
6.0
 40
6.0
 40
6.0
 40
7.0
 40
7.0
 40
7.0
 40
8.0
 40
8.0
 40
8.0
 40
8.0
 10
102.2717935942237
 20
-128.2491915912016
 30
0.0
 10
102.4812553997269
 20
-128.3646022899575
 30
0.0
 10
102.5002034248958
 20
-128.5499484270639
 30
0.0
 10
102.5002034248958
 20
-128.6743163740814
 30
0.0
 10
102.5002034248958
 20
-128.8458821292469
 30
0.0
 10
102.4536946358449
 20
-128.9974663305979
 30
0.0
 10
102.2717935942237
 20
-129.0990966474127
 30
0.0
 10
102.0771456993071
 20
-129.2100287220378
 30
0.0
 10
101.8401231299219
 20
-129.2303547854007
 30
0.0
 10
101.6775146230181
 20
-129.2303547854007
 30
0.0
 10
101.5335096317347
 20
-129.2303547854007
 30
0.0
 10
101.2816731517629
 20
-129.2120957793289
 30
0.0
 10
101.082891142264
 20
-129.0990966474127
 30
0.0
 10
100.8799750181828
 20
-128.9840304582054
 30
0.0
 10
100.8565483688831
 20
-128.8121201934914
 30
0.0
 10
100.8565483688831
 20
-128.6743163740814
 30
0.0
 10
100.8565483688831
 20
-128.5044731666586
 30
0.0
 10
100.9009901006428
 20
-128.3508219080165
 30
0.0
 10
101.082891142264
 20
-128.2491915912016
 30
0.0
 10
101.2754719798895
 20
-128.1427381407074
 30
0.0
 10
101.5038818105615
 20
-128.1179334532136
 30
0.0
 10
101.6775146230181
 20
-128.1179334532136
 30
0.0
 10
101.848735868635
 20
-128.1179334532136
 30
0.0
 10
102.0792127565983
 20
-128.1406710834162
 30
0.0
 10
102.2717935942237
 20
-128.2491915912016
 30
0.0
  0
SPLINE
  5
B4
330
AD
100
AcDbEntity
  8
_U+30EC_U+30A4_U+30E4_U+30FC 1
370
     0
100
AcDbSpline
210
0.0
220
0.0
230
1.0
 70
    11
 71
     3
 72
    17
 73
    13
 74
     0
 42
0.0000000001
 43
0.0000000001
 12
1.0
 22
0.0
 32
0.0
 13
1.0
 23
0.0
 33
0.0
 40
0.0
 40
0.0
 40
0.0
 40
0.0
 40
1.0
 40
1.0
 40
1.0
 40
2.0
 40
2.0
 40
2.0
 40
3.0
 40
3.0
 40
3.0
 40
4.0
 40
4.0
 40
4.0
 40
4.0
 10
101.0491292065086
 20
-128.6743163740814
 30
0.0
 10
101.0491292065086
 20
-128.9409667646398
 30
0.0
 10
101.3326605649446
 20
-128.9905761396274
 30
0.0
 10
101.6775146230181
 20
-128.9905761396274
 30
0.0
 10
101.9968749745008
 20
-128.9905761396274
 30
0.0
 10
102.3055555299792
 20
-128.9523355797411
 30
0.0
 10
102.3055555299792
 20
-128.6743163740814
 30
0.0
 10
102.3055555299792
 20
-128.4097330408142
 30
0.0
 10
102.0244357383828
 20
-128.357712098987
 30
0.0
 10
101.6775146230181
 20
-128.357712098987
 30
0.0
 10
101.3578097619869
 20
-128.357712098987
 30
0.0
 10
101.0491292065086
 20
-128.3983642257129
 30
0.0
 10
101.0491292065086
 20
-128.6743163740814
 30
0.0
  0
HATCH
  5
B5
330
AD
100
AcDbEntity
  8
_U+30EC_U+30A4_U+30E4_U+30FC 1
 62
   179
420
  2234388
100
AcDbHatch
 10
0.0
 20
0.0
 30
0.0
210
0.0
220
0.0
230
1.0
  2
SOLID
 70
     1
 71
     0
 91
        2
 92
        1
 93
        1
 72
     4
 94
        3
 73
     0
 74
     1
 95
       29
 96
       25
 40
0.0
 40
0.0
 40
0.0
 40
0.0
 40
1.0
 40
1.0
 40
1.0
 40
2.0
 40
2.0
 40
2.0
 40
3.0
 40
3.0
 40
3.0
 40
4.0
 40
4.0
 40
4.0
 40
5.0
 40
5.0
 40
5.0
 40
6.0
 40
6.0
 40
6.0
 40
7.0
 40
7.0
 40
7.0
 40
8.0
 40
8.0
 40
8.0
 40
8.0
 10
102.2717935942237
 20
-128.2491915912016
 10
102.4812553997269
 20
-128.3646022899575
 10
102.5002034248958
 20
-128.5499484270639
 10
102.5002034248958
 20
-128.6743163740814
 10
102.5002034248958
 20
-128.8458821292469
 10
102.4536946358449
 20
-128.9974663305979
 10
102.2717935942237
 20
-129.0990966474127
 10
102.0771456993071
 20
-129.2100287220378
 10
101.8401231299219
 20
-129.2303547854007
 10
101.6775146230181
 20
-129.2303547854007
 10
101.5335096317347
 20
-129.2303547854007
 10
101.2816731517629
 20
-129.2120957793289
 10
101.082891142264
 20
-129.0990966474127
 10
100.8799750181828
 20
-128.9840304582054
 10
100.8565483688831
 20
-128.8121201934914
 10
100.8565483688831
 20
-128.6743163740814
 10
100.8565483688831
 20
-128.5044731666586
 10
100.9009901006428
 20
-128.3508219080165
 10
101.082891142264
 20
-128.2491915912016
 10
101.2754719798895
 20
-128.1427381407074
 10
101.5038818105615
 20
-128.1179334532136
 10
101.6775146230181
 20
-128.1179334532136
 10
101.848735868635
 20
-128.1179334532136
 10
102.0792127565983
 20
-128.1406710834162
 10
102.2717935942237
 20
-128.2491915912016
 97
        0
 97
        0
 92
        1
 93
        1
 72
     4
 94
        3
 73
     0
 74
     1
 95
       17
 96
       13
 40
0.0
 40
0.0
 40
0.0
 40
0.0
 40
1.0
 40
1.0
 40
1.0
 40
2.0
 40
2.0
 40
2.0
 40
3.0
 40
3.0
 40
3.0
 40
4.0
 40
4.0
 40
4.0
 40
4.0
 10
101.0491292065086
 20
-128.6743163740814
 10
101.0491292065086
 20
-128.9409667646398
 10
101.3326605649446
 20
-128.9905761396274
 10
101.6775146230181
 20
-128.9905761396274
 10
101.9968749745008
 20
-128.9905761396274
 10
102.3055555299792
 20
-128.9523355797411
 10
102.3055555299792
 20
-128.6743163740814
 10
102.3055555299792
 20
-128.4097330408142
 10
102.0244357383828
 20
-128.357712098987
 10
101.6775146230181
 20
-128.357712098987
 10
101.3578097619869
 20
-128.357712098987
 10
101.0491292065086
 20
-128.3983642257129
 10
101.0491292065086
 20
-128.6743163740814
 97
        0
 97
        0
 75
     2
 76
     1
 98
        0
  0
ENDBLK
  5
B0
330
AD
100
AcDbEntity
  8
0
100
AcDbBlockEnd
  0
BLOCK
  5
BA
330
B8
100
AcDbEntity
  8
0
100
AcDbBlockBegin
  2
block 5
 70
     0
 10
0.0
 20
0.0
 30
0.0
  3
block 5
  1

  0
SPLINE
  5
BC
330
B8
100
AcDbEntity
  8
_U+30EC_U+30A4_U+30E4_U+30FC 1
370
     0
100
AcDbSpline
210
0.0
220
0.0
230
1.0
 70
    11
 71
     3
 72
    26
 73
    22
 74
     0
 42
0.0000000001
 43
0.0000000001
 12
1.0
 22
0.0
 32
0.0
 13
1.0
 23
0.0
 33
0.0
 40
0.0
 40
0.0
 40
0.0
 40
0.0
 40
1.0
 40
1.0
 40
1.0
 40
2.0
 40
2.0
 40
2.0
 40
3.0
 40
3.0
 40
3.0
 40
4.0
 40
4.0
 40
4.0
 40
5.0
 40
5.0
 40
5.0
 40
6.0
 40
6.0
 40
6.0
 40
7.0
 40
7.0
 40
7.0
 40
7.0
 10
82.40651175240185
 20
-129.0791150935983
 30
0.0
 10
82.40651175240185
 20
-129.0791150935983
 30
0.0
 10
82.40651175240185
 20
-127.9749619905757
 30
0.0
 10
82.40651175240185
 20
-127.9749619905757
 30
0.0
 10
82.40651175240185
 20
-127.9749619905757
 30
0.0
 10
82.07647160491491
 20
-127.9749619905757
 30
0.0
 10
82.07647160491491
 20
-127.9749619905757
 30
0.0
 10
82.07647160491491
 20
-127.9749619905757
 30
0.0
 10
82.07647160491491
 20
-127.82682288471
 30
0.0
 10
82.07647160491491
 20
-127.82682288471
 30
0.0
 10
82.408578809693
 20
-127.8121812288977
 30
0.0
 10
82.45508759874387
 20
-127.6492282124453
 30
0.0
 10
82.48471541991702
 20
-127.5350232971093
 30
0.0
 10
82.48471541991702
 20
-127.5350232971093
 30
0.0
 10
82.63078746849162
 20
-127.5350232971093
 30
0.0
 10
82.63078746849162
 20
-127.5350232971093
 30
0.0
 10
82.63078746849162
 20
-127.5350232971093
 30
0.0
 10
82.63078746849162
 20
-129.0791150935983
 30
0.0
 10
82.63078746849162
 20
-129.0791150935983
 30
0.0
 10
82.63078746849162
 20
-129.0791150935983
 30
0.0
 10
82.40651175240185
 20
-129.0791150935983
 30
0.0
 10
82.40651175240185
 20
-129.0791150935983
 30
0.0
  0
HATCH
  5
BD
330
B8
100
AcDbEntity
  8
_U+30EC_U+30A4_U+30E4_U+30FC 1
 62
   179
420
  2234388
100
AcDbHatch
 10
0.0
 20
0.0
 30
0.0
210
0.0
220
0.0
230
1.0
  2
SOLID
 70
     1
 71
     0
 91
        1
 92
        1
 93
        1
 72
     4
 94
        3
 73
     0
 74
     1
 95
       26
 96
       22
 40
0.0
 40
0.0
 40
0.0
 40
0.0
 40
1.0
 40
1.0
 40
1.0
 40
2.0
 40
2.0
 40
2.0
 40
3.0
 40
3.0
 40
3.0
 40
4.0
 40
4.0
 40
4.0
 40
5.0
 40
5.0
 40
5.0
 40
6.0
 40
6.0
 40
6.0
 40
7.0
 40
7.0
 40
7.0
 40
7.0
 10
82.40651175240185
 20
-129.0791150935983
 10
82.40651175240185
 20
-129.0791150935983
 10
82.40651175240185
 20
-127.9749619905757
 10
82.40651175240185
 20
-127.9749619905757
 10
82.40651175240185
 20
-127.9749619905757
 10
82.07647160491491
 20
-127.9749619905757
 10
82.07647160491491
 20
-127.9749619905757
 10
82.07647160491491
 20
-127.9749619905757
 10
82.07647160491491
 20
-127.82682288471
 10
82.07647160491491
 20
-127.82682288471
 10
82.408578809693
 20
-127.8121812288977
 10
82.45508759874387
 20
-127.6492282124453
 10
82.48471541991702
 20
-127.5350232971093
 10
82.48471541991702
 20
-127.5350232971093
 10
82.63078746849162
 20
-127.5350232971093
 10
82.63078746849162
 20
-127.5350232971093
 10
82.63078746849162
 20
-127.5350232971093
 10
82.63078746849162
 20
-129.0791150935983
 10
82.63078746849162
 20
-129.0791150935983
 10
82.63078746849162
 20
-129.0791150935983
 10
82.40651175240185
 20
-129.0791150935983
 10
82.40651175240185
 20
-129.0791150935983
 97
        0
 97
        0
 75
     2
 76
     1
 98
        0
  0
ENDBLK
  5
BB
330
B8
100
AcDbEntity
  8
0
100
AcDbBlockEnd
  0
BLOCK
  5
CD
330
CB
100
AcDbEntity
  8
0
100
AcDbBlockBegin
  2
block 6
 70
     0
 10
0.0
 20
0.0
 30
0.0
  3
block 6
  1

  0
SPLINE
  5
CF
330
CB
100
AcDbEntity
  8
_U+30EC_U+30A4_U+30E4_U+30FC 1
370
     0
100
AcDbSpline
210
0.0
220
0.0
230
1.0
 70
    11
 71
     3
 72
    26
 73
    22
 74
     0
 42
0.0000000001
 43
0.0000000001
 12
1.0
 22
0.0
 32
0.0
 13
1.0
 23
0.0
 33
0.0
 40
0.0
 40
0.0
 40
0.0
 40
0.0
 40
1.0
 40
1.0
 40
1.0
 40
2.0
 40
2.0
 40
2.0
 40
3.0
 40
3.0
 40
3.0
 40
4.0
 40
4.0
 40
4.0
 40
5.0
 40
5.0
 40
5.0
 40
6.0
 40
6.0
 40
6.0
 40
7.0
 40
7.0
 40
7.0
 40
7.0
 10
102.2883300525529
 20
-134.8286349489318
 30
0.0
 10
102.2883300525529
 20
-134.8286349489318
 30
0.0
 10
101.1841769495304
 20
-134.8286349489318
 30
0.0
 10
101.1841769495304
 20
-134.8286349489318
 30
0.0
 10
101.1841769495304
 20
-134.8286349489318
 30
0.0
 10
101.1841769495304
 20
-135.1810682170728
 30
0.0
 10
101.1841769495304
 20
-135.1810682170728
 30
0.0
 10
101.1841769495304
 20
-135.1810682170728
 30
0.0
 10
101.0360378436646
 20
-135.1810682170728
 30
0.0
 10
101.0360378436646
 20
-135.1810682170728
 30
0.0
 10
101.021223933078
 20
-134.8262233820921
 30
0.0
 10
100.8582709166257
 20
-134.7766140071045
 30
0.0
 10
100.7438937465154
 20
-134.7449191286402
 30
0.0
 10
100.7438937465154
 20
-134.7449191286402
 30
0.0
 10
100.7438937465154
 20
-134.5888563031583
 30
0.0
 10
100.7438937465154
 20
-134.5888563031583
 30
0.0
 10
100.7438937465154
 20
-134.5888563031583
 30
0.0
 10
102.2883300525529
 20
-134.5888563031583
 30
0.0
 10
102.2883300525529
 20
-134.5888563031583
 30
0.0
 10
102.2883300525529
 20
-134.5888563031583
 30
0.0
 10
102.2883300525529
 20
-134.8286349489318
 30
0.0
 10
102.2883300525529
 20
-134.8286349489318
 30
0.0
  0
HATCH
  5
D0
330
CB
100
AcDbEntity
  8
_U+30EC_U+30A4_U+30E4_U+30FC 1
 62
   179
420
  2234388
100
AcDbHatch
 10
0.0
 20
0.0
 30
0.0
210
0.0
220
0.0
230
1.0
  2
SOLID
 70
     1
 71
     0
 91
        1
 92
        1
 93
        1
 72
     4
 94
        3
 73
     0
 74
     1
 95
       26
 96
       22
 40
0.0
 40
0.0
 40
0.0
 40
0.0
 40
1.0
 40
1.0
 40
1.0
 40
2.0
 40
2.0
 40
2.0
 40
3.0
 40
3.0
 40
3.0
 40
4.0
 40
4.0
 40
4.0
 40
5.0
 40
5.0
 40
5.0
 40
6.0
 40
6.0
 40
6.0
 40
7.0
 40
7.0
 40
7.0
 40
7.0
 10
102.2883300525529
 20
-134.8286349489318
 10
102.2883300525529
 20
-134.8286349489318
 10
101.1841769495304
 20
-134.8286349489318
 10
101.1841769495304
 20
-134.8286349489318
 10
101.1841769495304
 20
-134.8286349489318
 10
101.1841769495304
 20
-135.1810682170728
 10
101.1841769495304
 20
-135.1810682170728
 10
101.1841769495304
 20
-135.1810682170728
 10
101.0360378436646
 20
-135.1810682170728
 10
101.0360378436646
 20
-135.1810682170728
 10
101.021223933078
 20
-134.8262233820921
 10
100.8582709166257
 20
-134.7766140071045
 10
100.7438937465154
 20
-134.7449191286402
 10
100.7438937465154
 20
-134.7449191286402
 10
100.7438937465154
 20
-134.5888563031583
 10
100.7438937465154
 20
-134.5888563031583
 10
100.7438937465154
 20
-134.5888563031583
 10
102.2883300525529
 20
-134.5888563031583
 10
102.2883300525529
 20
-134.5888563031583
 10
102.2883300525529
 20
-134.5888563031583
 10
102.2883300525529
 20
-134.8286349489318
 10
102.2883300525529
 20
-134.8286349489318
 97
        0
 97
        0
 75
     2
 76
     1
 98
        0
  0
ENDBLK
  5
CE
330
CB
100
AcDbEntity
  8
0
100
AcDbBlockEnd
  0
ENDSEC
  0
SECTION
  2
ENTITIES
  0
SPLINE
  5
41
330
1F
100
AcDbEntity
  8
_U+30EC_U+30A4_U+30E4_U+30FC 1
370
     0
100
AcDbSpline
210
0.0
220
0.0
230
1.0
 70
    11
 71
     3
 72
    50
 73
    46
 74
     0
 42
0.0000000001
 43
0.0000000001
 12
1.0
 22
0.0
 32
0.0
 13
1.0
 23
0.0
 33
0.0
 40
0.0
 40
0.0
 40
0.0
 40
0.0
 40
1.0
 40
1.0
 40
1.0
 40
2.0
 40
2.0
 40
2.0
 40
3.0
 40
3.0
 40
3.0
 40
4.0
 40
4.0
 40
4.0
 40
5.0
 40
5.0
 40
5.0
 40
6.0
 40
6.0
 40
6.0
 40
7.0
 40
7.0
 40
7.0
 40
8.0
 40
8.0
 40
8.0
 40
9.0
 40
9.0
 40
9.0
 40
10.0
 40
10.0
 40
10.0
 40
11.0
 40
11.0
 40
11.0
 40
12.0
 40
12.0
 40
12.0
 40
13.0
 40
13.0
 40
13.0
 40
14.0
 40
14.0
 40
14.0
 40
15.0
 40
15.0
 40
15.0
 40
15.0
 10
99.22978941288162
 20
-134.8089830218536
 30
0.0
 10
99.22978941288162
 20
-134.8089830218536
 30
0.0
 10
93.57980650146912
 20
-134.8089830218536
 30
0.0
 10
93.57980650146912
 20
-134.8089830218536
 30
0.0
 10
93.40137150602138
 20
-134.4996321885972
 30
0.0
 10
93.07131262555299
 20
-134.3087794108674
 30
0.0
 10
92.71370180134308
 20
-134.3087794108674
 30
0.0
 10
92.71370180134308
 20
-134.3087794108674
 30
0.0
 10
84.57966950885952
 20
-134.3087794108674
 30
0.0
 10
84.57966950885952
 20
-134.3087794108674
 30
0.0
 10
84.57966950885952
 20
-134.3087794108674
 30
0.0
 10
84.57966950885952
 20
-124.3090463578115
 30
0.0
 10
84.57966950885952
 20
-124.3090463578115
 30
0.0
 10
84.57966950885952
 20
-124.3090463578115
 30
0.0
 10
90.57964324467633
 20
-124.3090463578115
 30
0.0
 10
90.57964324467633
 20
-124.3090463578115
 30
0.0
 10
90.57964324467633
 20
-124.3090463578115
 30
0.0
 10
90.57964324467633
 20
-123.7089008024061
 30
0.0
 10
90.57964324467633
 20
-123.7089008024061
 30
0.0
 10
86.26294863258217
 20
-123.1756066358728
 30
0.0
 10
81.89661818842099
 20
-123.1756066358728
 30
0.0
 10
77.57957079855804
 20
-123.7089008024061
 30
0.0
 10
77.57957079855804
 20
-123.7089008024061
 30
0.0
 10
77.57957079855804
 20
-124.3090463578115
 30
0.0
 10
77.57957079855804
 20
-124.3090463578115
 30
0.0
 10
77.57957079855804
 20
-124.3090463578115
 30
0.0
 10
83.57989731214361
 20
-124.3090463578115
 30
0.0
 10
83.57989731214361
 20
-124.3090463578115
 30
0.0
 10
83.57989731214361
 20
-124.3090463578115
 30
0.0
 10
83.57989731214361
 20
-134.3087794108674
 30
0.0
 10
83.57989731214361
 20
-134.3087794108674
 30
0.0
 10
83.57989731214361
 20
-134.3087794108674
 30
0.0
 10
78.57969577304273
 20
-134.3087794108674
 30
0.0
 10
78.57969577304273
 20
-134.3087794108674
 30
0.0
 10
78.02745745379816
 20
-134.3087794108674
 30
0.0
 10
77.57957079855804
 20
-134.7566307996444
 30
0.0
 10
77.57957079855804
 20
-135.3085516328393
 30
0.0
 10
77.57957079855804
 20
-135.3085516328393
 30
0.0
 10
99.57978023728593
 20
-135.3085516328393
 30
0.0
 10
99.57978023728593
 20
-135.3085516328393
 30
0.0
 10
99.57978023728593
 20
-135.3085516328393
 30
0.0
 10
99.57978023728593
 20
-135.1590091328767
 30
0.0
 10
99.57978023728593
 20
-135.1590091328767
 30
0.0
 10
99.57978023728593
 20
-134.9654046884812
 30
0.0
 10
99.4233938523868
 20
-134.8089830218536
 30
0.0
 10
99.22978941288162
 20
-134.8089830218536
 30
0.0
  0
HATCH
  5
42
330
1F
100
AcDbEntity
  8
_U+30EC_U+30A4_U+30E4_U+30FC 1
 62
   253
420
 11711154
100
AcDbHatch
 10
0.0
 20
0.0
 30
0.0
210
0.0
220
0.0
230
1.0
  2
SOLID
 70
     1
 71
     0
 91
        1
 92
        1
 93
        1
 72
     4
 94
        3
 73
     0
 74
     1
 95
       50
 96
       46
 40
0.0
 40
0.0
 40
0.0
 40
0.0
 40
1.0
 40
1.0
 40
1.0
 40
2.0
 40
2.0
 40
2.0
 40
3.0
 40
3.0
 40
3.0
 40
4.0
 40
4.0
 40
4.0
 40
5.0
 40
5.0
 40
5.0
 40
6.0
 40
6.0
 40
6.0
 40
7.0
 40
7.0
 40
7.0
 40
8.0
 40
8.0
 40
8.0
 40
9.0
 40
9.0
 40
9.0
 40
10.0
 40
10.0
 40
10.0
 40
11.0
 40
11.0
 40
11.0
 40
12.0
 40
12.0
 40
12.0
 40
13.0
 40
13.0
 40
13.0
 40
14.0
 40
14.0
 40
14.0
 40
15.0
 40
15.0
 40
15.0
 40
15.0
 10
99.22978941288162
 20
-134.8089830218536
 10
99.22978941288162
 20
-134.8089830218536
 10
93.57980650146912
 20
-134.8089830218536
 10
93.57980650146912
 20
-134.8089830218536
 10
93.40137150602138
 20
-134.4996321885972
 10
93.07131262555299
 20
-134.3087794108674
 10
92.71370180134308
 20
-134.3087794108674
 10
92.71370180134308
 20
-134.3087794108674
 10
84.57966950885952
 20
-134.3087794108674
 10
84.57966950885952
 20
-134.3087794108674
 10
84.57966950885952
 20
-134.3087794108674
 10
84.57966950885952
 20
-124.3090463578115
 10
84.57966950885952
 20
-124.3090463578115
 10
84.57966950885952
 20
-124.3090463578115
 10
90.57964324467633
 20
-124.3090463578115
 10
90.57964324467633
 20
-124.3090463578115
 10
90.57964324467633
 20
-124.3090463578115
 10
90.57964324467633
 20
-123.7089008024061
 10
90.57964324467633
 20
-123.7089008024061
 10
86.26294863258217
 20
-123.1756066358728
 10
81.89661818842099
 20
-123.1756066358728
 10
77.57957079855804
 20
-123.7089008024061
 10
77.57957079855804
 20
-123.7089008024061
 10
77.57957079855804
 20
-124.3090463578115
 10
77.57957079855804
 20
-124.3090463578115
 10
77.57957079855804
 20
-124.3090463578115
 10
83.57989731214361
 20
-124.3090463578115
 10
83.57989731214361
 20
-124.3090463578115
 10
83.57989731214361
 20
-124.3090463578115
 10
83.57989731214361
 20
-134.3087794108674
 10
83.57989731214361
 20
-134.3087794108674
 10
83.57989731214361
 20
-134.3087794108674
 10
78.57969577304273
 20
-134.3087794108674
 10
78.57969577304273
 20
-134.3087794108674
 10
78.02745745379816
 20
-134.3087794108674
 10
77.57957079855804
 20
-134.7566307996444
 10
77.57957079855804
 20
-135.3085516328393
 10
77.57957079855804
 20
-135.3085516328393
 10
99.57978023728593
 20
-135.3085516328393
 10
99.57978023728593
 20
-135.3085516328393
 10
99.57978023728593
 20
-135.3085516328393
 10
99.57978023728593
 20
-135.1590091328767
 10
99.57978023728593
 20
-135.1590091328767
 10
99.57978023728593
 20
-134.9654046884812
 10
99.4233938523868
 20
-134.8089830218536
 10
99.22978941288162
 20
-134.8089830218536
 97
        0
 97
        0
 75
     2
 76
     1
 98
        0
  0
POLYLINE
  5
43
330
1F
100
AcDbEntity
  8
_U+30EC_U+30A4_U+30E4_U+30FC 1
 62
   179
420
  2234388
370
    25
100
AcDb2dPolyline
 66
     1
 10
0.0
 20
0.0
 30
0.0
  0
VERTEX
  5
44
330
43
100
AcDbEntity
  8
_U+30EC_U+30A4_U+30E4_U+30FC 1
 62
   179
420
  2234388
370
    25
100
AcDbVertex
100
AcDb2dVertex
 10
78.57969577304273
 20
-134.3087794108674
 30
0.0
  0
VERTEX
  5
45
330
43
100
AcDbEntity
  8
_U+30EC_U+30A4_U+30E4_U+30FC 1
 62
   179
420
  2234388
370
    25
100
AcDbVertex
100
AcDb2dVertex
 10
83.57989731214361
 20
-134.3087794108674
 30
0.0
  0
SEQEND
  5
46
330
43
100
AcDbEntity
  8
_U+30EC_U+30A4_U+30E4_U+30FC 1
 62
   179
420
  2234388
370
    25
  0
POLYLINE
  5
47
330
1F
100
AcDbEntity
  8
_U+30EC_U+30A4_U+30E4_U+30FC 1
 62
   179
420
  2234388
370
    25
100
AcDb2dPolyline
 66
     1
 10
0.0
 20
0.0
 30
0.0
  0
VERTEX
  5
48
330
47
100
AcDbEntity
  8
_U+30EC_U+30A4_U+30E4_U+30FC 1
 62
   179
420
  2234388
370
    25
100
AcDbVertex
100
AcDb2dVertex
 10
77.57957079855804
 20
-135.3085516328393
 30
0.0
  0
VERTEX
  5
49
330
47
100
AcDbEntity
  8
_U+30EC_U+30A4_U+30E4_U+30FC 1
 62
   179
420
  2234388
370
    25
100
AcDbVertex
100
AcDb2dVertex
 10
99.57978023728593
 20
-135.3085516328393
 30
0.0
  0
SEQEND
  5
4A
330
47
100
AcDbEntity
  8
_U+30EC_U+30A4_U+30E4_U+30FC 1
 62
   179
420
  2234388
370
    25
  0
POLYLINE
  5
4B
330
1F
100
AcDbEntity
  8
_U+30EC_U+30A4_U+30E4_U+30FC 1
 62
   179
420
  2234388
370
    25
100
AcDb2dPolyline
 66
     1
 10
0.0
 20
0.0
 30
0.0
  0
VERTEX
  5
4C
330
4B
100
AcDbEntity
  8
_U+30EC_U+30A4_U+30E4_U+30FC 1
 62
   179
420
  2234388
370
    25
100
AcDbVertex
100
AcDb2dVertex
 10
83.57989731214361
 20
-124.3090463578115
 30
0.0
  0
VERTEX
  5
4D
330
4B
100
AcDbEntity
  8
_U+30EC_U+30A4_U+30E4_U+30FC 1
 62
   179
420
  2234388
370
    25
100
AcDbVertex
100
AcDb2dVertex
 10
83.57989731214361
 20
-134.3087794108674
 30
0.0
  0
SEQEND
  5
4E
330
4B
100
AcDbEntity
  8
_U+30EC_U+30A4_U+30E4_U+30FC 1
 62
   179
420
  2234388
370
    25
  0
POLYLINE
  5
4F
330
1F
100
AcDbEntity
  8
_U+30EC_U+30A4_U+30E4_U+30FC 1
 62
   179
420
  2234388
370
    25
100
AcDb2dPolyline
 66
     1
 10
0.0
 20
0.0
 30
0.0
  0
VERTEX
  5
50
330
4F
100
AcDbEntity
  8
_U+30EC_U+30A4_U+30E4_U+30FC 1
 62
   179
420
  2234388
370
    25
100
AcDbVertex
100
AcDb2dVertex
 10
84.57966950885952
 20
-124.3090463578115
 30
0.0
  0
VERTEX
  5
51
330
4F
100
AcDbEntity
  8
_U+30EC_U+30A4_U+30E4_U+30FC 1
 62
   179
420
  2234388
370
    25
100
AcDbVertex
100
AcDb2dVertex
 10
84.57966950885952
 20
-134.3087794108674
 30
0.0
  0
SEQEND
  5
52
330
4F
100
AcDbEntity
  8
_U+30EC_U+30A4_U+30E4_U+30FC 1
 62
   179
420
  2234388
370
    25
  0
POLYLINE
  5
53
330
1F
100
AcDbEntity
  8
_U+30EC_U+30A4_U+30E4_U+30FC 1
 62
   179
420
  2234388
370
    25
100
AcDb2dPolyline
 66
     1
 10
0.0
 20
0.0
 30
0.0
  0
VERTEX
  5
54
330
53
100
AcDbEntity
  8
_U+30EC_U+30A4_U+30E4_U+30FC 1
 62
   179
420
  2234388
370
    25
100
AcDbVertex
100
AcDb2dVertex
 10
84.57966950885952
 20
-134.3087794108674
 30
0.0
  0
VERTEX
  5
55
330
53
100
AcDbEntity
  8
_U+30EC_U+30A4_U+30E4_U+30FC 1
 62
   179
420
  2234388
370
    25
100
AcDbVertex
100
AcDb2dVertex
 10
92.71370180134308
 20
-134.3087794108674
 30
0.0
  0
SEQEND
  5
56
330
53
100
AcDbEntity
  8
_U+30EC_U+30A4_U+30E4_U+30FC 1
 62
   179
420
  2234388
370
    25
  0
POLYLINE
  5
57
330
1F
100
AcDbEntity
  8
_U+30EC_U+30A4_U+30E4_U+30FC 1
 62
   179
420
  2234388
370
    25
100
AcDb2dPolyline
 66
     1
 10
0.0
 20
0.0
 30
0.0
  0
VERTEX
  5
58
330
57
100
AcDbEntity
  8
_U+30EC_U+30A4_U+30E4_U+30FC 1
 62
   179
420
  2234388
370
    25
100
AcDbVertex
100
AcDb2dVertex
 10
77.57957079855804
 20
-123.7089008024061
 30
0.0
  0
VERTEX
  5
59
330
57
100
AcDbEntity
  8
_U+30EC_U+30A4_U+30E4_U+30FC 1
 62
   179
420
  2234388
370
    25
100
AcDbVertex
100
AcDb2dVertex
 10
77.57957079855804
 20
-124.3090463578115
 30
0.0
  0
SEQEND
  5
5A
330
57
100
AcDbEntity
  8
_U+30EC_U+30A4_U+30E4_U+30FC 1
 62
   179
420
  2234388
370
    25
  0
POLYLINE
  5
5B
330
1F
100
AcDbEntity
  8
_U+30EC_U+30A4_U+30E4_U+30FC 1
 62
   179
420
  2234388
370
    25
100
AcDb2dPolyline
 66
     1
 10
0.0
 20
0.0
 30
0.0
  0
VERTEX
  5
5C
330
5B
100
AcDbEntity
  8
_U+30EC_U+30A4_U+30E4_U+30FC 1
 62
   179
420
  2234388
370
    25
100
AcDbVertex
100
AcDb2dVertex
 10
84.57966950885952
 20
-124.3090463578115
 30
0.0
  0
VERTEX
  5
5D
330
5B
100
AcDbEntity
  8
_U+30EC_U+30A4_U+30E4_U+30FC 1
 62
   179
420
  2234388
370
    25
100
AcDbVertex
100
AcDb2dVertex
 10
90.57964324467633
 20
-124.3090463578115
 30
0.0
  0
SEQEND
  5
5E
330
5B
100
AcDbEntity
  8
_U+30EC_U+30A4_U+30E4_U+30FC 1
 62
   179
420
  2234388
370
    25
  0
POLYLINE
  5
5F
330
1F
100
AcDbEntity
  8
_U+30EC_U+30A4_U+30E4_U+30FC 1
 62
   179
420
  2234388
370
    25
100
AcDb2dPolyline
 66
     1
 10
0.0
 20
0.0
 30
0.0
  0
VERTEX
  5
60
330
5F
100
AcDbEntity
  8
_U+30EC_U+30A4_U+30E4_U+30FC 1
 62
   179
420
  2234388
370
    25
100
AcDbVertex
100
AcDb2dVertex
 10
77.57957079855804
 20
-124.3090463578115
 30
0.0
  0
VERTEX
  5
61
330
5F
100
AcDbEntity
  8
_U+30EC_U+30A4_U+30E4_U+30FC 1
 62
   179
420
  2234388
370
    25
100
AcDbVertex
100
AcDb2dVertex
 10
83.57989731214361
 20
-124.3090463578115
 30
0.0
  0
SEQEND
  5
62
330
5F
100
AcDbEntity
  8
_U+30EC_U+30A4_U+30E4_U+30FC 1
 62
   179
420
  2234388
370
    25
  0
POLYLINE
  5
63
330
1F
100
AcDbEntity
  8
_U+30EC_U+30A4_U+30E4_U+30FC 1
 62
   179
420
  2234388
370
    25
100
AcDb2dPolyline
 66
     1
 10
0.0
 20
0.0
 30
0.0
  0
VERTEX
  5
64
330
63
100
AcDbEntity
  8
_U+30EC_U+30A4_U+30E4_U+30FC 1
 62
   179
420
  2234388
370
    25
100
AcDbVertex
100
AcDb2dVertex
 10
90.57964324467633
 20
-123.7089008024061
 30
0.0
  0
VERTEX
  5
65
330
63
100
AcDbEntity
  8
_U+30EC_U+30A4_U+30E4_U+30FC 1
 62
   179
420
  2234388
370
    25
100
AcDbVertex
100
AcDb2dVertex
 10
90.57964324467633
 20
-124.3090463578115
 30
0.0
  0
SEQEND
  5
66
330
63
100
AcDbEntity
  8
_U+30EC_U+30A4_U+30E4_U+30FC 1
 62
   179
420
  2234388
370
    25
  0
POLYLINE
  5
67
330
1F
100
AcDbEntity
  8
_U+30EC_U+30A4_U+30E4_U+30FC 1
 62
   179
420
  2234388
370
    25
100
AcDb2dPolyline
 66
     1
 10
0.0
 20
0.0
 30
0.0
  0
VERTEX
  5
68
330
67
100
AcDbEntity
  8
_U+30EC_U+30A4_U+30E4_U+30FC 1
 62
   179
420
  2234388
370
    25
100
AcDbVertex
100
AcDb2dVertex
 10
99.57978023728593
 20
-135.1590091328767
 30
0.0
  0
VERTEX
  5
69
330
67
100
AcDbEntity
  8
_U+30EC_U+30A4_U+30E4_U+30FC 1
 62
   179
420
  2234388
370
    25
100
AcDbVertex
100
AcDb2dVertex
 10
99.57978023728593
 20
-135.3085516328393
 30
0.0
  0
SEQEND
  5
6A
330
67
100
AcDbEntity
  8
_U+30EC_U+30A4_U+30E4_U+30FC 1
 62
   179
420
  2234388
370
    25
  0
POLYLINE
  5
6B
330
1F
100
AcDbEntity
  8
_U+30EC_U+30A4_U+30E4_U+30FC 1
 62
   179
420
  2234388
370
    25
100
AcDb2dPolyline
 66
     1
 10
0.0
 20
0.0
 30
0.0
  0
VERTEX
  5
6C
330
6B
100
AcDbEntity
  8
_U+30EC_U+30A4_U+30E4_U+30FC 1
 62
   179
420
  2234388
370
    25
100
AcDbVertex
100
AcDb2dVertex
 10
93.57980650146912
 20
-134.8089830218536
 30
0.0
  0
VERTEX
  5
6D
330
6B
100
AcDbEntity
  8
_U+30EC_U+30A4_U+30E4_U+30FC 1
 62
   179
420
  2234388
370
    25
100
AcDbVertex
100
AcDb2dVertex
 10
99.22978941288162
 20
-134.8089830218536
 30
0.0
  0
SEQEND
  5
6E
330
6B
100
AcDbEntity
  8
_U+30EC_U+30A4_U+30E4_U+30FC 1
 62
   179
420
  2234388
370
    25
  0
SPLINE
  5
6F
330
1F
100
AcDbEntity
  8
_U+30EC_U+30A4_U+30E4_U+30FC 1
 62
   179
420
  2234388
370
    25
100
AcDbSpline
210
0.0
220
0.0
230
1.0
 70
     8
 71
     3
 72
     8
 73
     4
 74
     0
 42
0.0000000001
 43
0.0000000001
 12
1.0
 22
0.0
 32
0.0
 13
1.0
 23
0.0
 33
0.0
 40
0.0
 40
0.0
 40
0.0
 40
0.0
 40
1.0
 40
1.0
 40
1.0
 40
1.0
 10
90.57964324467633
 20
-123.7089008024061
 30
0.0
 10
86.26294863258217
 20
-123.1756066358728
 30
0.0
 10
81.89661818842099
 20
-123.1756066358728
 30
0.0
 10
77.57957079855804
 20
-123.7089008024061
 30
0.0
  0
SPLINE
  5
70
330
1F
100
AcDbEntity
  8
_U+30EC_U+30A4_U+30E4_U+30FC 1
 62
   179
420
  2234388
370
    25
100
AcDbSpline
210
0.0
220
0.0
230
1.0
 70
     8
 71
     3
 72
     8
 73
     4
 74
     0
 42
0.0000000001
 43
0.0000000001
 12
1.0
 22
0.0
 32
0.0
 13
1.0
 23
0.0
 33
0.0
 40
0.0
 40
0.0
 40
0.0
 40
0.0
 40
1.0
 40
1.0
 40
1.0
 40
1.0
 10
78.57969577304273
 20
-134.3087794108674
 30
0.0
 10
78.02745745379816
 20
-134.3087794108674
 30
0.0
 10
77.57957079855804
 20
-134.7566307996444
 30
0.0
 10
77.57957079855804
 20
-135.3085516328393
 30
0.0
  0
SPLINE
  5
71
330
1F
100
AcDbEntity
  8
_U+30EC_U+30A4_U+30E4_U+30FC 1
 62
   179
420
  2234388
370
    25
100
AcDbSpline
210
0.0
220
0.0
230
1.0
 70
     8
 71
     3
 72
     8
 73
     4
 74
     0
 42
0.0000000001
 43
0.0000000001
 12
1.0
 22
0.0
 32
0.0
 13
1.0
 23
0.0
 33
0.0
 40
0.0
 40
0.0
 40
0.0
 40
0.0
 40
1.0
 40
1.0
 40
1.0
 40
1.0
 10
93.57980650146912
 20
-134.8089830218536
 30
0.0
 10
93.40137150602138
 20
-134.4996321885972
 30
0.0
 10
93.07131262555299
 20
-134.3087794108674
 30
0.0
 10
92.71370180134308
 20
-134.3087794108674
 30
0.0
  0
SPLINE
  5
72
330
1F
100
AcDbEntity
  8
_U+30EC_U+30A4_U+30E4_U+30FC 1
 62
   179
420
  2234388
370
    25
100
AcDbSpline
210
0.0
220
0.0
230
1.0
 70
     8
 71
     3
 72
     8
 73
     4
 74
     0
 42
0.0000000001
 43
0.0000000001
 12
1.0
 22
0.0
 32
0.0
 13
1.0
 23
0.0
 33
0.0
 40
0.0
 40
0.0
 40
0.0
 40
0.0
 40
1.0
 40
1.0
 40
1.0
 40
1.0
 10
99.57978023728593
 20
-135.1590091328767
 30
0.0
 10
99.57978023728593
 20
-134.9654046884812
 30
0.0
 10
99.4233938523868
 20
-134.8089830218536
 30
0.0
 10
99.22978941288162
 20
-134.8089830218536
 30
0.0
  0
SPLINE
  5
73
330
1F
100
AcDbEntity
  8
_U+30EC_U+30A4_U+30E4_U+30FC 1
 62
   179
420
  2234388
370
     9
100
AcDbSpline
210
0.0
220
0.0
230
1.0
 70
    11
 71
     3
 72
    17
 73
    13
 74
     0
 42
0.0000000001
 43
0.0000000001
 12
1.0
 22
0.0
 32
0.0
 13
1.0
 23
0.0
 33
0.0
 40
0.0
 40
0.0
 40
0.0
 40
0.0
 40
1.0
 40
1.0
 40
1.0
 40
2.0
 40
2.0
 40
2.0
 40
3.0
 40
3.0
 40
3.0
 40
4.0
 40
4.0
 40
4.0
 40
4.0
 10
77.67983024044464
 20
-139.3089810762842
 30
0.0
 10
77.67983024044464
 20
-139.2538771874086
 30
0.0
 10
77.63506274158676
 20
-139.2090744096419
 30
0.0
 10
77.57957079855804
 20
-139.2090744096419
 30
0.0
 10
77.52446691107497
 20
-139.2090744096419
 30
0.0
 10
77.4796641344402
 20
-139.2538771874086
 30
0.0
 10
77.4796641344402
 20
-139.3089810762842
 30
0.0
 10
77.4796641344402
 20
-139.3641202429366
 30
0.0
 10
77.52446691107497
 20
-139.4088877429258
 30
0.0
 10
77.57957079855804
 20
-139.4088877429258
 30
0.0
 10
77.63506274158676
 20
-139.4088877429258
 30
0.0
 10
77.67983024044464
 20
-139.3641202429366
 30
0.0
 10
77.67983024044464
 20
-139.3089810762842
 30
0.0
  0
SPLINE
  5
74
330
1F
100
AcDbEntity
  8
_U+30EC_U+30A4_U+30E4_U+30FC 1
 62
   179
420
  2234388
370
     9
100
AcDbSpline
210
0.0
220
0.0
230
1.0
 70
    11
 71
     3
 72
    17
 73
    13
 74
     0
 42
0.0000000001
 43
0.0000000001
 12
1.0
 22
0.0
 32
0.0
 13
1.0
 23
0.0
 33
0.0
 40
0.0
 40
0.0
 40
0.0
 40
0.0
 40
1.0
 40
1.0
 40
1.0
 40
2.0
 40
2.0
 40
2.0
 40
3.0
 40
3.0
 40
3.0
 40
4.0
 40
4.0
 40
4.0
 40
4.0
 10
99.67968690140377
 20
-139.3089810762842
 30
0.0
 10
99.67968690140377
 20
-139.2538771874086
 30
0.0
 10
99.63491940254589
 20
-139.2090744096419
 30
0.0
 10
99.57978023728593
 20
-139.2090744096419
 30
0.0
 10
99.52467634980286
 20
-139.2090744096419
 30
0.0
 10
99.47987357316809
 20
-139.2538771874086
 30
0.0
 10
99.47987357316809
 20
-139.3089810762842
 30
0.0
 10
99.47987357316809
 20
-139.3641202429366
 30
0.0
 10
99.52467634980286
 20
-139.4088877429258
 30
0.0
 10
99.57978023728593
 20
-139.4088877429258
 30
0.0
 10
99.63491940254589
 20
-139.4088877429258
 30
0.0
 10
99.67968690140377
 20
-139.3641202429366
 30
0.0
 10
99.67968690140377
 20
-139.3089810762842
 30
0.0
  0
SPLINE
  5
75
330
1F
100
AcDbEntity
  8
_U+30EC_U+30A4_U+30E4_U+30FC 1
 62
   179
420
  2234388
370
     9
100
AcDbSpline
210
0.0
220
0.0
230
1.0
 70
    11
 71
     3
 72
    17
 73
    13
 74
     0
 42
0.0000000001
 43
0.0000000001
 12
1.0
 22
0.0
 32
0.0
 13
1.0
 23
0.0
 33
0.0
 40
0.0
 40
0.0
 40
0.0
 40
0.0
 40
1.0
 40
1.0
 40
1.0
 40
2.0
 40
2.0
 40
2.0
 40
3.0
 40
3.0
 40
3.0
 40
4.0
 40
4.0
 40
4.0
 40
4.0
 10
103.5168506923984
 20
-134.3087794108674
 30
0.0
 10
103.5168506923984
 20
-134.2536402442143
 30
0.0
 10
103.4720479157637
 20
-134.2088727442257
 30
0.0
 10
103.4162384727431
 20
-134.2088727442257
 30
0.0
 10
103.36113458526
 20
-134.2088727442257
 30
0.0
 10
103.3163318086252
 20
-134.2536402442143
 30
0.0
 10
103.3163318086252
 20
-134.3087794108674
 30
0.0
 10
103.3163318086252
 20
-134.3638832997423
 30
0.0
 10
103.36113458526
 20
-134.408686077509
 30
0.0
 10
103.4162384727431
 20
-134.408686077509
 30
0.0
 10
103.4720479157637
 20
-134.408686077509
 30
0.0
 10
103.5168506923984
 20
-134.3638832997423
 30
0.0
 10
103.5168506923984
 20
-134.3087794108674
 30
0.0
  0
SPLINE
  5
76
330
1F
100
AcDbEntity
  8
_U+30EC_U+30A4_U+30E4_U+30FC 1
 62
   179
420
  2234388
370
     9
100
AcDbSpline
210
0.0
220
0.0
230
1.0
 70
    11
 71
     3
 72
    17
 73
    13
 74
     0
 42
0.0000000001
 43
0.0000000001
 12
1.0
 22
0.0
 32
0.0
 13
1.0
 23
0.0
 33
0.0
 40
0.0
 40
0.0
 40
0.0
 40
0.0
 40
1.0
 40
1.0
 40
1.0
 40
2.0
 40
2.0
 40
2.0
 40
3.0
 40
3.0
 40
3.0
 40
4.0
 40
4.0
 40
4.0
 40
4.0
 10
103.5168506923984
 20
-124.3090463578115
 30
0.0
 10
103.5168506923984
 20
-124.253236913381
 30
0.0
 10
103.4720479157637
 20
-124.2084341356147
 30
0.0
 10
103.4162384727431
 20
-124.2084341356147
 30
0.0
 10
103.36113458526
 20
-124.2084341356147
 30
0.0
 10
103.3163318086252
 20
-124.253236913381
 30
0.0
 10
103.3163318086252
 20
-124.3090463578115
 30
0.0
 10
103.3163318086252
 20
-124.3641502466867
 30
0.0
 10
103.36113458526
 20
-124.4089530244535
 30
0.0
 10
103.4162384727431
 20
-124.4089530244535
 30
0.0
 10
103.4720479157637
 20
-124.4089530244535
 30
0.0
 10
103.5168506923984
 20
-124.3641502466867
 30
0.0
 10
103.5168506923984
 20
-124.3090463578115
 30
0.0
  0
SPLINE
  5
77
330
1F
100
AcDbEntity
  8
_U+30EC_U+30A4_U+30E4_U+30FC 1
 62
   179
420
  2234388
370
     9
100
AcDbSpline
210
0.0
220
0.0
230
1.0
 70
    11
 71
     3
 72
    17
 73
    13
 74
     0
 42
0.0000000001
 43
0.0000000001
 12
1.0
 22
0.0
 32
0.0
 13
1.0
 23
0.0
 33
0.0
 40
0.0
 40
0.0
 40
0.0
 40
0.0
 40
1.0
 40
1.0
 40
1.0
 40
2.0
 40
2.0
 40
2.0
 40
3.0
 40
3.0
 40
3.0
 40
4.0
 40
4.0
 40
4.0
 40
4.0
 10
90.67990268656295
 20
-119.3088094146172
 30
0.0
 10
90.67990268656295
 20
-119.2537055257423
 30
0.0
 10
90.63513518770506
 20
-119.2089027479755
 30
0.0
 10
90.57964324467633
 20
-119.2089027479755
 30
0.0
 10
90.52454164403538
 20
-119.2089027479755
 30
0.0
 10
90.47973886626899
 20
-119.2537055257423
 30
0.0
 10
90.47973886626899
 20
-119.3088094146172
 30
0.0
 10
90.47973886626899
 20
-119.3639485812703
 30
0.0
 10
90.52454164403538
 20
-119.4087160812588
 30
0.0
 10
90.57964324467633
 20
-119.4087160812588
 30
0.0
 10
90.63513518770506
 20
-119.4087160812588
 30
0.0
 10
90.67990268656295
 20
-119.3639485812703
 30
0.0
 10
90.67990268656295
 20
-119.3088094146172
 30
0.0
  0
SPLINE
  5
78
330
1F
100
AcDbEntity
  8
_U+30EC_U+30A4_U+30E4_U+30FC 1
 62
   179
420
  2234388
370
     9
100
AcDbSpline
210
0.0
220
0.0
230
1.0
 70
    11
 71
     3
 72
    17
 73
    13
 74
     0
 42
0.0000000001
 43
0.0000000001
 12
1.0
 22
0.0
 32
0.0
 13
1.0
 23
0.0
 33
0.0
 40
0.0
 40
0.0
 40
0.0
 40
0.0
 40
1.0
 40
1.0
 40
1.0
 40
2.0
 40
2.0
 40
2.0
 40
3.0
 40
3.0
 40
3.0
 40
4.0
 40
4.0
 40
4.0
 40
4.0
 10
77.67983024044464
 20
-119.3088094146172
 30
0.0
 10
77.67983024044464
 20
-119.2537055257423
 30
0.0
 10
77.63506274158676
 20
-119.2089027479755
 30
0.0
 10
77.57957079855804
 20
-119.2089027479755
 30
0.0
 10
77.52446691107497
 20
-119.2089027479755
 30
0.0
 10
77.4796641344402
 20
-119.2537055257423
 30
0.0
 10
77.4796641344402
 20
-119.3088094146172
 30
0.0
 10
77.4796641344402
 20
-119.3639485812703
 30
0.0
 10
77.52446691107497
 20
-119.4087160812588
 30
0.0
 10
77.57957079855804
 20
-119.4087160812588
 30
0.0
 10
77.63506274158676
 20
-119.4087160812588
 30
0.0
 10
77.67983024044464
 20
-119.3639485812703
 30
0.0
 10
77.67983024044464
 20
-119.3088094146172
 30
0.0
  0
POLYLINE
  5
79
330
1F
100
AcDbEntity
  8
_U+30EC_U+30A4_U+30E4_U+30FC 1
 62
   179
420
  2234388
370
     9
100
AcDb2dPolyline
 66
     1
 10
0.0
 20
0.0
 30
0.0
  0
VERTEX
  5
7A
330
79
100
AcDbEntity
  8
_U+30EC_U+30A4_U+30E4_U+30FC 1
 62
   179
420
  2234388
370
     9
100
AcDbVertex
100
AcDb2dVertex
 10
77.57957079855804
 20
-119.3088094146172
 30
0.0
  0
VERTEX
  5
7B
330
79
100
AcDbEntity
  8
_U+30EC_U+30A4_U+30E4_U+30FC 1
 62
   179
420
  2234388
370
     9
100
AcDbVertex
100
AcDb2dVertex
 10
90.57964324467633
 20
-119.3088094146172
 30
0.0
  0
SEQEND
  5
7C
330
79
100
AcDbEntity
  8
_U+30EC_U+30A4_U+30E4_U+30FC 1
 62
   179
420
  2234388
370
     9
  0
POLYLINE
  5
7D
330
1F
100
AcDbEntity
  8
_U+30EC_U+30A4_U+30E4_U+30FC 1
 62
   179
420
  2234388
370
     9
100
AcDb2dPolyline
 66
     1
 10
0.0
 20
0.0
 30
0.0
  0
VERTEX
  5
7E
330
7D
100
AcDbEntity
  8
_U+30EC_U+30A4_U+30E4_U+30FC 1
 62
   179
420
  2234388
370
     9
100
AcDbVertex
100
AcDb2dVertex
 10
77.57957079855804
 20
-121.1684774697078
 30
0.0
  0
VERTEX
  5
7F
330
7D
100
AcDbEntity
  8
_U+30EC_U+30A4_U+30E4_U+30FC 1
 62
   179
420
  2234388
370
     9
100
AcDbVertex
100
AcDb2dVertex
 10
77.57957079855804
 20
-118.3090724704228
 30
0.0
  0
SEQEND
  5
80
330
7D
100
AcDbEntity
  8
_U+30EC_U+30A4_U+30E4_U+30FC 1
 62
   179
420
  2234388
370
     9
  0
POLYLINE
  5
81
330
1F
100
AcDbEntity
  8
_U+30EC_U+30A4_U+30E4_U+30FC 1
 62
   179
420
  2234388
370
     9
100
AcDb2dPolyline
 66
     1
 10
0.0
 20
0.0
 30
0.0
  0
VERTEX
  5
82
330
81
100
AcDbEntity
  8
_U+30EC_U+30A4_U+30E4_U+30FC 1
 62
   179
420
  2234388
370
     9
100
AcDbVertex
100
AcDb2dVertex
 10
90.57964324467633
 20
-121.1684774697078
 30
0.0
  0
VERTEX
  5
83
330
81
100
AcDbEntity
  8
_U+30EC_U+30A4_U+30E4_U+30FC 1
 62
   179
420
  2234388
370
     9
100
AcDbVertex
100
AcDb2dVertex
 10
90.57964324467633
 20
-118.3090724704228
 30
0.0
  0
SEQEND
  5
84
330
81
100
AcDbEntity
  8
_U+30EC_U+30A4_U+30E4_U+30FC 1
 62
   179
420
  2234388
370
     9
  0
INSERT
  5
86
330
1F
100
AcDbEntity
  8
_U+30EC_U+30A4_U+30E4_U+30FC 1
100
AcDbBlockReference
  2
block 2
 10
0.0
 20
0.0
 30
0.0
  0
POLYLINE
  5
8D
330
1F
100
AcDbEntity
  8
_U+30EC_U+30A4_U+30E4_U+30FC 1
 62
   179
420
  2234388
370
     9
100
AcDb2dPolyline
 66
     1
 10
0.0
 20
0.0
 30
0.0
  0
VERTEX
  5
8E
330
8D
100
AcDbEntity
  8
_U+30EC_U+30A4_U+30E4_U+30FC 1
 62
   179
420
  2234388
370
     9
100
AcDbVertex
100
AcDb2dVertex
 10
77.57957079855804
 20
-139.3089810762842
 30
0.0
  0
VERTEX
  5
8F
330
8D
100
AcDbEntity
  8
_U+30EC_U+30A4_U+30E4_U+30FC 1
 62
   179
420
  2234388
370
     9
100
AcDbVertex
100
AcDb2dVertex
 10
99.57978023728593
 20
-139.3089810762842
 30
0.0
  0
SEQEND
  5
90
330
8D
100
AcDbEntity
  8
_U+30EC_U+30A4_U+30E4_U+30FC 1
 62
   179
420
  2234388
370
     9
  0
POLYLINE
  5
91
330
1F
100
AcDbEntity
  8
_U+30EC_U+30A4_U+30E4_U+30FC 1
 62
   179
420
  2234388
370
     9
100
AcDb2dPolyline
 66
     1
 10
0.0
 20
0.0
 30
0.0
  0
VERTEX
  5
92
330
91
100
AcDbEntity
  8
_U+30EC_U+30A4_U+30E4_U+30FC 1
 62
   179
420
  2234388
370
     9
100
AcDbVertex
100
AcDb2dVertex
 10
77.57957079855804
 20
-137.8489396877598
 30
0.0
  0
VERTEX
  5
93
330
91
100
AcDbEntity
  8
_U+30EC_U+30A4_U+30E4_U+30FC 1
 62
   179
420
  2234388
370
     9
100
AcDbVertex
100
AcDb2dVertex
 10
77.57957079855804
 20
-140.3087532982561
 30
0.0
  0
SEQEND
  5
94
330
91
100
AcDbEntity
  8
_U+30EC_U+30A4_U+30E4_U+30FC 1
 62
   179
420
  2234388
370
     9
  0
POLYLINE
  5
95
330
1F
100
AcDbEntity
  8
_U+30EC_U+30A4_U+30E4_U+30FC 1
 62
   179
420
  2234388
370
     9
100
AcDb2dPolyline
 66
     1
 10
0.0
 20
0.0
 30
0.0
  0
VERTEX
  5
96
330
95
100
AcDbEntity
  8
_U+30EC_U+30A4_U+30E4_U+30FC 1
 62
   179
420
  2234388
370
     9
100
AcDbVertex
100
AcDb2dVertex
 10
99.57978023728593
 20
-137.8489396877598
 30
0.0
  0
VERTEX
  5
97
330
95
100
AcDbEntity
  8
_U+30EC_U+30A4_U+30E4_U+30FC 1
 62
   179
420
  2234388
370
     9
100
AcDbVertex
100
AcDb2dVertex
 10
99.57978023728593
 20
-140.3087532982561
 30
0.0
  0
SEQEND
  5
98
330
95
100
AcDbEntity
  8
_U+30EC_U+30A4_U+30E4_U+30FC 1
 62
   179
420
  2234388
370
     9
  0
INSERT
  5
9A
330
1F
100
AcDbEntity
  8
_U+30EC_U+30A4_U+30E4_U+30FC 1
100
AcDbBlockReference
  2
block 3
 10
0.0
 20
0.0
 30
0.0
  0
POLYLINE
  5
A1
330
1F
100
AcDbEntity
  8
_U+30EC_U+30A4_U+30E4_U+30FC 1
 62
   179
420
  2234388
370
     9
100
AcDb2dPolyline
 66
     1
 10
0.0
 20
0.0
 30
0.0
  0
VERTEX
  5
A2
330
A1
100
AcDbEntity
  8
_U+30EC_U+30A4_U+30E4_U+30FC 1
 62
   179
420
  2234388
370
     9
100
AcDbVertex
100
AcDb2dVertex
 10
103.4162384727431
 20
-124.3090463578115
 30
0.0
  0
VERTEX
  5
A3
330
A1
100
AcDbEntity
  8
_U+30EC_U+30A4_U+30E4_U+30FC 1
 62
   179
420
  2234388
370
     9
100
AcDbVertex
100
AcDb2dVertex
 10
103.4162384727431
 20
-134.3087794108674
 30
0.0
  0
SEQEND
  5
A4
330
A1
100
AcDbEntity
  8
_U+30EC_U+30A4_U+30E4_U+30FC 1
 62
   179
420
  2234388
370
     9
  0
POLYLINE
  5
A5
330
1F
100
AcDbEntity
  8
_U+30EC_U+30A4_U+30E4_U+30FC 1
 62
   179
420
  2234388
370
     9
100
AcDb2dPolyline
 66
     1
 10
0.0
 20
0.0
 30
0.0
  0
VERTEX
  5
A6
330
A5
100
AcDbEntity
  8
_U+30EC_U+30A4_U+30E4_U+30FC 1
 62
   179
420
  2234388
370
     9
100
AcDbVertex
100
AcDb2dVertex
 10
102.4206290536987
 20
-124.3090463578115
 30
0.0
  0
VERTEX
  5
A7
330
A5
100
AcDbEntity
  8
_U+30EC_U+30A4_U+30E4_U+30FC 1
 62
   179
420
  2234388
370
     9
100
AcDbVertex
100
AcDb2dVertex
 10
104.4167162249965
 20
-124.3090463578115
 30
0.0
  0
SEQEND
  5
A8
330
A5
100
AcDbEntity
  8
_U+30EC_U+30A4_U+30E4_U+30FC 1
 62
   179
420
  2234388
370
     9
  0
POLYLINE
  5
A9
330
1F
100
AcDbEntity
  8
_U+30EC_U+30A4_U+30E4_U+30FC 1
 62
   179
420
  2234388
370
     9
100
AcDb2dPolyline
 66
     1
 10
0.0
 20
0.0
 30
0.0
  0
VERTEX
  5
AA
330
A9
100
AcDbEntity
  8
_U+30EC_U+30A4_U+30E4_U+30FC 1
 62
   179
420
  2234388
370
     9
100
AcDbVertex
100
AcDb2dVertex
 10
102.4206290536987
 20
-134.3087794108674
 30
0.0
  0
VERTEX
  5
AB
330
A9
100
AcDbEntity
  8
_U+30EC_U+30A4_U+30E4_U+30FC 1
 62
   179
420
  2234388
370
     9
100
AcDbVertex
100
AcDb2dVertex
 10
104.4167162249965
 20
-134.3087794108674
 30
0.0
  0
SEQEND
  5
AC
330
A9
100
AcDbEntity
  8
_U+30EC_U+30A4_U+30E4_U+30FC 1
 62
   179
420
  2234388
370
     9
  0
INSERT
  5
AE
330
1F
100
AcDbEntity
  8
_U+30EC_U+30A4_U+30E4_U+30FC 1
100
AcDbBlockReference
  2
block 4
 10
0.0
 20
0.0
 30
0.0
  0
SPLINE
  5
B6
330
1F
100
AcDbEntity
  8
_U+30EC_U+30A4_U+30E4_U+30FC 1
 62
   179
420
  2234388
370
     9
100
AcDbSpline
210
0.0
220
0.0
230
1.0
 70
    11
 71
     3
 72
    17
 73
    13
 74
     0
 42
0.0000000001
 43
0.0000000001
 12
1.0
 22
0.0
 32
0.0
 13
1.0
 23
0.0
 33
0.0
 40
0.0
 40
0.0
 40
0.0
 40
0.0
 40
1.0
 40
1.0
 40
1.0
 40
2.0
 40
2.0
 40
2.0
 40
3.0
 40
3.0
 40
3.0
 40
4.0
 40
4.0
 40
4.0
 40
4.0
 10
83.68206386796832
 20
-129.316127189893
 30
0.0
 10
83.68206386796832
 20
-129.2610233010181
 30
0.0
 10
83.63726109020192
 20
-129.2162205232514
 30
0.0
 10
83.5819787009794
 20
-129.2162205232514
 30
0.0
 10
83.52684164578504
 20
-129.2162205232514
 30
0.0
 10
83.48207203686157
 20
-129.2610233010181
 30
0.0
 10
83.48207203686157
 20
-129.316127189893
 30
0.0
 10
83.48207203686157
 20
-129.3712663565461
 30
0.0
 10
83.52684164578504
 20
-129.4160338565347
 30
0.0
 10
83.5819787009794
 20
-129.4160338565347
 30
0.0
 10
83.63726109020192
 20
-129.4160338565347
 30
0.0
 10
83.68206386796832
 20
-129.3712663565461
 30
0.0
 10
83.68206386796832
 20
-129.316127189893
 30
0.0
  0
SPLINE
  5
B7
330
1F
100
AcDbEntity
  8
_U+30EC_U+30A4_U+30E4_U+30FC 1
 62
   179
420
  2234388
370
     9
100
AcDbSpline
210
0.0
220
0.0
230
1.0
 70
    11
 71
     3
 72
    17
 73
    13
 74
     0
 42
0.0000000001
 43
0.0000000001
 12
1.0
 22
0.0
 32
0.0
 13
1.0
 23
0.0
 33
0.0
 40
0.0
 40
0.0
 40
0.0
 40
0.0
 40
1.0
 40
1.0
 40
1.0
 40
2.0
 40
2.0
 40
2.0
 40
3.0
 40
3.0
 40
3.0
 40
4.0
 40
4.0
 40
4.0
 40
4.0
 10
84.68183608994053
 20
-129.316127189893
 30
0.0
 10
84.68183608994053
 20
-129.2610233010181
 30
0.0
 10
84.63703331217414
 20
-129.2162205232514
 30
0.0
 10
84.58175089769531
 20
-129.2162205232514
 30
0.0
 10
84.52661386775726
 20
-129.2162205232514
 30
0.0
 10
84.48184423357748
 20
-129.2610233010181
 30
0.0
 10
84.48184423357748
 20
-129.316127189893
 30
0.0
 10
84.48184423357748
 20
-129.3712663565461
 30
0.0
 10
84.52661386775726
 20
-129.4160338565347
 30
0.0
 10
84.58175089769531
 20
-129.4160338565347
 30
0.0
 10
84.63703331217414
 20
-129.4160338565347
 30
0.0
 10
84.68183608994053
 20
-129.3712663565461
 30
0.0
 10
84.68183608994053
 20
-129.316127189893
 30
0.0
  0
INSERT
  5
B9
330
1F
100
AcDbEntity
  8
_U+30EC_U+30A4_U+30E4_U+30FC 1
100
AcDbBlockReference
  2
block 5
 10
0.0
 20
0.0
 30
0.0
  0
POLYLINE
  5
BE
330
1F
100
AcDbEntity
  8
_U+30EC_U+30A4_U+30E4_U+30FC 1
 62
   179
420
  2234388
370
     9
100
AcDb2dPolyline
 66
     1
 10
0.0
 20
0.0
 30
0.0
  0
VERTEX
  5
BF
330
BE
100
AcDbEntity
  8
_U+30EC_U+30A4_U+30E4_U+30FC 1
 62
   179
420
  2234388
370
     9
100
AcDbVertex
100
AcDb2dVertex
 10
85.4431989312735
 20
-129.316127189893
 30
0.0
  0
VERTEX
  5
C0
330
BE
100
AcDbEntity
  8
_U+30EC_U+30A4_U+30E4_U+30FC 1
 62
   179
420
  2234388
370
     9
100
AcDbVertex
100
AcDb2dVertex
 10
81.60413014032741
 20
-129.316127189893
 30
0.0
  0
SEQEND
  5
C1
330
BE
100
AcDbEntity
  8
_U+30EC_U+30A4_U+30E4_U+30FC 1
 62
   179
420
  2234388
370
     9
  0
SPLINE
  5
C2
330
1F
100
AcDbEntity
  8
_U+30EC_U+30A4_U+30E4_U+30FC 1
 62
   179
420
  2234388
370
     9
100
AcDbSpline
210
0.0
220
0.0
230
1.0
 70
    11
 71
     3
 72
    17
 73
    13
 74
     0
 42
0.0000000001
 43
0.0000000001
 12
1.0
 22
0.0
 32
0.0
 13
1.0
 23
0.0
 33
0.0
 40
0.0
 40
0.0
 40
0.0
 40
0.0
 40
1.0
 40
1.0
 40
1.0
 40
2.0
 40
2.0
 40
2.0
 40
3.0
 40
3.0
 40
3.0
 40
4.0
 40
4.0
 40
4.0
 40
4.0
 10
103.5161451368609
 20
-135.3061174661738
 30
0.0
 10
103.5161451368609
 20
-135.2506607995204
 30
0.0
 10
103.471377638003
 20
-135.2058580217544
 30
0.0
 10
103.4162384727431
 20
-135.2058580217544
 30
0.0
 10
103.36113458526
 20
-135.2058580217544
 30
0.0
 10
103.3163318086252
 20
-135.2506607995204
 30
0.0
 10
103.3163318086252
 20
-135.3061174661738
 30
0.0
 10
103.3163318086252
 20
-135.3612566328262
 30
0.0
 10
103.36113458526
 20
-135.4060241328154
 30
0.0
 10
103.4162384727431
 20
-135.4060241328154
 30
0.0
 10
103.471377638003
 20
-135.4060241328154
 30
0.0
 10
103.5161451368609
 20
-135.3612566328262
 30
0.0
 10
103.5161451368609
 20
-135.3061174661738
 30
0.0
  0
POLYLINE
  5
C3
330
1F
100
AcDbEntity
  8
_U+30EC_U+30A4_U+30E4_U+30FC 1
 62
   179
420
  2234388
370
     9
100
AcDb2dPolyline
 66
     1
 10
0.0
 20
0.0
 30
0.0
  0
VERTEX
  5
C4
330
C3
100
AcDbEntity
  8
_U+30EC_U+30A4_U+30E4_U+30FC 1
 62
   179
420
  2234388
370
     9
100
AcDbVertex
100
AcDb2dVertex
 10
103.4162384727431
 20
-133.6586805221409
 30
0.0
  0
VERTEX
  5
C5
330
C3
100
AcDbEntity
  8
_U+30EC_U+30A4_U+30E4_U+30FC 1
 62
   179
420
  2234388
370
     9
100
AcDbVertex
100
AcDb2dVertex
 10
103.4162384727431
 20
-135.3061174661738
 30
0.0
  0
SEQEND
  5
C6
330
C3
100
AcDbEntity
  8
_U+30EC_U+30A4_U+30E4_U+30FC 1
 62
   179
420
  2234388
370
     9
  0
POLYLINE
  5
C7
330
1F
100
AcDbEntity
  8
_U+30EC_U+30A4_U+30E4_U+30FC 1
 62
   179
420
  2234388
370
     9
100
AcDb2dPolyline
 66
     1
 10
0.0
 20
0.0
 30
0.0
  0
VERTEX
  5
C8
330
C7
100
AcDbEntity
  8
_U+30EC_U+30A4_U+30E4_U+30FC 1
 62
   179
420
  2234388
370
     9
100
AcDbVertex
100
AcDb2dVertex
 10
102.4206290536987
 20
-135.3061174661738
 30
0.0
  0
VERTEX
  5
C9
330
C7
100
AcDbEntity
  8
_U+30EC_U+30A4_U+30E4_U+30FC 1
 62
   179
420
  2234388
370
     9
100
AcDbVertex
100
AcDb2dVertex
 10
104.4167162249965
 20
-135.3061174661738
 30
0.0
  0
SEQEND
  5
CA
330
C7
100
AcDbEntity
  8
_U+30EC_U+30A4_U+30E4_U+30FC 1
 62
   179
420
  2234388
370
     9
  0
INSERT
  5
CC
330
1F
100
AcDbEntity
  8
_U+30EC_U+30A4_U+30E4_U+30FC 1
100
AcDbBlockReference
  2
block 6
 10
0.0
 20
0.0
 30
0.0
  0
ENDSEC
  0
SECTION
  2
OBJECTS
  0
DICTIONARY
  5
C
330
0
100
AcDbDictionary
281
     1
  3
ACAD_GROUP
350
D
  3
ACAD_LAYOUT
350
1A
  3
ACAD_MATERIAL
350
3B
  3
ACAD_MLEADERSTYLE
350
D2
  3
ACAD_MLINESTYLE
350
17
  3
ACAD_PLOTSETTINGS
350
19
  3
ACAD_PLOTSTYLENAME
350
E
  3
ACAD_TABLESTYLE
350
D1
  3
ACAD_VISUALSTYLE
350
2A
  0
SUN
  5
3F
330
29
100
AcDbSun
 90
        1
290
     0
 63
     7
421
 16777215
 40
1.0
291
     1
 91
  2455826
 92
 54000000
292
     0
 70
     2
 71
   256
280
     1
  0
DICTIONARY
  5
D
102
{ACAD_REACTORS
330
C
102
}
330
C
100
AcDbDictionary
281
     1
  0
DICTIONARY
  5
1A
102
{ACAD_REACTORS
330
C
102
}
330
C
100
AcDbDictionary
281
     1
  3
Layout1
350
1E
  3
Layout2
350
26
  3
Model
350
22
  0
DICTIONARY
  5
3B
102
{ACAD_REACTORS
330
C
102
}
330
C
100
AcDbDictionary
281
     1
  3
ByBlock
350
3D
  3
ByLayer
350
3C
  3
Global
350
3E
  0
DICTIONARY
  5
D2
102
{ACAD_REACTORS
330
C
102
}
330
C
100
AcDbDictionary
281
     1
  0
DICTIONARY
  5
17
102
{ACAD_REACTORS
330
C
102
}
330
C
100
AcDbDictionary
281
     1
  3
Standard
350
18
  0
DICTIONARY
  5
19
102
{ACAD_REACTORS
330
C
102
}
330
C
100
AcDbDictionary
281
     1
  0
ACDBDICTIONARYWDFLT
  5
E
102
{ACAD_REACTORS
330
C
102
}
330
C
100
AcDbDictionary
281
     1
  3
Normal
350
F
100
AcDbDictionaryWithDefault
340
F
  0
DICTIONARY
  5
D1
102
{ACAD_REACTORS
330
C
102
}
330
C
100
AcDbDictionary
281
     1
  0
DICTIONARY
  5
2A
102
{ACAD_REACTORS
330
C
102
}
330
C
100
AcDbDictionary
281
     1
  3
2dWireframe
350
2F
  3
3D Hidden
350
31
  3
3dWireframe
350
30
  3
Basic
350
32
  3
Brighten
350
36
  3
ColorChange
350
3A
  3
Conceptual
350
34
  3
Dim
350
35
  3
Facepattern
350
39
  3
Flat
350
2B
  3
FlatWithEdges
350
2C
  3
Gouraud
350
2D
  3
GouraudWithEdges
350
2E
  3
Linepattern
350
38
  3
Realistic
350
33
  3
Thicken
350
37
  0
LAYOUT
  5
1E
102
{ACAD_REACTORS
330
1A
102
}
330
1A
100
AcDbPlotSettings
  1

  2
none_device
  4

  6

 40
0.0
 41
0.0
 42
0.0
 43
0.0
 44
0.0
 45
0.0
 46
0.0
 47
0.0
 48
0.0
 49
0.0
140
0.0
141
0.0
142
1.0
143
1.0
 70
   688
 72
     0
 73
     0
 74
     5
  7

 75
    16
 76
     0
 77
     2
 78
   300
147
1.0
148
0.0
149
0.0
100
AcDbLayout
  1
Layout1
 70
     1
 71
     1
 10
0.0
 20
0.0
 11
12.0
 21
9.0
 12
0.0
 22
0.0
 32
0.0
 14
1.000000000000000E+20
 24
1.000000000000000E+20
 34
1.000000000000000E+20
 15
-1.000000000000000E+20
 25
-1.000000000000000E+20
 35
-1.000000000000000E+20
146
0.0
 13
0.0
 23
0.0
 33
0.0
 16
1.0
 26
0.0
 36
0.0
 17
0.0
 27
1.0
 37
0.0
 76
     0
330
1B
  0
LAYOUT
  5
26
102
{ACAD_REACTORS
330
1A
102
}
330
1A
100
AcDbPlotSettings
  1

  2
none_device
  4

  6

 40
0.0
 41
0.0
 42
0.0
 43
0.0
 44
0.0
 45
0.0
 46
0.0
 47
0.0
 48
0.0
 49
0.0
140
0.0
141
0.0
142
1.0
143
1.0
 70
   688
 72
     0
 73
     0
 74
     5
  7

 75
    16
 76
     0
 77
     2
 78
   300
147
1.0
148
0.0
149
0.0
100
AcDbLayout
  1
Layout2
 70
     1
 71
     2
 10
0.0
 20
0.0
 11
0.0
 21
0.0
 12
0.0
 22
0.0
 32
0.0
 14
0.0
 24
0.0
 34
0.0
 15
0.0
 25
0.0
 35
0.0
146
0.0
 13
0.0
 23
0.0
 33
0.0
 16
1.0
 26
0.0
 36
0.0
 17
0.0
 27
1.0
 37
0.0
 76
     0
330
23
  0
LAYOUT
  5
22
102
{ACAD_REACTORS
330
1A
102
}
330
1A
100
AcDbPlotSettings
  1

  2
none_device
  4

  6

 40
0.0
 41
0.0
 42
0.0
 43
0.0
 44
0.0
 45
0.0
 46
0.0
 47
0.0
 48
0.0
 49
0.0
140
0.0
141
0.0
142
1.0
143
1.0
 70
  1712
 72
     0
 73
     0
 74
     0
  7

 75
     0
 76
     0
 77
     2
 78
   300
147
1.0
148
0.0
149
0.0
100
AcDbLayout
  1
Model
 70
     1
 71
     0
 10
0.0
 20
0.0
 11
12.0
 21
9.0
 12
0.0
 22
0.0
 32
0.0
 14
1.000000000000000E+20
 24
1.000000000000000E+20
 34
1.000000000000000E+20
 15
-1.000000000000000E+20
 25
-1.000000000000000E+20
 35
-1.000000000000000E+20
146
0.0
 13
0.0
 23
0.0
 33
0.0
 16
1.0
 26
0.0
 36
0.0
 17
0.0
 27
1.0
 37
0.0
 76
     0
330
1F
331
29
  0
MATERIAL
  5
3D
102
{ACAD_REACTORS
330
3B
102
}
330
3B
100
AcDbMaterial
  1
ByBlock
 72
     1
 94
      127
  0
MATERIAL
  5
3C
102
{ACAD_REACTORS
330
3B
102
}
330
3B
100
AcDbMaterial
  1
ByLayer
 72
     1
 94
      127
  0
MATERIAL
  5
3E
102
{ACAD_REACTORS
330
3B
102
}
330
3B
100
AcDbMaterial
  1
Global
 72
     1
 94
      127
  0
MLINESTYLE
  5
18
102
{ACAD_REACTORS
330
17
102
}
330
17
100
AcDbMlineStyle
  2
Standard
 70
     0
  3

 62
   256
 51
90.0
 52
90.0
 71
     2
 49
0.5
 62
   256
  6
BYLAYER
 49
-0.5
 62
   256
  6
BYLAYER
  0
ACDBPLACEHOLDER
  5
F
102
{ACAD_REACTORS
330
E
102
}
330
E
  0
VISUALSTYLE
  5
2F
102
{ACAD_REACTORS
330
2A
102
}
330
2A
100
AcDbVisualStyle
  2
2dWireframe
 70
     4
177
     2
291
     0
 71
     0
176
     1
 72
     2
176
     1
 73
     0
176
     1
 90
        0
176
     1
 40
-0.6
176
     1
 41
-30.0
176
     1
 62
     5
 63
     7
421
 16777215
176
     1
 74
     1
176
     1
 91
        4
176
     1
 64
     7
176
     1
 65
   257
176
     1
 75
     1
176
     1
175
     1
176
     1
 42
1.0
176
     1
 92
        0
176
     1
 66
   257
176
     1
 43
1.0
176
     1
 76
     1
176
     1
 77
     6
176
     1
 78
     2
176
     1
 67
     7
176
     1
 79
     5
176
     1
170
     0
176
     1
171
     0
176
     1
290
     0
176
     1
 93
        1
176
     1
 44
0.0
176
     1
173
     0
176
     1
  0
VISUALSTYLE
  5
31
102
{ACAD_REACTORS
330
2A
102
}
330
2A
100
AcDbVisualStyle
  2
3D Hidden
 70
     6
177
     2
291
     0
 71
     1
176
     1
 72
     2
176
     1
 73
     2
176
     1
 90
        0
176
     1
 40
-0.6
176
     1
 41
-30.0
176
     1
 62
     5
 63
     7
421
 16777215
176
     1
 74
     2
176
     1
 91
        2
176
     1
 64
     7
176
     1
 65
   257
176
     1
 75
     2
176
     1
175
     1
176
     1
 42
40.0
176
     1
 92
        0
176
     1
 66
   257
176
     1
 43
1.0
176
     1
 76
     1
176
     1
 77
     6
176
     1
 78
     2
176
     1
 67
     7
176
     1
 79
     3
176
     1
170
     0
176
     1
171
     0
176
     1
290
     0
176
     1
 93
        1
176
     1
 44
0.0
176
     1
173
     0
176
     1
  0
VISUALSTYLE
  5
30
102
{ACAD_REACTORS
330
2A
102
}
330
2A
100
AcDbVisualStyle
  2
3dWireframe
 70
     5
177
     2
291
     0
 71
     0
176
     1
 72
     2
176
     1
 73
     0
176
     1
 90
        0
176
     1
 40
-0.6
176
     1
 41
-30.0
176
     1
 62
     5
 63
     7
421
 16777215
176
     1
 74
     1
176
     1
 91
        4
176
     1
 64
     7
176
     1
 65
   257
176
     1
 75
     1
176
     1
175
     1
176
     1
 42
1.0
176
     1
 92
        0
176
     1
 66
   257
176
     1
 43
1.0
176
     1
 76
     1
176
     1
 77
     6
176
     1
 78
     2
176
     1
 67
     7
176
     1
 79
     5
176
     1
170
     0
176
     1
171
     0
176
     1
290
     0
176
     1
 93
        1
176
     1
 44
0.0
176
     1
173
     0
176
     1
  0
VISUALSTYLE
  5
32
102
{ACAD_REACTORS
330
2A
102
}
330
2A
100
AcDbVisualStyle
  2
Basic
 70
     7
177
     2
291
     1
 71
     1
176
     1
 72
     0
176
     1
 73
     1
176
     1
 90
        0
176
     1
 40
-0.6
176
     1
 41
-30.0
176
     1
 62
     5
 63
     7
421
 16777215
176
     1
 74
     0
176
     1
 91
        4
176
     1
 64
     7
176
     1
 65
   257
176
     1
 75
     1
176
     1
175
     1
176
     1
 42
1.0
176
     1
 92
        8
176
     1
 66
     7
176
     1
 43
1.0
176
     1
 76
     1
176
     1
 77
     6
176
     1
 78
     2
176
     1
 67
     7
176
     1
 79
     5
176
     1
170
     0
176
     1
171
     0
176
     1
290
     0
176
     1
 93
        1
176
     1
 44
0.0
176
     1
173
     0
176
     1
  0
VISUALSTYLE
  5
36
102
{ACAD_REACTORS
330
2A
102
}
330
2A
100
AcDbVisualStyle
  2
Brighten
 70
    12
177
     2
291
     1
 71
     2
176
     1
 72
     2
176
     1
 73
     0
176
     1
 90
        0
176
     1
 40
-0.6
176
     1
 41
-30.0
176
     1
 62
     5
 63
     7
421
 16777215
176
     1
 74
     1
176
     1
 91
        4
176
     1
 64
     7
176
     1
 65
   257
176
     1
 75
     1
176
     1
175
     1
176
     1
 42
1.0
176
     1
 92
        8
176
     1
 66
     7
176
     1
 43
1.0
176
     1
 76
     1
176
     1
 77
     6
176
     1
 78
     2
176
     1
 67
     7
176
     1
 79
     5
176
     1
170
     0
176
     1
171
     0
176
     1
290
     0
176
     1
 93
        1
176
     1
 44
50.0
176
     1
173
     0
176
     1
  0
VISUALSTYLE
  5
3A
102
{ACAD_REACTORS
330
2A
102
}
330
2A
100
AcDbVisualStyle
  2
ColorChange
 70
    16
177
     2
291
     1
 71
     2
176
     1
 72
     2
176
     1
 73
     3
176
     1
 90
        0
176
     1
 40
-0.6
176
     1
 41
-30.0
176
     1
 62
     5
 63
     8
421
  8421504
176
     1
 74
     1
176
     1
 91
        4
176
     1
 64
     7
176
     1
 65
   257
176
     1
 75
     1
176
     1
175
     1
176
     1
 42
1.0
176
     1
 92
        8
176
     1
 66
     8
424
  8421504
176
     1
 43
1.0
176
     1
 76
     1
176
     1
 77
     6
176
     1
 78
     2
176
     1
 67
     7
176
     1
 79
     5
176
     1
170
     0
176
     1
171
     0
176
     1
290
     0
176
     1
 93
        1
176
     1
 44
0.0
176
     1
173
     0
176
     1
  0
VISUALSTYLE
  5
34
102
{ACAD_REACTORS
330
2A
102
}
330
2A
100
AcDbVisualStyle
  2
Conceptual
 70
     9
177
     2
291
     0
 71
     3
176
     1
 72
     2
176
     1
 73
     0
176
     1
 90
        0
176
     1
 40
-0.6
176
     1
 41
-30.0
176
     1
 62
     5
 63
     7
421
 16777215
176
     1
 74
     2
176
     1
 91
        2
176
     1
 64
     7
176
     1
 65
   257
176
     1
 75
     1
176
     1
175
     1
176
     1
 42
40.0
176
     1
 92
        8
176
     1
 66
     7
176
     1
 43
1.0
176
     1
 76
     1
176
     1
 77
     6
176
     1
 78
     2
176
     1
 67
     7
176
     1
 79
     3
176
     1
170
     0
176
     1
171
     0
176
     1
290
     0
176
     1
 93
        1
176
     1
 44
0.0
176
     1
173
     0
176
     1
  0
VISUALSTYLE
  5
35
102
{ACAD_REACTORS
330
2A
102
}
330
2A
100
AcDbVisualStyle
  2
Dim
 70
    11
177
     2
291
     1
 71
     2
176
     1
 72
     2
176
     1
 73
     0
176
     1
 90
        0
176
     1
 40
-0.6
176
     1
 41
-30.0
176
     1
 62
     5
 63
     7
421
 16777215
176
     1
 74
     1
176
     1
 91
        4
176
     1
 64
     7
176
     1
 65
   257
176
     1
 75
     1
176
     1
175
     1
176
     1
 42
1.0
176
     1
 92
        8
176
     1
 66
     7
176
     1
 43
1.0
176
     1
 76
     1
176
     1
 77
     6
176
     1
 78
     2
176
     1
 67
     7
176
     1
 79
     5
176
     1
170
     0
176
     1
171
     0
176
     1
290
     0
176
     1
 93
        1
176
     1
 44
-50.0
176
     1
173
     0
176
     1
  0
VISUALSTYLE
  5
39
102
{ACAD_REACTORS
330
2A
102
}
330
2A
100
AcDbVisualStyle
  2
Facepattern
 70
    15
177
     2
291
     1
 71
     2
176
     1
 72
     2
176
     1
 73
     0
176
     1
 90
        0
176
     1
 40
-0.6
176
     1
 41
-30.0
176
     1
 62
     5
 63
     7
421
 16777215
176
     1
 74
     1
176
     1
 91
        4
176
     1
 64
     7
176
     1
 65
   257
176
     1
 75
     1
176
     1
175
     1
176
     1
 42
1.0
176
     1
 92
        8
176
     1
 66
     7
176
     1
 43
1.0
176
     1
 76
     1
176
     1
 77
     6
176
     1
 78
     2
176
     1
 67
     7
176
     1
 79
     5
176
     1
170
     0
176
     1
171
     0
176
     1
290
     0
176
     1
 93
        1
176
     1
 44
0.0
176
     1
173
     0
176
     1
  0
VISUALSTYLE
  5
2B
102
{ACAD_REACTORS
330
2A
102
}
330
2A
100
AcDbVisualStyle
  2
Flat
 70
     0
177
     2
291
     1
 71
     2
176
     1
 72
     1
176
     1
 73
     1
176
     1
 90
        2
176
     1
 40
-0.6
176
     1
 41
30.0
176
     1
 62
     5
 63
     7
421
 16777215
176
     1
 74
     0
176
     1
 91
        4
176
     1
 64
     7
176
     1
 65
   257
176
     1
 75
     1
176
     1
175
     1
176
     1
 42
1.0
176
     1
 92
        8
176
     1
 66
     7
176
     1
 43
1.0
176
     1
 76
     1
176
     1
 77
     6
176
     1
 78
     2
176
     1
 67
     7
176
     1
 79
     5
176
     1
170
     0
176
     1
171
     0
176
     1
290
     0
176
     1
 93
       13
176
     1
 44
0.0
176
     1
173
     0
176
     1
  0
VISUALSTYLE
  5
2C
102
{ACAD_REACTORS
330
2A
102
}
330
2A
100
AcDbVisualStyle
  2
FlatWithEdges
 70
     1
177
     2
291
     1
 71
     2
176
     1
 72
     1
176
     1
 73
     1
176
     1
 90
        2
176
     1
 40
-0.6
176
     1
 41
30.0
176
     1
 62
     5
 63
     7
421
 16777215
176
     1
 74
     1
176
     1
 91
        4
176
     1
 64
     7
176
     1
 65
   257
176
     1
 75
     1
176
     1
175
     1
176
     1
 42
1.0
176
     1
 92
        0
176
     1
 66
   257
176
     1
 43
1.0
176
     1
 76
     1
176
     1
 77
     6
176
     1
 78
     2
176
     1
 67
     7
176
     1
 79
     5
176
     1
170
     0
176
     1
171
     0
176
     1
290
     0
176
     1
 93
       13
176
     1
 44
0.0
176
     1
173
     0
176
     1
  0
VISUALSTYLE
  5
2D
102
{ACAD_REACTORS
330
2A
102
}
330
2A
100
AcDbVisualStyle
  2
Gouraud
 70
     2
177
     2
291
     1
 71
     2
176
     1
 72
     2
176
     1
 73
     1
176
     1
 90
        2
176
     1
 40
-0.6
176
     1
 41
30.0
176
     1
 62
     5
 63
     7
421
 16777215
176
     1
 74
     0
176
     1
 91
        4
176
     1
 64
     7
176
     1
 65
   257
176
     1
 75
     1
176
     1
175
     1
176
     1
 42
1.0
176
     1
 92
        0
176
     1
 66
     7
176
     1
 43
1.0
176
     1
 76
     1
176
     1
 77
     6
176
     1
 78
     2
176
     1
 67
     7
176
     1
 79
     5
176
     1
170
     0
176
     1
171
     0
176
     1
290
     0
176
     1
 93
       13
176
     1
 44
0.0
176
     1
173
     0
176
     1
  0
VISUALSTYLE
  5
2E
102
{ACAD_REACTORS
330
2A
102
}
330
2A
100
AcDbVisualStyle
  2
GouraudWithEdges
 70
     3
177
     2
291
     1
 71
     2
176
     1
 72
     2
176
     1
 73
     1
176
     1
 90
        2
176
     1
 40
-0.6
176
     1
 41
30.0
176
     1
 62
     5
 63
     7
421
 16777215
176
     1
 74
     1
176
     1
 91
        4
176
     1
 64
     7
176
     1
 65
   257
176
     1
 75
     1
176
     1
175
     1
176
     1
 42
1.0
176
     1
 92
        0
176
     1
 66
   257
176
     1
 43
1.0
176
     1
 76
     1
176
     1
 77
     6
176
     1
 78
     2
176
     1
 67
     7
176
     1
 79
     5
176
     1
170
     0
176
     1
171
     0
176
     1
290
     0
176
     1
 93
       13
176
     1
 44
0.0
176
     1
173
     0
176
     1
  0
VISUALSTYLE
  5
38
102
{ACAD_REACTORS
330
2A
102
}
330
2A
100
AcDbVisualStyle
  2
Linepattern
 70
    14
177
     2
291
     1
 71
     2
176
     1
 72
     2
176
     1
 73
     0
176
     1
 90
        0
176
     1
 40
-0.6
176
     1
 41
-30.0
176
     1
 62
     5
 63
     7
421
 16777215
176
     1
 74
     1
176
     1
 91
        4
176
     1
 64
     7
176
     1
 65
   257
176
     1
 75
     7
176
     1
175
     7
176
     1
 42
1.0
176
     1
 92
        8
176
     1
 66
     7
176
     1
 43
1.0
176
     1
 76
     1
176
     1
 77
     6
176
     1
 78
     2
176
     1
 67
     7
176
     1
 79
     5
176
     1
170
     0
176
     1
171
     0
176
     1
290
     0
176
     1
 93
        1
176
     1
 44
0.0
176
     1
173
     0
176
     1
  0
VISUALSTYLE
  5
33
102
{ACAD_REACTORS
330
2A
102
}
330
2A
100
AcDbVisualStyle
  2
Realistic
 70
     8
177
     2
291
     0
 71
     2
176
     1
 72
     2
176
     1
 73
     0
176
     1
 90
        0
176
     1
 40
-0.6
176
     1
 41
-30.0
176
     1
 62
     5
 63
     7
421
 16777215
176
     1
 74
     1
176
     1
 91
        0
176
     1
 64
     7
176
     1
 65
   257
176
     1
 75
     1
176
     1
175
     1
176
     1
 42
1.0
176
     1
 92
        8
176
     1
 66
     8
424
  7895160
176
     1
 43
1.0
176
     1
 76
     1
176
     1
 77
     6
176
     1
 78
     2
176
     1
 67
     7
176
     1
 79
     5
176
     1
170
     0
176
     1
171
     0
176
     1
290
     0
176
     1
 93
       13
176
     1
 44
0.0
176
     1
173
     0
176
     1
  0
VISUALSTYLE
  5
37
102
{ACAD_REACTORS
330
2A
102
}
330
2A
100
AcDbVisualStyle
  2
Thicken
 70
    13
177
     2
291
     1
 71
     2
176
     1
 72
     2
176
     1
 73
     0
176
     1
 90
        0
176
     1
 40
-0.6
176
     1
 41
-30.0
176
     1
 62
     5
 63
     7
421
 16777215
176
     1
 74
     1
176
     1
 91
        4
176
     1
 64
     7
176
     1
 65
   257
176
     1
 75
     1
176
     1
175
     1
176
     1
 42
1.0
176
     1
 92
       12
176
     1
 66
     7
176
     1
 43
1.0
176
     1
 76
     1
176
     1
 77
     6
176
     1
 78
     2
176
     1
 67
     7
176
     1
 79
     5
176
     1
170
     0
176
     1
171
     0
176
     1
290
     0
176
     1
 93
        1
176
     1
 44
0.0
176
     1
173
     0
176
     1
  0
ENDSEC
  0
EOF
