  0
SECTION
  2
HEADER
  9
$ACADVER
  1
AC1024
  9
$ACADMAINTVER
 70
     6
  9
$DWGCODEPAGE
  3
UNDEFINED
  9
$INSBASE
 10
0.0
 20
0.0
 30
0.0
  9
$EXTMIN
 10
1.000000000000000E+20
 20
1.000000000000000E+20
 30
1.000000000000000E+20
  9
$EXTMAX
 10
-1.000000000000000E+20
 20
-1.000000000000000E+20
 30
-1.000000000000000E+20
  9
$LIMMIN
 10
0.0
 20
0.0
  9
$LIMMAX
 10
12.0
 20
9.0
  9
$ORTHOMODE
 70
     0
  9
$REGENMODE
 70
     1
  9
$FILLMODE
 70
     1
  9
$QTEXTMODE
 70
     0
  9
$MIRRTEXT
 70
     1
  9
$LTSCALE
 40
1.0
  9
$ATTMODE
 70
     1
  9
$TEXTSIZE
 40
0.2
  9
$TRACEWID
 40
0.05
  9
$TEXTSTYLE
  7
Standard
  9
$CLAYER
  8
0
  9
$CELTYPE
  6
ByLayer
  9
$CECOLOR
 62
   256
  9
$CELTSCALE
 40
1.0
  9
$DISPSILH
 70
     0
  9
$DIMSCALE
 40
1.0
  9
$DIMASZ
 40
0.18
  9
$DIMEXO
 40
0.0625
  9
$DIMDLI
 40
0.38
  9
$DIMRND
 40
0.0
  9
$DIMDLE
 40
0.0
  9
$DIMEXE
 40
0.18
  9
$DIMTP
 40
0.0
  9
$DIMTM
 40
0.0
  9
$DIMTXT
 40
0.18
  9
$DIMCEN
 40
0.09
  9
$DIMTSZ
 40
0.0
  9
$DIMTOL
 70
     0
  9
$DIMLIM
 70
     0
  9
$DIMTIH
 70
     1
  9
$DIMTOH
 70
     1
  9
$DIMSE1
 70
     0
  9
$DIMSE2
 70
     0
  9
$DIMTAD
 70
     0
  9
$DIMZIN
 70
     0
  9
$DIMBLK
  1

  9
$DIMASO
 70
     1
  9
$DIMSHO
 70
     1
  9
$DIMPOST
  1

  9
$DIMAPOST
  1

  9
$DIMALT
 70
     0
  9
$DIMALTD
 70
     2
  9
$DIMALTF
 40
25.4
  9
$DIMLFAC
 40
1.0
  9
$DIMTOFL
 70
     0
  9
$DIMTVP
 40
0.0
  9
$DIMTIX
 70
     0
  9
$DIMSOXD
 70
     0
  9
$DIMSAH
 70
     0
  9
$DIMBLK1
  1

  9
$DIMBLK2
  1

  9
$DIMSTYLE
  2
Standard
  9
$DIMCLRD
 70
     0
  9
$DIMCLRE
 70
     0
  9
$DIMCLRT
 70
     0
  9
$DIMTFAC
 40
1.0
  9
$DIMGAP
 40
0.09
  9
$DIMJUST
 70
     0
  9
$DIMSD1
 70
     0
  9
$DIMSD2
 70
     0
  9
$DIMTOLJ
 70
     1
  9
$DIMTZIN
 70
     0
  9
$DIMALTZ
 70
     0
  9
$DIMALTTZ
 70
     0
  9
$DIMUPT
 70
     0
  9
$DIMDEC
 70
     4
  9
$DIMTDEC
 70
     4
  9
$DIMALTU
 70
     2
  9
$DIMALTTD
 70
     2
  9
$DIMTXSTY
  7
Standard
  9
$DIMAUNIT
 70
     0
  9
$DIMADEC
 70
     0
  9
$DIMALTRND
 40
0.0
  9
$DIMAZIN
 70
     0
  9
$DIMDSEP
 70
    46
  9
$DIMATFIT
 70
     3
  9
$DIMFRAC
 70
     0
  9
$DIMLDRBLK
  1

  9
$DIMLUNIT
 70
     2
  9
$DIMLWD
 70
    -2
  9
$DIMLWE
 70
    -2
  9
$DIMTMOVE
 70
     0
  9
$DIMFXL
 40
1.0
  9
$DIMFXLON
 70
     0
  9
$DIMJOGANG
 40
0.7853981633974483
  9
$DIMTFILL
 70
     0
  9
$DIMTFILLCLR
 70
     0
  9
$DIMARCSYM
 70
     0
  9
$DIMLTYPE
  6

  9
$DIMLTEX1
  6

  9
$DIMLTEX2
  6

  9
$DIMTXTDIRECTION
 70
     0
  9
$LUNITS
 70
     2
  9
$LUPREC
 70
     4
  9
$SKETCHINC
 40
0.1
  9
$FILLETRAD
 40
0.5
  9
$AUNITS
 70
     0
  9
$AUPREC
 70
     0
  9
$MENU
  1
.
  9
$ELEVATION
 40
0.0
  9
$PELEVATION
 40
0.0
  9
$THICKNESS
 40
0.0
  9
$LIMCHECK
 70
     0
  9
$CHAMFERA
 40
0.5
  9
$CHAMFERB
 40
0.5
  9
$CHAMFERC
 40
1.0
  9
$CHAMFERD
 40
0.0
  9
$SKPOLY
 70
     0
  9
$TDCREATE
 40
2457917.618576377
  9
$TDUCREATE
 40
2457917.243576389
  9
$TDUPDATE
 40
2457917.618576377
  9
$TDUUPDATE
 40
2457917.243576389
  9
$TDINDWG
 40
0.0000000116
  9
$TDUSRTIMER
 40
0.0000000116
  9
$USRTIMER
 70
     1
  9
$ANGBASE
 50
0.0
  9
$ANGDIR
 70
     0
  9
$PDMODE
 70
     0
  9
$PDSIZE
 40
0.0
  9
$PLINEWID
 40
0.0
  9
$SPLFRAME
 70
     0
  9
$SPLINETYPE
 70
     6
  9
$SPLINESEGS
 70
     8
  9
$HANDSEED
  5
D8
  9
$SURFTAB1
 70
     6
  9
$SURFTAB2
 70
     6
  9
$SURFTYPE
 70
     6
  9
$SURFU
 70
     6
  9
$SURFV
 70
     6
  9
$UCSBASE
  2

  9
$UCSNAME
  2

  9
$UCSORG
 10
0.0
 20
0.0
 30
0.0
  9
$UCSXDIR
 10
1.0
 20
0.0
 30
0.0
  9
$UCSYDIR
 10
0.0
 20
1.0
 30
0.0
  9
$UCSORTHOREF
  2

  9
$UCSORTHOVIEW
 70
     0
  9
$UCSORGTOP
 10
0.0
 20
0.0
 30
0.0
  9
$UCSORGBOTTOM
 10
0.0
 20
0.0
 30
0.0
  9
$UCSORGLEFT
 10
0.0
 20
0.0
 30
0.0
  9
$UCSORGRIGHT
 10
0.0
 20
0.0
 30
0.0
  9
$UCSORGFRONT
 10
0.0
 20
0.0
 30
0.0
  9
$UCSORGBACK
 10
0.0
 20
0.0
 30
0.0
  9
$PUCSBASE
  2

  9
$PUCSNAME
  2

  9
$PUCSORG
 10
0.0
 20
0.0
 30
0.0
  9
$PUCSXDIR
 10
1.0
 20
0.0
 30
0.0
  9
$PUCSYDIR
 10
0.0
 20
1.0
 30
0.0
  9
$PUCSORTHOREF
  2

  9
$PUCSORTHOVIEW
 70
     0
  9
$PUCSORGTOP
 10
0.0
 20
0.0
 30
0.0
  9
$PUCSORGBOTTOM
 10
0.0
 20
0.0
 30
0.0
  9
$PUCSORGLEFT
 10
0.0
 20
0.0
 30
0.0
  9
$PUCSORGRIGHT
 10
0.0
 20
0.0
 30
0.0
  9
$PUCSORGFRONT
 10
0.0
 20
0.0
 30
0.0
  9
$PUCSORGBACK
 10
0.0
 20
0.0
 30
0.0
  9
$USERI1
 70
     0
  9
$USERI2
 70
     0
  9
$USERI3
 70
     0
  9
$USERI4
 70
     0
  9
$USERI5
 70
     0
  9
$USERR1
 40
0.0
  9
$USERR2
 40
0.0
  9
$USERR3
 40
0.0
  9
$USERR4
 40
0.0
  9
$USERR5
 40
0.0
  9
$WORLDVIEW
 70
     1
  9
$SHADEDGE
 70
     3
  9
$SHADEDIF
 70
    70
  9
$TILEMODE
 70
     1
  9
$MAXACTVP
 70
    64
  9
$PINSBASE
 10
0.0
 20
0.0
 30
0.0
  9
$PLIMCHECK
 70
     0
  9
$PEXTMIN
 10
1.000000000000000E+20
 20
1.000000000000000E+20
 30
1.000000000000000E+20
  9
$PEXTMAX
 10
-1.000000000000000E+20
 20
-1.000000000000000E+20
 30
-1.000000000000000E+20
  9
$PLIMMIN
 10
0.0
 20
0.0
  9
$PLIMMAX
 10
12.0
 20
9.0
  9
$UNITMODE
 70
     0
  9
$VISRETAIN
 70
     1
  9
$PLINEGEN
 70
     0
  9
$PSLTSCALE
 70
     1
  9
$TREEDEPTH
 70
  3020
  9
$CMLSTYLE
  2
Standard
  9
$CMLJUST
 70
     0
  9
$CMLSCALE
 40
1.0
  9
$PROXYGRAPHICS
 70
     1
  9
$MEASUREMENT
 70
     0
  9
$CELWEIGHT
370
    -1
  9
$ENDCAPS
280
     0
  9
$JOINSTYLE
280
     0
  9
$LWDISPLAY
290
     1
  9
$INSUNITS
 70
     1
  9
$HYPERLINKBASE
  1

  9
$STYLESHEET
  1

  9
$XEDIT
290
     1
  9
$CEPSNTYPE
380
     0
  9
$PSTYLEMODE
290
     1
  9
$FINGERPRINTGUID
  2
{1831575A-593F-F1D6-A97A-D8443A178847}
  9
$VERSIONGUID
  2
{FAEB1C32-E019-11D5-929B-00C0DF256EC4}
  9
$EXTNAMES
290
     1
  9
$PSVPSCALE
 40
0.0
  9
$OLESTARTUP
290
     0
  9
$SORTENTS
280
   127
  9
$INDEXCTL
280
     0
  9
$HIDETEXT
280
     1
  9
$XCLIPFRAME
280
     2
  9
$HALOGAP
280
     0
  9
$OBSCOLOR
 70
   257
  9
$OBSLTYPE
280
     0
  9
$INTERSECTIONDISPLAY
280
     0
  9
$INTERSECTIONCOLOR
 70
   257
  9
$DIMASSOC
280
     2
  9
$PROJECTNAME
  1

  9
$CAMERADISPLAY
290
     0
  9
$LENSLENGTH
 40
50.0
  9
$CAMERAHEIGHT
 40
0.0
  9
$STEPSPERSEC
 40
2.0
  9
$STEPSIZE
 40
6.0
  9
$3DDWFPREC
 40
2.0
  9
$PSOLWIDTH
 40
0.25
  9
$PSOLHEIGHT
 40
4.0
  9
$LOFTANG1
 40
1.570796326794897
  9
$LOFTANG2
 40
1.570796326794897
  9
$LOFTMAG1
 40
0.0
  9
$LOFTMAG2
 40
0.0
  9
$LOFTPARAM
 70
     7
  9
$LOFTNORMALS
280
     1
  9
$LATITUDE
 40
37.795
  9
$LONGITUDE
 40
-122.394
  9
$NORTHDIRECTION
 40
0.0
  9
$TIMEZONE
 70
 -8000
  9
$LIGHTGLYPHDISPLAY
280
     1
  9
$TILEMODELIGHTSYNCH
280
     1
  9
$CMATERIAL
347
3C
  9
$SOLIDHIST
280
     1
  9
$SHOWHIST
280
     1
  9
$DWFFRAME
280
     2
  9
$DGNFRAME
280
     2
  9
$REALWORLDSCALE
290
     1
  9
$INTERFERECOLOR
 62
   256
  9
$CSHADOW
280
     0
  9
$SHADOWPLANELOCATION
 40
0.0
  0
ENDSEC
  0
SECTION
  2
CLASSES
  0
CLASS
  1
ACDBDICTIONARYWDFLT
  2
AcDbDictionaryWithDefault
  3
ObjectDBX Classes
 90
        0
 91
        4
280
     0
281
     0
  0
CLASS
  1
VISUALSTYLE
  2
AcDbVisualStyle
  3
ObjectDBX Classes
 90
     4095
 91
        4
280
     0
281
     0
  0
CLASS
  1
MATERIAL
  2
AcDbMaterial
  3
ObjectDBX Classes
 90
     1153
 91
        4
280
     0
281
     0
  0
CLASS
  1
SUN
  2
AcDbSun
  3
SCENEOE
 90
     1024
 91
        4
280
     0
281
     0
  0
ENDSEC
  0
SECTION
  2
TABLES
  0
TABLE
  2
VPORT
  5
8
330
0
100
AcDbSymbolTable
 70
     1
  0
VPORT
  5
29
330
8
100
AcDbSymbolTableRecord
100
AcDbViewportTableRecord
  2
*Active
 70
     0
 10
0.0
 20
0.0
 11
1.0
 21
1.0
 12
0.0
 22
0.0
 13
0.0
 23
0.0
 14
0.5
 24
0.5
 15
0.5
 25
0.5
 16
0.0
 26
0.0
 36
1.0
 17
91.00082462281999
 27
-128.4993055234307
 37
0.0
 40
256.9986110468615
 41
0.7081814508812795
 42
50.0
 43
0.0
 44
0.0
 50
0.0
 51
0.0
 71
     0
 72
   100
 73
     1
 74
     3
 75
     0
 76
     0
 77
     0
 78
     0
281
     0
 65
     1
110
0.0
120
0.0
130
0.0
111
1.0
121
0.0
131
0.0
112
0.0
122
1.0
132
0.0
 79
     0
146
0.0
 60
     3
 61
     5
292
     1
282
     1
141
0.0
142
0.0
 63
   250
361
3F
  0
ENDTAB
  0
TABLE
  2
LTYPE
  5
5
330
0
100
AcDbSymbolTable
 70
     1
  0
LTYPE
  5
14
330
5
100
AcDbSymbolTableRecord
100
AcDbLinetypeTableRecord
  2
ByBlock
 70
     0
  3

 72
    65
 73
     0
 40
0.0
  0
LTYPE
  5
15
330
5
100
AcDbSymbolTableRecord
100
AcDbLinetypeTableRecord
  2
ByLayer
 70
     0
  3

 72
    65
 73
     0
 40
0.0
  0
LTYPE
  5
16
330
5
100
AcDbSymbolTableRecord
100
AcDbLinetypeTableRecord
  2
Continuous
 70
     0
  3
Solid line
 72
    65
 73
     0
 40
0.0
  0
ENDTAB
  0
TABLE
  2
LAYER
  5
2
330
0
100
AcDbSymbolTable
 70
     2
  0
LAYER
  5
10
330
2
100
AcDbSymbolTableRecord
100
AcDbLayerTableRecord
  2
0
 70
     0
 62
     7
  6
Continuous
370
    -3
390
F
347
3E
  0
LAYER
  5
40
330
2
100
AcDbSymbolTableRecord
100
AcDbLayerTableRecord
  2
_U+30EC_U+30A4_U+30E4_U+30FC 1
 70
     0
 62
     7
  6
Continuous
370
    -3
390
F
347
3E
  0
ENDTAB
  0
TABLE
  2
STYLE
  5
3
330
0
100
AcDbSymbolTable
 70
     1
  0
STYLE
  5
11
330
3
100
AcDbSymbolTableRecord
100
AcDbTextStyleTableRecord
  2
Standard
 70
     0
 40
0.0
 41
1.0
 50
0.0
 71
     0
 42
0.2
  3
txt
  4

  0
ENDTAB
  0
TABLE
  2
VIEW
  5
6
330
0
100
AcDbSymbolTable
 70
     0
  0
ENDTAB
  0
TABLE
  2
UCS
  5
7
330
0
100
AcDbSymbolTable
 70
     0
  0
ENDTAB
  0
TABLE
  2
APPID
  5
9
330
0
100
AcDbSymbolTable
 70
     1
  0
APPID
  5
12
330
9
100
AcDbSymbolTableRecord
100
AcDbRegAppTableRecord
  2
ACAD
 70
     0
  0
ENDTAB
  0
TABLE
  2
DIMSTYLE
  5
A
330
0
100
AcDbSymbolTable
 70
     1
100
AcDbDimStyleTable
  0
DIMSTYLE
105
27
330
A
100
AcDbSymbolTableRecord
100
AcDbDimStyleTableRecord
  2
Standard
 70
     0
178
     0
340
11
  0
ENDTAB
  0
TABLE
  2
BLOCK_RECORD
  5
1
330
0
100
AcDbSymbolTable
 70
     7
  0
BLOCK_RECORD
  5
1F
330
1
100
AcDbSymbolTableRecord
100
AcDbBlockTableRecord
  2
*Model_Space
340
22
 70
     0
280
     1
281
     0
  0
BLOCK_RECORD
  5
1B
330
1
100
AcDbSymbolTableRecord
100
AcDbBlockTableRecord
  2
*Paper_Space
340
1E
 70
     0
280
     1
281
     0
  0
BLOCK_RECORD
  5
23
330
1
100
AcDbSymbolTableRecord
100
AcDbBlockTableRecord
  2
*Paper_Space0
340
26
 70
     0
280
     1
281
     0
  0
BLOCK_RECORD
  5
7B
330
1
100
AcDbSymbolTableRecord
100
AcDbBlockTableRecord
  2
block 2
340
0
102
{BLKREFS
331
7C
102
}
 70
     0
280
     1
281
     0
  0
BLOCK_RECORD
  5
91
330
1
100
AcDbSymbolTableRecord
100
AcDbBlockTableRecord
  2
block 3
340
0
102
{BLKREFS
331
92
102
}
 70
     0
280
     1
281
     0
  0
BLOCK_RECORD
  5
A5
330
1
100
AcDbSymbolTableRecord
100
AcDbBlockTableRecord
  2
block 4
340
0
102
{BLKREFS
331
A6
102
}
 70
     0
280
     1
281
     0
  0
BLOCK_RECORD
  5
C0
330
1
100
AcDbSymbolTableRecord
100
AcDbBlockTableRecord
  2
block 5
340
0
102
{BLKREFS
331
C1
102
}
 70
     0
280
     1
281
     0
  0
BLOCK_RECORD
  5
C6
330
1
100
AcDbSymbolTableRecord
100
AcDbBlockTableRecord
  2
block 6
340
0
102
{BLKREFS
331
C7
102
}
 70
     0
280
     1
281
     0
  0
BLOCK_RECORD
  5
CC
330
1
100
AcDbSymbolTableRecord
100
AcDbBlockTableRecord
  2
block 7
340
0
102
{BLKREFS
331
CD
102
}
 70
     0
280
     1
281
     0
  0
ENDTAB
  0
ENDSEC
  0
SECTION
  2
BLOCKS
  0
BLOCK
  5
20
330
1F
100
AcDbEntity
  8
0
100
AcDbBlockBegin
  2
*Model_Space
 70
     0
 10
0.0
 20
0.0
 30
0.0
  3
*Model_Space
  1

  0
ENDBLK
  5
21
330
1F
100
AcDbEntity
  8
0
100
AcDbBlockEnd
  0
BLOCK
  5
1C
330
1B
100
AcDbEntity
 67
     1
  8
0
100
AcDbBlockBegin
  2
*Paper_Space
 70
     0
 10
0.0
 20
0.0
 30
0.0
  3
*Paper_Space
  1

  0
ENDBLK
  5
1D
330
1B
100
AcDbEntity
 67
     1
  8
0
100
AcDbBlockEnd
  0
BLOCK
  5
24
330
23
100
AcDbEntity
  8
0
100
AcDbBlockBegin
  2
*Paper_Space0
 70
     0
 10
0.0
 20
0.0
 30
0.0
  3
*Paper_Space0
  1

  0
ENDBLK
  5
25
330
23
100
AcDbEntity
  8
0
100
AcDbBlockEnd
  0
BLOCK
  5
7D
330
7B
100
AcDbEntity
  8
0
100
AcDbBlockBegin
  2
block 2
 70
     0
 10
0.0
 20
0.0
 30
0.0
  3
block 2
  1

  0
SPLINE
  5
7F
330
7B
100
AcDbEntity
  8
_U+30EC_U+30A4_U+30E4_U+30FC 1
370
     0
100
AcDbSpline
210
0.0
220
0.0
230
1.0
 70
    11
 71
     3
 72
    26
 73
    22
 74
     0
 42
0.0000000001
 43
0.0000000001
 12
1.0
 22
0.0
 32
0.0
 13
1.0
 23
0.0
 33
0.0
 40
0.0
 40
0.0
 40
0.0
 40
0.0
 40
1.0
 40
1.0
 40
1.0
 40
2.0
 40
2.0
 40
2.0
 40
3.0
 40
3.0
 40
3.0
 40
4.0
 40
4.0
 40
4.0
 40
5.0
 40
5.0
 40
5.0
 40
6.0
 40
6.0
 40
6.0
 40
7.0
 40
7.0
 40
7.0
 40
7.0
 10
88.06404755827913
 20
-141.4669894394596
 30
0.0
 10
88.06404755827913
 20
-141.4669894394596
 30
0.0
 10
88.06404755827913
 20
-140.3628363364371
 30
0.0
 10
88.06404755827913
 20
-140.3628363364371
 30
0.0
 10
88.06404755827913
 20
-140.3628363364371
 30
0.0
 10
87.71161429013807
 20
-140.3628363364371
 30
0.0
 10
87.71161429013807
 20
-140.3628363364371
 30
0.0
 10
87.71161429013807
 20
-140.3628363364371
 30
0.0
 10
87.71161429013807
 20
-140.2146972305713
 30
0.0
 10
87.71161429013807
 20
-140.2146972305713
 30
0.0
 10
88.06645912511881
 20
-140.1998833199848
 30
0.0
 10
88.11606850010641
 20
-140.0369303035324
 30
0.0
 10
88.1477633785707
 20
-139.9225531334222
 30
0.0
 10
88.1477633785707
 20
-139.9225531334222
 30
0.0
 10
88.30382620405253
 20
-139.9225531334222
 30
0.0
 10
88.30382620405253
 20
-139.9225531334222
 30
0.0
 10
88.30382620405253
 20
-139.9225531334222
 30
0.0
 10
88.30382620405253
 20
-141.4669894394596
 30
0.0
 10
88.30382620405253
 20
-141.4669894394596
 30
0.0
 10
88.30382620405253
 20
-141.4669894394596
 30
0.0
 10
88.06404755827913
 20
-141.4669894394596
 30
0.0
 10
88.06404755827913
 20
-141.4669894394596
 30
0.0
  0
HATCH
  5
80
330
7B
100
AcDbEntity
  8
_U+30EC_U+30A4_U+30E4_U+30FC 1
 62
   179
420
  2234388
100
AcDbHatch
 10
0.0
 20
0.0
 30
0.0
210
0.0
220
0.0
230
1.0
  2
SOLID
 70
     1
 71
     0
 91
        1
 92
        1
 93
        1
 72
     4
 94
        3
 73
     0
 74
     1
 95
       26
 96
       22
 40
0.0
 40
0.0
 40
0.0
 40
0.0
 40
1.0
 40
1.0
 40
1.0
 40
2.0
 40
2.0
 40
2.0
 40
3.0
 40
3.0
 40
3.0
 40
4.0
 40
4.0
 40
4.0
 40
5.0
 40
5.0
 40
5.0
 40
6.0
 40
6.0
 40
6.0
 40
7.0
 40
7.0
 40
7.0
 40
7.0
 10
88.06404755827913
 20
-141.4669894394596
 10
88.06404755827913
 20
-141.4669894394596
 10
88.06404755827913
 20
-140.3628363364371
 10
88.06404755827913
 20
-140.3628363364371
 10
88.06404755827913
 20
-140.3628363364371
 10
87.71161429013807
 20
-140.3628363364371
 10
87.71161429013807
 20
-140.3628363364371
 10
87.71161429013807
 20
-140.3628363364371
 10
87.71161429013807
 20
-140.2146972305713
 10
87.71161429013807
 20
-140.2146972305713
 10
88.06645912511881
 20
-140.1998833199848
 10
88.11606850010641
 20
-140.0369303035324
 10
88.1477633785707
 20
-139.9225531334222
 10
88.1477633785707
 20
-139.9225531334222
 10
88.30382620405253
 20
-139.9225531334222
 10
88.30382620405253
 20
-139.9225531334222
 10
88.30382620405253
 20
-139.9225531334222
 10
88.30382620405253
 20
-141.4669894394596
 10
88.30382620405253
 20
-141.4669894394596
 10
88.30382620405253
 20
-141.4669894394596
 10
88.06404755827913
 20
-141.4669894394596
 10
88.06404755827913
 20
-141.4669894394596
 97
        0
 97
        0
 75
     2
 76
     1
 98
        0
  0
SPLINE
  5
81
330
7B
100
AcDbEntity
  8
_U+30EC_U+30A4_U+30E4_U+30FC 1
370
     0
100
AcDbSpline
210
0.0
220
0.0
230
1.0
 70
    11
 71
     3
 72
    29
 73
    25
 74
     0
 42
0.0000000001
 43
0.0000000001
 12
1.0
 22
0.0
 32
0.0
 13
1.0
 23
0.0
 33
0.0
 40
0.0
 40
0.0
 40
0.0
 40
0.0
 40
1.0
 40
1.0
 40
1.0
 40
2.0
 40
2.0
 40
2.0
 40
3.0
 40
3.0
 40
3.0
 40
4.0
 40
4.0
 40
4.0
 40
5.0
 40
5.0
 40
5.0
 40
6.0
 40
6.0
 40
6.0
 40
7.0
 40
7.0
 40
7.0
 40
8.0
 40
8.0
 40
8.0
 40
8.0
 10
89.37387286177112
 20
-141.5176323430928
 30
0.0
 10
89.08896346514096
 20
-141.5176323430928
 30
0.0
 10
88.8178344504518
 20
-141.3801730332314
 30
0.0
 10
88.8178344504518
 20
-141.0311848605755
 30
0.0
 10
88.8178344504518
 20
-140.7752142660215
 30
0.0
 10
88.96941865180278
 20
-140.6801296306286
 30
0.0
 10
89.08241778371898
 20
-140.6188069309911
 30
0.0
 10
88.94909258843981
 20
-140.5595512886449
 30
0.0
 10
88.8674438254394
 20
-140.4451741185345
 30
0.0
 10
88.8674438254394
 20
-140.2842881593734
 30
0.0
 10
88.8674438254394
 20
-140.0093695396504
 30
0.0
 10
89.08000621687931
 20
-139.8739772870801
 30
0.0
 10
89.37387286177112
 20
-139.8739772870801
 30
0.0
 10
89.6770412644731
 20
-139.8739772870801
 30
0.0
 10
89.88030189810284
 20
-140.0179822783636
 30
0.0
 10
89.88030189810284
 20
-140.2842881593734
 30
0.0
 10
89.88030189810284
 20
-140.4451741185345
 30
0.0
 10
89.7969305873598
 20
-140.5595512886449
 30
0.0
 10
89.6632608825321
 20
-140.6188069309911
 30
0.0
 10
89.75834551792501
 20
-140.6694498346243
 30
0.0
 10
89.9278442157993
 20
-140.7645344700172
 30
0.0
 10
89.9278442157993
 20
-141.0270507459933
 30
0.0
 10
89.9278442157993
 20
-141.4015326252399
 30
0.0
 10
89.62949894677666
 20
-141.5176323430928
 30
0.0
 10
89.37387286177112
 20
-141.5176323430928
 30
0.0
  0
SPLINE
  5
82
330
7B
100
AcDbEntity
  8
_U+30EC_U+30A4_U+30E4_U+30FC 1
370
     0
100
AcDbSpline
210
0.0
220
0.0
230
1.0
 70
    11
 71
     3
 72
    17
 73
    13
 74
     0
 42
0.0000000001
 43
0.0000000001
 12
1.0
 22
0.0
 32
0.0
 13
1.0
 23
0.0
 33
0.0
 40
0.0
 40
0.0
 40
0.0
 40
0.0
 40
1.0
 40
1.0
 40
1.0
 40
2.0
 40
2.0
 40
2.0
 40
3.0
 40
3.0
 40
3.0
 40
4.0
 40
4.0
 40
4.0
 40
4.0
 10
89.37387286177112
 20
-140.7266384196795
 30
0.0
 10
89.22022160312898
 20
-140.7266384196795
 30
0.0
 10
89.05761309622518
 20
-140.8134548259077
 30
0.0
 10
89.05761309622518
 20
-141.016370949989
 30
0.0
 10
89.05761309622518
 20
-141.2216986409099
 30
0.0
 10
89.19300534879551
 20
-141.3229844481762
 30
0.0
 10
89.37387286177112
 20
-141.3229844481762
 30
0.0
 10
89.57299938081856
 20
-141.3229844481762
 30
0.0
 10
89.69047713686558
 20
-141.2003390489013
 30
0.0
 10
89.69047713686558
 20
-141.0225721218624
 30
0.0
 10
89.69047713686558
 20
-140.8007079726123
 30
0.0
 10
89.51649981486047
 20
-140.7266384196795
 30
0.0
 10
89.37387286177112
 20
-140.7266384196795
 30
0.0
  0
SPLINE
  5
83
330
7B
100
AcDbEntity
  8
_U+30EC_U+30A4_U+30E4_U+30FC 1
370
     0
100
AcDbSpline
210
0.0
220
0.0
230
1.0
 70
    11
 71
     3
 72
    17
 73
    13
 74
     0
 42
0.0000000001
 43
0.0000000001
 12
1.0
 22
0.0
 32
0.0
 13
1.0
 23
0.0
 33
0.0
 40
0.0
 40
0.0
 40
0.0
 40
0.0
 40
1.0
 40
1.0
 40
1.0
 40
2.0
 40
2.0
 40
2.0
 40
3.0
 40
3.0
 40
3.0
 40
4.0
 40
4.0
 40
4.0
 40
4.0
 10
89.37387286177112
 20
-140.0665581247056
 30
0.0
 10
89.19782848247485
 20
-140.0665581247056
 30
0.0
 10
89.10722247121278
 20
-140.1616427600985
 30
0.0
 10
89.10722247121278
 20
-140.2970350126688
 30
0.0
 10
89.10722247121278
 20
-140.4196804119437
 30
0.0
 10
89.18404810053386
 20
-140.5381916966363
 30
0.0
 10
89.37387286177112
 20
-140.5381916966363
 30
0.0
 10
89.5640421325569
 20
-140.5381916966363
 30
0.0
 10
89.64086776187798
 20
-140.4196804119437
 30
0.0
 10
89.64086776187798
 20
-140.2970350126688
 30
0.0
 10
89.64086776187798
 20
-140.1616427600985
 30
0.0
 10
89.54819469332476
 20
-140.0665581247056
 30
0.0
 10
89.37387286177112
 20
-140.0665581247056
 30
0.0
  0
HATCH
  5
84
330
7B
100
AcDbEntity
  8
_U+30EC_U+30A4_U+30E4_U+30FC 1
 62
   179
420
  2234388
100
AcDbHatch
 10
0.0
 20
0.0
 30
0.0
210
0.0
220
0.0
230
1.0
  2
SOLID
 70
     1
 71
     0
 91
        3
 92
        1
 93
        1
 72
     4
 94
        3
 73
     0
 74
     1
 95
       29
 96
       25
 40
0.0
 40
0.0
 40
0.0
 40
0.0
 40
1.0
 40
1.0
 40
1.0
 40
2.0
 40
2.0
 40
2.0
 40
3.0
 40
3.0
 40
3.0
 40
4.0
 40
4.0
 40
4.0
 40
5.0
 40
5.0
 40
5.0
 40
6.0
 40
6.0
 40
6.0
 40
7.0
 40
7.0
 40
7.0
 40
8.0
 40
8.0
 40
8.0
 40
8.0
 10
89.37387286177112
 20
-141.5176323430928
 10
89.08896346514096
 20
-141.5176323430928
 10
88.8178344504518
 20
-141.3801730332314
 10
88.8178344504518
 20
-141.0311848605755
 10
88.8178344504518
 20
-140.7752142660215
 10
88.96941865180278
 20
-140.6801296306286
 10
89.08241778371898
 20
-140.6188069309911
 10
88.94909258843981
 20
-140.5595512886449
 10
88.8674438254394
 20
-140.4451741185345
 10
88.8674438254394
 20
-140.2842881593734
 10
88.8674438254394
 20
-140.0093695396504
 10
89.08000621687931
 20
-139.8739772870801
 10
89.37387286177112
 20
-139.8739772870801
 10
89.6770412644731
 20
-139.8739772870801
 10
89.88030189810284
 20
-140.0179822783636
 10
89.88030189810284
 20
-140.2842881593734
 10
89.88030189810284
 20
-140.4451741185345
 10
89.7969305873598
 20
-140.5595512886449
 10
89.6632608825321
 20
-140.6188069309911
 10
89.75834551792501
 20
-140.6694498346243
 10
89.9278442157993
 20
-140.7645344700172
 10
89.9278442157993
 20
-141.0270507459933
 10
89.9278442157993
 20
-141.4015326252399
 10
89.62949894677666
 20
-141.5176323430928
 10
89.37387286177112
 20
-141.5176323430928
 97
        0
 97
        0
 92
        1
 93
        1
 72
     4
 94
        3
 73
     0
 74
     1
 95
       17
 96
       13
 40
0.0
 40
0.0
 40
0.0
 40
0.0
 40
1.0
 40
1.0
 40
1.0
 40
2.0
 40
2.0
 40
2.0
 40
3.0
 40
3.0
 40
3.0
 40
4.0
 40
4.0
 40
4.0
 40
4.0
 10
89.37387286177112
 20
-140.7266384196795
 10
89.22022160312898
 20
-140.7266384196795
 10
89.05761309622518
 20
-140.8134548259077
 10
89.05761309622518
 20
-141.016370949989
 10
89.05761309622518
 20
-141.2216986409099
 10
89.19300534879551
 20
-141.3229844481762
 10
89.37387286177112
 20
-141.3229844481762
 10
89.57299938081856
 20
-141.3229844481762
 10
89.69047713686558
 20
-141.2003390489013
 10
89.69047713686558
 20
-141.0225721218624
 10
89.69047713686558
 20
-140.8007079726123
 10
89.51649981486047
 20
-140.7266384196795
 10
89.37387286177112
 20
-140.7266384196795
 97
        0
 97
        0
 92
        1
 93
        1
 72
     4
 94
        3
 73
     0
 74
     1
 95
       17
 96
       13
 40
0.0
 40
0.0
 40
0.0
 40
0.0
 40
1.0
 40
1.0
 40
1.0
 40
2.0
 40
2.0
 40
2.0
 40
3.0
 40
3.0
 40
3.0
 40
4.0
 40
4.0
 40
4.0
 40
4.0
 10
89.37387286177112
 20
-140.0665581247056
 10
89.19782848247485
 20
-140.0665581247056
 10
89.10722247121278
 20
-140.1616427600985
 10
89.10722247121278
 20
-140.2970350126688
 10
89.10722247121278
 20
-140.4196804119437
 10
89.18404810053386
 20
-140.5381916966363
 10
89.37387286177112
 20
-140.5381916966363
 10
89.5640421325569
 20
-140.5381916966363
 10
89.64086776187798
 20
-140.4196804119437
 10
89.64086776187798
 20
-140.2970350126688
 10
89.64086776187798
 20
-140.1616427600985
 10
89.54819469332476
 20
-140.0665581247056
 10
89.37387286177112
 20
-140.0665581247056
 97
        0
 97
        0
 75
     2
 76
     1
 98
        0
  0
ENDBLK
  5
7E
330
7B
100
AcDbEntity
  8
0
100
AcDbBlockEnd
  0
BLOCK
  5
93
330
91
100
AcDbEntity
  8
0
100
AcDbBlockBegin
  2
block 3
 70
     0
 10
0.0
 20
0.0
 30
0.0
  3
block 3
  1

  0
SPLINE
  5
95
330
91
100
AcDbEntity
  8
_U+30EC_U+30A4_U+30E4_U+30FC 1
370
     0
100
AcDbSpline
210
0.0
220
0.0
230
1.0
 70
    11
 71
     3
 72
    29
 73
    25
 74
     0
 42
0.0000000001
 43
0.0000000001
 12
1.0
 22
0.0
 32
0.0
 13
1.0
 23
0.0
 33
0.0
 40
0.0
 40
0.0
 40
0.0
 40
0.0
 40
1.0
 40
1.0
 40
1.0
 40
2.0
 40
2.0
 40
2.0
 40
3.0
 40
3.0
 40
3.0
 40
4.0
 40
4.0
 40
4.0
 40
5.0
 40
5.0
 40
5.0
 40
6.0
 40
6.0
 40
6.0
 40
7.0
 40
7.0
 40
7.0
 40
8.0
 40
8.0
 40
8.0
 40
8.0
 10
83.78317190830768
 20
-115.868379691085
 30
0.0
 10
83.49826251167752
 20
-115.868379691085
 30
0.0
 10
83.2269612422141
 20
-115.7307481264493
 30
0.0
 10
83.2269612422141
 20
-115.3817599537934
 30
0.0
 10
83.2269612422141
 20
-115.1257893592394
 30
0.0
 10
83.37837318879083
 20
-115.0305324690722
 30
0.0
 10
83.49154457548129
 20
-114.9692097694348
 30
0.0
 10
83.35804712542786
 20
-114.9099541270885
 30
0.0
 10
83.27674287197596
 20
-114.7957492117525
 30
0.0
 10
83.27674287197596
 20
-114.6350355073656
 30
0.0
 10
83.27674287197596
 20
-114.3599446328683
 30
0.0
 10
83.48913300864162
 20
-114.224552380298
 30
0.0
 10
83.78317190830768
 20
-114.224552380298
 30
0.0
 10
84.08616805623541
 20
-114.224552380298
 30
0.0
 10
84.2896009446394
 20
-114.3683851168072
 30
0.0
 10
84.2896009446394
 20
-114.6350355073656
 30
0.0
 10
84.2896009446394
 20
-114.7957492117525
 30
0.0
 10
84.20588512434784
 20
-114.9099541270885
 30
0.0
 10
84.07255992906867
 20
-114.9692097694348
 30
0.0
 10
84.1674723096873
 20
-115.0200249278422
 30
0.0
 10
84.3369710075616
 20
-115.1152818180094
 30
0.0
 10
84.3369710075616
 20
-115.3776258392111
 30
0.0
 10
84.3369710075616
 20
-115.7519354636836
 30
0.0
 10
84.03862573853895
 20
-115.868379691085
 30
0.0
 10
83.78317190830768
 20
-115.868379691085
 30
0.0
  0
SPLINE
  5
96
330
91
100
AcDbEntity
  8
_U+30EC_U+30A4_U+30E4_U+30FC 1
370
     0
100
AcDbSpline
210
0.0
220
0.0
230
1.0
 70
    11
 71
     3
 72
    17
 73
    13
 74
     0
 42
0.0000000001
 43
0.0000000001
 12
1.0
 22
0.0
 32
0.0
 13
1.0
 23
0.0
 33
0.0
 40
0.0
 40
0.0
 40
0.0
 40
0.0
 40
1.0
 40
1.0
 40
1.0
 40
2.0
 40
2.0
 40
2.0
 40
3.0
 40
3.0
 40
3.0
 40
4.0
 40
4.0
 40
4.0
 40
4.0
 10
83.78317190830768
 20
-115.0772135128974
 30
0.0
 10
83.62934839489128
 20
-115.0772135128974
 30
0.0
 10
83.46656763321322
 20
-115.1638576643514
 30
0.0
 10
83.46656763321322
 20
-115.3669460432069
 30
0.0
 10
83.46656763321322
 20
-115.5721014793535
 30
0.0
 10
83.60230439533207
 20
-115.6737317961684
 30
0.0
 10
83.78317190830768
 20
-115.6737317961684
 30
0.0
 10
83.98212617258086
 20
-115.6737317961684
 30
0.0
 10
84.09960392862789
 20
-115.5510863968935
 30
0.0
 10
84.09960392862789
 20
-115.3733194698546
 30
0.0
 10
84.09960392862789
 20
-115.151110811056
 30
0.0
 10
83.92562660662276
 20
-115.0772135128974
 30
0.0
 10
83.78317190830768
 20
-115.0772135128974
 30
0.0
  0
SPLINE
  5
97
330
91
100
AcDbEntity
  8
_U+30EC_U+30A4_U+30E4_U+30FC 1
370
     0
100
AcDbSpline
210
0.0
220
0.0
230
1.0
 70
    11
 71
     3
 72
    17
 73
    13
 74
     0
 42
0.0000000001
 43
0.0000000001
 12
1.0
 22
0.0
 32
0.0
 13
1.0
 23
0.0
 33
0.0
 40
0.0
 40
0.0
 40
0.0
 40
0.0
 40
1.0
 40
1.0
 40
1.0
 40
2.0
 40
2.0
 40
2.0
 40
3.0
 40
3.0
 40
3.0
 40
4.0
 40
4.0
 40
4.0
 40
4.0
 10
83.78317190830768
 20
-114.4171332179235
 30
0.0
 10
83.6067830194629
 20
-114.4171332179235
 30
0.0
 10
83.51634926297508
 20
-114.5122178533164
 30
0.0
 10
83.51634926297508
 20
-114.6476101058867
 30
0.0
 10
83.51634926297508
 20
-114.7704277599359
 30
0.0
 10
83.59317489229615
 20
-114.8889390446285
 30
0.0
 10
83.78317190830768
 20
-114.8889390446285
 30
0.0
 10
83.97299666954495
 20
-114.8889390446285
 30
0.0
 10
84.04999455364029
 20
-114.7704277599359
 30
0.0
 10
84.04999455364029
 20
-114.6476101058867
 30
0.0
 10
84.04999455364029
 20
-114.5122178533164
 30
0.0
 10
83.9571492303128
 20
-114.4171332179235
 30
0.0
 10
83.78317190830768
 20
-114.4171332179235
 30
0.0
  0
HATCH
  5
98
330
91
100
AcDbEntity
  8
_U+30EC_U+30A4_U+30E4_U+30FC 1
 62
   179
420
  2234388
100
AcDbHatch
 10
0.0
 20
0.0
 30
0.0
210
0.0
220
0.0
230
1.0
  2
SOLID
 70
     1
 71
     0
 91
        3
 92
        1
 93
        1
 72
     4
 94
        3
 73
     0
 74
     1
 95
       29
 96
       25
 40
0.0
 40
0.0
 40
0.0
 40
0.0
 40
1.0
 40
1.0
 40
1.0
 40
2.0
 40
2.0
 40
2.0
 40
3.0
 40
3.0
 40
3.0
 40
4.0
 40
4.0
 40
4.0
 40
5.0
 40
5.0
 40
5.0
 40
6.0
 40
6.0
 40
6.0
 40
7.0
 40
7.0
 40
7.0
 40
8.0
 40
8.0
 40
8.0
 40
8.0
 10
83.78317190830768
 20
-115.868379691085
 10
83.49826251167752
 20
-115.868379691085
 10
83.2269612422141
 20
-115.7307481264493
 10
83.2269612422141
 20
-115.3817599537934
 10
83.2269612422141
 20
-115.1257893592394
 10
83.37837318879083
 20
-115.0305324690722
 10
83.49154457548129
 20
-114.9692097694348
 10
83.35804712542786
 20
-114.9099541270885
 10
83.27674287197596
 20
-114.7957492117525
 10
83.27674287197596
 20
-114.6350355073656
 10
83.27674287197596
 20
-114.3599446328683
 10
83.48913300864162
 20
-114.224552380298
 10
83.78317190830768
 20
-114.224552380298
 10
84.08616805623541
 20
-114.224552380298
 10
84.2896009446394
 20
-114.3683851168072
 10
84.2896009446394
 20
-114.6350355073656
 10
84.2896009446394
 20
-114.7957492117525
 10
84.20588512434784
 20
-114.9099541270885
 10
84.07255992906867
 20
-114.9692097694348
 10
84.1674723096873
 20
-115.0200249278422
 10
84.3369710075616
 20
-115.1152818180094
 10
84.3369710075616
 20
-115.3776258392111
 10
84.3369710075616
 20
-115.7519354636836
 10
84.03862573853895
 20
-115.868379691085
 10
83.78317190830768
 20
-115.868379691085
 97
        0
 97
        0
 92
        1
 93
        1
 72
     4
 94
        3
 73
     0
 74
     1
 95
       17
 96
       13
 40
0.0
 40
0.0
 40
0.0
 40
0.0
 40
1.0
 40
1.0
 40
1.0
 40
2.0
 40
2.0
 40
2.0
 40
3.0
 40
3.0
 40
3.0
 40
4.0
 40
4.0
 40
4.0
 40
4.0
 10
83.78317190830768
 20
-115.0772135128974
 10
83.62934839489128
 20
-115.0772135128974
 10
83.46656763321322
 20
-115.1638576643514
 10
83.46656763321322
 20
-115.3669460432069
 10
83.46656763321322
 20
-115.5721014793535
 10
83.60230439533207
 20
-115.6737317961684
 10
83.78317190830768
 20
-115.6737317961684
 10
83.98212617258086
 20
-115.6737317961684
 10
84.09960392862789
 20
-115.5510863968935
 10
84.09960392862789
 20
-115.3733194698546
 10
84.09960392862789
 20
-115.151110811056
 10
83.92562660662276
 20
-115.0772135128974
 10
83.78317190830768
 20
-115.0772135128974
 97
        0
 97
        0
 92
        1
 93
        1
 72
     4
 94
        3
 73
     0
 74
     1
 95
       17
 96
       13
 40
0.0
 40
0.0
 40
0.0
 40
0.0
 40
1.0
 40
1.0
 40
1.0
 40
2.0
 40
2.0
 40
2.0
 40
3.0
 40
3.0
 40
3.0
 40
4.0
 40
4.0
 40
4.0
 40
4.0
 10
83.78317190830768
 20
-114.4171332179235
 10
83.6067830194629
 20
-114.4171332179235
 10
83.51634926297508
 20
-114.5122178533164
 10
83.51634926297508
 20
-114.6476101058867
 10
83.51634926297508
 20
-114.7704277599359
 10
83.59317489229615
 20
-114.8889390446285
 10
83.78317190830768
 20
-114.8889390446285
 10
83.97299666954495
 20
-114.8889390446285
 10
84.04999455364029
 20
-114.7704277599359
 10
84.04999455364029
 20
-114.6476101058867
 10
84.04999455364029
 20
-114.5122178533164
 10
83.9571492303128
 20
-114.4171332179235
 10
83.78317190830768
 20
-114.4171332179235
 97
        0
 97
        0
 75
     2
 76
     1
 98
        0
  0
ENDBLK
  5
94
330
91
100
AcDbEntity
  8
0
100
AcDbBlockEnd
  0
BLOCK
  5
A7
330
A5
100
AcDbEntity
  8
0
100
AcDbBlockBegin
  2
block 4
 70
     0
 10
0.0
 20
0.0
 30
0.0
  3
block 4
  1

  0
SPLINE
  5
A9
330
A5
100
AcDbEntity
  8
_U+30EC_U+30A4_U+30E4_U+30FC 1
370
     0
100
AcDbSpline
210
0.0
220
0.0
230
1.0
 70
    11
 71
     3
 72
    26
 73
    22
 74
     0
 42
0.0000000001
 43
0.0000000001
 12
1.0
 22
0.0
 32
0.0
 13
1.0
 23
0.0
 33
0.0
 40
0.0
 40
0.0
 40
0.0
 40
0.0
 40
1.0
 40
1.0
 40
1.0
 40
2.0
 40
2.0
 40
2.0
 40
3.0
 40
3.0
 40
3.0
 40
4.0
 40
4.0
 40
4.0
 40
5.0
 40
5.0
 40
5.0
 40
6.0
 40
6.0
 40
6.0
 40
7.0
 40
7.0
 40
7.0
 40
7.0
 10
100.668790664937
 20
-130.9167290254306
 30
0.0
 10
100.668790664937
 20
-130.9167290254306
 30
0.0
 10
99.5646375619144
 20
-130.9167290254306
 30
0.0
 10
99.5646375619144
 20
-130.9167290254306
 30
0.0
 10
99.5646375619144
 20
-130.9167290254306
 30
0.0
 10
99.5646375619144
 20
-131.2691622935716
 30
0.0
 10
99.5646375619144
 20
-131.2691622935716
 30
0.0
 10
99.5646375619144
 20
-131.2691622935716
 30
0.0
 10
99.41649845604866
 20
-131.2691622935716
 30
0.0
 10
99.41649845604866
 20
-131.2691622935716
 30
0.0
 10
99.40168454546209
 20
-130.9143174585909
 30
0.0
 10
99.23873152900977
 20
-130.8647080836033
 30
0.0
 10
99.12435435889947
 20
-130.833013205139
 30
0.0
 10
99.12435435889947
 20
-130.833013205139
 30
0.0
 10
99.12435435889947
 20
-130.6769503796572
 30
0.0
 10
99.12435435889947
 20
-130.6769503796572
 30
0.0
 10
99.12435435889947
 20
-130.6769503796572
 30
0.0
 10
100.668790664937
 20
-130.6769503796572
 30
0.0
 10
100.668790664937
 20
-130.6769503796572
 30
0.0
 10
100.668790664937
 20
-130.6769503796572
 30
0.0
 10
100.668790664937
 20
-130.9167290254306
 30
0.0
 10
100.668790664937
 20
-130.9167290254306
 30
0.0
  0
HATCH
  5
AA
330
A5
100
AcDbEntity
  8
_U+30EC_U+30A4_U+30E4_U+30FC 1
 62
   179
420
  2234388
100
AcDbHatch
 10
0.0
 20
0.0
 30
0.0
210
0.0
220
0.0
230
1.0
  2
SOLID
 70
     1
 71
     0
 91
        1
 92
        1
 93
        1
 72
     4
 94
        3
 73
     0
 74
     1
 95
       26
 96
       22
 40
0.0
 40
0.0
 40
0.0
 40
0.0
 40
1.0
 40
1.0
 40
1.0
 40
2.0
 40
2.0
 40
2.0
 40
3.0
 40
3.0
 40
3.0
 40
4.0
 40
4.0
 40
4.0
 40
5.0
 40
5.0
 40
5.0
 40
6.0
 40
6.0
 40
6.0
 40
7.0
 40
7.0
 40
7.0
 40
7.0
 10
100.668790664937
 20
-130.9167290254306
 10
100.668790664937
 20
-130.9167290254306
 10
99.5646375619144
 20
-130.9167290254306
 10
99.5646375619144
 20
-130.9167290254306
 10
99.5646375619144
 20
-130.9167290254306
 10
99.5646375619144
 20
-131.2691622935716
 10
99.5646375619144
 20
-131.2691622935716
 10
99.5646375619144
 20
-131.2691622935716
 10
99.41649845604866
 20
-131.2691622935716
 10
99.41649845604866
 20
-131.2691622935716
 10
99.40168454546209
 20
-130.9143174585909
 10
99.23873152900977
 20
-130.8647080836033
 10
99.12435435889947
 20
-130.833013205139
 10
99.12435435889947
 20
-130.833013205139
 10
99.12435435889947
 20
-130.6769503796572
 10
99.12435435889947
 20
-130.6769503796572
 10
99.12435435889947
 20
-130.6769503796572
 10
100.668790664937
 20
-130.6769503796572
 10
100.668790664937
 20
-130.6769503796572
 10
100.668790664937
 20
-130.6769503796572
 10
100.668790664937
 20
-130.9167290254306
 10
100.668790664937
 20
-130.9167290254306
 97
        0
 97
        0
 75
     2
 76
     1
 98
        0
  0
SPLINE
  5
AB
330
A5
100
AcDbEntity
  8
_U+30EC_U+30A4_U+30E4_U+30FC 1
370
     0
100
AcDbSpline
210
0.0
220
0.0
230
1.0
 70
    11
 71
     3
 72
    53
 73
    49
 74
     0
 42
0.0000000001
 43
0.0000000001
 12
1.0
 22
0.0
 32
0.0
 13
1.0
 23
0.0
 33
0.0
 40
0.0
 40
0.0
 40
0.0
 40
0.0
 40
1.0
 40
1.0
 40
1.0
 40
2.0
 40
2.0
 40
2.0
 40
3.0
 40
3.0
 40
3.0
 40
4.0
 40
4.0
 40
4.0
 40
5.0
 40
5.0
 40
5.0
 40
6.0
 40
6.0
 40
6.0
 40
7.0
 40
7.0
 40
7.0
 40
8.0
 40
8.0
 40
8.0
 40
9.0
 40
9.0
 40
9.0
 40
10.0
 40
10.0
 40
10.0
 40
11.0
 40
11.0
 40
11.0
 40
12.0
 40
12.0
 40
12.0
 40
13.0
 40
13.0
 40
13.0
 40
14.0
 40
14.0
 40
14.0
 40
15.0
 40
15.0
 40
15.0
 40
16.0
 40
16.0
 40
16.0
 40
16.0
 10
100.7194335685702
 20
-129.6272297853015
 30
0.0
 10
100.7194335685702
 20
-129.7106010960446
 30
0.0
 10
100.7025526006924
 20
-129.8194661133785
 30
0.0
 10
100.6391628437638
 20
-129.9276421116153
 30
0.0
 10
100.5292642977844
 20
-130.1133327582703
 30
0.0
 10
100.3980061597963
 20
-130.1357258789244
 30
0.0
 10
100.290174671108
 20
-130.1560519422874
 30
0.0
 10
100.290174671108
 20
-130.1560519422874
 30
0.0
 10
100.290174671108
 20
-129.9186848633537
 30
0.0
 10
100.290174671108
 20
-129.9186848633537
 30
0.0
 10
100.4889566806069
 20
-129.8601182401044
 30
0.0
 10
100.5185845017801
 20
-129.7243814779856
 30
0.0
 10
100.5185845017801
 20
-129.6248182184619
 30
0.0
 10
100.5185845017801
 20
-129.4756455839506
 30
0.0
 10
100.4190212422564
 20
-129.3130370770467
 30
0.0
 10
100.186477297002
 20
-129.3130370770467
 30
0.0
 10
99.93050670244793
 20
-129.3130370770467
 30
0.0
 10
99.86057126409736
 20
-129.5049288955752
 30
0.0
 10
99.86057126409736
 20
-129.6337754667235
 30
0.0
 10
99.86057126409736
 20
-129.6678819120275
 30
0.0
 10
99.86057126409736
 20
-129.8194661133785
 30
0.0
 10
99.98976234479423
 20
-129.9142062392228
 30
0.0
 10
99.98976234479423
 20
-129.9142062392228
 30
0.0
 10
99.97081431962536
 20
-130.101963943169
 30
0.0
 10
99.97081431962536
 20
-130.101963943169
 30
0.0
 10
99.97081431962536
 20
-130.101963943169
 30
0.0
 10
99.12435435889947
 20
-129.9731173720206
 30
0.0
 10
99.12435435889947
 20
-129.9731173720206
 30
0.0
 10
99.12435435889947
 20
-129.9731173720206
 30
0.0
 10
99.12435435889947
 20
-129.1411268123328
 30
0.0
 10
99.12435435889947
 20
-129.1411268123328
 30
0.0
 10
99.12435435889947
 20
-129.1411268123328
 30
0.0
 10
99.31900225381608
 20
-129.1411268123328
 30
0.0
 10
99.31900225381608
 20
-129.1411268123328
 30
0.0
 10
99.31900225381608
 20
-129.1411268123328
 30
0.0
 10
99.31900225381608
 20
-129.798795540467
 30
0.0
 10
99.31900225381608
 20
-129.798795540467
 30
0.0
 10
99.31900225381608
 20
-129.798795540467
 30
0.0
 10
99.74205997940477
 20
-129.8690754883661
 30
0.0
 10
99.74205997940477
 20
-129.8690754883661
 30
0.0
 10
99.70829804364932
 20
-129.8036186741463
 30
0.0
 10
99.6679904264719
 20
-129.7154242297239
 30
0.0
 10
99.6679904264719
 20
-129.5886447158667
 30
0.0
 10
99.6679904264719
 20
-129.3175157011776
 30
0.0
 10
99.85437009222392
 20
-129.0643011830117
 30
0.0
 10
100.1675292718331
 20
-129.0643011830117
 30
0.0
 10
100.4848225660246
 20
-129.0643011830117
 30
0.0
 10
100.7194335685702
 20
-129.3037353192366
 30
0.0
 10
100.7194335685702
 20
-129.6272297853015
 30
0.0
  0
HATCH
  5
AC
330
A5
100
AcDbEntity
  8
_U+30EC_U+30A4_U+30E4_U+30FC 1
 62
   179
420
  2234388
100
AcDbHatch
 10
0.0
 20
0.0
 30
0.0
210
0.0
220
0.0
230
1.0
  2
SOLID
 70
     1
 71
     0
 91
        1
 92
        1
 93
        1
 72
     4
 94
        3
 73
     0
 74
     1
 95
       53
 96
       49
 40
0.0
 40
0.0
 40
0.0
 40
0.0
 40
1.0
 40
1.0
 40
1.0
 40
2.0
 40
2.0
 40
2.0
 40
3.0
 40
3.0
 40
3.0
 40
4.0
 40
4.0
 40
4.0
 40
5.0
 40
5.0
 40
5.0
 40
6.0
 40
6.0
 40
6.0
 40
7.0
 40
7.0
 40
7.0
 40
8.0
 40
8.0
 40
8.0
 40
9.0
 40
9.0
 40
9.0
 40
10.0
 40
10.0
 40
10.0
 40
11.0
 40
11.0
 40
11.0
 40
12.0
 40
12.0
 40
12.0
 40
13.0
 40
13.0
 40
13.0
 40
14.0
 40
14.0
 40
14.0
 40
15.0
 40
15.0
 40
15.0
 40
16.0
 40
16.0
 40
16.0
 40
16.0
 10
100.7194335685702
 20
-129.6272297853015
 10
100.7194335685702
 20
-129.7106010960446
 10
100.7025526006924
 20
-129.8194661133785
 10
100.6391628437638
 20
-129.9276421116153
 10
100.5292642977844
 20
-130.1133327582703
 10
100.3980061597963
 20
-130.1357258789244
 10
100.290174671108
 20
-130.1560519422874
 10
100.290174671108
 20
-130.1560519422874
 10
100.290174671108
 20
-129.9186848633537
 10
100.290174671108
 20
-129.9186848633537
 10
100.4889566806069
 20
-129.8601182401044
 10
100.5185845017801
 20
-129.7243814779856
 10
100.5185845017801
 20
-129.6248182184619
 10
100.5185845017801
 20
-129.4756455839506
 10
100.4190212422564
 20
-129.3130370770467
 10
100.186477297002
 20
-129.3130370770467
 10
99.93050670244793
 20
-129.3130370770467
 10
99.86057126409736
 20
-129.5049288955752
 10
99.86057126409736
 20
-129.6337754667235
 10
99.86057126409736
 20
-129.6678819120275
 10
99.86057126409736
 20
-129.8194661133785
 10
99.98976234479423
 20
-129.9142062392228
 10
99.98976234479423
 20
-129.9142062392228
 10
99.97081431962536
 20
-130.101963943169
 10
99.97081431962536
 20
-130.101963943169
 10
99.97081431962536
 20
-130.101963943169
 10
99.12435435889947
 20
-129.9731173720206
 10
99.12435435889947
 20
-129.9731173720206
 10
99.12435435889947
 20
-129.9731173720206
 10
99.12435435889947
 20
-129.1411268123328
 10
99.12435435889947
 20
-129.1411268123328
 10
99.12435435889947
 20
-129.1411268123328
 10
99.31900225381608
 20
-129.1411268123328
 10
99.31900225381608
 20
-129.1411268123328
 10
99.31900225381608
 20
-129.1411268123328
 10
99.31900225381608
 20
-129.798795540467
 10
99.31900225381608
 20
-129.798795540467
 10
99.31900225381608
 20
-129.798795540467
 10
99.74205997940477
 20
-129.8690754883661
 10
99.74205997940477
 20
-129.8690754883661
 10
99.70829804364932
 20
-129.8036186741463
 10
99.6679904264719
 20
-129.7154242297239
 10
99.6679904264719
 20
-129.5886447158667
 10
99.6679904264719
 20
-129.3175157011776
 10
99.85437009222392
 20
-129.0643011830117
 10
100.1675292718331
 20
-129.0643011830117
 10
100.4848225660246
 20
-129.0643011830117
 10
100.7194335685702
 20
-129.3037353192366
 10
100.7194335685702
 20
-129.6272297853015
 97
        0
 97
        0
 75
     2
 76
     1
 98
        0
  0
POLYLINE
  5
AD
330
A5
100
AcDbEntity
  8
_U+30EC_U+30A4_U+30E4_U+30FC 1
370
     0
100
AcDb2dPolyline
 66
     1
 10
0.0
 20
0.0
 30
0.0
  0
VERTEX
  5
AE
330
AD
100
AcDbEntity
  8
_U+30EC_U+30A4_U+30E4_U+30FC 1
370
     0
100
AcDbVertex
100
AcDb2dVertex
 10
100.668790664937
 20
-128.8193548940104
 30
0.0
  0
VERTEX
  5
AF
330
AD
100
AcDbEntity
  8
_U+30EC_U+30A4_U+30E4_U+30FC 1
370
     0
100
AcDbVertex
100
AcDb2dVertex
 10
100.4169541849652
 20
-128.8193548940104
 30
0.0
  0
VERTEX
  5
B0
330
AD
100
AcDbEntity
  8
_U+30EC_U+30A4_U+30E4_U+30FC 1
370
     0
100
AcDbVertex
100
AcDb2dVertex
 10
100.4169541849652
 20
-128.5502929366124
 30
0.0
  0
VERTEX
  5
B1
330
AD
100
AcDbEntity
  8
_U+30EC_U+30A4_U+30E4_U+30FC 1
370
     0
100
AcDbVertex
100
AcDb2dVertex
 10
100.668790664937
 20
-128.5502929366124
 30
0.0
  0
VERTEX
  5
B2
330
AD
100
AcDbEntity
  8
_U+30EC_U+30A4_U+30E4_U+30FC 1
370
     0
100
AcDbVertex
100
AcDb2dVertex
 10
100.668790664937
 20
-128.8193548940104
 30
0.0
  0
SEQEND
  5
B3
330
AD
100
AcDbEntity
  8
_U+30EC_U+30A4_U+30E4_U+30FC 1
370
     0
  0
HATCH
  5
B4
330
A5
100
AcDbEntity
  8
_U+30EC_U+30A4_U+30E4_U+30FC 1
 62
   179
420
  2234388
100
AcDbHatch
 10
0.0
 20
0.0
 30
0.0
210
0.0
220
0.0
230
1.0
  2
SOLID
 70
     1
 71
     0
 91
        1
 92
        1
 93
        4
 72
     1
 10
100.668790664937
 20
-128.8193548940104
 11
100.4169541849652
 21
-128.8193548940104
 72
     1
 10
100.4169541849652
 20
-128.8193548940104
 11
100.4169541849652
 21
-128.5502929366124
 72
     1
 10
100.4169541849652
 20
-128.5502929366124
 11
100.668790664937
 21
-128.5502929366124
 72
     1
 10
100.668790664937
 20
-128.5502929366124
 11
100.668790664937
 21
-128.8193548940104
 97
        0
 75
     2
 76
     1
 98
        0
  0
SPLINE
  5
B5
330
A5
100
AcDbEntity
  8
_U+30EC_U+30A4_U+30E4_U+30FC 1
370
     0
100
AcDbSpline
210
0.0
220
0.0
230
1.0
 70
    11
 71
     3
 72
    53
 73
    49
 74
     0
 42
0.0000000001
 43
0.0000000001
 12
1.0
 22
0.0
 32
0.0
 13
1.0
 23
0.0
 33
0.0
 40
0.0
 40
0.0
 40
0.0
 40
0.0
 40
1.0
 40
1.0
 40
1.0
 40
2.0
 40
2.0
 40
2.0
 40
3.0
 40
3.0
 40
3.0
 40
4.0
 40
4.0
 40
4.0
 40
5.0
 40
5.0
 40
5.0
 40
6.0
 40
6.0
 40
6.0
 40
7.0
 40
7.0
 40
7.0
 40
8.0
 40
8.0
 40
8.0
 40
9.0
 40
9.0
 40
9.0
 40
10.0
 40
10.0
 40
10.0
 40
11.0
 40
11.0
 40
11.0
 40
12.0
 40
12.0
 40
12.0
 40
13.0
 40
13.0
 40
13.0
 40
14.0
 40
14.0
 40
14.0
 40
15.0
 40
15.0
 40
15.0
 40
16.0
 40
16.0
 40
16.0
 40
16.0
 10
100.7194335685702
 20
-127.7837591911443
 30
0.0
 10
100.7194335685702
 20
-127.8674750114359
 30
0.0
 10
100.7025526006924
 20
-127.9756510096728
 30
0.0
 10
100.6391628437638
 20
-128.0845160270067
 30
0.0
 10
100.5292642977844
 20
-128.2698621641131
 30
0.0
 10
100.3980061597963
 20
-128.2922552847672
 30
0.0
 10
100.290174671108
 20
-128.3125813481302
 30
0.0
 10
100.290174671108
 20
-128.3125813481302
 30
0.0
 10
100.290174671108
 20
-128.0752142691965
 30
0.0
 10
100.290174671108
 20
-128.0752142691965
 30
0.0
 10
100.4889566806069
 20
-128.0166476459472
 30
0.0
 10
100.5185845017801
 20
-127.8809108838284
 30
0.0
 10
100.5185845017801
 20
-127.7813476243047
 30
0.0
 10
100.5185845017801
 20
-127.6321749897934
 30
0.0
 10
100.4190212422564
 20
-127.469221973341
 30
0.0
 10
100.186477297002
 20
-127.469221973341
 30
0.0
 10
99.93050670244793
 20
-127.469221973341
 30
0.0
 10
99.86057126409736
 20
-127.661458301418
 30
0.0
 10
99.86057126409736
 20
-127.7903048725663
 30
0.0
 10
99.86057126409736
 20
-127.8244113178703
 30
0.0
 10
99.86057126409736
 20
-127.9756510096728
 30
0.0
 10
99.98976234479423
 20
-128.0707356450657
 30
0.0
 10
99.98976234479423
 20
-128.0707356450657
 30
0.0
 10
99.97081431962536
 20
-128.2584933490118
 30
0.0
 10
99.97081431962536
 20
-128.2584933490118
 30
0.0
 10
99.97081431962536
 20
-128.2584933490118
 30
0.0
 10
99.12435435889947
 20
-128.1296467778634
 30
0.0
 10
99.12435435889947
 20
-128.1296467778634
 30
0.0
 10
99.12435435889947
 20
-128.1296467778634
 30
0.0
 10
99.12435435889947
 20
-127.2976562181756
 30
0.0
 10
99.12435435889947
 20
-127.2976562181756
 30
0.0
 10
99.12435435889947
 20
-127.2976562181756
 30
0.0
 10
99.31900225381608
 20
-127.2976562181756
 30
0.0
 10
99.31900225381608
 20
-127.2976562181756
 30
0.0
 10
99.31900225381608
 20
-127.2976562181756
 30
0.0
 10
99.31900225381608
 20
-127.9553249463098
 30
0.0
 10
99.31900225381608
 20
-127.9553249463098
 30
0.0
 10
99.31900225381608
 20
-127.9553249463098
 30
0.0
 10
99.74205997940477
 20
-128.0256048942089
 30
0.0
 10
99.74205997940477
 20
-128.0256048942089
 30
0.0
 10
99.70829804364932
 20
-127.9601480799891
 30
0.0
 10
99.6679904264719
 20
-127.8719536355667
 30
0.0
 10
99.6679904264719
 20
-127.7451741217095
 30
0.0
 10
99.6679904264719
 20
-127.4740451070204
 30
0.0
 10
99.85437009222392
 20
-127.2208305888545
 30
0.0
 10
100.1675292718331
 20
-127.2208305888545
 30
0.0
 10
100.4848225660246
 20
-127.2208305888545
 30
0.0
 10
100.7194335685702
 20
-127.4602647250794
 30
0.0
 10
100.7194335685702
 20
-127.7837591911443
 30
0.0
  0
HATCH
  5
B6
330
A5
100
AcDbEntity
  8
_U+30EC_U+30A4_U+30E4_U+30FC 1
 62
   179
420
  2234388
100
AcDbHatch
 10
0.0
 20
0.0
 30
0.0
210
0.0
220
0.0
230
1.0
  2
SOLID
 70
     1
 71
     0
 91
        1
 92
        1
 93
        1
 72
     4
 94
        3
 73
     0
 74
     1
 95
       53
 96
       49
 40
0.0
 40
0.0
 40
0.0
 40
0.0
 40
1.0
 40
1.0
 40
1.0
 40
2.0
 40
2.0
 40
2.0
 40
3.0
 40
3.0
 40
3.0
 40
4.0
 40
4.0
 40
4.0
 40
5.0
 40
5.0
 40
5.0
 40
6.0
 40
6.0
 40
6.0
 40
7.0
 40
7.0
 40
7.0
 40
8.0
 40
8.0
 40
8.0
 40
9.0
 40
9.0
 40
9.0
 40
10.0
 40
10.0
 40
10.0
 40
11.0
 40
11.0
 40
11.0
 40
12.0
 40
12.0
 40
12.0
 40
13.0
 40
13.0
 40
13.0
 40
14.0
 40
14.0
 40
14.0
 40
15.0
 40
15.0
 40
15.0
 40
16.0
 40
16.0
 40
16.0
 40
16.0
 10
100.7194335685702
 20
-127.7837591911443
 10
100.7194335685702
 20
-127.8674750114359
 10
100.7025526006924
 20
-127.9756510096728
 10
100.6391628437638
 20
-128.0845160270067
 10
100.5292642977844
 20
-128.2698621641131
 10
100.3980061597963
 20
-128.2922552847672
 10
100.290174671108
 20
-128.3125813481302
 10
100.290174671108
 20
-128.3125813481302
 10
100.290174671108
 20
-128.0752142691965
 10
100.290174671108
 20
-128.0752142691965
 10
100.4889566806069
 20
-128.0166476459472
 10
100.5185845017801
 20
-127.8809108838284
 10
100.5185845017801
 20
-127.7813476243047
 10
100.5185845017801
 20
-127.6321749897934
 10
100.4190212422564
 20
-127.469221973341
 10
100.186477297002
 20
-127.469221973341
 10
99.93050670244793
 20
-127.469221973341
 10
99.86057126409736
 20
-127.661458301418
 10
99.86057126409736
 20
-127.7903048725663
 10
99.86057126409736
 20
-127.8244113178703
 10
99.86057126409736
 20
-127.9756510096728
 10
99.98976234479423
 20
-128.0707356450657
 10
99.98976234479423
 20
-128.0707356450657
 10
99.97081431962536
 20
-128.2584933490118
 10
99.97081431962536
 20
-128.2584933490118
 10
99.97081431962536
 20
-128.2584933490118
 10
99.12435435889947
 20
-128.1296467778634
 10
99.12435435889947
 20
-128.1296467778634
 10
99.12435435889947
 20
-128.1296467778634
 10
99.12435435889947
 20
-127.2976562181756
 10
99.12435435889947
 20
-127.2976562181756
 10
99.12435435889947
 20
-127.2976562181756
 10
99.31900225381608
 20
-127.2976562181756
 10
99.31900225381608
 20
-127.2976562181756
 10
99.31900225381608
 20
-127.2976562181756
 10
99.31900225381608
 20
-127.9553249463098
 10
99.31900225381608
 20
-127.9553249463098
 10
99.31900225381608
 20
-127.9553249463098
 10
99.74205997940477
 20
-128.0256048942089
 10
99.74205997940477
 20
-128.0256048942089
 10
99.70829804364932
 20
-127.9601480799891
 10
99.6679904264719
 20
-127.8719536355667
 10
99.6679904264719
 20
-127.7451741217095
 10
99.6679904264719
 20
-127.4740451070204
 10
99.85437009222392
 20
-127.2208305888545
 10
100.1675292718331
 20
-127.2208305888545
 10
100.4848225660246
 20
-127.2208305888545
 10
100.7194335685702
 20
-127.4602647250794
 10
100.7194335685702
 20
-127.7837591911443
 97
        0
 97
        0
 75
     2
 76
     1
 98
        0
  0
ENDBLK
  5
A8
330
A5
100
AcDbEntity
  8
0
100
AcDbBlockEnd
  0
BLOCK
  5
C2
330
C0
100
AcDbEntity
  8
0
100
AcDbBlockBegin
  2
block 5
 70
     0
 10
0.0
 20
0.0
 30
0.0
  3
block 5
  1

  0
SPLINE
  5
C4
330
C0
100
AcDbEntity
  8
_U+30EC_U+30A4_U+30E4_U+30FC 1
370
     0
100
AcDbSpline
210
0.0
220
0.0
230
1.0
 70
    11
 71
     3
 72
    26
 73
    22
 74
     0
 42
0.0000000001
 43
0.0000000001
 12
1.0
 22
0.0
 32
0.0
 13
1.0
 23
0.0
 33
0.0
 40
0.0
 40
0.0
 40
0.0
 40
0.0
 40
1.0
 40
1.0
 40
1.0
 40
2.0
 40
2.0
 40
2.0
 40
3.0
 40
3.0
 40
3.0
 40
4.0
 40
4.0
 40
4.0
 40
5.0
 40
5.0
 40
5.0
 40
6.0
 40
6.0
 40
6.0
 40
7.0
 40
7.0
 40
7.0
 40
7.0
 10
100.6691351744855
 20
-137.6498236418028
 30
0.0
 10
100.6691351744855
 20
-137.6498236418028
 30
0.0
 10
99.56498207146292
 20
-137.6498236418028
 30
0.0
 10
99.56498207146292
 20
-137.6498236418028
 30
0.0
 10
99.56498207146292
 20
-137.6498236418028
 30
0.0
 10
99.56498207146292
 20
-138.0022569099439
 30
0.0
 10
99.56498207146292
 20
-138.0022569099439
 30
0.0
 10
99.56498207146292
 20
-138.0022569099439
 30
0.0
 10
99.41684296559718
 20
-138.0022569099439
 30
0.0
 10
99.41684296559718
 20
-138.0022569099439
 30
0.0
 10
99.40202905501062
 20
-137.6474120749631
 30
0.0
 10
99.2390760385583
 20
-137.5978026999755
 30
0.0
 10
99.124698868448
 20
-137.5661078215113
 30
0.0
 10
99.124698868448
 20
-137.5661078215113
 30
0.0
 10
99.124698868448
 20
-137.4100449960294
 30
0.0
 10
99.124698868448
 20
-137.4100449960294
 30
0.0
 10
99.124698868448
 20
-137.4100449960294
 30
0.0
 10
100.6691351744855
 20
-137.4100449960294
 30
0.0
 10
100.6691351744855
 20
-137.4100449960294
 30
0.0
 10
100.6691351744855
 20
-137.4100449960294
 30
0.0
 10
100.6691351744855
 20
-137.6498236418028
 30
0.0
 10
100.6691351744855
 20
-137.6498236418028
 30
0.0
  0
HATCH
  5
C5
330
C0
100
AcDbEntity
  8
_U+30EC_U+30A4_U+30E4_U+30FC 1
 62
   179
420
  2234388
100
AcDbHatch
 10
0.0
 20
0.0
 30
0.0
210
0.0
220
0.0
230
1.0
  2
SOLID
 70
     1
 71
     0
 91
        1
 92
        1
 93
        1
 72
     4
 94
        3
 73
     0
 74
     1
 95
       26
 96
       22
 40
0.0
 40
0.0
 40
0.0
 40
0.0
 40
1.0
 40
1.0
 40
1.0
 40
2.0
 40
2.0
 40
2.0
 40
3.0
 40
3.0
 40
3.0
 40
4.0
 40
4.0
 40
4.0
 40
5.0
 40
5.0
 40
5.0
 40
6.0
 40
6.0
 40
6.0
 40
7.0
 40
7.0
 40
7.0
 40
7.0
 10
100.6691351744855
 20
-137.6498236418028
 10
100.6691351744855
 20
-137.6498236418028
 10
99.56498207146292
 20
-137.6498236418028
 10
99.56498207146292
 20
-137.6498236418028
 10
99.56498207146292
 20
-137.6498236418028
 10
99.56498207146292
 20
-138.0022569099439
 10
99.56498207146292
 20
-138.0022569099439
 10
99.56498207146292
 20
-138.0022569099439
 10
99.41684296559718
 20
-138.0022569099439
 10
99.41684296559718
 20
-138.0022569099439
 10
99.40202905501062
 20
-137.6474120749631
 10
99.2390760385583
 20
-137.5978026999755
 10
99.124698868448
 20
-137.5661078215113
 10
99.124698868448
 20
-137.5661078215113
 10
99.124698868448
 20
-137.4100449960294
 10
99.124698868448
 20
-137.4100449960294
 10
99.124698868448
 20
-137.4100449960294
 10
100.6691351744855
 20
-137.4100449960294
 10
100.6691351744855
 20
-137.4100449960294
 10
100.6691351744855
 20
-137.4100449960294
 10
100.6691351744855
 20
-137.6498236418028
 10
100.6691351744855
 20
-137.6498236418028
 97
        0
 97
        0
 75
     2
 76
     1
 98
        0
  0
ENDBLK
  5
C3
330
C0
100
AcDbEntity
  8
0
100
AcDbBlockEnd
  0
BLOCK
  5
C8
330
C6
100
AcDbEntity
  8
0
100
AcDbBlockBegin
  2
block 6
 70
     0
 10
0.0
 20
0.0
 30
0.0
  3
block 6
  1

  0
SPLINE
  5
CA
330
C6
100
AcDbEntity
  8
_U+30EC_U+30A4_U+30E4_U+30FC 1
 62
   179
420
  2234388
370
     9
100
AcDbSpline
210
0.0
220
0.0
230
1.0
 70
    11
 71
     3
 72
    17
 73
    13
 74
     0
 42
0.0000000001
 43
0.0000000001
 12
1.0
 22
0.0
 32
0.0
 13
1.0
 23
0.0
 33
0.0
 40
0.0
 40
0.0
 40
0.0
 40
0.0
 40
1.0
 40
1.0
 40
1.0
 40
2.0
 40
2.0
 40
2.0
 40
3.0
 40
3.0
 40
3.0
 40
4.0
 40
4.0
 40
4.0
 40
4.0
 10
83.33789176276214
 20
-129.046393301072
 30
0.0
 10
83.33789176276214
 20
-128.991254134419
 30
0.0
 10
83.29308898612737
 20
-128.9464866344298
 30
0.0
 10
83.2379850986443
 20
-128.9464866344298
 30
0.0
 10
83.18284593338436
 20
-128.9464866344298
 30
0.0
 10
83.13808053477118
 20
-128.991254134419
 30
0.0
 10
83.13808053477118
 20
-129.046393301072
 30
0.0
 10
83.13808053477118
 20
-129.101497189947
 30
0.0
 10
83.18284593338436
 20
-129.1462999677137
 30
0.0
 10
83.2379850986443
 20
-129.1462999677137
 30
0.0
 10
83.29308898612737
 20
-129.1462999677137
 30
0.0
 10
83.33789176276214
 20
-129.101497189947
 30
0.0
 10
83.33789176276214
 20
-129.046393301072
 30
0.0
  0
SPLINE
  5
CB
330
C6
100
AcDbEntity
  8
_U+30EC_U+30A4_U+30E4_U+30FC 1
 62
   179
420
  2234388
370
     9
100
AcDbSpline
210
0.0
220
0.0
230
1.0
 70
    11
 71
     3
 72
    17
 73
    13
 74
     0
 42
0.0000000001
 43
0.0000000001
 12
1.0
 22
0.0
 32
0.0
 13
1.0
 23
0.0
 33
0.0
 40
0.0
 40
0.0
 40
0.0
 40
0.0
 40
1.0
 40
1.0
 40
1.0
 40
2.0
 40
2.0
 40
2.0
 40
3.0
 40
3.0
 40
3.0
 40
4.0
 40
4.0
 40
4.0
 40
4.0
 10
84.33766395947805
 20
-129.046393301072
 30
0.0
 10
84.33766395947805
 20
-128.991254134419
 30
0.0
 10
84.29286118284328
 20
-128.9464866344298
 30
0.0
 10
84.23775729536021
 20
-128.9464866344298
 30
0.0
 10
84.18261813010027
 20
-128.9464866344298
 30
0.0
 10
84.13785275674338
 20
-128.991254134419
 30
0.0
 10
84.13785275674338
 20
-129.046393301072
 30
0.0
 10
84.13785275674338
 20
-129.101497189947
 30
0.0
 10
84.18261813010027
 20
-129.1462999677137
 30
0.0
 10
84.23775729536021
 20
-129.1462999677137
 30
0.0
 10
84.29286118284328
 20
-129.1462999677137
 30
0.0
 10
84.33766395947805
 20
-129.101497189947
 30
0.0
 10
84.33766395947805
 20
-129.046393301072
 30
0.0
  0
INSERT
  5
CD
330
C6
100
AcDbEntity
  8
_U+30EC_U+30A4_U+30E4_U+30FC 1
100
AcDbBlockReference
  2
block 7
 10
0.0
 20
0.0
 30
0.0
  0
POLYLINE
  5
D2
330
C6
100
AcDbEntity
  8
_U+30EC_U+30A4_U+30E4_U+30FC 1
 62
   179
420
  2234388
370
     9
100
AcDb2dPolyline
 66
     1
 10
0.0
 20
0.0
 30
0.0
  0
VERTEX
  5
D3
330
D2
100
AcDbEntity
  8
_U+30EC_U+30A4_U+30E4_U+30FC 1
 62
   179
420
  2234388
370
     9
100
AcDbVertex
100
AcDb2dVertex
 10
85.09902894005401
 20
-129.046393301072
 30
0.0
  0
VERTEX
  5
D4
330
D2
100
AcDbEntity
  8
_U+30EC_U+30A4_U+30E4_U+30FC 1
 62
   179
420
  2234388
370
     9
100
AcDbVertex
100
AcDb2dVertex
 10
81.26048931576109
 20
-129.046393301072
 30
0.0
  0
SEQEND
  5
D5
330
D2
100
AcDbEntity
  8
_U+30EC_U+30A4_U+30E4_U+30FC 1
 62
   179
420
  2234388
370
     9
  0
ENDBLK
  5
C9
330
C6
100
AcDbEntity
  8
0
100
AcDbBlockEnd
  0
BLOCK
  5
CE
330
CC
100
AcDbEntity
  8
0
100
AcDbBlockBegin
  2
block 7
 70
     0
 10
0.0
 20
0.0
 30
0.0
  3
block 7
  1

  0
SPLINE
  5
D0
330
CC
100
AcDbEntity
  8
_U+30EC_U+30A4_U+30E4_U+30FC 1
370
     0
100
AcDbSpline
210
0.0
220
0.0
230
1.0
 70
    11
 71
     3
 72
    26
 73
    22
 74
     0
 42
0.0000000001
 43
0.0000000001
 12
1.0
 22
0.0
 32
0.0
 13
1.0
 23
0.0
 33
0.0
 40
0.0
 40
0.0
 40
0.0
 40
0.0
 40
1.0
 40
1.0
 40
1.0
 40
2.0
 40
2.0
 40
2.0
 40
3.0
 40
3.0
 40
3.0
 40
4.0
 40
4.0
 40
4.0
 40
5.0
 40
5.0
 40
5.0
 40
6.0
 40
6.0
 40
6.0
 40
7.0
 40
7.0
 40
7.0
 40
7.0
 10
82.06269122297391
 20
-128.8103976457488
 30
0.0
 10
82.06269122297391
 20
-128.8103976457488
 30
0.0
 10
82.06269122297391
 20
-127.7059000331777
 30
0.0
 10
82.06269122297391
 20
-127.7059000331777
 30
0.0
 10
82.06269122297391
 20
-127.7059000331777
 30
0.0
 10
81.73265107548698
 20
-127.7059000331777
 30
0.0
 10
81.73265107548698
 20
-127.7059000331777
 30
0.0
 10
81.73265107548698
 20
-127.7059000331777
 30
0.0
 10
81.73265107548698
 20
-127.557760927312
 30
0.0
 10
81.73265107548698
 20
-127.557760927312
 30
0.0
 10
82.06475828026507
 20
-127.5431192714996
 30
0.0
 10
82.11126706931594
 20
-127.3801662550473
 30
0.0
 10
82.14089489048908
 20
-127.2659613397113
 30
0.0
 10
82.14089489048908
 20
-127.2659613397113
 30
0.0
 10
82.28696693906367
 20
-127.2659613397113
 30
0.0
 10
82.28696693906367
 20
-127.2659613397113
 30
0.0
 10
82.28696693906367
 20
-127.2659613397113
 30
0.0
 10
82.28696693906367
 20
-128.8103976457488
 30
0.0
 10
82.28696693906367
 20
-128.8103976457488
 30
0.0
 10
82.28696693906367
 20
-128.8103976457488
 30
0.0
 10
82.06269122297391
 20
-128.8103976457488
 30
0.0
 10
82.06269122297391
 20
-128.8103976457488
 30
0.0
  0
HATCH
  5
D1
330
CC
100
AcDbEntity
  8
_U+30EC_U+30A4_U+30E4_U+30FC 1
 62
   179
420
  2234388
100
AcDbHatch
 10
0.0
 20
0.0
 30
0.0
210
0.0
220
0.0
230
1.0
  2
SOLID
 70
     1
 71
     0
 91
        1
 92
        1
 93
        1
 72
     4
 94
        3
 73
     0
 74
     1
 95
       26
 96
       22
 40
0.0
 40
0.0
 40
0.0
 40
0.0
 40
1.0
 40
1.0
 40
1.0
 40
2.0
 40
2.0
 40
2.0
 40
3.0
 40
3.0
 40
3.0
 40
4.0
 40
4.0
 40
4.0
 40
5.0
 40
5.0
 40
5.0
 40
6.0
 40
6.0
 40
6.0
 40
7.0
 40
7.0
 40
7.0
 40
7.0
 10
82.06269122297391
 20
-128.8103976457488
 10
82.06269122297391
 20
-128.8103976457488
 10
82.06269122297391
 20
-127.7059000331777
 10
82.06269122297391
 20
-127.7059000331777
 10
82.06269122297391
 20
-127.7059000331777
 10
81.73265107548698
 20
-127.7059000331777
 10
81.73265107548698
 20
-127.7059000331777
 10
81.73265107548698
 20
-127.7059000331777
 10
81.73265107548698
 20
-127.557760927312
 10
81.73265107548698
 20
-127.557760927312
 10
82.06475828026507
 20
-127.5431192714996
 10
82.11126706931594
 20
-127.3801662550473
 10
82.14089489048908
 20
-127.2659613397113
 10
82.14089489048908
 20
-127.2659613397113
 10
82.28696693906367
 20
-127.2659613397113
 10
82.28696693906367
 20
-127.2659613397113
 10
82.28696693906367
 20
-127.2659613397113
 10
82.28696693906367
 20
-128.8103976457488
 10
82.28696693906367
 20
-128.8103976457488
 10
82.28696693906367
 20
-128.8103976457488
 10
82.06269122297391
 20
-128.8103976457488
 10
82.06269122297391
 20
-128.8103976457488
 97
        0
 97
        0
 75
     2
 76
     1
 98
        0
  0
ENDBLK
  5
CF
330
CC
100
AcDbEntity
  8
0
100
AcDbBlockEnd
  0
ENDSEC
  0
SECTION
  2
ENTITIES
  0
SPLINE
  5
41
330
1F
100
AcDbEntity
  8
_U+30EC_U+30A4_U+30E4_U+30FC 1
 62
   253
420
 11711154
370
     9
100
AcDbSpline
210
0.0
220
0.0
230
1.0
 70
    11
 71
     3
 72
    56
 73
    52
 74
     0
 42
0.0000000001
 43
0.0000000001
 12
1.0
 22
0.0
 32
0.0
 13
1.0
 23
0.0
 33
0.0
 40
0.0
 40
0.0
 40
0.0
 40
0.0
 40
1.0
 40
1.0
 40
1.0
 40
2.0
 40
2.0
 40
2.0
 40
3.0
 40
3.0
 40
3.0
 40
4.0
 40
4.0
 40
4.0
 40
5.0
 40
5.0
 40
5.0
 40
6.0
 40
6.0
 40
6.0
 40
7.0
 40
7.0
 40
7.0
 40
8.0
 40
8.0
 40
8.0
 40
9.0
 40
9.0
 40
9.0
 40
10.0
 40
10.0
 40
10.0
 40
11.0
 40
11.0
 40
11.0
 40
12.0
 40
12.0
 40
12.0
 40
13.0
 40
13.0
 40
13.0
 40
14.0
 40
14.0
 40
14.0
 40
15.0
 40
15.0
 40
15.0
 40
16.0
 40
16.0
 40
16.0
 40
17.0
 40
17.0
 40
17.0
 40
17.0
 10
80.05335434655767
 20
-120.5797266365217
 30
0.0
 10
80.05335434655767
 20
-120.5797266365217
 30
0.0
 10
83.87531341571804
 20
-120.432618303225
 30
0.0
 10
84.02210424530642
 20
-120.432618303225
 30
0.0
 10
84.02210424530642
 20
-120.432618303225
 30
0.0
 10
87.37349304869426
 20
-120.3147905254768
 30
0.0
 10
87.57947998788354
 20
-120.7853960809146
 30
0.0
 10
87.57947998788354
 20
-120.7853960809146
 30
0.0
 10
87.93225775666122
 20
-121.4323905251976
 30
0.0
 10
87.34452999387761
 20
-121.5498655251681
 30
0.0
 10
87.34452999387761
 20
-121.5498655251681
 30
0.0
 10
84.25772451707303
 20
-121.5498655251681
 30
0.0
 10
84.25772451707303
 20
-121.5498655251681
 30
0.0
 10
84.25772451707303
 20
-121.5498655251681
 30
0.0
 10
84.28668757188967
 20
-137.0424544101839
 30
0.0
 10
84.28668757188967
 20
-137.0424544101839
 30
0.0
 10
84.28668757188967
 20
-137.0424544101839
 30
0.0
 10
86.81536334071112
 20
-137.1013682990579
 30
0.0
 10
86.81536334071112
 20
-137.1013682990579
 30
0.0
 10
86.81536334071112
 20
-137.1013682990579
 30
0.0
 10
87.57947998788354
 20
-137.2484766323549
 30
0.0
 10
87.5498819330831
 20
-137.6305349655922
 30
0.0
 10
87.5498819330831
 20
-137.6305349655922
 30
0.0
 10
97.28086862926939
 20
-137.5127071878443
 30
0.0
 10
97.28086862926939
 20
-137.5127071878443
 30
0.0
 10
97.28086862926939
 20
-137.5127071878443
 30
0.0
 10
97.81003528243589
 20
-137.7183766322369
 30
0.0
 10
97.7514741728188
 20
-138.1300682988011
 30
0.0
 10
97.7514741728188
 20
-138.1300682988011
 30
0.0
 10
79.70057657778
 20
-138.1007877432527
 30
0.0
 10
79.70057657778
 20
-138.1007877432527
 30
0.0
 10
79.70057657778
 20
-138.1007877432527
 30
0.0
 10
80.02439129174103
 20
-137.3363182989995
 30
0.0
 10
80.02439129174103
 20
-137.3363182989995
 30
0.0
 10
80.02439129174103
 20
-137.3363182989995
 30
0.0
 10
80.40613211533534
 20
-137.1306488546063
 30
0.0
 10
80.40613211533534
 20
-137.1306488546063
 30
0.0
 10
80.40613211533534
 20
-137.1306488546063
 30
0.0
 10
81.14128570769113
 20
-137.0717349657323
 30
0.0
 10
81.14128570769113
 20
-137.0717349657323
 30
0.0
 10
81.14128570769113
 20
-137.0717349657323
 30
0.0
 10
83.25795232035712
 20
-137.0131738546355
 30
0.0
 10
83.25795232035712
 20
-137.0131738546355
 30
0.0
 10
83.25795232035712
 20
-137.0131738546355
 30
0.0
 10
83.22835426555667
 20
-121.5498655251681
 30
0.0
 10
83.22835426555667
 20
-121.5498655251681
 30
0.0
 10
83.22835426555667
 20
-121.5498655251681
 30
0.0
 10
80.25934128574696
 20
-121.5498655251681
 30
0.0
 10
80.25934128574696
 20
-121.5498655251681
 30
0.0
 10
80.25934128574696
 20
-121.5498655251681
 30
0.0
 10
79.25960436680792
 20
-121.1678071919304
 30
0.0
 10
80.05335434655767
 20
-120.5797266365217
 30
0.0
  0
HATCH
  5
42
330
1F
100
AcDbEntity
  8
_U+30EC_U+30A4_U+30E4_U+30FC 1
 62
   253
420
 11711154
100
AcDbHatch
 10
0.0
 20
0.0
 30
0.0
210
0.0
220
0.0
230
1.0
  2
SOLID
 70
     1
 71
     0
 91
        1
 92
        1
 93
        1
 72
     4
 94
        3
 73
     0
 74
     1
 95
       56
 96
       52
 40
0.0
 40
0.0
 40
0.0
 40
0.0
 40
1.0
 40
1.0
 40
1.0
 40
2.0
 40
2.0
 40
2.0
 40
3.0
 40
3.0
 40
3.0
 40
4.0
 40
4.0
 40
4.0
 40
5.0
 40
5.0
 40
5.0
 40
6.0
 40
6.0
 40
6.0
 40
7.0
 40
7.0
 40
7.0
 40
8.0
 40
8.0
 40
8.0
 40
9.0
 40
9.0
 40
9.0
 40
10.0
 40
10.0
 40
10.0
 40
11.0
 40
11.0
 40
11.0
 40
12.0
 40
12.0
 40
12.0
 40
13.0
 40
13.0
 40
13.0
 40
14.0
 40
14.0
 40
14.0
 40
15.0
 40
15.0
 40
15.0
 40
16.0
 40
16.0
 40
16.0
 40
17.0
 40
17.0
 40
17.0
 40
17.0
 10
80.05335434655767
 20
-120.5797266365217
 10
80.05335434655767
 20
-120.5797266365217
 10
83.87531341571804
 20
-120.432618303225
 10
84.02210424530642
 20
-120.432618303225
 10
84.02210424530642
 20
-120.432618303225
 10
87.37349304869426
 20
-120.3147905254768
 10
87.57947998788354
 20
-120.7853960809146
 10
87.57947998788354
 20
-120.7853960809146
 10
87.93225775666122
 20
-121.4323905251976
 10
87.34452999387761
 20
-121.5498655251681
 10
87.34452999387761
 20
-121.5498655251681
 10
84.25772451707303
 20
-121.5498655251681
 10
84.25772451707303
 20
-121.5498655251681
 10
84.25772451707303
 20
-121.5498655251681
 10
84.28668757188967
 20
-137.0424544101839
 10
84.28668757188967
 20
-137.0424544101839
 10
84.28668757188967
 20
-137.0424544101839
 10
86.81536334071112
 20
-137.1013682990579
 10
86.81536334071112
 20
-137.1013682990579
 10
86.81536334071112
 20
-137.1013682990579
 10
87.57947998788354
 20
-137.2484766323549
 10
87.5498819330831
 20
-137.6305349655922
 10
87.5498819330831
 20
-137.6305349655922
 10
97.28086862926939
 20
-137.5127071878443
 10
97.28086862926939
 20
-137.5127071878443
 10
97.28086862926939
 20
-137.5127071878443
 10
97.81003528243589
 20
-137.7183766322369
 10
97.7514741728188
 20
-138.1300682988011
 10
97.7514741728188
 20
-138.1300682988011
 10
79.70057657778
 20
-138.1007877432527
 10
79.70057657778
 20
-138.1007877432527
 10
79.70057657778
 20
-138.1007877432527
 10
80.02439129174103
 20
-137.3363182989995
 10
80.02439129174103
 20
-137.3363182989995
 10
80.02439129174103
 20
-137.3363182989995
 10
80.40613211533534
 20
-137.1306488546063
 10
80.40613211533534
 20
-137.1306488546063
 10
80.40613211533534
 20
-137.1306488546063
 10
81.14128570769113
 20
-137.0717349657323
 10
81.14128570769113
 20
-137.0717349657323
 10
81.14128570769113
 20
-137.0717349657323
 10
83.25795232035712
 20
-137.0131738546355
 10
83.25795232035712
 20
-137.0131738546355
 10
83.25795232035712
 20
-137.0131738546355
 10
83.22835426555667
 20
-121.5498655251681
 10
83.22835426555667
 20
-121.5498655251681
 10
83.22835426555667
 20
-121.5498655251681
 10
80.25934128574696
 20
-121.5498655251681
 10
80.25934128574696
 20
-121.5498655251681
 10
80.25934128574696
 20
-121.5498655251681
 10
79.25960436680792
 20
-121.1678071919304
 10
80.05335434655767
 20
-120.5797266365217
 97
        0
 97
        0
 75
     2
 76
     1
 98
        0
  0
POLYLINE
  5
43
330
1F
100
AcDbEntity
  8
_U+30EC_U+30A4_U+30E4_U+30FC 1
 62
   179
420
  2234388
370
    25
100
AcDb2dPolyline
 66
     1
 10
0.0
 20
0.0
 30
0.0
  0
VERTEX
  5
44
330
43
100
AcDbEntity
  8
_U+30EC_U+30A4_U+30E4_U+30FC 1
 62
   179
420
  2234388
370
    25
100
AcDbVertex
100
AcDb2dVertex
 10
80.74028321792154
 20
-137.063797465734
 30
0.0
  0
VERTEX
  5
45
330
43
100
AcDbEntity
  8
_U+30EC_U+30A4_U+30E4_U+30FC 1
 62
   179
420
  2234388
370
    25
100
AcDbVertex
100
AcDb2dVertex
 10
83.24073886807858
 20
-137.063797465734
 30
0.0
  0
SEQEND
  5
46
330
43
100
AcDbEntity
  8
_U+30EC_U+30A4_U+30E4_U+30FC 1
 62
   179
420
  2234388
370
    25
  0
POLYLINE
  5
47
330
1F
100
AcDbEntity
  8
_U+30EC_U+30A4_U+30E4_U+30FC 1
 62
   179
420
  2234388
370
    25
100
AcDb2dPolyline
 66
     1
 10
0.0
 20
0.0
 30
0.0
  0
VERTEX
  5
48
330
47
100
AcDbEntity
  8
_U+30EC_U+30A4_U+30E4_U+30FC 1
 62
   179
420
  2234388
370
    25
100
AcDbVertex
100
AcDb2dVertex
 10
79.74051102120563
 20
-138.0635696877065
 30
0.0
  0
VERTEX
  5
49
330
47
100
AcDbEntity
  8
_U+30EC_U+30A4_U+30E4_U+30FC 1
 62
   179
420
  2234388
370
    25
100
AcDbVertex
100
AcDb2dVertex
 10
97.74046750643294
 20
-138.0635696877065
 30
0.0
  0
SEQEND
  5
4A
330
47
100
AcDbEntity
  8
_U+30EC_U+30A4_U+30E4_U+30FC 1
 62
   179
420
  2234388
370
    25
  0
POLYLINE
  5
4B
330
1F
100
AcDbEntity
  8
_U+30EC_U+30A4_U+30E4_U+30FC 1
 62
   179
420
  2234388
370
    25
100
AcDb2dPolyline
 66
     1
 10
0.0
 20
0.0
 30
0.0
  0
VERTEX
  5
4C
330
4B
100
AcDbEntity
  8
_U+30EC_U+30A4_U+30E4_U+30FC 1
 62
   179
420
  2234388
370
    25
100
AcDbVertex
100
AcDb2dVertex
 10
87.60636386698717
 20
-137.5633660767203
 30
0.0
  0
VERTEX
  5
4D
330
4B
100
AcDbEntity
  8
_U+30EC_U+30A4_U+30E4_U+30FC 1
 62
   179
420
  2234388
370
    25
100
AcDbVertex
100
AcDb2dVertex
 10
97.2402286303062
 20
-137.5633660767203
 30
0.0
  0
SEQEND
  5
4E
330
4B
100
AcDbEntity
  8
_U+30EC_U+30A4_U+30E4_U+30FC 1
 62
   179
420
  2234388
370
    25
  0
POLYLINE
  5
4F
330
1F
100
AcDbEntity
  8
_U+30EC_U+30A4_U+30E4_U+30FC 1
 62
   179
420
  2234388
370
    25
100
AcDb2dPolyline
 66
     1
 10
0.0
 20
0.0
 30
0.0
  0
VERTEX
  5
50
330
4F
100
AcDbEntity
  8
_U+30EC_U+30A4_U+30E4_U+30FC 1
 62
   179
420
  2234388
370
    25
100
AcDbVertex
100
AcDb2dVertex
 10
80.24074989733236
 20
-121.563306358498
 30
0.0
  0
VERTEX
  5
51
330
4F
100
AcDbEntity
  8
_U+30EC_U+30A4_U+30E4_U+30FC 1
 62
   179
420
  2234388
370
    25
100
AcDbVertex
100
AcDb2dVertex
 10
83.24073886807858
 20
-121.563306358498
 30
0.0
  0
SEQEND
  5
52
330
4F
100
AcDbEntity
  8
_U+30EC_U+30A4_U+30E4_U+30FC 1
 62
   179
420
  2234388
370
    25
  0
POLYLINE
  5
53
330
1F
100
AcDbEntity
  8
_U+30EC_U+30A4_U+30E4_U+30FC 1
 62
   179
420
  2234388
370
    25
100
AcDb2dPolyline
 66
     1
 10
0.0
 20
0.0
 30
0.0
  0
VERTEX
  5
54
330
53
100
AcDbEntity
  8
_U+30EC_U+30A4_U+30E4_U+30FC 1
 62
   179
420
  2234388
370
    25
100
AcDbVertex
100
AcDb2dVertex
 10
83.24073886807858
 20
-121.563306358498
 30
0.0
  0
VERTEX
  5
55
330
53
100
AcDbEntity
  8
_U+30EC_U+30A4_U+30E4_U+30FC 1
 62
   179
420
  2234388
370
    25
100
AcDbVertex
100
AcDb2dVertex
 10
83.24073886807858
 20
-137.063797465734
 30
0.0
  0
SEQEND
  5
56
330
53
100
AcDbEntity
  8
_U+30EC_U+30A4_U+30E4_U+30FC 1
 62
   179
420
  2234388
370
    25
  0
POLYLINE
  5
57
330
1F
100
AcDbEntity
  8
_U+30EC_U+30A4_U+30E4_U+30FC 1
 62
   179
420
  2234388
370
    25
100
AcDb2dPolyline
 66
     1
 10
0.0
 20
0.0
 30
0.0
  0
VERTEX
  5
58
330
57
100
AcDbEntity
  8
_U+30EC_U+30A4_U+30E4_U+30FC 1
 62
   179
420
  2234388
370
    25
100
AcDbVertex
100
AcDb2dVertex
 10
84.24051109005111
 20
-121.563306358498
 30
0.0
  0
VERTEX
  5
59
330
57
100
AcDbEntity
  8
_U+30EC_U+30A4_U+30E4_U+30FC 1
 62
   179
420
  2234388
370
    25
100
AcDbVertex
100
AcDb2dVertex
 10
84.24051109005111
 20
-137.063797465734
 30
0.0
  0
SEQEND
  5
5A
330
57
100
AcDbEntity
  8
_U+30EC_U+30A4_U+30E4_U+30FC 1
 62
   179
420
  2234388
370
    25
  0
POLYLINE
  5
5B
330
1F
100
AcDbEntity
  8
_U+30EC_U+30A4_U+30E4_U+30FC 1
 62
   179
420
  2234388
370
    25
100
AcDb2dPolyline
 66
     1
 10
0.0
 20
0.0
 30
0.0
  0
VERTEX
  5
5C
330
5B
100
AcDbEntity
  8
_U+30EC_U+30A4_U+30E4_U+30FC 1
 62
   179
420
  2234388
370
    25
100
AcDbVertex
100
AcDb2dVertex
 10
84.24051109005111
 20
-121.563306358498
 30
0.0
  0
VERTEX
  5
5D
330
5B
100
AcDbEntity
  8
_U+30EC_U+30A4_U+30E4_U+30FC 1
 62
   179
420
  2234388
370
    25
100
AcDbVertex
100
AcDb2dVertex
 10
87.24049582986508
 20
-121.563306358498
 30
0.0
  0
SEQEND
  5
5E
330
5B
100
AcDbEntity
  8
_U+30EC_U+30A4_U+30E4_U+30FC 1
 62
   179
420
  2234388
370
    25
  0
POLYLINE
  5
5F
330
1F
100
AcDbEntity
  8
_U+30EC_U+30A4_U+30E4_U+30FC 1
 62
   179
420
  2234388
370
    25
100
AcDb2dPolyline
 66
     1
 10
0.0
 20
0.0
 30
0.0
  0
VERTEX
  5
60
330
5F
100
AcDbEntity
  8
_U+30EC_U+30A4_U+30E4_U+30FC 1
 62
   179
420
  2234388
370
    25
100
AcDbVertex
100
AcDb2dVertex
 10
84.24051109005111
 20
-137.063797465734
 30
0.0
  0
VERTEX
  5
61
330
5F
100
AcDbEntity
  8
_U+30EC_U+30A4_U+30E4_U+30FC 1
 62
   179
420
  2234388
370
    25
100
AcDbVertex
100
AcDb2dVertex
 10
86.74025695373835
 20
-137.063797465734
 30
0.0
  0
SEQEND
  5
62
330
5F
100
AcDbEntity
  8
_U+30EC_U+30A4_U+30E4_U+30FC 1
 62
   179
420
  2234388
370
    25
  0
SPLINE
  5
63
330
1F
100
AcDbEntity
  8
_U+30EC_U+30A4_U+30E4_U+30FC 1
 62
   179
420
  2234388
370
    25
100
AcDbSpline
210
0.0
220
0.0
230
1.0
 70
     8
 71
     3
 72
     8
 73
     4
 74
     0
 42
0.0000000001
 43
0.0000000001
 12
1.0
 22
0.0
 32
0.0
 13
1.0
 23
0.0
 33
0.0
 40
0.0
 40
0.0
 40
0.0
 40
0.0
 40
1.0
 40
1.0
 40
1.0
 40
1.0
 10
97.74046750643294
 20
-138.0635696877065
 30
0.0
 10
97.74046750643294
 20
-137.7872741322201
 30
0.0
 10
97.51652417881287
 20
-137.5633660767203
 30
0.0
 10
97.2402286303062
 20
-137.5633660767203
 30
0.0
  0
SPLINE
  5
64
330
1F
100
AcDbEntity
  8
_U+30EC_U+30A4_U+30E4_U+30FC 1
 62
   179
420
  2234388
370
     9
100
AcDbSpline
210
0.0
220
0.0
230
1.0
 70
    11
 71
     3
 72
    17
 73
    13
 74
     0
 42
0.0000000001
 43
0.0000000001
 12
1.0
 22
0.0
 32
0.0
 13
1.0
 23
0.0
 33
0.0
 40
0.0
 40
0.0
 40
0.0
 40
0.0
 40
1.0
 40
1.0
 40
1.0
 40
2.0
 40
2.0
 40
2.0
 40
3.0
 40
3.0
 40
3.0
 40
4.0
 40
4.0
 40
4.0
 40
4.0
 10
101.7181805301257
 20
-121.563306358498
 30
0.0
 10
101.7181805301257
 20
-121.508519969623
 30
0.0
 10
101.6733777523596
 20
-121.4637171918563
 30
0.0
 10
101.6182712963908
 20
-121.4637171918563
 30
0.0
 10
101.5631321311309
 20
-121.4637171918563
 30
0.0
 10
101.518364632273
 20
-121.508519969623
 30
0.0
 10
101.518364632273
 20
-121.563306358498
 30
0.0
 10
101.518364632273
 20
-121.6191158029284
 30
0.0
 10
101.5631321311309
 20
-121.6638833029173
 30
0.0
 10
101.6182712963908
 20
-121.6638833029173
 30
0.0
 10
101.6733777523596
 20
-121.6638833029173
 30
0.0
 10
101.7181805301257
 20
-121.6191158029284
 30
0.0
 10
101.7181805301257
 20
-121.563306358498
 30
0.0
  0
SPLINE
  5
65
330
1F
100
AcDbEntity
  8
_U+30EC_U+30A4_U+30E4_U+30FC 1
 62
   179
420
  2234388
370
     9
100
AcDbSpline
210
0.0
220
0.0
230
1.0
 70
    11
 71
     3
 72
    17
 73
    13
 74
     0
 42
0.0000000001
 43
0.0000000001
 12
1.0
 22
0.0
 32
0.0
 13
1.0
 23
0.0
 33
0.0
 40
0.0
 40
0.0
 40
0.0
 40
0.0
 40
1.0
 40
1.0
 40
1.0
 40
2.0
 40
2.0
 40
2.0
 40
3.0
 40
3.0
 40
3.0
 40
4.0
 40
4.0
 40
4.0
 40
4.0
 10
101.7181805301257
 20
-137.063797465734
 30
0.0
 10
101.7181805301257
 20
-137.0086935768591
 30
0.0
 10
101.6733777523596
 20
-136.9638907990923
 30
0.0
 10
101.6182712963908
 20
-136.9638907990923
 30
0.0
 10
101.5631321311309
 20
-136.9638907990923
 30
0.0
 10
101.518364632273
 20
-137.0086935768591
 30
0.0
 10
101.518364632273
 20
-137.063797465734
 30
0.0
 10
101.518364632273
 20
-137.118936632387
 30
0.0
 10
101.5631321311309
 20
-137.1637041323756
 30
0.0
 10
101.6182712963908
 20
-137.1637041323756
 30
0.0
 10
101.6733777523596
 20
-137.1637041323756
 30
0.0
 10
101.7181805301257
 20
-137.118936632387
 30
0.0
 10
101.7181805301257
 20
-137.063797465734
 30
0.0
  0
SPLINE
  5
66
330
1F
100
AcDbEntity
  8
_U+30EC_U+30A4_U+30E4_U+30FC 1
 62
   179
420
  2234388
370
     9
100
AcDbSpline
210
0.0
220
0.0
230
1.0
 70
    11
 71
     3
 72
    17
 73
    13
 74
     0
 42
0.0000000001
 43
0.0000000001
 12
1.0
 22
0.0
 32
0.0
 13
1.0
 23
0.0
 33
0.0
 40
0.0
 40
0.0
 40
0.0
 40
0.0
 40
1.0
 40
1.0
 40
1.0
 40
2.0
 40
2.0
 40
2.0
 40
3.0
 40
3.0
 40
3.0
 40
4.0
 40
4.0
 40
4.0
 40
4.0
 10
79.84041768532347
 20
-142.0640344089283
 30
0.0
 10
79.84041768532347
 20
-142.0082249644978
 30
0.0
 10
79.79565018646558
 20
-141.9634221867311
 30
0.0
 10
79.74051102120563
 20
-141.9634221867311
 30
0.0
 10
79.68540713372256
 20
-141.9634221867311
 30
0.0
 10
79.6406043570878
 20
-142.0082249644978
 30
0.0
 10
79.6406043570878
 20
-142.0640344089283
 30
0.0
 10
79.6406043570878
 20
-142.1191382978038
 30
0.0
 10
79.68540713372256
 20
-142.1639410755699
 30
0.0
 10
79.74051102120563
 20
-142.1639410755699
 30
0.0
 10
79.79565018646558
 20
-142.1639410755699
 30
0.0
 10
79.84041768532347
 20
-142.1191382978038
 30
0.0
 10
79.84041768532347
 20
-142.0640344089283
 30
0.0
  0
SPLINE
  5
67
330
1F
100
AcDbEntity
  8
_U+30EC_U+30A4_U+30E4_U+30FC 1
 62
   179
420
  2234388
370
     9
100
AcDbSpline
210
0.0
220
0.0
230
1.0
 70
    11
 71
     3
 72
    17
 73
    13
 74
     0
 42
0.0000000001
 43
0.0000000001
 12
1.0
 22
0.0
 32
0.0
 13
1.0
 23
0.0
 33
0.0
 40
0.0
 40
0.0
 40
0.0
 40
0.0
 40
1.0
 40
1.0
 40
1.0
 40
2.0
 40
2.0
 40
2.0
 40
3.0
 40
3.0
 40
3.0
 40
4.0
 40
4.0
 40
4.0
 40
4.0
 10
97.84037417055077
 20
-142.0640344089283
 30
0.0
 10
97.84037417055077
 20
-142.0082249644978
 30
0.0
 10
97.795571393916
 20
-141.9634221867311
 30
0.0
 10
97.74046750643294
 20
-141.9634221867311
 30
0.0
 10
97.68532834117299
 20
-141.9634221867311
 30
0.0
 10
97.6405608423151
 20
-142.0082249644978
 30
0.0
 10
97.6405608423151
 20
-142.0640344089283
 30
0.0
 10
97.6405608423151
 20
-142.1191382978038
 30
0.0
 10
97.68532834117299
 20
-142.1639410755699
 30
0.0
 10
97.74046750643294
 20
-142.1639410755699
 30
0.0
 10
97.795571393916
 20
-142.1639410755699
 30
0.0
 10
97.84037417055077
 20
-142.1191382978038
 30
0.0
 10
97.84037417055077
 20
-142.0640344089283
 30
0.0
  0
SPLINE
  5
68
330
1F
100
AcDbEntity
  8
_U+30EC_U+30A4_U+30E4_U+30FC 1
 62
   179
420
  2234388
370
    25
100
AcDbSpline
210
0.0
220
0.0
230
1.0
 70
     8
 71
     3
 72
     8
 73
     4
 74
     0
 42
0.0000000001
 43
0.0000000001
 12
1.0
 22
0.0
 32
0.0
 13
1.0
 23
0.0
 33
0.0
 40
0.0
 40
0.0
 40
0.0
 40
0.0
 40
1.0
 40
1.0
 40
1.0
 40
1.0
 10
87.60636386698717
 20
-137.5633660767203
 30
0.0
 10
87.42789138063978
 20
-137.2539799656864
 30
0.0
 10
87.09786777794827
 20
-137.063797465734
 30
0.0
 10
86.74025695373835
 20
-137.063797465734
 30
0.0
  0
SPLINE
  5
69
330
1F
100
AcDbEntity
  8
_U+30EC_U+30A4_U+30E4_U+30FC 1
 62
   179
420
  2234388
370
    25
100
AcDbSpline
210
0.0
220
0.0
230
1.0
 70
     8
 71
     3
 72
    11
 73
     7
 74
     0
 42
0.0000000001
 43
0.0000000001
 12
1.0
 22
0.0
 32
0.0
 13
1.0
 23
0.0
 33
0.0
 40
0.0
 40
0.0
 40
0.0
 40
0.0
 40
1.0
 40
1.0
 40
1.0
 40
2.0
 40
2.0
 40
2.0
 40
2.0
 10
87.24049582986508
 20
-121.563306358498
 30
0.0
 10
87.51679137837175
 20
-121.563306358498
 30
0.0
 10
87.74002915045426
 20
-121.3397158029985
 30
0.0
 10
87.74002915045426
 20
-121.0637730252895
 30
0.0
 10
87.74002915045426
 20
-120.8043402475767
 30
0.0
 10
87.54159165551683
 20
-120.5879816365197
 30
0.0
 10
87.28321942262377
 20
-120.5655802476363
 30
0.0
  0
SPLINE
  5
6A
330
1F
100
AcDbEntity
  8
_U+30EC_U+30A4_U+30E4_U+30FC 1
 62
   179
420
  2234388
370
    25
100
AcDbSpline
210
0.0
220
0.0
230
1.0
 70
     8
 71
     3
 72
    11
 73
     7
 74
     0
 42
0.0000000001
 43
0.0000000001
 12
1.0
 22
0.0
 32
0.0
 13
1.0
 23
0.0
 33
0.0
 40
0.0
 40
0.0
 40
0.0
 40
0.0
 40
1.0
 40
1.0
 40
1.0
 40
2.0
 40
2.0
 40
2.0
 40
2.0
 10
80.19735823177271
 20
-120.5655802476363
 30
0.0
 10
79.92243851656428
 20
-120.5893574698526
 30
0.0
 10
79.71846241065703
 20
-120.8315394142367
 30
0.0
 10
79.74188886895341
 20
-121.1068119141677
 30
0.0
 10
79.76464102059003
 20
-121.3651863585475
 30
0.0
 10
79.98099962618137
 20
-121.563306358498
 30
0.0
 10
80.24074989733236
 20
-121.563306358498
 30
0.0
  0
SPLINE
  5
6B
330
1F
100
AcDbEntity
  8
_U+30EC_U+30A4_U+30E4_U+30FC 1
 62
   179
420
  2234388
370
    25
100
AcDbSpline
210
0.0
220
0.0
230
1.0
 70
     8
 71
     3
 72
     8
 73
     4
 74
     0
 42
0.0000000001
 43
0.0000000001
 12
1.0
 22
0.0
 32
0.0
 13
1.0
 23
0.0
 33
0.0
 40
0.0
 40
0.0
 40
0.0
 40
0.0
 40
1.0
 40
1.0
 40
1.0
 40
1.0
 10
80.74028321792154
 20
-137.063797465734
 30
0.0
 10
80.18839767644576
 20
-137.063797465734
 30
0.0
 10
79.74051102120563
 20
-137.5116841322885
 30
0.0
 10
79.74051102120563
 20
-138.0635696877065
 30
0.0
  0
SPLINE
  5
6C
330
1F
100
AcDbEntity
  8
_U+30EC_U+30A4_U+30E4_U+30FC 1
 62
   179
420
  2234388
370
     9
100
AcDbSpline
210
0.0
220
0.0
230
1.0
 70
    11
 71
     3
 72
    17
 73
    13
 74
     0
 42
0.0000000001
 43
0.0000000001
 12
1.0
 22
0.0
 32
0.0
 13
1.0
 23
0.0
 33
0.0
 40
0.0
 40
0.0
 40
0.0
 40
0.0
 40
1.0
 40
1.0
 40
1.0
 40
2.0
 40
2.0
 40
2.0
 40
3.0
 40
3.0
 40
3.0
 40
4.0
 40
4.0
 40
4.0
 40
4.0
 10
87.84064137010965
 20
-116.4139149708964
 30
0.0
 10
87.84064137010965
 20
-116.3587758042437
 30
0.0
 10
87.79583859347488
 20
-116.3140083042548
 30
0.0
 10
87.74002915045426
 20
-116.3140083042548
 30
0.0
 10
87.68492526297119
 20
-116.3140083042548
 30
0.0
 10
87.64012248633642
 20
-116.3587758042437
 30
0.0
 10
87.64012248633642
 20
-116.4139149708964
 30
0.0
 10
87.64012248633642
 20
-116.4690188597717
 30
0.0
 10
87.68492526297119
 20
-116.5138216375384
 30
0.0
 10
87.74002915045426
 20
-116.5138216375384
 30
0.0
 10
87.79583859347488
 20
-116.5138216375384
 30
0.0
 10
87.84064137010965
 20
-116.4690188597717
 30
0.0
 10
87.84064137010965
 20
-116.4139149708964
 30
0.0
  0
SPLINE
  5
6D
330
1F
100
AcDbEntity
  8
_U+30EC_U+30A4_U+30E4_U+30FC 1
 62
   179
420
  2234388
370
     9
100
AcDbSpline
210
0.0
220
0.0
230
1.0
 70
    11
 71
     3
 72
    17
 73
    13
 74
     0
 42
0.0000000001
 43
0.0000000001
 12
1.0
 22
0.0
 32
0.0
 13
1.0
 23
0.0
 33
0.0
 40
0.0
 40
0.0
 40
0.0
 40
0.0
 40
1.0
 40
1.0
 40
1.0
 40
2.0
 40
2.0
 40
2.0
 40
3.0
 40
3.0
 40
3.0
 40
4.0
 40
4.0
 40
4.0
 40
4.0
 10
79.84041768532347
 20
-116.4139149708964
 30
0.0
 10
79.84041768532347
 20
-116.3587758042437
 30
0.0
 10
79.79565018646558
 20
-116.3140083042548
 30
0.0
 10
79.74051102120563
 20
-116.3140083042548
 30
0.0
 10
79.68540713372256
 20
-116.3140083042548
 30
0.0
 10
79.6406043570878
 20
-116.3587758042437
 30
0.0
 10
79.6406043570878
 20
-116.4139149708964
 30
0.0
 10
79.6406043570878
 20
-116.4690188597717
 30
0.0
 10
79.68540713372256
 20
-116.5138216375384
 30
0.0
 10
79.74051102120563
 20
-116.5138216375384
 30
0.0
 10
79.79565018646558
 20
-116.5138216375384
 30
0.0
 10
79.84041768532347
 20
-116.4690188597717
 30
0.0
 10
79.84041768532347
 20
-116.4139149708964
 30
0.0
  0
SPLINE
  5
6E
330
1F
100
AcDbEntity
  8
_U+30EC_U+30A4_U+30E4_U+30FC 1
 62
   179
420
  2234388
370
    25
100
AcDbSpline
210
0.0
220
0.0
230
1.0
 70
     8
 71
     3
 72
     8
 73
     4
 74
     0
 42
0.0000000001
 43
0.0000000001
 12
1.0
 22
0.0
 32
0.0
 13
1.0
 23
0.0
 33
0.0
 40
0.0
 40
0.0
 40
0.0
 40
0.0
 40
1.0
 40
1.0
 40
1.0
 40
1.0
 10
87.28321942262377
 20
-120.5655802476363
 30
0.0
 10
84.92539172226164
 20
-120.3633680254647
 30
0.0
 10
82.55514844939826
 20
-120.3633680254647
 30
0.0
 10
80.19735823177271
 20
-120.5655802476363
 30
0.0
  0
POLYLINE
  5
6F
330
1F
100
AcDbEntity
  8
_U+30EC_U+30A4_U+30E4_U+30FC 1
 62
   179
420
  2234388
370
     9
100
AcDb2dPolyline
 66
     1
 10
0.0
 20
0.0
 30
0.0
  0
VERTEX
  5
70
330
6F
100
AcDbEntity
  8
_U+30EC_U+30A4_U+30E4_U+30FC 1
 62
   179
420
  2234388
370
     9
100
AcDbVertex
100
AcDb2dVertex
 10
79.74051102120563
 20
-142.0640344089283
 30
0.0
  0
VERTEX
  5
71
330
6F
100
AcDbEntity
  8
_U+30EC_U+30A4_U+30E4_U+30FC 1
 62
   179
420
  2234388
370
     9
100
AcDbVertex
100
AcDb2dVertex
 10
97.74046750643294
 20
-142.0640344089283
 30
0.0
  0
SEQEND
  5
72
330
6F
100
AcDbEntity
  8
_U+30EC_U+30A4_U+30E4_U+30FC 1
 62
   179
420
  2234388
370
     9
  0
POLYLINE
  5
73
330
1F
100
AcDbEntity
  8
_U+30EC_U+30A4_U+30E4_U+30FC 1
 62
   179
420
  2234388
370
     9
100
AcDb2dPolyline
 66
     1
 10
0.0
 20
0.0
 30
0.0
  0
VERTEX
  5
74
330
73
100
AcDbEntity
  8
_U+30EC_U+30A4_U+30E4_U+30FC 1
 62
   179
420
  2234388
370
     9
100
AcDbVertex
100
AcDb2dVertex
 10
79.74051102120563
 20
-139.8033638539379
 30
0.0
  0
VERTEX
  5
75
330
73
100
AcDbEntity
  8
_U+30EC_U+30A4_U+30E4_U+30FC 1
 62
   179
420
  2234388
370
     9
100
AcDbVertex
100
AcDb2dVertex
 10
79.74051102120563
 20
-143.0638066309008
 30
0.0
  0
SEQEND
  5
76
330
73
100
AcDbEntity
  8
_U+30EC_U+30A4_U+30E4_U+30FC 1
 62
   179
420
  2234388
370
     9
  0
POLYLINE
  5
77
330
1F
100
AcDbEntity
  8
_U+30EC_U+30A4_U+30E4_U+30FC 1
 62
   179
420
  2234388
370
     9
100
AcDb2dPolyline
 66
     1
 10
0.0
 20
0.0
 30
0.0
  0
VERTEX
  5
78
330
77
100
AcDbEntity
  8
_U+30EC_U+30A4_U+30E4_U+30FC 1
 62
   179
420
  2234388
370
     9
100
AcDbVertex
100
AcDb2dVertex
 10
97.74046750643294
 20
-140.6039930204046
 30
0.0
  0
VERTEX
  5
79
330
77
100
AcDbEntity
  8
_U+30EC_U+30A4_U+30E4_U+30FC 1
 62
   179
420
  2234388
370
     9
100
AcDbVertex
100
AcDb2dVertex
 10
97.74046750643294
 20
-143.0638066309008
 30
0.0
  0
SEQEND
  5
7A
330
77
100
AcDbEntity
  8
_U+30EC_U+30A4_U+30E4_U+30FC 1
 62
   179
420
  2234388
370
     9
  0
INSERT
  5
7C
330
1F
100
AcDbEntity
  8
_U+30EC_U+30A4_U+30E4_U+30FC 1
100
AcDbBlockReference
  2
block 2
 10
0.0
 20
0.0
 30
0.0
  0
POLYLINE
  5
85
330
1F
100
AcDbEntity
  8
_U+30EC_U+30A4_U+30E4_U+30FC 1
 62
   179
420
  2234388
370
     9
100
AcDb2dPolyline
 66
     1
 10
0.0
 20
0.0
 30
0.0
  0
VERTEX
  5
86
330
85
100
AcDbEntity
  8
_U+30EC_U+30A4_U+30E4_U+30FC 1
 62
   179
420
  2234388
370
     9
100
AcDbVertex
100
AcDb2dVertex
 10
79.74051102120563
 20
-116.4139149708964
 30
0.0
  0
VERTEX
  5
87
330
85
100
AcDbEntity
  8
_U+30EC_U+30A4_U+30E4_U+30FC 1
 62
   179
420
  2234388
370
     9
100
AcDbVertex
100
AcDb2dVertex
 10
87.74002915045426
 20
-116.4139149708964
 30
0.0
  0
SEQEND
  5
88
330
85
100
AcDbEntity
  8
_U+30EC_U+30A4_U+30E4_U+30FC 1
 62
   179
420
  2234388
370
     9
  0
POLYLINE
  5
89
330
1F
100
AcDbEntity
  8
_U+30EC_U+30A4_U+30E4_U+30FC 1
 62
   179
420
  2234388
370
     9
100
AcDb2dPolyline
 66
     1
 10
0.0
 20
0.0
 30
0.0
  0
VERTEX
  5
8A
330
89
100
AcDbEntity
  8
_U+30EC_U+30A4_U+30E4_U+30FC 1
 62
   179
420
  2234388
370
     9
100
AcDbVertex
100
AcDb2dVertex
 10
79.74051102120563
 20
-118.5739733036899
 30
0.0
  0
VERTEX
  5
8B
330
89
100
AcDbEntity
  8
_U+30EC_U+30A4_U+30E4_U+30FC 1
 62
   179
420
  2234388
370
     9
100
AcDbVertex
100
AcDb2dVertex
 10
79.74051102120563
 20
-115.4137899711464
 30
0.0
  0
SEQEND
  5
8C
330
89
100
AcDbEntity
  8
_U+30EC_U+30A4_U+30E4_U+30FC 1
 62
   179
420
  2234388
370
     9
  0
POLYLINE
  5
8D
330
1F
100
AcDbEntity
  8
_U+30EC_U+30A4_U+30E4_U+30FC 1
 62
   179
420
  2234388
370
     9
100
AcDb2dPolyline
 66
     1
 10
0.0
 20
0.0
 30
0.0
  0
VERTEX
  5
8E
330
8D
100
AcDbEntity
  8
_U+30EC_U+30A4_U+30E4_U+30FC 1
 62
   179
420
  2234388
370
     9
100
AcDbVertex
100
AcDb2dVertex
 10
87.74002915045426
 20
-118.5739733036899
 30
0.0
  0
VERTEX
  5
8F
330
8D
100
AcDbEntity
  8
_U+30EC_U+30A4_U+30E4_U+30FC 1
 62
   179
420
  2234388
370
     9
100
AcDbVertex
100
AcDb2dVertex
 10
87.74002915045426
 20
-115.4137899711464
 30
0.0
  0
SEQEND
  5
90
330
8D
100
AcDbEntity
  8
_U+30EC_U+30A4_U+30E4_U+30FC 1
 62
   179
420
  2234388
370
     9
  0
INSERT
  5
92
330
1F
100
AcDbEntity
  8
_U+30EC_U+30A4_U+30E4_U+30FC 1
100
AcDbBlockReference
  2
block 3
 10
0.0
 20
0.0
 30
0.0
  0
POLYLINE
  5
99
330
1F
100
AcDbEntity
  8
_U+30EC_U+30A4_U+30E4_U+30FC 1
 62
   179
420
  2234388
370
     9
100
AcDb2dPolyline
 66
     1
 10
0.0
 20
0.0
 30
0.0
  0
VERTEX
  5
9A
330
99
100
AcDbEntity
  8
_U+30EC_U+30A4_U+30E4_U+30FC 1
 62
   179
420
  2234388
370
     9
100
AcDbVertex
100
AcDb2dVertex
 10
101.6182712963908
 20
-137.063797465734
 30
0.0
  0
VERTEX
  5
9B
330
99
100
AcDbEntity
  8
_U+30EC_U+30A4_U+30E4_U+30FC 1
 62
   179
420
  2234388
370
     9
100
AcDbVertex
100
AcDb2dVertex
 10
101.6182712963908
 20
-121.5639766362757
 30
0.0
  0
SEQEND
  5
9C
330
99
100
AcDbEntity
  8
_U+30EC_U+30A4_U+30E4_U+30FC 1
 62
   179
420
  2234388
370
     9
  0
POLYLINE
  5
9D
330
1F
100
AcDbEntity
  8
_U+30EC_U+30A4_U+30E4_U+30FC 1
 62
   179
420
  2234388
370
     9
100
AcDb2dPolyline
 66
     1
 10
0.0
 20
0.0
 30
0.0
  0
VERTEX
  5
9E
330
9D
100
AcDbEntity
  8
_U+30EC_U+30A4_U+30E4_U+30FC 1
 62
   179
420
  2234388
370
     9
100
AcDbVertex
100
AcDb2dVertex
 10
100.6226265995696
 20
-137.063797465734
 30
0.0
  0
VERTEX
  5
9F
330
9D
100
AcDbEntity
  8
_U+30EC_U+30A4_U+30E4_U+30FC 1
 62
   179
420
  2234388
370
     9
100
AcDbVertex
100
AcDb2dVertex
 10
102.6180082153298
 20
-137.063797465734
 30
0.0
  0
SEQEND
  5
A0
330
9D
100
AcDbEntity
  8
_U+30EC_U+30A4_U+30E4_U+30FC 1
 62
   179
420
  2234388
370
     9
  0
POLYLINE
  5
A1
330
1F
100
AcDbEntity
  8
_U+30EC_U+30A4_U+30E4_U+30FC 1
 62
   179
420
  2234388
370
     9
100
AcDb2dPolyline
 66
     1
 10
0.0
 20
0.0
 30
0.0
  0
VERTEX
  5
A2
330
A1
100
AcDbEntity
  8
_U+30EC_U+30A4_U+30E4_U+30FC 1
 62
   179
420
  2234388
370
     9
100
AcDbVertex
100
AcDb2dVertex
 10
100.6226265995696
 20
-121.563306358498
 30
0.0
  0
VERTEX
  5
A3
330
A1
100
AcDbEntity
  8
_U+30EC_U+30A4_U+30E4_U+30FC 1
 62
   179
420
  2234388
370
     9
100
AcDbVertex
100
AcDb2dVertex
 10
102.6180082153298
 20
-121.563306358498
 30
0.0
  0
SEQEND
  5
A4
330
A1
100
AcDbEntity
  8
_U+30EC_U+30A4_U+30E4_U+30FC 1
 62
   179
420
  2234388
370
     9
  0
INSERT
  5
A6
330
1F
100
AcDbEntity
  8
_U+30EC_U+30A4_U+30E4_U+30FC 1
100
AcDbBlockReference
  2
block 4
 10
0.0
 20
0.0
 30
0.0
  0
SPLINE
  5
B7
330
1F
100
AcDbEntity
  8
_U+30EC_U+30A4_U+30E4_U+30FC 1
 62
   179
420
  2234388
370
     9
100
AcDbSpline
210
0.0
220
0.0
230
1.0
 70
    11
 71
     3
 72
    17
 73
    13
 74
     0
 42
0.0000000001
 43
0.0000000001
 12
1.0
 22
0.0
 32
0.0
 13
1.0
 23
0.0
 33
0.0
 40
0.0
 40
0.0
 40
0.0
 40
0.0
 40
1.0
 40
1.0
 40
1.0
 40
2.0
 40
2.0
 40
2.0
 40
3.0
 40
3.0
 40
3.0
 40
4.0
 40
4.0
 40
4.0
 40
4.0
 10
101.7181805301257
 20
-138.1269638543569
 30
0.0
 10
101.7181805301257
 20
-138.0715071877042
 30
0.0
 10
101.6733777523596
 20
-138.0267044099375
 30
0.0
 10
101.6182712963908
 20
-138.0267044099375
 30
0.0
 10
101.5631321311309
 20
-138.0267044099375
 30
0.0
 10
101.518364632273
 20
-138.0715071877042
 30
0.0
 10
101.518364632273
 20
-138.1269638543569
 30
0.0
 10
101.518364632273
 20
-138.18210302101
 30
0.0
 10
101.5631321311309
 20
-138.2268705209985
 30
0.0
 10
101.6182712963908
 20
-138.2268705209985
 30
0.0
 10
101.6733777523596
 20
-138.2268705209985
 30
0.0
 10
101.7181805301257
 20
-138.18210302101
 30
0.0
 10
101.7181805301257
 20
-138.1269638543569
 30
0.0
  0
POLYLINE
  5
B8
330
1F
100
AcDbEntity
  8
_U+30EC_U+30A4_U+30E4_U+30FC 1
 62
   179
420
  2234388
370
     9
100
AcDb2dPolyline
 66
     1
 10
0.0
 20
0.0
 30
0.0
  0
VERTEX
  5
B9
330
B8
100
AcDbEntity
  8
_U+30EC_U+30A4_U+30E4_U+30FC 1
 62
   179
420
  2234388
370
     9
100
AcDbVertex
100
AcDb2dVertex
 10
101.6182712963908
 20
-135.7739713549455
 30
0.0
  0
VERTEX
  5
BA
330
B8
100
AcDbEntity
  8
_U+30EC_U+30A4_U+30E4_U+30FC 1
 62
   179
420
  2234388
370
     9
100
AcDbVertex
100
AcDb2dVertex
 10
101.6182712963908
 20
-138.1266110765798
 30
0.0
  0
SEQEND
  5
BB
330
B8
100
AcDbEntity
  8
_U+30EC_U+30A4_U+30E4_U+30FC 1
 62
   179
420
  2234388
370
     9
  0
POLYLINE
  5
BC
330
1F
100
AcDbEntity
  8
_U+30EC_U+30A4_U+30E4_U+30FC 1
 62
   179
420
  2234388
370
     9
100
AcDb2dPolyline
 66
     1
 10
0.0
 20
0.0
 30
0.0
  0
VERTEX
  5
BD
330
BC
100
AcDbEntity
  8
_U+30EC_U+30A4_U+30E4_U+30FC 1
 62
   179
420
  2234388
370
     9
100
AcDbVertex
100
AcDb2dVertex
 10
100.6226265995696
 20
-138.1266110765798
 30
0.0
  0
VERTEX
  5
BE
330
BC
100
AcDbEntity
  8
_U+30EC_U+30A4_U+30E4_U+30FC 1
 62
   179
420
  2234388
370
     9
100
AcDbVertex
100
AcDb2dVertex
 10
102.6180082153298
 20
-138.1266110765798
 30
0.0
  0
SEQEND
  5
BF
330
BC
100
AcDbEntity
  8
_U+30EC_U+30A4_U+30E4_U+30FC 1
 62
   179
420
  2234388
370
     9
  0
INSERT
  5
C1
330
1F
100
AcDbEntity
  8
_U+30EC_U+30A4_U+30E4_U+30FC 1
100
AcDbBlockReference
  2
block 5
 10
0.0
 20
0.0
 30
0.0
  0
INSERT
  5
C7
330
1F
100
AcDbEntity
  8
_U+30EC_U+30A4_U+30E4_U+30FC 1
100
AcDbBlockReference
  2
block 6
 10
0.0
 20
0.0
 30
0.0
  0
ENDSEC
  0
SECTION
  2
OBJECTS
  0
DICTIONARY
  5
C
330
0
100
AcDbDictionary
281
     1
  3
ACAD_GROUP
350
D
  3
ACAD_LAYOUT
350
1A
  3
ACAD_MATERIAL
350
3B
  3
ACAD_MLEADERSTYLE
350
D7
  3
ACAD_MLINESTYLE
350
17
  3
ACAD_PLOTSETTINGS
350
19
  3
ACAD_PLOTSTYLENAME
350
E
  3
ACAD_TABLESTYLE
350
D6
  3
ACAD_VISUALSTYLE
350
2A
  0
SUN
  5
3F
330
29
100
AcDbSun
 90
        1
290
     0
 63
     7
421
 16777215
 40
1.0
291
     1
 91
  2455826
 92
 54000000
292
     0
 70
     2
 71
   256
280
     1
  0
DICTIONARY
  5
D
102
{ACAD_REACTORS
330
C
102
}
330
C
100
AcDbDictionary
281
     1
  0
DICTIONARY
  5
1A
102
{ACAD_REACTORS
330
C
102
}
330
C
100
AcDbDictionary
281
     1
  3
Layout1
350
1E
  3
Layout2
350
26
  3
Model
350
22
  0
DICTIONARY
  5
3B
102
{ACAD_REACTORS
330
C
102
}
330
C
100
AcDbDictionary
281
     1
  3
ByBlock
350
3D
  3
ByLayer
350
3C
  3
Global
350
3E
  0
DICTIONARY
  5
D7
102
{ACAD_REACTORS
330
C
102
}
330
C
100
AcDbDictionary
281
     1
  0
DICTIONARY
  5
17
102
{ACAD_REACTORS
330
C
102
}
330
C
100
AcDbDictionary
281
     1
  3
Standard
350
18
  0
DICTIONARY
  5
19
102
{ACAD_REACTORS
330
C
102
}
330
C
100
AcDbDictionary
281
     1
  0
ACDBDICTIONARYWDFLT
  5
E
102
{ACAD_REACTORS
330
C
102
}
330
C
100
AcDbDictionary
281
     1
  3
Normal
350
F
100
AcDbDictionaryWithDefault
340
F
  0
DICTIONARY
  5
D6
102
{ACAD_REACTORS
330
C
102
}
330
C
100
AcDbDictionary
281
     1
  0
DICTIONARY
  5
2A
102
{ACAD_REACTORS
330
C
102
}
330
C
100
AcDbDictionary
281
     1
  3
2dWireframe
350
2F
  3
3D Hidden
350
31
  3
3dWireframe
350
30
  3
Basic
350
32
  3
Brighten
350
36
  3
ColorChange
350
3A
  3
Conceptual
350
34
  3
Dim
350
35
  3
Facepattern
350
39
  3
Flat
350
2B
  3
FlatWithEdges
350
2C
  3
Gouraud
350
2D
  3
GouraudWithEdges
350
2E
  3
Linepattern
350
38
  3
Realistic
350
33
  3
Thicken
350
37
  0
LAYOUT
  5
1E
102
{ACAD_REACTORS
330
1A
102
}
330
1A
100
AcDbPlotSettings
  1

  2
none_device
  4

  6

 40
0.0
 41
0.0
 42
0.0
 43
0.0
 44
0.0
 45
0.0
 46
0.0
 47
0.0
 48
0.0
 49
0.0
140
0.0
141
0.0
142
1.0
143
1.0
 70
   688
 72
     0
 73
     0
 74
     5
  7

 75
    16
 76
     0
 77
     2
 78
   300
147
1.0
148
0.0
149
0.0
100
AcDbLayout
  1
Layout1
 70
     1
 71
     1
 10
0.0
 20
0.0
 11
12.0
 21
9.0
 12
0.0
 22
0.0
 32
0.0
 14
1.000000000000000E+20
 24
1.000000000000000E+20
 34
1.000000000000000E+20
 15
-1.000000000000000E+20
 25
-1.000000000000000E+20
 35
-1.000000000000000E+20
146
0.0
 13
0.0
 23
0.0
 33
0.0
 16
1.0
 26
0.0
 36
0.0
 17
0.0
 27
1.0
 37
0.0
 76
     0
330
1B
  0
LAYOUT
  5
26
102
{ACAD_REACTORS
330
1A
102
}
330
1A
100
AcDbPlotSettings
  1

  2
none_device
  4

  6

 40
0.0
 41
0.0
 42
0.0
 43
0.0
 44
0.0
 45
0.0
 46
0.0
 47
0.0
 48
0.0
 49
0.0
140
0.0
141
0.0
142
1.0
143
1.0
 70
   688
 72
     0
 73
     0
 74
     5
  7

 75
    16
 76
     0
 77
     2
 78
   300
147
1.0
148
0.0
149
0.0
100
AcDbLayout
  1
Layout2
 70
     1
 71
     2
 10
0.0
 20
0.0
 11
0.0
 21
0.0
 12
0.0
 22
0.0
 32
0.0
 14
0.0
 24
0.0
 34
0.0
 15
0.0
 25
0.0
 35
0.0
146
0.0
 13
0.0
 23
0.0
 33
0.0
 16
1.0
 26
0.0
 36
0.0
 17
0.0
 27
1.0
 37
0.0
 76
     0
330
23
  0
LAYOUT
  5
22
102
{ACAD_REACTORS
330
1A
102
}
330
1A
100
AcDbPlotSettings
  1

  2
none_device
  4

  6

 40
0.0
 41
0.0
 42
0.0
 43
0.0
 44
0.0
 45
0.0
 46
0.0
 47
0.0
 48
0.0
 49
0.0
140
0.0
141
0.0
142
1.0
143
1.0
 70
  1712
 72
     0
 73
     0
 74
     0
  7

 75
     0
 76
     0
 77
     2
 78
   300
147
1.0
148
0.0
149
0.0
100
AcDbLayout
  1
Model
 70
     1
 71
     0
 10
0.0
 20
0.0
 11
12.0
 21
9.0
 12
0.0
 22
0.0
 32
0.0
 14
1.000000000000000E+20
 24
1.000000000000000E+20
 34
1.000000000000000E+20
 15
-1.000000000000000E+20
 25
-1.000000000000000E+20
 35
-1.000000000000000E+20
146
0.0
 13
0.0
 23
0.0
 33
0.0
 16
1.0
 26
0.0
 36
0.0
 17
0.0
 27
1.0
 37
0.0
 76
     0
330
1F
331
29
  0
MATERIAL
  5
3D
102
{ACAD_REACTORS
330
3B
102
}
330
3B
100
AcDbMaterial
  1
ByBlock
 72
     1
 94
      127
  0
MATERIAL
  5
3C
102
{ACAD_REACTORS
330
3B
102
}
330
3B
100
AcDbMaterial
  1
ByLayer
 72
     1
 94
      127
  0
MATERIAL
  5
3E
102
{ACAD_REACTORS
330
3B
102
}
330
3B
100
AcDbMaterial
  1
Global
 72
     1
 94
      127
  0
MLINESTYLE
  5
18
102
{ACAD_REACTORS
330
17
102
}
330
17
100
AcDbMlineStyle
  2
Standard
 70
     0
  3

 62
   256
 51
90.0
 52
90.0
 71
     2
 49
0.5
 62
   256
  6
BYLAYER
 49
-0.5
 62
   256
  6
BYLAYER
  0
ACDBPLACEHOLDER
  5
F
102
{ACAD_REACTORS
330
E
102
}
330
E
  0
VISUALSTYLE
  5
2F
102
{ACAD_REACTORS
330
2A
102
}
330
2A
100
AcDbVisualStyle
  2
2dWireframe
 70
     4
177
     2
291
     0
 71
     0
176
     1
 72
     2
176
     1
 73
     0
176
     1
 90
        0
176
     1
 40
-0.6
176
     1
 41
-30.0
176
     1
 62
     5
 63
     7
421
 16777215
176
     1
 74
     1
176
     1
 91
        4
176
     1
 64
     7
176
     1
 65
   257
176
     1
 75
     1
176
     1
175
     1
176
     1
 42
1.0
176
     1
 92
        0
176
     1
 66
   257
176
     1
 43
1.0
176
     1
 76
     1
176
     1
 77
     6
176
     1
 78
     2
176
     1
 67
     7
176
     1
 79
     5
176
     1
170
     0
176
     1
171
     0
176
     1
290
     0
176
     1
 93
        1
176
     1
 44
0.0
176
     1
173
     0
176
     1
  0
VISUALSTYLE
  5
31
102
{ACAD_REACTORS
330
2A
102
}
330
2A
100
AcDbVisualStyle
  2
3D Hidden
 70
     6
177
     2
291
     0
 71
     1
176
     1
 72
     2
176
     1
 73
     2
176
     1
 90
        0
176
     1
 40
-0.6
176
     1
 41
-30.0
176
     1
 62
     5
 63
     7
421
 16777215
176
     1
 74
     2
176
     1
 91
        2
176
     1
 64
     7
176
     1
 65
   257
176
     1
 75
     2
176
     1
175
     1
176
     1
 42
40.0
176
     1
 92
        0
176
     1
 66
   257
176
     1
 43
1.0
176
     1
 76
     1
176
     1
 77
     6
176
     1
 78
     2
176
     1
 67
     7
176
     1
 79
     3
176
     1
170
     0
176
     1
171
     0
176
     1
290
     0
176
     1
 93
        1
176
     1
 44
0.0
176
     1
173
     0
176
     1
  0
VISUALSTYLE
  5
30
102
{ACAD_REACTORS
330
2A
102
}
330
2A
100
AcDbVisualStyle
  2
3dWireframe
 70
     5
177
     2
291
     0
 71
     0
176
     1
 72
     2
176
     1
 73
     0
176
     1
 90
        0
176
     1
 40
-0.6
176
     1
 41
-30.0
176
     1
 62
     5
 63
     7
421
 16777215
176
     1
 74
     1
176
     1
 91
        4
176
     1
 64
     7
176
     1
 65
   257
176
     1
 75
     1
176
     1
175
     1
176
     1
 42
1.0
176
     1
 92
        0
176
     1
 66
   257
176
     1
 43
1.0
176
     1
 76
     1
176
     1
 77
     6
176
     1
 78
     2
176
     1
 67
     7
176
     1
 79
     5
176
     1
170
     0
176
     1
171
     0
176
     1
290
     0
176
     1
 93
        1
176
     1
 44
0.0
176
     1
173
     0
176
     1
  0
VISUALSTYLE
  5
32
102
{ACAD_REACTORS
330
2A
102
}
330
2A
100
AcDbVisualStyle
  2
Basic
 70
     7
177
     2
291
     1
 71
     1
176
     1
 72
     0
176
     1
 73
     1
176
     1
 90
        0
176
     1
 40
-0.6
176
     1
 41
-30.0
176
     1
 62
     5
 63
     7
421
 16777215
176
     1
 74
     0
176
     1
 91
        4
176
     1
 64
     7
176
     1
 65
   257
176
     1
 75
     1
176
     1
175
     1
176
     1
 42
1.0
176
     1
 92
        8
176
     1
 66
     7
176
     1
 43
1.0
176
     1
 76
     1
176
     1
 77
     6
176
     1
 78
     2
176
     1
 67
     7
176
     1
 79
     5
176
     1
170
     0
176
     1
171
     0
176
     1
290
     0
176
     1
 93
        1
176
     1
 44
0.0
176
     1
173
     0
176
     1
  0
VISUALSTYLE
  5
36
102
{ACAD_REACTORS
330
2A
102
}
330
2A
100
AcDbVisualStyle
  2
Brighten
 70
    12
177
     2
291
     1
 71
     2
176
     1
 72
     2
176
     1
 73
     0
176
     1
 90
        0
176
     1
 40
-0.6
176
     1
 41
-30.0
176
     1
 62
     5
 63
     7
421
 16777215
176
     1
 74
     1
176
     1
 91
        4
176
     1
 64
     7
176
     1
 65
   257
176
     1
 75
     1
176
     1
175
     1
176
     1
 42
1.0
176
     1
 92
        8
176
     1
 66
     7
176
     1
 43
1.0
176
     1
 76
     1
176
     1
 77
     6
176
     1
 78
     2
176
     1
 67
     7
176
     1
 79
     5
176
     1
170
     0
176
     1
171
     0
176
     1
290
     0
176
     1
 93
        1
176
     1
 44
50.0
176
     1
173
     0
176
     1
  0
VISUALSTYLE
  5
3A
102
{ACAD_REACTORS
330
2A
102
}
330
2A
100
AcDbVisualStyle
  2
ColorChange
 70
    16
177
     2
291
     1
 71
     2
176
     1
 72
     2
176
     1
 73
     3
176
     1
 90
        0
176
     1
 40
-0.6
176
     1
 41
-30.0
176
     1
 62
     5
 63
     8
421
  8421504
176
     1
 74
     1
176
     1
 91
        4
176
     1
 64
     7
176
     1
 65
   257
176
     1
 75
     1
176
     1
175
     1
176
     1
 42
1.0
176
     1
 92
        8
176
     1
 66
     8
424
  8421504
176
     1
 43
1.0
176
     1
 76
     1
176
     1
 77
     6
176
     1
 78
     2
176
     1
 67
     7
176
     1
 79
     5
176
     1
170
     0
176
     1
171
     0
176
     1
290
     0
176
     1
 93
        1
176
     1
 44
0.0
176
     1
173
     0
176
     1
  0
VISUALSTYLE
  5
34
102
{ACAD_REACTORS
330
2A
102
}
330
2A
100
AcDbVisualStyle
  2
Conceptual
 70
     9
177
     2
291
     0
 71
     3
176
     1
 72
     2
176
     1
 73
     0
176
     1
 90
        0
176
     1
 40
-0.6
176
     1
 41
-30.0
176
     1
 62
     5
 63
     7
421
 16777215
176
     1
 74
     2
176
     1
 91
        2
176
     1
 64
     7
176
     1
 65
   257
176
     1
 75
     1
176
     1
175
     1
176
     1
 42
40.0
176
     1
 92
        8
176
     1
 66
     7
176
     1
 43
1.0
176
     1
 76
     1
176
     1
 77
     6
176
     1
 78
     2
176
     1
 67
     7
176
     1
 79
     3
176
     1
170
     0
176
     1
171
     0
176
     1
290
     0
176
     1
 93
        1
176
     1
 44
0.0
176
     1
173
     0
176
     1
  0
VISUALSTYLE
  5
35
102
{ACAD_REACTORS
330
2A
102
}
330
2A
100
AcDbVisualStyle
  2
Dim
 70
    11
177
     2
291
     1
 71
     2
176
     1
 72
     2
176
     1
 73
     0
176
     1
 90
        0
176
     1
 40
-0.6
176
     1
 41
-30.0
176
     1
 62
     5
 63
     7
421
 16777215
176
     1
 74
     1
176
     1
 91
        4
176
     1
 64
     7
176
     1
 65
   257
176
     1
 75
     1
176
     1
175
     1
176
     1
 42
1.0
176
     1
 92
        8
176
     1
 66
     7
176
     1
 43
1.0
176
     1
 76
     1
176
     1
 77
     6
176
     1
 78
     2
176
     1
 67
     7
176
     1
 79
     5
176
     1
170
     0
176
     1
171
     0
176
     1
290
     0
176
     1
 93
        1
176
     1
 44
-50.0
176
     1
173
     0
176
     1
  0
VISUALSTYLE
  5
39
102
{ACAD_REACTORS
330
2A
102
}
330
2A
100
AcDbVisualStyle
  2
Facepattern
 70
    15
177
     2
291
     1
 71
     2
176
     1
 72
     2
176
     1
 73
     0
176
     1
 90
        0
176
     1
 40
-0.6
176
     1
 41
-30.0
176
     1
 62
     5
 63
     7
421
 16777215
176
     1
 74
     1
176
     1
 91
        4
176
     1
 64
     7
176
     1
 65
   257
176
     1
 75
     1
176
     1
175
     1
176
     1
 42
1.0
176
     1
 92
        8
176
     1
 66
     7
176
     1
 43
1.0
176
     1
 76
     1
176
     1
 77
     6
176
     1
 78
     2
176
     1
 67
     7
176
     1
 79
     5
176
     1
170
     0
176
     1
171
     0
176
     1
290
     0
176
     1
 93
        1
176
     1
 44
0.0
176
     1
173
     0
176
     1
  0
VISUALSTYLE
  5
2B
102
{ACAD_REACTORS
330
2A
102
}
330
2A
100
AcDbVisualStyle
  2
Flat
 70
     0
177
     2
291
     1
 71
     2
176
     1
 72
     1
176
     1
 73
     1
176
     1
 90
        2
176
     1
 40
-0.6
176
     1
 41
30.0
176
     1
 62
     5
 63
     7
421
 16777215
176
     1
 74
     0
176
     1
 91
        4
176
     1
 64
     7
176
     1
 65
   257
176
     1
 75
     1
176
     1
175
     1
176
     1
 42
1.0
176
     1
 92
        8
176
     1
 66
     7
176
     1
 43
1.0
176
     1
 76
     1
176
     1
 77
     6
176
     1
 78
     2
176
     1
 67
     7
176
     1
 79
     5
176
     1
170
     0
176
     1
171
     0
176
     1
290
     0
176
     1
 93
       13
176
     1
 44
0.0
176
     1
173
     0
176
     1
  0
VISUALSTYLE
  5
2C
102
{ACAD_REACTORS
330
2A
102
}
330
2A
100
AcDbVisualStyle
  2
FlatWithEdges
 70
     1
177
     2
291
     1
 71
     2
176
     1
 72
     1
176
     1
 73
     1
176
     1
 90
        2
176
     1
 40
-0.6
176
     1
 41
30.0
176
     1
 62
     5
 63
     7
421
 16777215
176
     1
 74
     1
176
     1
 91
        4
176
     1
 64
     7
176
     1
 65
   257
176
     1
 75
     1
176
     1
175
     1
176
     1
 42
1.0
176
     1
 92
        0
176
     1
 66
   257
176
     1
 43
1.0
176
     1
 76
     1
176
     1
 77
     6
176
     1
 78
     2
176
     1
 67
     7
176
     1
 79
     5
176
     1
170
     0
176
     1
171
     0
176
     1
290
     0
176
     1
 93
       13
176
     1
 44
0.0
176
     1
173
     0
176
     1
  0
VISUALSTYLE
  5
2D
102
{ACAD_REACTORS
330
2A
102
}
330
2A
100
AcDbVisualStyle
  2
Gouraud
 70
     2
177
     2
291
     1
 71
     2
176
     1
 72
     2
176
     1
 73
     1
176
     1
 90
        2
176
     1
 40
-0.6
176
     1
 41
30.0
176
     1
 62
     5
 63
     7
421
 16777215
176
     1
 74
     0
176
     1
 91
        4
176
     1
 64
     7
176
     1
 65
   257
176
     1
 75
     1
176
     1
175
     1
176
     1
 42
1.0
176
     1
 92
        0
176
     1
 66
     7
176
     1
 43
1.0
176
     1
 76
     1
176
     1
 77
     6
176
     1
 78
     2
176
     1
 67
     7
176
     1
 79
     5
176
     1
170
     0
176
     1
171
     0
176
     1
290
     0
176
     1
 93
       13
176
     1
 44
0.0
176
     1
173
     0
176
     1
  0
VISUALSTYLE
  5
2E
102
{ACAD_REACTORS
330
2A
102
}
330
2A
100
AcDbVisualStyle
  2
GouraudWithEdges
 70
     3
177
     2
291
     1
 71
     2
176
     1
 72
     2
176
     1
 73
     1
176
     1
 90
        2
176
     1
 40
-0.6
176
     1
 41
30.0
176
     1
 62
     5
 63
     7
421
 16777215
176
     1
 74
     1
176
     1
 91
        4
176
     1
 64
     7
176
     1
 65
   257
176
     1
 75
     1
176
     1
175
     1
176
     1
 42
1.0
176
     1
 92
        0
176
     1
 66
   257
176
     1
 43
1.0
176
     1
 76
     1
176
     1
 77
     6
176
     1
 78
     2
176
     1
 67
     7
176
     1
 79
     5
176
     1
170
     0
176
     1
171
     0
176
     1
290
     0
176
     1
 93
       13
176
     1
 44
0.0
176
     1
173
     0
176
     1
  0
VISUALSTYLE
  5
38
102
{ACAD_REACTORS
330
2A
102
}
330
2A
100
AcDbVisualStyle
  2
Linepattern
 70
    14
177
     2
291
     1
 71
     2
176
     1
 72
     2
176
     1
 73
     0
176
     1
 90
        0
176
     1
 40
-0.6
176
     1
 41
-30.0
176
     1
 62
     5
 63
     7
421
 16777215
176
     1
 74
     1
176
     1
 91
        4
176
     1
 64
     7
176
     1
 65
   257
176
     1
 75
     7
176
     1
175
     7
176
     1
 42
1.0
176
     1
 92
        8
176
     1
 66
     7
176
     1
 43
1.0
176
     1
 76
     1
176
     1
 77
     6
176
     1
 78
     2
176
     1
 67
     7
176
     1
 79
     5
176
     1
170
     0
176
     1
171
     0
176
     1
290
     0
176
     1
 93
        1
176
     1
 44
0.0
176
     1
173
     0
176
     1
  0
VISUALSTYLE
  5
33
102
{ACAD_REACTORS
330
2A
102
}
330
2A
100
AcDbVisualStyle
  2
Realistic
 70
     8
177
     2
291
     0
 71
     2
176
     1
 72
     2
176
     1
 73
     0
176
     1
 90
        0
176
     1
 40
-0.6
176
     1
 41
-30.0
176
     1
 62
     5
 63
     7
421
 16777215
176
     1
 74
     1
176
     1
 91
        0
176
     1
 64
     7
176
     1
 65
   257
176
     1
 75
     1
176
     1
175
     1
176
     1
 42
1.0
176
     1
 92
        8
176
     1
 66
     8
424
  7895160
176
     1
 43
1.0
176
     1
 76
     1
176
     1
 77
     6
176
     1
 78
     2
176
     1
 67
     7
176
     1
 79
     5
176
     1
170
     0
176
     1
171
     0
176
     1
290
     0
176
     1
 93
       13
176
     1
 44
0.0
176
     1
173
     0
176
     1
  0
VISUALSTYLE
  5
37
102
{ACAD_REACTORS
330
2A
102
}
330
2A
100
AcDbVisualStyle
  2
Thicken
 70
    13
177
     2
291
     1
 71
     2
176
     1
 72
     2
176
     1
 73
     0
176
     1
 90
        0
176
     1
 40
-0.6
176
     1
 41
-30.0
176
     1
 62
     5
 63
     7
421
 16777215
176
     1
 74
     1
176
     1
 91
        4
176
     1
 64
     7
176
     1
 65
   257
176
     1
 75
     1
176
     1
175
     1
176
     1
 42
1.0
176
     1
 92
       12
176
     1
 66
     7
176
     1
 43
1.0
176
     1
 76
     1
176
     1
 77
     6
176
     1
 78
     2
176
     1
 67
     7
176
     1
 79
     5
176
     1
170
     0
176
     1
171
     0
176
     1
290
     0
176
     1
 93
        1
176
     1
 44
0.0
176
     1
173
     0
176
     1
  0
ENDSEC
  0
EOF
