  0
SECTION
  2
HEADER
  9
$ACADVER
  1
AC1024
  9
$ACADMAINTVER
 70
     6
  9
$DWGCODEPAGE
  3
UNDEFINED
  9
$INSBASE
 10
0.0
 20
0.0
 30
0.0
  9
$EXTMIN
 10
1.000000000000000E+20
 20
1.000000000000000E+20
 30
1.000000000000000E+20
  9
$EXTMAX
 10
-1.000000000000000E+20
 20
-1.000000000000000E+20
 30
-1.000000000000000E+20
  9
$LIMMIN
 10
0.0
 20
0.0
  9
$LIMMAX
 10
12.0
 20
9.0
  9
$ORTHOMODE
 70
     0
  9
$REGENMODE
 70
     1
  9
$FILLMODE
 70
     1
  9
$QTEXTMODE
 70
     0
  9
$MIRRTEXT
 70
     1
  9
$LTSCALE
 40
1.0
  9
$ATTMODE
 70
     1
  9
$TEXTSIZE
 40
0.2
  9
$TRACEWID
 40
0.05
  9
$TEXTSTYLE
  7
Standard
  9
$CLAYER
  8
0
  9
$CELTYPE
  6
ByLayer
  9
$CECOLOR
 62
   256
  9
$CELTSCALE
 40
1.0
  9
$DISPSILH
 70
     0
  9
$DIMSCALE
 40
1.0
  9
$DIMASZ
 40
0.18
  9
$DIMEXO
 40
0.0625
  9
$DIMDLI
 40
0.38
  9
$DIMRND
 40
0.0
  9
$DIMDLE
 40
0.0
  9
$DIMEXE
 40
0.18
  9
$DIMTP
 40
0.0
  9
$DIMTM
 40
0.0
  9
$DIMTXT
 40
0.18
  9
$DIMCEN
 40
0.09
  9
$DIMTSZ
 40
0.0
  9
$DIMTOL
 70
     0
  9
$DIMLIM
 70
     0
  9
$DIMTIH
 70
     1
  9
$DIMTOH
 70
     1
  9
$DIMSE1
 70
     0
  9
$DIMSE2
 70
     0
  9
$DIMTAD
 70
     0
  9
$DIMZIN
 70
     0
  9
$DIMBLK
  1

  9
$DIMASO
 70
     1
  9
$DIMSHO
 70
     1
  9
$DIMPOST
  1

  9
$DIMAPOST
  1

  9
$DIMALT
 70
     0
  9
$DIMALTD
 70
     2
  9
$DIMALTF
 40
25.4
  9
$DIMLFAC
 40
1.0
  9
$DIMTOFL
 70
     0
  9
$DIMTVP
 40
0.0
  9
$DIMTIX
 70
     0
  9
$DIMSOXD
 70
     0
  9
$DIMSAH
 70
     0
  9
$DIMBLK1
  1

  9
$DIMBLK2
  1

  9
$DIMSTYLE
  2
Standard
  9
$DIMCLRD
 70
     0
  9
$DIMCLRE
 70
     0
  9
$DIMCLRT
 70
     0
  9
$DIMTFAC
 40
1.0
  9
$DIMGAP
 40
0.09
  9
$DIMJUST
 70
     0
  9
$DIMSD1
 70
     0
  9
$DIMSD2
 70
     0
  9
$DIMTOLJ
 70
     1
  9
$DIMTZIN
 70
     0
  9
$DIMALTZ
 70
     0
  9
$DIMALTTZ
 70
     0
  9
$DIMUPT
 70
     0
  9
$DIMDEC
 70
     4
  9
$DIMTDEC
 70
     4
  9
$DIMALTU
 70
     2
  9
$DIMALTTD
 70
     2
  9
$DIMTXSTY
  7
Standard
  9
$DIMAUNIT
 70
     0
  9
$DIMADEC
 70
     0
  9
$DIMALTRND
 40
0.0
  9
$DIMAZIN
 70
     0
  9
$DIMDSEP
 70
    46
  9
$DIMATFIT
 70
     3
  9
$DIMFRAC
 70
     0
  9
$DIMLDRBLK
  1

  9
$DIMLUNIT
 70
     2
  9
$DIMLWD
 70
    -2
  9
$DIMLWE
 70
    -2
  9
$DIMTMOVE
 70
     0
  9
$DIMFXL
 40
1.0
  9
$DIMFXLON
 70
     0
  9
$DIMJOGANG
 40
0.7853981633974483
  9
$DIMTFILL
 70
     0
  9
$DIMTFILLCLR
 70
     0
  9
$DIMARCSYM
 70
     0
  9
$DIMLTYPE
  6

  9
$DIMLTEX1
  6

  9
$DIMLTEX2
  6

  9
$DIMTXTDIRECTION
 70
     0
  9
$LUNITS
 70
     2
  9
$LUPREC
 70
     4
  9
$SKETCHINC
 40
0.1
  9
$FILLETRAD
 40
0.5
  9
$AUNITS
 70
     0
  9
$AUPREC
 70
     0
  9
$MENU
  1
.
  9
$ELEVATION
 40
0.0
  9
$PELEVATION
 40
0.0
  9
$THICKNESS
 40
0.0
  9
$LIMCHECK
 70
     0
  9
$CHAMFERA
 40
0.5
  9
$CHAMFERB
 40
0.5
  9
$CHAMFERC
 40
1.0
  9
$CHAMFERD
 40
0.0
  9
$SKPOLY
 70
     0
  9
$TDCREATE
 40
2457917.618530093
  9
$TDUCREATE
 40
2457917.243530093
  9
$TDUPDATE
 40
2457917.618530093
  9
$TDUUPDATE
 40
2457917.243530093
  9
$TDINDWG
 40
0.0000000116
  9
$TDUSRTIMER
 40
0.0000000116
  9
$USRTIMER
 70
     1
  9
$ANGBASE
 50
0.0
  9
$ANGDIR
 70
     0
  9
$PDMODE
 70
     0
  9
$PDSIZE
 40
0.0
  9
$PLINEWID
 40
0.0
  9
$SPLFRAME
 70
     0
  9
$SPLINETYPE
 70
     6
  9
$SPLINESEGS
 70
     8
  9
$HANDSEED
  5
CE
  9
$SURFTAB1
 70
     6
  9
$SURFTAB2
 70
     6
  9
$SURFTYPE
 70
     6
  9
$SURFU
 70
     6
  9
$SURFV
 70
     6
  9
$UCSBASE
  2

  9
$UCSNAME
  2

  9
$UCSORG
 10
0.0
 20
0.0
 30
0.0
  9
$UCSXDIR
 10
1.0
 20
0.0
 30
0.0
  9
$UCSYDIR
 10
0.0
 20
1.0
 30
0.0
  9
$UCSORTHOREF
  2

  9
$UCSORTHOVIEW
 70
     0
  9
$UCSORGTOP
 10
0.0
 20
0.0
 30
0.0
  9
$UCSORGBOTTOM
 10
0.0
 20
0.0
 30
0.0
  9
$UCSORGLEFT
 10
0.0
 20
0.0
 30
0.0
  9
$UCSORGRIGHT
 10
0.0
 20
0.0
 30
0.0
  9
$UCSORGFRONT
 10
0.0
 20
0.0
 30
0.0
  9
$UCSORGBACK
 10
0.0
 20
0.0
 30
0.0
  9
$PUCSBASE
  2

  9
$PUCSNAME
  2

  9
$PUCSORG
 10
0.0
 20
0.0
 30
0.0
  9
$PUCSXDIR
 10
1.0
 20
0.0
 30
0.0
  9
$PUCSYDIR
 10
0.0
 20
1.0
 30
0.0
  9
$PUCSORTHOREF
  2

  9
$PUCSORTHOVIEW
 70
     0
  9
$PUCSORGTOP
 10
0.0
 20
0.0
 30
0.0
  9
$PUCSORGBOTTOM
 10
0.0
 20
0.0
 30
0.0
  9
$PUCSORGLEFT
 10
0.0
 20
0.0
 30
0.0
  9
$PUCSORGRIGHT
 10
0.0
 20
0.0
 30
0.0
  9
$PUCSORGFRONT
 10
0.0
 20
0.0
 30
0.0
  9
$PUCSORGBACK
 10
0.0
 20
0.0
 30
0.0
  9
$USERI1
 70
     0
  9
$USERI2
 70
     0
  9
$USERI3
 70
     0
  9
$USERI4
 70
     0
  9
$USERI5
 70
     0
  9
$USERR1
 40
0.0
  9
$USERR2
 40
0.0
  9
$USERR3
 40
0.0
  9
$USERR4
 40
0.0
  9
$USERR5
 40
0.0
  9
$WORLDVIEW
 70
     1
  9
$SHADEDGE
 70
     3
  9
$SHADEDIF
 70
    70
  9
$TILEMODE
 70
     1
  9
$MAXACTVP
 70
    64
  9
$PINSBASE
 10
0.0
 20
0.0
 30
0.0
  9
$PLIMCHECK
 70
     0
  9
$PEXTMIN
 10
1.000000000000000E+20
 20
1.000000000000000E+20
 30
1.000000000000000E+20
  9
$PEXTMAX
 10
-1.000000000000000E+20
 20
-1.000000000000000E+20
 30
-1.000000000000000E+20
  9
$PLIMMIN
 10
0.0
 20
0.0
  9
$PLIMMAX
 10
12.0
 20
9.0
  9
$UNITMODE
 70
     0
  9
$VISRETAIN
 70
     1
  9
$PLINEGEN
 70
     0
  9
$PSLTSCALE
 70
     1
  9
$TREEDEPTH
 70
  3020
  9
$CMLSTYLE
  2
Standard
  9
$CMLJUST
 70
     0
  9
$CMLSCALE
 40
1.0
  9
$PROXYGRAPHICS
 70
     1
  9
$MEASUREMENT
 70
     0
  9
$CELWEIGHT
370
    -1
  9
$ENDCAPS
280
     0
  9
$JOINSTYLE
280
     0
  9
$LWDISPLAY
290
     1
  9
$INSUNITS
 70
     1
  9
$HYPERLINKBASE
  1

  9
$STYLESHEET
  1

  9
$XEDIT
290
     1
  9
$CEPSNTYPE
380
     0
  9
$PSTYLEMODE
290
     1
  9
$FINGERPRINTGUID
  2
{ED944000-1D8D-D63F-D81E-307EDCD053AE}
  9
$VERSIONGUID
  2
{FAEB1C32-E019-11D5-929B-00C0DF256EC4}
  9
$EXTNAMES
290
     1
  9
$PSVPSCALE
 40
0.0
  9
$OLESTARTUP
290
     0
  9
$SORTENTS
280
   127
  9
$INDEXCTL
280
     0
  9
$HIDETEXT
280
     1
  9
$XCLIPFRAME
280
     2
  9
$HALOGAP
280
     0
  9
$OBSCOLOR
 70
   257
  9
$OBSLTYPE
280
     0
  9
$INTERSECTIONDISPLAY
280
     0
  9
$INTERSECTIONCOLOR
 70
   257
  9
$DIMASSOC
280
     2
  9
$PROJECTNAME
  1

  9
$CAMERADISPLAY
290
     0
  9
$LENSLENGTH
 40
50.0
  9
$CAMERAHEIGHT
 40
0.0
  9
$STEPSPERSEC
 40
2.0
  9
$STEPSIZE
 40
6.0
  9
$3DDWFPREC
 40
2.0
  9
$PSOLWIDTH
 40
0.25
  9
$PSOLHEIGHT
 40
4.0
  9
$LOFTANG1
 40
1.570796326794897
  9
$LOFTANG2
 40
1.570796326794897
  9
$LOFTMAG1
 40
0.0
  9
$LOFTMAG2
 40
0.0
  9
$LOFTPARAM
 70
     7
  9
$LOFTNORMALS
280
     1
  9
$LATITUDE
 40
37.795
  9
$LONGITUDE
 40
-122.394
  9
$NORTHDIRECTION
 40
0.0
  9
$TIMEZONE
 70
 -8000
  9
$LIGHTGLYPHDISPLAY
280
     1
  9
$TILEMODELIGHTSYNCH
280
     1
  9
$CMATERIAL
347
3C
  9
$SOLIDHIST
280
     1
  9
$SHOWHIST
280
     1
  9
$DWFFRAME
280
     2
  9
$DGNFRAME
280
     2
  9
$REALWORLDSCALE
290
     1
  9
$INTERFERECOLOR
 62
   256
  9
$CSHADOW
280
     0
  9
$SHADOWPLANELOCATION
 40
0.0
  0
ENDSEC
  0
SECTION
  2
CLASSES
  0
CLASS
  1
ACDBDICTIONARYWDFLT
  2
AcDbDictionaryWithDefault
  3
ObjectDBX Classes
 90
        0
 91
        4
280
     0
281
     0
  0
CLASS
  1
VISUALSTYLE
  2
AcDbVisualStyle
  3
ObjectDBX Classes
 90
     4095
 91
        4
280
     0
281
     0
  0
CLASS
  1
MATERIAL
  2
AcDbMaterial
  3
ObjectDBX Classes
 90
     1153
 91
        4
280
     0
281
     0
  0
CLASS
  1
SUN
  2
AcDbSun
  3
SCENEOE
 90
     1024
 91
        4
280
     0
281
     0
  0
ENDSEC
  0
SECTION
  2
TABLES
  0
TABLE
  2
VPORT
  5
8
330
0
100
AcDbSymbolTable
 70
     1
  0
VPORT
  5
29
330
8
100
AcDbSymbolTableRecord
100
AcDbViewportTableRecord
  2
*Active
 70
     0
 10
0.0
 20
0.0
 11
1.0
 21
1.0
 12
0.0
 22
0.0
 13
0.0
 23
0.0
 14
0.5
 24
0.5
 15
0.5
 25
0.5
 16
0.0
 26
0.0
 36
1.0
 17
91.00082462281999
 27
-128.4993055234307
 37
0.0
 40
256.9986110468615
 41
0.7081814508812795
 42
50.0
 43
0.0
 44
0.0
 50
0.0
 51
0.0
 71
     0
 72
   100
 73
     1
 74
     3
 75
     0
 76
     0
 77
     0
 78
     0
281
     0
 65
     1
110
0.0
120
0.0
130
0.0
111
1.0
121
0.0
131
0.0
112
0.0
122
1.0
132
0.0
 79
     0
146
0.0
 60
     3
 61
     5
292
     1
282
     1
141
0.0
142
0.0
 63
   250
361
3F
  0
ENDTAB
  0
TABLE
  2
LTYPE
  5
5
330
0
100
AcDbSymbolTable
 70
     1
  0
LTYPE
  5
14
330
5
100
AcDbSymbolTableRecord
100
AcDbLinetypeTableRecord
  2
ByBlock
 70
     0
  3

 72
    65
 73
     0
 40
0.0
  0
LTYPE
  5
15
330
5
100
AcDbSymbolTableRecord
100
AcDbLinetypeTableRecord
  2
ByLayer
 70
     0
  3

 72
    65
 73
     0
 40
0.0
  0
LTYPE
  5
16
330
5
100
AcDbSymbolTableRecord
100
AcDbLinetypeTableRecord
  2
Continuous
 70
     0
  3
Solid line
 72
    65
 73
     0
 40
0.0
  0
ENDTAB
  0
TABLE
  2
LAYER
  5
2
330
0
100
AcDbSymbolTable
 70
     2
  0
LAYER
  5
10
330
2
100
AcDbSymbolTableRecord
100
AcDbLayerTableRecord
  2
0
 70
     0
 62
     7
  6
Continuous
370
    -3
390
F
347
3E
  0
LAYER
  5
40
330
2
100
AcDbSymbolTableRecord
100
AcDbLayerTableRecord
  2
_U+30EC_U+30A4_U+30E4_U+30FC 1
 70
     0
 62
     7
  6
Continuous
370
    -3
390
F
347
3E
  0
ENDTAB
  0
TABLE
  2
STYLE
  5
3
330
0
100
AcDbSymbolTable
 70
     1
  0
STYLE
  5
11
330
3
100
AcDbSymbolTableRecord
100
AcDbTextStyleTableRecord
  2
Standard
 70
     0
 40
0.0
 41
1.0
 50
0.0
 71
     0
 42
0.2
  3
txt
  4

  0
ENDTAB
  0
TABLE
  2
VIEW
  5
6
330
0
100
AcDbSymbolTable
 70
     0
  0
ENDTAB
  0
TABLE
  2
UCS
  5
7
330
0
100
AcDbSymbolTable
 70
     0
  0
ENDTAB
  0
TABLE
  2
APPID
  5
9
330
0
100
AcDbSymbolTable
 70
     1
  0
APPID
  5
12
330
9
100
AcDbSymbolTableRecord
100
AcDbRegAppTableRecord
  2
ACAD
 70
     0
  0
ENDTAB
  0
TABLE
  2
DIMSTYLE
  5
A
330
0
100
AcDbSymbolTable
 70
     1
100
AcDbDimStyleTable
  0
DIMSTYLE
105
27
330
A
100
AcDbSymbolTableRecord
100
AcDbDimStyleTableRecord
  2
Standard
 70
     0
178
     0
340
11
  0
ENDTAB
  0
TABLE
  2
BLOCK_RECORD
  5
1
330
0
100
AcDbSymbolTable
 70
     7
  0
BLOCK_RECORD
  5
1F
330
1
100
AcDbSymbolTableRecord
100
AcDbBlockTableRecord
  2
*Model_Space
340
22
 70
     0
280
     1
281
     0
  0
BLOCK_RECORD
  5
1B
330
1
100
AcDbSymbolTableRecord
100
AcDbBlockTableRecord
  2
*Paper_Space
340
1E
 70
     0
280
     1
281
     0
  0
BLOCK_RECORD
  5
23
330
1
100
AcDbSymbolTableRecord
100
AcDbBlockTableRecord
  2
*Paper_Space0
340
26
 70
     0
280
     1
281
     0
  0
BLOCK_RECORD
  5
7B
330
1
100
AcDbSymbolTableRecord
100
AcDbBlockTableRecord
  2
block 2
340
0
102
{BLKREFS
331
7C
102
}
 70
     0
280
     1
281
     0
  0
BLOCK_RECORD
  5
91
330
1
100
AcDbSymbolTableRecord
100
AcDbBlockTableRecord
  2
block 3
340
0
102
{BLKREFS
331
92
102
}
 70
     0
280
     1
281
     0
  0
BLOCK_RECORD
  5
A5
330
1
100
AcDbSymbolTableRecord
100
AcDbBlockTableRecord
  2
block 4
340
0
102
{BLKREFS
331
A6
102
}
 70
     0
280
     1
281
     0
  0
BLOCK_RECORD
  5
AD
330
1
100
AcDbSymbolTableRecord
100
AcDbBlockTableRecord
  2
block 5
340
0
102
{BLKREFS
331
AE
102
}
 70
     0
280
     1
281
     0
  0
BLOCK_RECORD
  5
B3
330
1
100
AcDbSymbolTableRecord
100
AcDbBlockTableRecord
  2
block 6
340
0
102
{BLKREFS
331
B4
102
}
 70
     0
280
     1
281
     0
  0
BLOCK_RECORD
  5
C6
330
1
100
AcDbSymbolTableRecord
100
AcDbBlockTableRecord
  2
block 7
340
0
102
{BLKREFS
331
C7
102
}
 70
     0
280
     1
281
     0
  0
ENDTAB
  0
ENDSEC
  0
SECTION
  2
BLOCKS
  0
BLOCK
  5
20
330
1F
100
AcDbEntity
  8
0
100
AcDbBlockBegin
  2
*Model_Space
 70
     0
 10
0.0
 20
0.0
 30
0.0
  3
*Model_Space
  1

  0
ENDBLK
  5
21
330
1F
100
AcDbEntity
  8
0
100
AcDbBlockEnd
  0
BLOCK
  5
1C
330
1B
100
AcDbEntity
 67
     1
  8
0
100
AcDbBlockBegin
  2
*Paper_Space
 70
     0
 10
0.0
 20
0.0
 30
0.0
  3
*Paper_Space
  1

  0
ENDBLK
  5
1D
330
1B
100
AcDbEntity
 67
     1
  8
0
100
AcDbBlockEnd
  0
BLOCK
  5
24
330
23
100
AcDbEntity
  8
0
100
AcDbBlockBegin
  2
*Paper_Space0
 70
     0
 10
0.0
 20
0.0
 30
0.0
  3
*Paper_Space0
  1

  0
ENDBLK
  5
25
330
23
100
AcDbEntity
  8
0
100
AcDbBlockEnd
  0
BLOCK
  5
7D
330
7B
100
AcDbEntity
  8
0
100
AcDbBlockBegin
  2
block 2
 70
     0
 10
0.0
 20
0.0
 30
0.0
  3
block 2
  1

  0
SPLINE
  5
7F
330
7B
100
AcDbEntity
  8
_U+30EC_U+30A4_U+30E4_U+30FC 1
370
     0
100
AcDbSpline
210
0.0
220
0.0
230
1.0
 70
    11
 71
     3
 72
    26
 73
    22
 74
     0
 42
0.0000000001
 43
0.0000000001
 12
1.0
 22
0.0
 32
0.0
 13
1.0
 23
0.0
 33
0.0
 40
0.0
 40
0.0
 40
0.0
 40
0.0
 40
1.0
 40
1.0
 40
1.0
 40
2.0
 40
2.0
 40
2.0
 40
3.0
 40
3.0
 40
3.0
 40
4.0
 40
4.0
 40
4.0
 40
5.0
 40
5.0
 40
5.0
 40
6.0
 40
6.0
 40
6.0
 40
7.0
 40
7.0
 40
7.0
 40
7.0
 10
87.82444116728
 20
-140.2911783503439
 30
0.0
 10
87.82444116728
 20
-140.2911783503439
 30
0.0
 10
87.82444116728
 20
-139.1870252473213
 30
0.0
 10
87.82444116728
 20
-139.1870252473213
 30
0.0
 10
87.82444116728
 20
-139.1870252473213
 30
0.0
 10
87.47200789913894
 20
-139.1870252473213
 30
0.0
 10
87.47200789913894
 20
-139.1870252473213
 30
0.0
 10
87.47200789913894
 20
-139.1870252473213
 30
0.0
 10
87.47200789913894
 20
-139.0388861414555
 30
0.0
 10
87.47200789913894
 20
-139.0388861414555
 30
0.0
 10
87.82685273411968
 20
-139.024072230869
 30
0.0
 10
87.87646210910728
 20
-138.8611192144167
 30
0.0
 10
87.90815698757157
 20
-138.7467420443064
 30
0.0
 10
87.90815698757157
 20
-138.7467420443064
 30
0.0
 10
88.0642198130534
 20
-138.7467420443064
 30
0.0
 10
88.0642198130534
 20
-138.7467420443064
 30
0.0
 10
88.0642198130534
 20
-138.7467420443064
 30
0.0
 10
88.0642198130534
 20
-140.2911783503439
 30
0.0
 10
88.0642198130534
 20
-140.2911783503439
 30
0.0
 10
88.0642198130534
 20
-140.2911783503439
 30
0.0
 10
87.82444116728
 20
-140.2911783503439
 30
0.0
 10
87.82444116728
 20
-140.2911783503439
 30
0.0
  0
HATCH
  5
80
330
7B
100
AcDbEntity
  8
_U+30EC_U+30A4_U+30E4_U+30FC 1
 62
   179
420
  2234388
100
AcDbHatch
 10
0.0
 20
0.0
 30
0.0
210
0.0
220
0.0
230
1.0
  2
SOLID
 70
     1
 71
     0
 91
        1
 92
        1
 93
        1
 72
     4
 94
        3
 73
     0
 74
     1
 95
       26
 96
       22
 40
0.0
 40
0.0
 40
0.0
 40
0.0
 40
1.0
 40
1.0
 40
1.0
 40
2.0
 40
2.0
 40
2.0
 40
3.0
 40
3.0
 40
3.0
 40
4.0
 40
4.0
 40
4.0
 40
5.0
 40
5.0
 40
5.0
 40
6.0
 40
6.0
 40
6.0
 40
7.0
 40
7.0
 40
7.0
 40
7.0
 10
87.82444116728
 20
-140.2911783503439
 10
87.82444116728
 20
-140.2911783503439
 10
87.82444116728
 20
-139.1870252473213
 10
87.82444116728
 20
-139.1870252473213
 10
87.82444116728
 20
-139.1870252473213
 10
87.47200789913894
 20
-139.1870252473213
 10
87.47200789913894
 20
-139.1870252473213
 10
87.47200789913894
 20
-139.1870252473213
 10
87.47200789913894
 20
-139.0388861414555
 10
87.47200789913894
 20
-139.0388861414555
 10
87.82685273411968
 20
-139.024072230869
 10
87.87646210910728
 20
-138.8611192144167
 10
87.90815698757157
 20
-138.7467420443064
 10
87.90815698757157
 20
-138.7467420443064
 10
88.0642198130534
 20
-138.7467420443064
 10
88.0642198130534
 20
-138.7467420443064
 10
88.0642198130534
 20
-138.7467420443064
 10
88.0642198130534
 20
-140.2911783503439
 10
88.0642198130534
 20
-140.2911783503439
 10
88.0642198130534
 20
-140.2911783503439
 10
87.82444116728
 20
-140.2911783503439
 10
87.82444116728
 20
-140.2911783503439
 97
        0
 97
        0
 75
     2
 76
     1
 98
        0
  0
SPLINE
  5
81
330
7B
100
AcDbEntity
  8
_U+30EC_U+30A4_U+30E4_U+30FC 1
370
     0
100
AcDbSpline
210
0.0
220
0.0
230
1.0
 70
    11
 71
     3
 72
    29
 73
    25
 74
     0
 42
0.0000000001
 43
0.0000000001
 12
1.0
 22
0.0
 32
0.0
 13
1.0
 23
0.0
 33
0.0
 40
0.0
 40
0.0
 40
0.0
 40
0.0
 40
1.0
 40
1.0
 40
1.0
 40
2.0
 40
2.0
 40
2.0
 40
3.0
 40
3.0
 40
3.0
 40
4.0
 40
4.0
 40
4.0
 40
5.0
 40
5.0
 40
5.0
 40
6.0
 40
6.0
 40
6.0
 40
7.0
 40
7.0
 40
7.0
 40
8.0
 40
8.0
 40
8.0
 40
8.0
 10
89.13426647077199
 20
-140.3418212539771
 30
0.0
 10
88.84935707414184
 20
-140.3418212539771
 30
0.0
 10
88.57822805945267
 20
-140.2043619441156
 30
0.0
 10
88.57822805945267
 20
-139.8553737714598
 30
0.0
 10
88.57822805945267
 20
-139.5994031769057
 30
0.0
 10
88.72981226080366
 20
-139.5043185415128
 30
0.0
 10
88.84281139271985
 20
-139.4429958418754
 30
0.0
 10
88.70948619744068
 20
-139.3837401995291
 30
0.0
 10
88.62783743444027
 20
-139.2693630294188
 30
0.0
 10
88.62783743444027
 20
-139.1084770702576
 30
0.0
 10
88.62783743444027
 20
-138.8335584505347
 30
0.0
 10
88.84039982588018
 20
-138.6981661979644
 30
0.0
 10
89.13426647077199
 20
-138.6981661979644
 30
0.0
 10
89.43743487347398
 20
-138.6981661979644
 30
0.0
 10
89.64069550710371
 20
-138.8421711892478
 30
0.0
 10
89.64069550710371
 20
-139.1084770702576
 30
0.0
 10
89.64069550710371
 20
-139.2693630294188
 30
0.0
 10
89.55732419636067
 20
-139.3837401995291
 30
0.0
 10
89.42365449153299
 20
-139.4429958418754
 30
0.0
 10
89.51873912692588
 20
-139.4936387455085
 30
0.0
 10
89.68823782480017
 20
-139.5887233809014
 30
0.0
 10
89.68823782480017
 20
-139.8512396568775
 30
0.0
 10
89.68823782480017
 20
-140.2257215361241
 30
0.0
 10
89.38989255577754
 20
-140.3418212539771
 30
0.0
 10
89.13426647077199
 20
-140.3418212539771
 30
0.0
  0
SPLINE
  5
82
330
7B
100
AcDbEntity
  8
_U+30EC_U+30A4_U+30E4_U+30FC 1
370
     0
100
AcDbSpline
210
0.0
220
0.0
230
1.0
 70
    11
 71
     3
 72
    17
 73
    13
 74
     0
 42
0.0000000001
 43
0.0000000001
 12
1.0
 22
0.0
 32
0.0
 13
1.0
 23
0.0
 33
0.0
 40
0.0
 40
0.0
 40
0.0
 40
0.0
 40
1.0
 40
1.0
 40
1.0
 40
2.0
 40
2.0
 40
2.0
 40
3.0
 40
3.0
 40
3.0
 40
4.0
 40
4.0
 40
4.0
 40
4.0
 10
89.13426647077199
 20
-139.5508273305637
 30
0.0
 10
88.98061521212985
 20
-139.5508273305637
 30
0.0
 10
88.81800670522605
 20
-139.637643736792
 30
0.0
 10
88.81800670522605
 20
-139.8405598608732
 30
0.0
 10
88.81800670522605
 20
-140.0458875517941
 30
0.0
 10
88.95339895779638
 20
-140.1471733590604
 30
0.0
 10
89.13426647077199
 20
-140.1471733590604
 30
0.0
 10
89.33339298981943
 20
-140.1471733590604
 30
0.0
 10
89.45087074586645
 20
-140.0245279597855
 30
0.0
 10
89.45087074586645
 20
-139.8467610327467
 30
0.0
 10
89.45087074586645
 20
-139.6248968834965
 30
0.0
 10
89.27689342386134
 20
-139.5508273305637
 30
0.0
 10
89.13426647077199
 20
-139.5508273305637
 30
0.0
  0
SPLINE
  5
83
330
7B
100
AcDbEntity
  8
_U+30EC_U+30A4_U+30E4_U+30FC 1
370
     0
100
AcDbSpline
210
0.0
220
0.0
230
1.0
 70
    11
 71
     3
 72
    17
 73
    13
 74
     0
 42
0.0000000001
 43
0.0000000001
 12
1.0
 22
0.0
 32
0.0
 13
1.0
 23
0.0
 33
0.0
 40
0.0
 40
0.0
 40
0.0
 40
0.0
 40
1.0
 40
1.0
 40
1.0
 40
2.0
 40
2.0
 40
2.0
 40
3.0
 40
3.0
 40
3.0
 40
4.0
 40
4.0
 40
4.0
 40
4.0
 10
89.13426647077199
 20
-138.8907470355898
 30
0.0
 10
88.95822209147573
 20
-138.8907470355898
 30
0.0
 10
88.86761608021365
 20
-138.9858316709827
 30
0.0
 10
88.86761608021365
 20
-139.121223923553
 30
0.0
 10
88.86761608021365
 20
-139.2438693228279
 30
0.0
 10
88.94444170953473
 20
-139.3623806075205
 30
0.0
 10
89.13426647077199
 20
-139.3623806075205
 30
0.0
 10
89.32443574155778
 20
-139.3623806075205
 30
0.0
 10
89.40126137087886
 20
-139.2438693228279
 30
0.0
 10
89.40126137087886
 20
-139.121223923553
 30
0.0
 10
89.40126137087886
 20
-138.9858316709827
 30
0.0
 10
89.30858830232563
 20
-138.8907470355898
 30
0.0
 10
89.13426647077199
 20
-138.8907470355898
 30
0.0
  0
HATCH
  5
84
330
7B
100
AcDbEntity
  8
_U+30EC_U+30A4_U+30E4_U+30FC 1
 62
   179
420
  2234388
100
AcDbHatch
 10
0.0
 20
0.0
 30
0.0
210
0.0
220
0.0
230
1.0
  2
SOLID
 70
     1
 71
     0
 91
        3
 92
        1
 93
        1
 72
     4
 94
        3
 73
     0
 74
     1
 95
       29
 96
       25
 40
0.0
 40
0.0
 40
0.0
 40
0.0
 40
1.0
 40
1.0
 40
1.0
 40
2.0
 40
2.0
 40
2.0
 40
3.0
 40
3.0
 40
3.0
 40
4.0
 40
4.0
 40
4.0
 40
5.0
 40
5.0
 40
5.0
 40
6.0
 40
6.0
 40
6.0
 40
7.0
 40
7.0
 40
7.0
 40
8.0
 40
8.0
 40
8.0
 40
8.0
 10
89.13426647077199
 20
-140.3418212539771
 10
88.84935707414184
 20
-140.3418212539771
 10
88.57822805945267
 20
-140.2043619441156
 10
88.57822805945267
 20
-139.8553737714598
 10
88.57822805945267
 20
-139.5994031769057
 10
88.72981226080366
 20
-139.5043185415128
 10
88.84281139271985
 20
-139.4429958418754
 10
88.70948619744068
 20
-139.3837401995291
 10
88.62783743444027
 20
-139.2693630294188
 10
88.62783743444027
 20
-139.1084770702576
 10
88.62783743444027
 20
-138.8335584505347
 10
88.84039982588018
 20
-138.6981661979644
 10
89.13426647077199
 20
-138.6981661979644
 10
89.43743487347398
 20
-138.6981661979644
 10
89.64069550710371
 20
-138.8421711892478
 10
89.64069550710371
 20
-139.1084770702576
 10
89.64069550710371
 20
-139.2693630294188
 10
89.55732419636067
 20
-139.3837401995291
 10
89.42365449153299
 20
-139.4429958418754
 10
89.51873912692588
 20
-139.4936387455085
 10
89.68823782480017
 20
-139.5887233809014
 10
89.68823782480017
 20
-139.8512396568775
 10
89.68823782480017
 20
-140.2257215361241
 10
89.38989255577754
 20
-140.3418212539771
 10
89.13426647077199
 20
-140.3418212539771
 97
        0
 97
        0
 92
        1
 93
        1
 72
     4
 94
        3
 73
     0
 74
     1
 95
       17
 96
       13
 40
0.0
 40
0.0
 40
0.0
 40
0.0
 40
1.0
 40
1.0
 40
1.0
 40
2.0
 40
2.0
 40
2.0
 40
3.0
 40
3.0
 40
3.0
 40
4.0
 40
4.0
 40
4.0
 40
4.0
 10
89.13426647077199
 20
-139.5508273305637
 10
88.98061521212985
 20
-139.5508273305637
 10
88.81800670522605
 20
-139.637643736792
 10
88.81800670522605
 20
-139.8405598608732
 10
88.81800670522605
 20
-140.0458875517941
 10
88.95339895779638
 20
-140.1471733590604
 10
89.13426647077199
 20
-140.1471733590604
 10
89.33339298981943
 20
-140.1471733590604
 10
89.45087074586645
 20
-140.0245279597855
 10
89.45087074586645
 20
-139.8467610327467
 10
89.45087074586645
 20
-139.6248968834965
 10
89.27689342386134
 20
-139.5508273305637
 10
89.13426647077199
 20
-139.5508273305637
 97
        0
 97
        0
 92
        1
 93
        1
 72
     4
 94
        3
 73
     0
 74
     1
 95
       17
 96
       13
 40
0.0
 40
0.0
 40
0.0
 40
0.0
 40
1.0
 40
1.0
 40
1.0
 40
2.0
 40
2.0
 40
2.0
 40
3.0
 40
3.0
 40
3.0
 40
4.0
 40
4.0
 40
4.0
 40
4.0
 10
89.13426647077199
 20
-138.8907470355898
 10
88.95822209147573
 20
-138.8907470355898
 10
88.86761608021365
 20
-138.9858316709827
 10
88.86761608021365
 20
-139.121223923553
 10
88.86761608021365
 20
-139.2438693228279
 10
88.94444170953473
 20
-139.3623806075205
 10
89.13426647077199
 20
-139.3623806075205
 10
89.32443574155778
 20
-139.3623806075205
 10
89.40126137087886
 20
-139.2438693228279
 10
89.40126137087886
 20
-139.121223923553
 10
89.40126137087886
 20
-138.9858316709827
 10
89.30858830232563
 20
-138.8907470355898
 10
89.13426647077199
 20
-138.8907470355898
 97
        0
 97
        0
 75
     2
 76
     1
 98
        0
  0
ENDBLK
  5
7E
330
7B
100
AcDbEntity
  8
0
100
AcDbBlockEnd
  0
BLOCK
  5
93
330
91
100
AcDbEntity
  8
0
100
AcDbBlockBegin
  2
block 3
 70
     0
 10
0.0
 20
0.0
 30
0.0
  3
block 3
  1

  0
SPLINE
  5
95
330
91
100
AcDbEntity
  8
_U+30EC_U+30A4_U+30E4_U+30FC 1
370
     0
100
AcDbSpline
210
0.0
220
0.0
230
1.0
 70
    11
 71
     3
 72
    29
 73
    25
 74
     0
 42
0.0000000001
 43
0.0000000001
 12
1.0
 22
0.0
 32
0.0
 13
1.0
 23
0.0
 33
0.0
 40
0.0
 40
0.0
 40
0.0
 40
0.0
 40
1.0
 40
1.0
 40
1.0
 40
2.0
 40
2.0
 40
2.0
 40
3.0
 40
3.0
 40
3.0
 40
4.0
 40
4.0
 40
4.0
 40
5.0
 40
5.0
 40
5.0
 40
6.0
 40
6.0
 40
6.0
 40
7.0
 40
7.0
 40
7.0
 40
8.0
 40
8.0
 40
8.0
 40
8.0
 10
83.5433932625343
 20
-117.1923298860665
 30
0.0
 10
83.25848386590414
 20
-117.1923298860665
 30
0.0
 10
82.9871825964407
 20
-117.0546983214308
 30
0.0
 10
82.9871825964407
 20
-116.705710148775
 30
0.0
 10
82.9871825964407
 20
-116.4497395542209
 30
0.0
 10
83.13859454301743
 20
-116.3544826640537
 30
0.0
 10
83.2517659297079
 20
-116.2931599644163
 30
0.0
 10
83.11826847965446
 20
-116.23390432207
 30
0.0
 10
83.03696422620257
 20
-116.119699406734
 30
0.0
 10
83.03696422620257
 20
-115.9589857023471
 30
0.0
 10
83.03696422620257
 20
-115.6838948278499
 30
0.0
 10
83.24935436286822
 20
-115.5485025752795
 30
0.0
 10
83.5433932625343
 20
-115.5485025752795
 30
0.0
 10
83.84638941046202
 20
-115.5485025752795
 30
0.0
 10
84.04982229886602
 20
-115.6923353117887
 30
0.0
 10
84.04982229886602
 20
-115.9589857023471
 30
0.0
 10
84.04982229886602
 20
-116.119699406734
 30
0.0
 10
83.96610647857445
 20
-116.23390432207
 30
0.0
 10
83.83278128329528
 20
-116.2931599644163
 30
0.0
 10
83.92769366391391
 20
-116.3439751228237
 30
0.0
 10
84.0971923617882
 20
-116.4392320129909
 30
0.0
 10
84.0971923617882
 20
-116.7015760341927
 30
0.0
 10
84.0971923617882
 20
-117.0758856586651
 30
0.0
 10
83.79884709276557
 20
-117.1923298860665
 30
0.0
 10
83.5433932625343
 20
-117.1923298860665
 30
0.0
  0
SPLINE
  5
96
330
91
100
AcDbEntity
  8
_U+30EC_U+30A4_U+30E4_U+30FC 1
370
     0
100
AcDbSpline
210
0.0
220
0.0
230
1.0
 70
    11
 71
     3
 72
    17
 73
    13
 74
     0
 42
0.0000000001
 43
0.0000000001
 12
1.0
 22
0.0
 32
0.0
 13
1.0
 23
0.0
 33
0.0
 40
0.0
 40
0.0
 40
0.0
 40
0.0
 40
1.0
 40
1.0
 40
1.0
 40
2.0
 40
2.0
 40
2.0
 40
3.0
 40
3.0
 40
3.0
 40
4.0
 40
4.0
 40
4.0
 40
4.0
 10
83.5433932625343
 20
-116.4011637078789
 30
0.0
 10
83.38956974911788
 20
-116.4011637078789
 30
0.0
 10
83.22678898743983
 20
-116.4878078593329
 30
0.0
 10
83.22678898743983
 20
-116.6908962381884
 30
0.0
 10
83.22678898743983
 20
-116.896051674335
 30
0.0
 10
83.36252574955867
 20
-116.9976819911499
 30
0.0
 10
83.5433932625343
 20
-116.9976819911499
 30
0.0
 10
83.74234752680748
 20
-116.9976819911499
 30
0.0
 10
83.85982528285449
 20
-116.875036591875
 30
0.0
 10
83.85982528285449
 20
-116.6972696648361
 30
0.0
 10
83.85982528285449
 20
-116.4750610060375
 30
0.0
 10
83.68584796084937
 20
-116.4011637078789
 30
0.0
 10
83.5433932625343
 20
-116.4011637078789
 30
0.0
  0
SPLINE
  5
97
330
91
100
AcDbEntity
  8
_U+30EC_U+30A4_U+30E4_U+30FC 1
370
     0
100
AcDbSpline
210
0.0
220
0.0
230
1.0
 70
    11
 71
     3
 72
    17
 73
    13
 74
     0
 42
0.0000000001
 43
0.0000000001
 12
1.0
 22
0.0
 32
0.0
 13
1.0
 23
0.0
 33
0.0
 40
0.0
 40
0.0
 40
0.0
 40
0.0
 40
1.0
 40
1.0
 40
1.0
 40
2.0
 40
2.0
 40
2.0
 40
3.0
 40
3.0
 40
3.0
 40
4.0
 40
4.0
 40
4.0
 40
4.0
 10
83.5433932625343
 20
-115.741083412905
 30
0.0
 10
83.3670043736895
 20
-115.741083412905
 30
0.0
 10
83.2765706172017
 20
-115.8361680482979
 30
0.0
 10
83.2765706172017
 20
-115.9715603008682
 30
0.0
 10
83.2765706172017
 20
-116.0943779549174
 30
0.0
 10
83.35339624652276
 20
-116.21288923961
 30
0.0
 10
83.5433932625343
 20
-116.21288923961
 30
0.0
 10
83.73321802377156
 20
-116.21288923961
 30
0.0
 10
83.81021590786689
 20
-116.0943779549174
 30
0.0
 10
83.81021590786689
 20
-115.9715603008682
 30
0.0
 10
83.81021590786689
 20
-115.8361680482979
 30
0.0
 10
83.71737058453941
 20
-115.741083412905
 30
0.0
 10
83.5433932625343
 20
-115.741083412905
 30
0.0
  0
HATCH
  5
98
330
91
100
AcDbEntity
  8
_U+30EC_U+30A4_U+30E4_U+30FC 1
 62
   179
420
  2234388
100
AcDbHatch
 10
0.0
 20
0.0
 30
0.0
210
0.0
220
0.0
230
1.0
  2
SOLID
 70
     1
 71
     0
 91
        3
 92
        1
 93
        1
 72
     4
 94
        3
 73
     0
 74
     1
 95
       29
 96
       25
 40
0.0
 40
0.0
 40
0.0
 40
0.0
 40
1.0
 40
1.0
 40
1.0
 40
2.0
 40
2.0
 40
2.0
 40
3.0
 40
3.0
 40
3.0
 40
4.0
 40
4.0
 40
4.0
 40
5.0
 40
5.0
 40
5.0
 40
6.0
 40
6.0
 40
6.0
 40
7.0
 40
7.0
 40
7.0
 40
8.0
 40
8.0
 40
8.0
 40
8.0
 10
83.5433932625343
 20
-117.1923298860665
 10
83.25848386590414
 20
-117.1923298860665
 10
82.9871825964407
 20
-117.0546983214308
 10
82.9871825964407
 20
-116.705710148775
 10
82.9871825964407
 20
-116.4497395542209
 10
83.13859454301743
 20
-116.3544826640537
 10
83.2517659297079
 20
-116.2931599644163
 10
83.11826847965446
 20
-116.23390432207
 10
83.03696422620257
 20
-116.119699406734
 10
83.03696422620257
 20
-115.9589857023471
 10
83.03696422620257
 20
-115.6838948278499
 10
83.24935436286822
 20
-115.5485025752795
 10
83.5433932625343
 20
-115.5485025752795
 10
83.84638941046202
 20
-115.5485025752795
 10
84.04982229886602
 20
-115.6923353117887
 10
84.04982229886602
 20
-115.9589857023471
 10
84.04982229886602
 20
-116.119699406734
 10
83.96610647857445
 20
-116.23390432207
 10
83.83278128329528
 20
-116.2931599644163
 10
83.92769366391391
 20
-116.3439751228237
 10
84.0971923617882
 20
-116.4392320129909
 10
84.0971923617882
 20
-116.7015760341927
 10
84.0971923617882
 20
-117.0758856586651
 10
83.79884709276557
 20
-117.1923298860665
 10
83.5433932625343
 20
-117.1923298860665
 97
        0
 97
        0
 92
        1
 93
        1
 72
     4
 94
        3
 73
     0
 74
     1
 95
       17
 96
       13
 40
0.0
 40
0.0
 40
0.0
 40
0.0
 40
1.0
 40
1.0
 40
1.0
 40
2.0
 40
2.0
 40
2.0
 40
3.0
 40
3.0
 40
3.0
 40
4.0
 40
4.0
 40
4.0
 40
4.0
 10
83.5433932625343
 20
-116.4011637078789
 10
83.38956974911788
 20
-116.4011637078789
 10
83.22678898743983
 20
-116.4878078593329
 10
83.22678898743983
 20
-116.6908962381884
 10
83.22678898743983
 20
-116.896051674335
 10
83.36252574955867
 20
-116.9976819911499
 10
83.5433932625343
 20
-116.9976819911499
 10
83.74234752680748
 20
-116.9976819911499
 10
83.85982528285449
 20
-116.875036591875
 10
83.85982528285449
 20
-116.6972696648361
 10
83.85982528285449
 20
-116.4750610060375
 10
83.68584796084937
 20
-116.4011637078789
 10
83.5433932625343
 20
-116.4011637078789
 97
        0
 97
        0
 92
        1
 93
        1
 72
     4
 94
        3
 73
     0
 74
     1
 95
       17
 96
       13
 40
0.0
 40
0.0
 40
0.0
 40
0.0
 40
1.0
 40
1.0
 40
1.0
 40
2.0
 40
2.0
 40
2.0
 40
3.0
 40
3.0
 40
3.0
 40
4.0
 40
4.0
 40
4.0
 40
4.0
 10
83.5433932625343
 20
-115.741083412905
 10
83.3670043736895
 20
-115.741083412905
 10
83.2765706172017
 20
-115.8361680482979
 10
83.2765706172017
 20
-115.9715603008682
 10
83.2765706172017
 20
-116.0943779549174
 10
83.35339624652276
 20
-116.21288923961
 10
83.5433932625343
 20
-116.21288923961
 10
83.73321802377156
 20
-116.21288923961
 10
83.81021590786689
 20
-116.0943779549174
 10
83.81021590786689
 20
-115.9715603008682
 10
83.81021590786689
 20
-115.8361680482979
 10
83.71737058453941
 20
-115.741083412905
 10
83.5433932625343
 20
-115.741083412905
 97
        0
 97
        0
 75
     2
 76
     1
 98
        0
  0
ENDBLK
  5
94
330
91
100
AcDbEntity
  8
0
100
AcDbBlockEnd
  0
BLOCK
  5
A7
330
A5
100
AcDbEntity
  8
0
100
AcDbBlockBegin
  2
block 4
 70
     0
 10
0.0
 20
0.0
 30
0.0
  3
block 4
  1

  0
SPLINE
  5
A9
330
A5
100
AcDbEntity
  8
_U+30EC_U+30A4_U+30E4_U+30FC 1
370
     0
100
AcDbSpline
210
0.0
220
0.0
230
1.0
 70
    11
 71
     3
 72
    26
 73
    22
 74
     0
 42
0.0000000001
 43
0.0000000001
 12
1.0
 22
0.0
 32
0.0
 13
1.0
 23
0.0
 33
0.0
 40
0.0
 40
0.0
 40
0.0
 40
0.0
 40
1.0
 40
1.0
 40
1.0
 40
2.0
 40
2.0
 40
2.0
 40
3.0
 40
3.0
 40
3.0
 40
4.0
 40
4.0
 40
4.0
 40
5.0
 40
5.0
 40
5.0
 40
6.0
 40
6.0
 40
6.0
 40
7.0
 40
7.0
 40
7.0
 40
7.0
 10
100.3304822882854
 20
-130.0637233832827
 30
0.0
 10
100.3304822882854
 20
-130.0637233832827
 30
0.0
 10
99.22632918526287
 20
-130.0637233832827
 30
0.0
 10
99.22632918526287
 20
-130.0637233832827
 30
0.0
 10
99.22632918526287
 20
-130.0637233832827
 30
0.0
 10
99.22632918526287
 20
-130.4161566514237
 30
0.0
 10
99.22632918526287
 20
-130.4161566514237
 30
0.0
 10
99.22632918526287
 20
-130.4161566514237
 30
0.0
 10
99.07819007939712
 20
-130.4161566514237
 30
0.0
 10
99.07819007939712
 20
-130.4161566514237
 30
0.0
 10
99.06337616881055
 20
-130.061311816443
 30
0.0
 10
98.90042315235823
 20
-130.0117024414554
 30
0.0
 10
98.78604598224794
 20
-129.9800075629911
 30
0.0
 10
98.78604598224794
 20
-129.9800075629911
 30
0.0
 10
98.78604598224794
 20
-129.8239447375093
 30
0.0
 10
98.78604598224794
 20
-129.8239447375093
 30
0.0
 10
98.78604598224794
 20
-129.8239447375093
 30
0.0
 10
100.3304822882854
 20
-129.8239447375093
 30
0.0
 10
100.3304822882854
 20
-129.8239447375093
 30
0.0
 10
100.3304822882854
 20
-129.8239447375093
 30
0.0
 10
100.3304822882854
 20
-130.0637233832827
 30
0.0
 10
100.3304822882854
 20
-130.0637233832827
 30
0.0
  0
HATCH
  5
AA
330
A5
100
AcDbEntity
  8
_U+30EC_U+30A4_U+30E4_U+30FC 1
 62
   179
420
  2234388
100
AcDbHatch
 10
0.0
 20
0.0
 30
0.0
210
0.0
220
0.0
230
1.0
  2
SOLID
 70
     1
 71
     0
 91
        1
 92
        1
 93
        1
 72
     4
 94
        3
 73
     0
 74
     1
 95
       26
 96
       22
 40
0.0
 40
0.0
 40
0.0
 40
0.0
 40
1.0
 40
1.0
 40
1.0
 40
2.0
 40
2.0
 40
2.0
 40
3.0
 40
3.0
 40
3.0
 40
4.0
 40
4.0
 40
4.0
 40
5.0
 40
5.0
 40
5.0
 40
6.0
 40
6.0
 40
6.0
 40
7.0
 40
7.0
 40
7.0
 40
7.0
 10
100.3304822882854
 20
-130.0637233832827
 10
100.3304822882854
 20
-130.0637233832827
 10
99.22632918526287
 20
-130.0637233832827
 10
99.22632918526287
 20
-130.0637233832827
 10
99.22632918526287
 20
-130.0637233832827
 10
99.22632918526287
 20
-130.4161566514237
 10
99.22632918526287
 20
-130.4161566514237
 10
99.22632918526287
 20
-130.4161566514237
 10
99.07819007939712
 20
-130.4161566514237
 10
99.07819007939712
 20
-130.4161566514237
 10
99.06337616881055
 20
-130.061311816443
 10
98.90042315235823
 20
-130.0117024414554
 10
98.78604598224794
 20
-129.9800075629911
 10
98.78604598224794
 20
-129.9800075629911
 10
98.78604598224794
 20
-129.8239447375093
 10
98.78604598224794
 20
-129.8239447375093
 10
98.78604598224794
 20
-129.8239447375093
 10
100.3304822882854
 20
-129.8239447375093
 10
100.3304822882854
 20
-129.8239447375093
 10
100.3304822882854
 20
-129.8239447375093
 10
100.3304822882854
 20
-130.0637233832827
 10
100.3304822882854
 20
-130.0637233832827
 97
        0
 97
        0
 75
     2
 76
     1
 98
        0
  0
SPLINE
  5
AB
330
A5
100
AcDbEntity
  8
_U+30EC_U+30A4_U+30E4_U+30FC 1
370
     0
100
AcDbSpline
210
0.0
220
0.0
230
1.0
 70
    11
 71
     3
 72
    62
 73
    58
 74
     0
 42
0.0000000001
 43
0.0000000001
 12
1.0
 22
0.0
 32
0.0
 13
1.0
 23
0.0
 33
0.0
 40
0.0
 40
0.0
 40
0.0
 40
0.0
 40
1.0
 40
1.0
 40
1.0
 40
2.0
 40
2.0
 40
2.0
 40
3.0
 40
3.0
 40
3.0
 40
4.0
 40
4.0
 40
4.0
 40
5.0
 40
5.0
 40
5.0
 40
6.0
 40
6.0
 40
6.0
 40
7.0
 40
7.0
 40
7.0
 40
8.0
 40
8.0
 40
8.0
 40
9.0
 40
9.0
 40
9.0
 40
10.0
 40
10.0
 40
10.0
 40
11.0
 40
11.0
 40
11.0
 40
12.0
 40
12.0
 40
12.0
 40
13.0
 40
13.0
 40
13.0
 40
14.0
 40
14.0
 40
14.0
 40
15.0
 40
15.0
 40
15.0
 40
16.0
 40
16.0
 40
16.0
 40
17.0
 40
17.0
 40
17.0
 40
18.0
 40
18.0
 40
18.0
 40
19.0
 40
19.0
 40
19.0
 40
19.0
 10
100.3811251919186
 20
-128.7628553280524
 30
0.0
 10
100.3811251919186
 20
-128.8644856448672
 30
0.0
 10
100.3601101094586
 20
-129.0973740996701
 30
0.0
 10
100.1740749532551
 20
-129.2306992949493
 30
0.0
 10
100.061764840436
 20
-129.30993649111
 30
0.0
 10
99.96254609046076
 20
-129.3144151152408
 30
0.0
 10
99.87779674152361
 20
-129.3188937393717
 30
0.0
 10
99.87779674152361
 20
-129.3188937393717
 30
0.0
 10
99.87779674152361
 20
-129.0839382272776
 30
0.0
 10
99.87779674152361
 20
-129.0839382272776
 30
0.0
 10
99.95186629445648
 20
-129.081526660438
 30
0.0
 10
100.186477297002
 20
-129.0701578453366
 30
0.0
 10
100.186477297002
 20
-128.7673339521832
 30
0.0
 10
100.186477297002
 20
-128.620228374963
 30
0.0
 10
100.1168863681999
 20
-128.4576198680592
 30
0.0
 10
99.88847653752788
 20
-128.4576198680592
 30
0.0
 10
99.77203231012643
 20
-128.4576198680592
 30
0.0
 10
99.72345646378442
 20
-128.4982719947852
 30
0.0
 10
99.69176158532012
 20
-128.5323784400891
 30
0.0
 10
99.61769203238725
 20
-128.6112711267014
 30
0.0
 10
99.60494517909183
 20
-128.7356390737189
 30
0.0
 10
99.60494517909183
 20
-128.7945502065166
 30
0.0
 10
99.60494517909183
 20
-128.8148762698796
 30
0.0
 10
99.60701223638297
 20
-128.8531168297659
 30
0.0
 10
99.61114635096527
 20
-128.882744650939
 30
0.0
 10
99.61114635096527
 20
-128.882744650939
 30
0.0
 10
99.41649845604866
 20
-128.882744650939
 30
0.0
 10
99.41649845604866
 20
-128.882744650939
 30
0.0
 10
99.42304413747063
 20
-128.8420925242131
 30
0.0
 10
99.42511119476178
 20
-128.7966172638078
 30
0.0
 10
99.42511119476178
 20
-128.7900715823858
 30
0.0
 10
99.42511119476178
 20
-128.7197916344867
 30
0.0
 10
99.40375160275323
 20
-128.5072292430468
 30
0.0
 10
99.16707354291657
 20
-128.5072292430468
 30
0.0
 10
98.98930661587768
 20
-128.5072292430468
 30
0.0
 10
98.93418508811368
 20
-128.6474446292965
 30
0.0
 10
98.93418508811368
 20
-128.7649223853435
 30
0.0
 10
98.93418508811368
 20
-129.0477647246825
 30
0.0
 10
99.16707354291657
 20
-129.0567219729442
 30
0.0
 10
99.23873152900977
 20
-129.061200597075
 30
0.0
 10
99.23873152900977
 20
-129.061200597075
 30
0.0
 10
99.23873152900977
 20
-129.2782416126457
 30
0.0
 10
99.23873152900977
 20
-129.2782416126457
 30
0.0
 10
99.11401907244372
 20
-129.2692843643841
 30
0.0
 10
98.73747013590591
 20
-129.2400010527595
 30
0.0
 10
98.73747013590591
 20
-128.751486512951
 30
0.0
 10
98.73747013590591
 20
-128.5117078671776
 30
0.0
 10
98.86459415931164
 20
-128.254014724881
 30
0.0
 10
99.1605278614946
 20
-128.254014724881
 30
0.0
 10
99.34690752724661
 20
-128.254014724881
 30
0.0
 10
99.42924530934408
 20
-128.3559895512443
 30
0.0
 10
99.49056800898153
 20
-128.46209849219
 30
0.0
 10
99.51812877286353
 20
-128.3966416779703
 30
0.0
 10
99.59839949766985
 20
-128.2019937830537
 30
0.0
 10
99.87572968423247
 20
-128.2019937830537
 30
0.0
 10
100.214038060884
 20
-128.2019937830537
 30
0.0
 10
100.3811251919186
 20
-128.4665771163208
 30
0.0
 10
100.3811251919186
 20
-128.7628553280524
 30
0.0
  0
HATCH
  5
AC
330
A5
100
AcDbEntity
  8
_U+30EC_U+30A4_U+30E4_U+30FC 1
 62
   179
420
  2234388
100
AcDbHatch
 10
0.0
 20
0.0
 30
0.0
210
0.0
220
0.0
230
1.0
  2
SOLID
 70
     1
 71
     0
 91
        1
 92
        1
 93
        1
 72
     4
 94
        3
 73
     0
 74
     1
 95
       62
 96
       58
 40
0.0
 40
0.0
 40
0.0
 40
0.0
 40
1.0
 40
1.0
 40
1.0
 40
2.0
 40
2.0
 40
2.0
 40
3.0
 40
3.0
 40
3.0
 40
4.0
 40
4.0
 40
4.0
 40
5.0
 40
5.0
 40
5.0
 40
6.0
 40
6.0
 40
6.0
 40
7.0
 40
7.0
 40
7.0
 40
8.0
 40
8.0
 40
8.0
 40
9.0
 40
9.0
 40
9.0
 40
10.0
 40
10.0
 40
10.0
 40
11.0
 40
11.0
 40
11.0
 40
12.0
 40
12.0
 40
12.0
 40
13.0
 40
13.0
 40
13.0
 40
14.0
 40
14.0
 40
14.0
 40
15.0
 40
15.0
 40
15.0
 40
16.0
 40
16.0
 40
16.0
 40
17.0
 40
17.0
 40
17.0
 40
18.0
 40
18.0
 40
18.0
 40
19.0
 40
19.0
 40
19.0
 40
19.0
 10
100.3811251919186
 20
-128.7628553280524
 10
100.3811251919186
 20
-128.8644856448672
 10
100.3601101094586
 20
-129.0973740996701
 10
100.1740749532551
 20
-129.2306992949493
 10
100.061764840436
 20
-129.30993649111
 10
99.96254609046076
 20
-129.3144151152408
 10
99.87779674152361
 20
-129.3188937393717
 10
99.87779674152361
 20
-129.3188937393717
 10
99.87779674152361
 20
-129.0839382272776
 10
99.87779674152361
 20
-129.0839382272776
 10
99.95186629445648
 20
-129.081526660438
 10
100.186477297002
 20
-129.0701578453366
 10
100.186477297002
 20
-128.7673339521832
 10
100.186477297002
 20
-128.620228374963
 10
100.1168863681999
 20
-128.4576198680592
 10
99.88847653752788
 20
-128.4576198680592
 10
99.77203231012643
 20
-128.4576198680592
 10
99.72345646378442
 20
-128.4982719947852
 10
99.69176158532012
 20
-128.5323784400891
 10
99.61769203238725
 20
-128.6112711267014
 10
99.60494517909183
 20
-128.7356390737189
 10
99.60494517909183
 20
-128.7945502065166
 10
99.60494517909183
 20
-128.8148762698796
 10
99.60701223638297
 20
-128.8531168297659
 10
99.61114635096527
 20
-128.882744650939
 10
99.61114635096527
 20
-128.882744650939
 10
99.41649845604866
 20
-128.882744650939
 10
99.41649845604866
 20
-128.882744650939
 10
99.42304413747063
 20
-128.8420925242131
 10
99.42511119476178
 20
-128.7966172638078
 10
99.42511119476178
 20
-128.7900715823858
 10
99.42511119476178
 20
-128.7197916344867
 10
99.40375160275323
 20
-128.5072292430468
 10
99.16707354291657
 20
-128.5072292430468
 10
98.98930661587768
 20
-128.5072292430468
 10
98.93418508811368
 20
-128.6474446292965
 10
98.93418508811368
 20
-128.7649223853435
 10
98.93418508811368
 20
-129.0477647246825
 10
99.16707354291657
 20
-129.0567219729442
 10
99.23873152900977
 20
-129.061200597075
 10
99.23873152900977
 20
-129.061200597075
 10
99.23873152900977
 20
-129.2782416126457
 10
99.23873152900977
 20
-129.2782416126457
 10
99.11401907244372
 20
-129.2692843643841
 10
98.73747013590591
 20
-129.2400010527595
 10
98.73747013590591
 20
-128.751486512951
 10
98.73747013590591
 20
-128.5117078671776
 10
98.86459415931164
 20
-128.254014724881
 10
99.1605278614946
 20
-128.254014724881
 10
99.34690752724661
 20
-128.254014724881
 10
99.42924530934408
 20
-128.3559895512443
 10
99.49056800898153
 20
-128.46209849219
 10
99.51812877286353
 20
-128.3966416779703
 10
99.59839949766985
 20
-128.2019937830537
 10
99.87572968423247
 20
-128.2019937830537
 10
100.214038060884
 20
-128.2019937830537
 10
100.3811251919186
 20
-128.4665771163208
 10
100.3811251919186
 20
-128.7628553280524
 97
        0
 97
        0
 75
     2
 76
     1
 98
        0
  0
ENDBLK
  5
A8
330
A5
100
AcDbEntity
  8
0
100
AcDbBlockEnd
  0
BLOCK
  5
AF
330
AD
100
AcDbEntity
  8
0
100
AcDbBlockBegin
  2
block 5
 70
     0
 10
0.0
 20
0.0
 30
0.0
  3
block 5
  1

  0
SPLINE
  5
B1
330
AD
100
AcDbEntity
  8
_U+30EC_U+30A4_U+30E4_U+30FC 1
 62
   179
420
  2234388
370
     9
100
AcDbSpline
210
0.0
220
0.0
230
1.0
 70
    11
 71
     3
 72
    17
 73
    13
 74
     0
 42
0.0000000001
 43
0.0000000001
 12
1.0
 22
0.0
 32
0.0
 13
1.0
 23
0.0
 33
0.0
 40
0.0
 40
0.0
 40
0.0
 40
0.0
 40
1.0
 40
1.0
 40
1.0
 40
2.0
 40
2.0
 40
2.0
 40
3.0
 40
3.0
 40
3.0
 40
4.0
 40
4.0
 40
4.0
 40
4.0
 10
83.08812510246756
 20
-129.3771224676561
 30
0.0
 10
83.08812510246756
 20
-129.321983301003
 30
0.0
 10
83.04332232583279
 20
-129.2772158010138
 30
0.0
 10
82.98804204946534
 20
-129.2772158010138
 30
0.0
 10
82.93290288420538
 20
-129.2772158010138
 30
0.0
 10
82.8881353853475
 20
-129.321983301003
 30
0.0
 10
82.8881353853475
 20
-129.3771224676561
 30
0.0
 10
82.8881353853475
 20
-129.4322263565309
 30
0.0
 10
82.93290288420538
 20
-129.4770291342977
 30
0.0
 10
82.98804204946534
 20
-129.4770291342977
 30
0.0
 10
83.04332232583279
 20
-129.4770291342977
 30
0.0
 10
83.08812510246756
 20
-129.4322263565309
 30
0.0
 10
83.08812510246756
 20
-129.3771224676561
 30
0.0
  0
SPLINE
  5
B2
330
AD
100
AcDbEntity
  8
_U+30EC_U+30A4_U+30E4_U+30FC 1
 62
   179
420
  2234388
370
     9
100
AcDbSpline
210
0.0
220
0.0
230
1.0
 70
    11
 71
     3
 72
    17
 73
    13
 74
     0
 42
0.0000000001
 43
0.0000000001
 12
1.0
 22
0.0
 32
0.0
 13
1.0
 23
0.0
 33
0.0
 40
0.0
 40
0.0
 40
0.0
 40
0.0
 40
1.0
 40
1.0
 40
1.0
 40
2.0
 40
2.0
 40
2.0
 40
3.0
 40
3.0
 40
3.0
 40
4.0
 40
4.0
 40
4.0
 40
4.0
 10
84.08789729918347
 20
-129.3771224676561
 30
0.0
 10
84.08789729918347
 20
-129.321983301003
 30
0.0
 10
84.0430945225487
 20
-129.2772158010138
 30
0.0
 10
83.98781424618123
 20
-129.2772158010138
 30
0.0
 10
83.93267508092129
 20
-129.2772158010138
 30
0.0
 10
83.8879075820634
 20
-129.321983301003
 30
0.0
 10
83.8879075820634
 20
-129.3771224676561
 30
0.0
 10
83.8879075820634
 20
-129.4322263565309
 30
0.0
 10
83.93267508092129
 20
-129.4770291342977
 30
0.0
 10
83.98781424618123
 20
-129.4770291342977
 30
0.0
 10
84.0430945225487
 20
-129.4770291342977
 30
0.0
 10
84.08789729918347
 20
-129.4322263565309
 30
0.0
 10
84.08789729918347
 20
-129.3771224676561
 30
0.0
  0
INSERT
  5
B4
330
AD
100
AcDbEntity
  8
_U+30EC_U+30A4_U+30E4_U+30FC 1
100
AcDbBlockReference
  2
block 6
 10
0.0
 20
0.0
 30
0.0
  0
POLYLINE
  5
B9
330
AD
100
AcDbEntity
  8
_U+30EC_U+30A4_U+30E4_U+30FC 1
 62
   179
420
  2234388
370
     9
100
AcDb2dPolyline
 66
     1
 10
0.0
 20
0.0
 30
0.0
  0
VERTEX
  5
BA
330
B9
100
AcDbEntity
  8
_U+30EC_U+30A4_U+30E4_U+30FC 1
 62
   179
420
  2234388
370
     9
100
AcDbVertex
100
AcDb2dVertex
 10
84.84926227975942
 20
-129.3771224676561
 30
0.0
  0
VERTEX
  5
BB
330
B9
100
AcDbEntity
  8
_U+30EC_U+30A4_U+30E4_U+30FC 1
 62
   179
420
  2234388
370
     9
100
AcDbVertex
100
AcDb2dVertex
 10
81.01022876659022
 20
-129.3771224676561
 30
0.0
  0
SEQEND
  5
BC
330
B9
100
AcDbEntity
  8
_U+30EC_U+30A4_U+30E4_U+30FC 1
 62
   179
420
  2234388
370
     9
  0
ENDBLK
  5
B0
330
AD
100
AcDbEntity
  8
0
100
AcDbBlockEnd
  0
BLOCK
  5
B5
330
B3
100
AcDbEntity
  8
0
100
AcDbBlockBegin
  2
block 6
 70
     0
 10
0.0
 20
0.0
 30
0.0
  3
block 6
  1

  0
SPLINE
  5
B7
330
B3
100
AcDbEntity
  8
_U+30EC_U+30A4_U+30E4_U+30FC 1
370
     0
100
AcDbSpline
210
0.0
220
0.0
230
1.0
 70
    11
 71
     3
 72
    26
 73
    22
 74
     0
 42
0.0000000001
 43
0.0000000001
 12
1.0
 22
0.0
 32
0.0
 13
1.0
 23
0.0
 33
0.0
 40
0.0
 40
0.0
 40
0.0
 40
0.0
 40
1.0
 40
1.0
 40
1.0
 40
2.0
 40
2.0
 40
2.0
 40
3.0
 40
3.0
 40
3.0
 40
4.0
 40
4.0
 40
4.0
 40
5.0
 40
5.0
 40
5.0
 40
6.0
 40
6.0
 40
6.0
 40
7.0
 40
7.0
 40
7.0
 40
7.0
 10
81.81223278119626
 20
-129.1411268123328
 30
0.0
 10
81.81223278119626
 20
-129.1411268123328
 30
0.0
 10
81.81223278119626
 20
-128.0366291997617
 30
0.0
 10
81.81223278119626
 20
-128.0366291997617
 30
0.0
 10
81.81223278119626
 20
-128.0366291997617
 30
0.0
 10
81.48219263370932
 20
-128.0366291997617
 30
0.0
 10
81.48219263370932
 20
-128.0366291997617
 30
0.0
 10
81.48219263370932
 20
-128.0366291997617
 30
0.0
 10
81.48219263370932
 20
-127.8884900938959
 30
0.0
 10
81.48219263370932
 20
-127.8884900938959
 30
0.0
 10
81.8142998384874
 20
-127.8738484380836
 30
0.0
 10
81.86080862753828
 20
-127.7108954216313
 30
0.0
 10
81.89043644871143
 20
-127.5966905062953
 30
0.0
 10
81.89043644871143
 20
-127.5966905062953
 30
0.0
 10
82.03650849728602
 20
-127.5966905062953
 30
0.0
 10
82.03650849728602
 20
-127.5966905062953
 30
0.0
 10
82.03650849728602
 20
-127.5966905062953
 30
0.0
 10
82.03650849728602
 20
-129.1411268123328
 30
0.0
 10
82.03650849728602
 20
-129.1411268123328
 30
0.0
 10
82.03650849728602
 20
-129.1411268123328
 30
0.0
 10
81.81223278119626
 20
-129.1411268123328
 30
0.0
 10
81.81223278119626
 20
-129.1411268123328
 30
0.0
  0
HATCH
  5
B8
330
B3
100
AcDbEntity
  8
_U+30EC_U+30A4_U+30E4_U+30FC 1
 62
   179
420
  2234388
100
AcDbHatch
 10
0.0
 20
0.0
 30
0.0
210
0.0
220
0.0
230
1.0
  2
SOLID
 70
     1
 71
     0
 91
        1
 92
        1
 93
        1
 72
     4
 94
        3
 73
     0
 74
     1
 95
       26
 96
       22
 40
0.0
 40
0.0
 40
0.0
 40
0.0
 40
1.0
 40
1.0
 40
1.0
 40
2.0
 40
2.0
 40
2.0
 40
3.0
 40
3.0
 40
3.0
 40
4.0
 40
4.0
 40
4.0
 40
5.0
 40
5.0
 40
5.0
 40
6.0
 40
6.0
 40
6.0
 40
7.0
 40
7.0
 40
7.0
 40
7.0
 10
81.81223278119626
 20
-129.1411268123328
 10
81.81223278119626
 20
-129.1411268123328
 10
81.81223278119626
 20
-128.0366291997617
 10
81.81223278119626
 20
-128.0366291997617
 10
81.81223278119626
 20
-128.0366291997617
 10
81.48219263370932
 20
-128.0366291997617
 10
81.48219263370932
 20
-128.0366291997617
 10
81.48219263370932
 20
-128.0366291997617
 10
81.48219263370932
 20
-127.8884900938959
 10
81.48219263370932
 20
-127.8884900938959
 10
81.8142998384874
 20
-127.8738484380836
 10
81.86080862753828
 20
-127.7108954216313
 10
81.89043644871143
 20
-127.5966905062953
 10
81.89043644871143
 20
-127.5966905062953
 10
82.03650849728602
 20
-127.5966905062953
 10
82.03650849728602
 20
-127.5966905062953
 10
82.03650849728602
 20
-127.5966905062953
 10
82.03650849728602
 20
-129.1411268123328
 10
82.03650849728602
 20
-129.1411268123328
 10
82.03650849728602
 20
-129.1411268123328
 10
81.81223278119626
 20
-129.1411268123328
 10
81.81223278119626
 20
-129.1411268123328
 97
        0
 97
        0
 75
     2
 76
     1
 98
        0
  0
ENDBLK
  5
B6
330
B3
100
AcDbEntity
  8
0
100
AcDbBlockEnd
  0
BLOCK
  5
C8
330
C6
100
AcDbEntity
  8
0
100
AcDbBlockBegin
  2
block 7
 70
     0
 10
0.0
 20
0.0
 30
0.0
  3
block 7
  1

  0
SPLINE
  5
CA
330
C6
100
AcDbEntity
  8
_U+30EC_U+30A4_U+30E4_U+30FC 1
370
     0
100
AcDbSpline
210
0.0
220
0.0
230
1.0
 70
    11
 71
     3
 72
    26
 73
    22
 74
     0
 42
0.0000000001
 43
0.0000000001
 12
1.0
 22
0.0
 32
0.0
 13
1.0
 23
0.0
 33
0.0
 40
0.0
 40
0.0
 40
0.0
 40
0.0
 40
1.0
 40
1.0
 40
1.0
 40
2.0
 40
2.0
 40
2.0
 40
3.0
 40
3.0
 40
3.0
 40
4.0
 40
4.0
 40
4.0
 40
5.0
 40
5.0
 40
5.0
 40
6.0
 40
6.0
 40
6.0
 40
7.0
 40
7.0
 40
7.0
 40
7.0
 10
100.3304822882854
 20
-136.4040771143365
 30
0.0
 10
100.3304822882854
 20
-136.4040771143365
 30
0.0
 10
99.22632918526287
 20
-136.4040771143365
 30
0.0
 10
99.22632918526287
 20
-136.4040771143365
 30
0.0
 10
99.22632918526287
 20
-136.4040771143365
 30
0.0
 10
99.22632918526287
 20
-136.7565103824776
 30
0.0
 10
99.22632918526287
 20
-136.7565103824776
 30
0.0
 10
99.22632918526287
 20
-136.7565103824776
 30
0.0
 10
99.07819007939712
 20
-136.7565103824776
 30
0.0
 10
99.07819007939712
 20
-136.7565103824776
 30
0.0
 10
99.06337616881055
 20
-136.4016655474968
 30
0.0
 10
98.90042315235823
 20
-136.3520561725092
 30
0.0
 10
98.78604598224794
 20
-136.3203612940449
 30
0.0
 10
98.78604598224794
 20
-136.3203612940449
 30
0.0
 10
98.78604598224794
 20
-136.1642984685631
 30
0.0
 10
98.78604598224794
 20
-136.1642984685631
 30
0.0
 10
98.78604598224794
 20
-136.1642984685631
 30
0.0
 10
100.3304822882854
 20
-136.1642984685631
 30
0.0
 10
100.3304822882854
 20
-136.1642984685631
 30
0.0
 10
100.3304822882854
 20
-136.1642984685631
 30
0.0
 10
100.3304822882854
 20
-136.4040771143365
 30
0.0
 10
100.3304822882854
 20
-136.4040771143365
 30
0.0
  0
HATCH
  5
CB
330
C6
100
AcDbEntity
  8
_U+30EC_U+30A4_U+30E4_U+30FC 1
 62
   179
420
  2234388
100
AcDbHatch
 10
0.0
 20
0.0
 30
0.0
210
0.0
220
0.0
230
1.0
  2
SOLID
 70
     1
 71
     0
 91
        1
 92
        1
 93
        1
 72
     4
 94
        3
 73
     0
 74
     1
 95
       26
 96
       22
 40
0.0
 40
0.0
 40
0.0
 40
0.0
 40
1.0
 40
1.0
 40
1.0
 40
2.0
 40
2.0
 40
2.0
 40
3.0
 40
3.0
 40
3.0
 40
4.0
 40
4.0
 40
4.0
 40
5.0
 40
5.0
 40
5.0
 40
6.0
 40
6.0
 40
6.0
 40
7.0
 40
7.0
 40
7.0
 40
7.0
 10
100.3304822882854
 20
-136.4040771143365
 10
100.3304822882854
 20
-136.4040771143365
 10
99.22632918526287
 20
-136.4040771143365
 10
99.22632918526287
 20
-136.4040771143365
 10
99.22632918526287
 20
-136.4040771143365
 10
99.22632918526287
 20
-136.7565103824776
 10
99.22632918526287
 20
-136.7565103824776
 10
99.22632918526287
 20
-136.7565103824776
 10
99.07819007939712
 20
-136.7565103824776
 10
99.07819007939712
 20
-136.7565103824776
 10
99.06337616881055
 20
-136.4016655474968
 10
98.90042315235823
 20
-136.3520561725092
 10
98.78604598224794
 20
-136.3203612940449
 10
98.78604598224794
 20
-136.3203612940449
 10
98.78604598224794
 20
-136.1642984685631
 10
98.78604598224794
 20
-136.1642984685631
 10
98.78604598224794
 20
-136.1642984685631
 10
100.3304822882854
 20
-136.1642984685631
 10
100.3304822882854
 20
-136.1642984685631
 10
100.3304822882854
 20
-136.1642984685631
 10
100.3304822882854
 20
-136.4040771143365
 10
100.3304822882854
 20
-136.4040771143365
 97
        0
 97
        0
 75
     2
 76
     1
 98
        0
  0
ENDBLK
  5
C9
330
C6
100
AcDbEntity
  8
0
100
AcDbBlockEnd
  0
ENDSEC
  0
SECTION
  2
ENTITIES
  0
SPLINE
  5
41
330
1F
100
AcDbEntity
  8
_U+30EC_U+30A4_U+30E4_U+30FC 1
370
     0
100
AcDbSpline
210
0.0
220
0.0
230
1.0
 70
    11
 71
     3
 72
    53
 73
    49
 74
     0
 42
0.0000000001
 43
0.0000000001
 12
1.0
 22
0.0
 32
0.0
 13
1.0
 23
0.0
 33
0.0
 40
0.0
 40
0.0
 40
0.0
 40
0.0
 40
1.0
 40
1.0
 40
1.0
 40
2.0
 40
2.0
 40
2.0
 40
3.0
 40
3.0
 40
3.0
 40
4.0
 40
4.0
 40
4.0
 40
5.0
 40
5.0
 40
5.0
 40
6.0
 40
6.0
 40
6.0
 40
7.0
 40
7.0
 40
7.0
 40
8.0
 40
8.0
 40
8.0
 40
9.0
 40
9.0
 40
9.0
 40
10.0
 40
10.0
 40
10.0
 40
11.0
 40
11.0
 40
11.0
 40
12.0
 40
12.0
 40
12.0
 40
13.0
 40
13.0
 40
13.0
 40
14.0
 40
14.0
 40
14.0
 40
15.0
 40
15.0
 40
15.0
 40
16.0
 40
16.0
 40
16.0
 40
16.0
 10
97.0007983586368
 20
-136.3875577436807
 30
0.0
 10
97.0007983586368
 20
-136.3875577436807
 30
0.0
 10
87.36657860442622
 20
-136.3875577436807
 30
0.0
 10
87.36657860442622
 20
-136.3875577436807
 30
0.0
 10
87.18814360897848
 20
-136.0781716326468
 30
0.0
 10
86.8580847285101
 20
-135.8879891326944
 30
0.0
 10
86.50082668206895
 20
-135.8879891326944
 30
0.0
 10
86.50082668206895
 20
-135.8879891326944
 30
0.0
 10
84.0007259125185
 20
-135.8879891326944
 30
0.0
 10
84.0007259125185
 20
-135.8879891326944
 30
0.0
 10
84.0007259125185
 20
-135.8879891326944
 30
0.0
 10
84.0007259125185
 20
-122.8875988581671
 30
0.0
 10
84.0007259125185
 20
-122.8875988581671
 30
0.0
 10
84.0007259125185
 20
-122.8875988581671
 30
0.0
 10
87.00071278042691
 20
-122.8875988581671
 30
0.0
 10
87.00071278042691
 20
-122.8875988581671
 30
0.0
 10
87.27700832893358
 20
-122.8875988581671
 30
0.0
 10
87.50059887878486
 20
-122.6636555248895
 30
0.0
 10
87.50059887878486
 20
-122.3877127471808
 30
0.0
 10
87.50059887878486
 20
-122.1282799694681
 30
0.0
 10
87.30216138384742
 20
-121.9119213584111
 30
0.0
 10
87.04343416822587
 20
-121.8895552473056
 30
0.0
 10
84.68596145059225
 20
-121.6873077473561
 30
0.0
 10
82.31540275719894
 20
-121.6873077473561
 30
0.0
 10
79.95789268232643
 20
-121.8895552473056
 30
0.0
 10
79.6826554671261
 20
-121.9133324695218
 30
0.0
 10
79.47867936121885
 20
-122.1555144139056
 30
0.0
 10
79.50245658283447
 20
-122.4307869138366
 30
0.0
 10
79.52485797115185
 20
-122.6891613582167
 30
0.0
 10
79.74121657674318
 20
-122.8875988581671
 30
0.0
 10
80.00096684789419
 20
-122.8875988581671
 30
0.0
 10
80.00096684789419
 20
-122.8875988581671
 30
0.0
 10
83.0009537158026
 20
-122.8875988581671
 30
0.0
 10
83.0009537158026
 20
-122.8875988581671
 30
0.0
 10
83.0009537158026
 20
-122.8875988581671
 30
0.0
 10
83.0009537158026
 20
-135.8879891326944
 30
0.0
 10
83.0009537158026
 20
-135.8879891326944
 30
0.0
 10
83.0009537158026
 20
-135.8879891326944
 30
0.0
 10
80.50050016848337
 20
-135.8879891326944
 30
0.0
 10
80.50050016848337
 20
-135.8879891326944
 30
0.0
 10
79.94861664667958
 20
-135.8879891326944
 30
0.0
 10
79.50072797176746
 20
-136.3358757992496
 30
0.0
 10
79.50072797176746
 20
-136.8877613546669
 30
0.0
 10
79.50072797176746
 20
-136.8877613546669
 30
0.0
 10
97.50068445699475
 20
-136.8877613546669
 30
0.0
 10
97.50068445699475
 20
-136.8877613546669
 30
0.0
 10
97.50068445699475
 20
-136.6114657991805
 30
0.0
 10
97.27674112937468
 20
-136.3875577436807
 30
0.0
 10
97.0007983586368
 20
-136.3875577436807
 30
0.0
  0
HATCH
  5
42
330
1F
100
AcDbEntity
  8
_U+30EC_U+30A4_U+30E4_U+30FC 1
 62
   253
420
 11711154
100
AcDbHatch
 10
0.0
 20
0.0
 30
0.0
210
0.0
220
0.0
230
1.0
  2
SOLID
 70
     1
 71
     0
 91
        1
 92
        1
 93
        1
 72
     4
 94
        3
 73
     0
 74
     1
 95
       53
 96
       49
 40
0.0
 40
0.0
 40
0.0
 40
0.0
 40
1.0
 40
1.0
 40
1.0
 40
2.0
 40
2.0
 40
2.0
 40
3.0
 40
3.0
 40
3.0
 40
4.0
 40
4.0
 40
4.0
 40
5.0
 40
5.0
 40
5.0
 40
6.0
 40
6.0
 40
6.0
 40
7.0
 40
7.0
 40
7.0
 40
8.0
 40
8.0
 40
8.0
 40
9.0
 40
9.0
 40
9.0
 40
10.0
 40
10.0
 40
10.0
 40
11.0
 40
11.0
 40
11.0
 40
12.0
 40
12.0
 40
12.0
 40
13.0
 40
13.0
 40
13.0
 40
14.0
 40
14.0
 40
14.0
 40
15.0
 40
15.0
 40
15.0
 40
16.0
 40
16.0
 40
16.0
 40
16.0
 10
97.0007983586368
 20
-136.3875577436807
 10
97.0007983586368
 20
-136.3875577436807
 10
87.36657860442622
 20
-136.3875577436807
 10
87.36657860442622
 20
-136.3875577436807
 10
87.18814360897848
 20
-136.0781716326468
 10
86.8580847285101
 20
-135.8879891326944
 10
86.50082668206895
 20
-135.8879891326944
 10
86.50082668206895
 20
-135.8879891326944
 10
84.0007259125185
 20
-135.8879891326944
 10
84.0007259125185
 20
-135.8879891326944
 10
84.0007259125185
 20
-135.8879891326944
 10
84.0007259125185
 20
-122.8875988581671
 10
84.0007259125185
 20
-122.8875988581671
 10
84.0007259125185
 20
-122.8875988581671
 10
87.00071278042691
 20
-122.8875988581671
 10
87.00071278042691
 20
-122.8875988581671
 10
87.27700832893358
 20
-122.8875988581671
 10
87.50059887878486
 20
-122.6636555248895
 10
87.50059887878486
 20
-122.3877127471808
 10
87.50059887878486
 20
-122.1282799694681
 10
87.30216138384742
 20
-121.9119213584111
 10
87.04343416822587
 20
-121.8895552473056
 10
84.68596145059225
 20
-121.6873077473561
 10
82.31540275719894
 20
-121.6873077473561
 10
79.95789268232643
 20
-121.8895552473056
 10
79.6826554671261
 20
-121.9133324695218
 10
79.47867936121885
 20
-122.1555144139056
 10
79.50245658283447
 20
-122.4307869138366
 10
79.52485797115185
 20
-122.6891613582167
 10
79.74121657674318
 20
-122.8875988581671
 10
80.00096684789419
 20
-122.8875988581671
 10
80.00096684789419
 20
-122.8875988581671
 10
83.0009537158026
 20
-122.8875988581671
 10
83.0009537158026
 20
-122.8875988581671
 10
83.0009537158026
 20
-122.8875988581671
 10
83.0009537158026
 20
-135.8879891326944
 10
83.0009537158026
 20
-135.8879891326944
 10
83.0009537158026
 20
-135.8879891326944
 10
80.50050016848337
 20
-135.8879891326944
 10
80.50050016848337
 20
-135.8879891326944
 10
79.94861664667958
 20
-135.8879891326944
 10
79.50072797176746
 20
-136.3358757992496
 10
79.50072797176746
 20
-136.8877613546669
 10
79.50072797176746
 20
-136.8877613546669
 10
97.50068445699475
 20
-136.8877613546669
 10
97.50068445699475
 20
-136.8877613546669
 10
97.50068445699475
 20
-136.6114657991805
 10
97.27674112937468
 20
-136.3875577436807
 10
97.0007983586368
 20
-136.3875577436807
 97
        0
 97
        0
 75
     2
 76
     1
 98
        0
  0
POLYLINE
  5
43
330
1F
100
AcDbEntity
  8
_U+30EC_U+30A4_U+30E4_U+30FC 1
 62
   179
420
  2234388
370
    25
100
AcDb2dPolyline
 66
     1
 10
0.0
 20
0.0
 30
0.0
  0
VERTEX
  5
44
330
43
100
AcDbEntity
  8
_U+30EC_U+30A4_U+30E4_U+30FC 1
 62
   179
420
  2234388
370
    25
100
AcDbVertex
100
AcDb2dVertex
 10
80.50050016848337
 20
-135.8879891326944
 30
0.0
  0
VERTEX
  5
45
330
43
100
AcDbEntity
  8
_U+30EC_U+30A4_U+30E4_U+30FC 1
 62
   179
420
  2234388
370
    25
100
AcDbVertex
100
AcDb2dVertex
 10
83.0009537158026
 20
-135.8879891326944
 30
0.0
  0
SEQEND
  5
46
330
43
100
AcDbEntity
  8
_U+30EC_U+30A4_U+30E4_U+30FC 1
 62
   179
420
  2234388
370
    25
  0
POLYLINE
  5
47
330
1F
100
AcDbEntity
  8
_U+30EC_U+30A4_U+30E4_U+30FC 1
 62
   179
420
  2234388
370
    25
100
AcDb2dPolyline
 66
     1
 10
0.0
 20
0.0
 30
0.0
  0
VERTEX
  5
48
330
47
100
AcDbEntity
  8
_U+30EC_U+30A4_U+30E4_U+30FC 1
 62
   179
420
  2234388
370
    25
100
AcDbVertex
100
AcDb2dVertex
 10
79.50072797176746
 20
-136.8877613546669
 30
0.0
  0
VERTEX
  5
49
330
47
100
AcDbEntity
  8
_U+30EC_U+30A4_U+30E4_U+30FC 1
 62
   179
420
  2234388
370
    25
100
AcDbVertex
100
AcDb2dVertex
 10
97.50068445699475
 20
-136.8877613546669
 30
0.0
  0
SEQEND
  5
4A
330
47
100
AcDbEntity
  8
_U+30EC_U+30A4_U+30E4_U+30FC 1
 62
   179
420
  2234388
370
    25
  0
POLYLINE
  5
4B
330
1F
100
AcDbEntity
  8
_U+30EC_U+30A4_U+30E4_U+30FC 1
 62
   179
420
  2234388
370
    25
100
AcDb2dPolyline
 66
     1
 10
0.0
 20
0.0
 30
0.0
  0
VERTEX
  5
4C
330
4B
100
AcDbEntity
  8
_U+30EC_U+30A4_U+30E4_U+30FC 1
 62
   179
420
  2234388
370
    25
100
AcDbVertex
100
AcDb2dVertex
 10
87.36657860442622
 20
-136.3875577436807
 30
0.0
  0
VERTEX
  5
4D
330
4B
100
AcDbEntity
  8
_U+30EC_U+30A4_U+30E4_U+30FC 1
 62
   179
420
  2234388
370
    25
100
AcDbVertex
100
AcDb2dVertex
 10
97.0007983586368
 20
-136.3875577436807
 30
0.0
  0
SEQEND
  5
4E
330
4B
100
AcDbEntity
  8
_U+30EC_U+30A4_U+30E4_U+30FC 1
 62
   179
420
  2234388
370
    25
  0
POLYLINE
  5
4F
330
1F
100
AcDbEntity
  8
_U+30EC_U+30A4_U+30E4_U+30FC 1
 62
   179
420
  2234388
370
    25
100
AcDb2dPolyline
 66
     1
 10
0.0
 20
0.0
 30
0.0
  0
VERTEX
  5
50
330
4F
100
AcDbEntity
  8
_U+30EC_U+30A4_U+30E4_U+30FC 1
 62
   179
420
  2234388
370
    25
100
AcDbVertex
100
AcDb2dVertex
 10
80.00096684789419
 20
-122.8875988581671
 30
0.0
  0
VERTEX
  5
51
330
4F
100
AcDbEntity
  8
_U+30EC_U+30A4_U+30E4_U+30FC 1
 62
   179
420
  2234388
370
    25
100
AcDbVertex
100
AcDb2dVertex
 10
83.0009537158026
 20
-122.8875988581671
 30
0.0
  0
SEQEND
  5
52
330
4F
100
AcDbEntity
  8
_U+30EC_U+30A4_U+30E4_U+30FC 1
 62
   179
420
  2234388
370
    25
  0
POLYLINE
  5
53
330
1F
100
AcDbEntity
  8
_U+30EC_U+30A4_U+30E4_U+30FC 1
 62
   179
420
  2234388
370
    25
100
AcDb2dPolyline
 66
     1
 10
0.0
 20
0.0
 30
0.0
  0
VERTEX
  5
54
330
53
100
AcDbEntity
  8
_U+30EC_U+30A4_U+30E4_U+30FC 1
 62
   179
420
  2234388
370
    25
100
AcDbVertex
100
AcDb2dVertex
 10
83.0009537158026
 20
-122.8875988581671
 30
0.0
  0
VERTEX
  5
55
330
53
100
AcDbEntity
  8
_U+30EC_U+30A4_U+30E4_U+30FC 1
 62
   179
420
  2234388
370
    25
100
AcDbVertex
100
AcDb2dVertex
 10
83.0009537158026
 20
-135.8879891326944
 30
0.0
  0
SEQEND
  5
56
330
53
100
AcDbEntity
  8
_U+30EC_U+30A4_U+30E4_U+30FC 1
 62
   179
420
  2234388
370
    25
  0
POLYLINE
  5
57
330
1F
100
AcDbEntity
  8
_U+30EC_U+30A4_U+30E4_U+30FC 1
 62
   179
420
  2234388
370
    25
100
AcDb2dPolyline
 66
     1
 10
0.0
 20
0.0
 30
0.0
  0
VERTEX
  5
58
330
57
100
AcDbEntity
  8
_U+30EC_U+30A4_U+30E4_U+30FC 1
 62
   179
420
  2234388
370
    25
100
AcDbVertex
100
AcDb2dVertex
 10
84.0007259125185
 20
-122.8875988581671
 30
0.0
  0
VERTEX
  5
59
330
57
100
AcDbEntity
  8
_U+30EC_U+30A4_U+30E4_U+30FC 1
 62
   179
420
  2234388
370
    25
100
AcDbVertex
100
AcDb2dVertex
 10
84.0007259125185
 20
-135.8879891326944
 30
0.0
  0
SEQEND
  5
5A
330
57
100
AcDbEntity
  8
_U+30EC_U+30A4_U+30E4_U+30FC 1
 62
   179
420
  2234388
370
    25
  0
POLYLINE
  5
5B
330
1F
100
AcDbEntity
  8
_U+30EC_U+30A4_U+30E4_U+30FC 1
 62
   179
420
  2234388
370
    25
100
AcDb2dPolyline
 66
     1
 10
0.0
 20
0.0
 30
0.0
  0
VERTEX
  5
5C
330
5B
100
AcDbEntity
  8
_U+30EC_U+30A4_U+30E4_U+30FC 1
 62
   179
420
  2234388
370
    25
100
AcDbVertex
100
AcDb2dVertex
 10
84.0007259125185
 20
-122.8875988581671
 30
0.0
  0
VERTEX
  5
5D
330
5B
100
AcDbEntity
  8
_U+30EC_U+30A4_U+30E4_U+30FC 1
 62
   179
420
  2234388
370
    25
100
AcDbVertex
100
AcDb2dVertex
 10
87.00071278042691
 20
-122.8875988581671
 30
0.0
  0
SEQEND
  5
5E
330
5B
100
AcDbEntity
  8
_U+30EC_U+30A4_U+30E4_U+30FC 1
 62
   179
420
  2234388
370
    25
  0
POLYLINE
  5
5F
330
1F
100
AcDbEntity
  8
_U+30EC_U+30A4_U+30E4_U+30FC 1
 62
   179
420
  2234388
370
    25
100
AcDb2dPolyline
 66
     1
 10
0.0
 20
0.0
 30
0.0
  0
VERTEX
  5
60
330
5F
100
AcDbEntity
  8
_U+30EC_U+30A4_U+30E4_U+30FC 1
 62
   179
420
  2234388
370
    25
100
AcDbVertex
100
AcDb2dVertex
 10
84.0007259125185
 20
-135.8879891326944
 30
0.0
  0
VERTEX
  5
61
330
5F
100
AcDbEntity
  8
_U+30EC_U+30A4_U+30E4_U+30FC 1
 62
   179
420
  2234388
370
    25
100
AcDbVertex
100
AcDb2dVertex
 10
86.50082668206895
 20
-135.8879891326944
 30
0.0
  0
SEQEND
  5
62
330
5F
100
AcDbEntity
  8
_U+30EC_U+30A4_U+30E4_U+30FC 1
 62
   179
420
  2234388
370
    25
  0
SPLINE
  5
63
330
1F
100
AcDbEntity
  8
_U+30EC_U+30A4_U+30E4_U+30FC 1
 62
   179
420
  2234388
370
    25
100
AcDbSpline
210
0.0
220
0.0
230
1.0
 70
     8
 71
     3
 72
     8
 73
     4
 74
     0
 42
0.0000000001
 43
0.0000000001
 12
1.0
 22
0.0
 32
0.0
 13
1.0
 23
0.0
 33
0.0
 40
0.0
 40
0.0
 40
0.0
 40
0.0
 40
1.0
 40
1.0
 40
1.0
 40
1.0
 10
97.50068445699475
 20
-136.8877613546669
 30
0.0
 10
97.50068445699475
 20
-136.6114657991805
 30
0.0
 10
97.27674112937468
 20
-136.3875577436807
 30
0.0
 10
97.0007983586368
 20
-136.3875577436807
 30
0.0
  0
SPLINE
  5
64
330
1F
100
AcDbEntity
  8
_U+30EC_U+30A4_U+30E4_U+30FC 1
 62
   179
420
  2234388
370
     9
100
AcDbSpline
210
0.0
220
0.0
230
1.0
 70
    11
 71
     3
 72
    17
 73
    13
 74
     0
 42
0.0000000001
 43
0.0000000001
 12
1.0
 22
0.0
 32
0.0
 13
1.0
 23
0.0
 33
0.0
 40
0.0
 40
0.0
 40
0.0
 40
0.0
 40
1.0
 40
1.0
 40
1.0
 40
2.0
 40
2.0
 40
2.0
 40
3.0
 40
3.0
 40
3.0
 40
4.0
 40
4.0
 40
4.0
 40
4.0
 10
101.4783949110705
 20
-122.8875988581671
 30
0.0
 10
101.4783949110705
 20
-122.832459691514
 30
0.0
 10
101.4335921344357
 20
-122.7876921915252
 30
0.0
 10
101.3784882469526
 20
-122.7876921915252
 30
0.0
 10
101.3233490816927
 20
-122.7876921915252
 30
0.0
 10
101.2785815828348
 20
-122.832459691514
 30
0.0
 10
101.2785815828348
 20
-122.8875988581671
 30
0.0
 10
101.2785815828348
 20
-122.9434083025976
 30
0.0
 10
101.3233490816927
 20
-122.9881758025864
 30
0.0
 10
101.3784882469526
 20
-122.9881758025864
 30
0.0
 10
101.4335921344357
 20
-122.9881758025864
 30
0.0
 10
101.4783949110705
 20
-122.9434083025976
 30
0.0
 10
101.4783949110705
 20
-122.8875988581671
 30
0.0
  0
SPLINE
  5
65
330
1F
100
AcDbEntity
  8
_U+30EC_U+30A4_U+30E4_U+30FC 1
 62
   179
420
  2234388
370
     9
100
AcDbSpline
210
0.0
220
0.0
230
1.0
 70
    11
 71
     3
 72
    17
 73
    13
 74
     0
 42
0.0000000001
 43
0.0000000001
 12
1.0
 22
0.0
 32
0.0
 13
1.0
 23
0.0
 33
0.0
 40
0.0
 40
0.0
 40
0.0
 40
0.0
 40
1.0
 40
1.0
 40
1.0
 40
2.0
 40
2.0
 40
2.0
 40
3.0
 40
3.0
 40
3.0
 40
4.0
 40
4.0
 40
4.0
 40
4.0
 10
101.4783949110705
 20
-135.8879891326944
 30
0.0
 10
101.4783949110705
 20
-135.8328852438195
 30
0.0
 10
101.4335921344357
 20
-135.7880824660528
 30
0.0
 10
101.3784882469526
 20
-135.7880824660528
 30
0.0
 10
101.3233490816927
 20
-135.7880824660528
 30
0.0
 10
101.2785815828348
 20
-135.8328852438195
 30
0.0
 10
101.2785815828348
 20
-135.8879891326944
 30
0.0
 10
101.2785815828348
 20
-135.9431282993475
 30
0.0
 10
101.3233490816927
 20
-135.9878957993367
 30
0.0
 10
101.3784882469526
 20
-135.9878957993367
 30
0.0
 10
101.4335921344357
 20
-135.9878957993367
 30
0.0
 10
101.4783949110705
 20
-135.9431282993475
 30
0.0
 10
101.4783949110705
 20
-135.8879891326944
 30
0.0
  0
SPLINE
  5
66
330
1F
100
AcDbEntity
  8
_U+30EC_U+30A4_U+30E4_U+30FC 1
 62
   179
420
  2234388
370
     9
100
AcDbSpline
210
0.0
220
0.0
230
1.0
 70
    11
 71
     3
 72
    17
 73
    13
 74
     0
 42
0.0000000001
 43
0.0000000001
 12
1.0
 22
0.0
 32
0.0
 13
1.0
 23
0.0
 33
0.0
 40
0.0
 40
0.0
 40
0.0
 40
0.0
 40
1.0
 40
1.0
 40
1.0
 40
2.0
 40
2.0
 40
2.0
 40
3.0
 40
3.0
 40
3.0
 40
4.0
 40
4.0
 40
4.0
 40
4.0
 10
79.60063463588529
 20
-140.8882260758893
 30
0.0
 10
79.60063463588529
 20
-140.8324166314583
 30
0.0
 10
79.5558671370274
 20
-140.7876138536922
 30
0.0
 10
79.50072797176746
 20
-140.7876138536922
 30
0.0
 10
79.44562408428439
 20
-140.7876138536922
 30
0.0
 10
79.40082130764962
 20
-140.8324166314583
 30
0.0
 10
79.40082130764962
 20
-140.8882260758893
 30
0.0
 10
79.40082130764962
 20
-140.9433299647642
 30
0.0
 10
79.44562408428439
 20
-140.988132742531
 30
0.0
 10
79.50072797176746
 20
-140.988132742531
 30
0.0
 10
79.5558671370274
 20
-140.988132742531
 30
0.0
 10
79.60063463588529
 20
-140.9433299647642
 30
0.0
 10
79.60063463588529
 20
-140.8882260758893
 30
0.0
  0
SPLINE
  5
67
330
1F
100
AcDbEntity
  8
_U+30EC_U+30A4_U+30E4_U+30FC 1
 62
   179
420
  2234388
370
     9
100
AcDbSpline
210
0.0
220
0.0
230
1.0
 70
    11
 71
     3
 72
    17
 73
    13
 74
     0
 42
0.0000000001
 43
0.0000000001
 12
1.0
 22
0.0
 32
0.0
 13
1.0
 23
0.0
 33
0.0
 40
0.0
 40
0.0
 40
0.0
 40
0.0
 40
1.0
 40
1.0
 40
1.0
 40
2.0
 40
2.0
 40
2.0
 40
3.0
 40
3.0
 40
3.0
 40
4.0
 40
4.0
 40
4.0
 40
4.0
 10
97.60059112111259
 20
-140.8882260758893
 30
0.0
 10
97.60059112111259
 20
-140.8324166314583
 30
0.0
 10
97.55578834447782
 20
-140.7876138536922
 30
0.0
 10
97.50068445699475
 20
-140.7876138536922
 30
0.0
 10
97.4455452917348
 20
-140.7876138536922
 30
0.0
 10
97.40077779287692
 20
-140.8324166314583
 30
0.0
 10
97.40077779287692
 20
-140.8882260758893
 30
0.0
 10
97.40077779287692
 20
-140.9433299647642
 30
0.0
 10
97.4455452917348
 20
-140.988132742531
 30
0.0
 10
97.50068445699475
 20
-140.988132742531
 30
0.0
 10
97.55578834447782
 20
-140.988132742531
 30
0.0
 10
97.60059112111259
 20
-140.9433299647642
 30
0.0
 10
97.60059112111259
 20
-140.8882260758893
 30
0.0
  0
SPLINE
  5
68
330
1F
100
AcDbEntity
  8
_U+30EC_U+30A4_U+30E4_U+30FC 1
 62
   179
420
  2234388
370
    25
100
AcDbSpline
210
0.0
220
0.0
230
1.0
 70
     8
 71
     3
 72
     8
 73
     4
 74
     0
 42
0.0000000001
 43
0.0000000001
 12
1.0
 22
0.0
 32
0.0
 13
1.0
 23
0.0
 33
0.0
 40
0.0
 40
0.0
 40
0.0
 40
0.0
 40
1.0
 40
1.0
 40
1.0
 40
1.0
 10
87.36657860442622
 20
-136.3875577436807
 30
0.0
 10
87.18814360897848
 20
-136.0781716326468
 30
0.0
 10
86.8580847285101
 20
-135.8879891326944
 30
0.0
 10
86.50082668206895
 20
-135.8879891326944
 30
0.0
  0
SPLINE
  5
69
330
1F
100
AcDbEntity
  8
_U+30EC_U+30A4_U+30E4_U+30FC 1
 62
   179
420
  2234388
370
    25
100
AcDbSpline
210
0.0
220
0.0
230
1.0
 70
     8
 71
     3
 72
    11
 73
     7
 74
     0
 42
0.0000000001
 43
0.0000000001
 12
1.0
 22
0.0
 32
0.0
 13
1.0
 23
0.0
 33
0.0
 40
0.0
 40
0.0
 40
0.0
 40
0.0
 40
1.0
 40
1.0
 40
1.0
 40
2.0
 40
2.0
 40
2.0
 40
2.0
 10
87.00071278042691
 20
-122.8875988581671
 30
0.0
 10
87.27700832893358
 20
-122.8875988581671
 30
0.0
 10
87.50059887878486
 20
-122.6636555248895
 30
0.0
 10
87.50059887878486
 20
-122.3877127471808
 30
0.0
 10
87.50059887878486
 20
-122.1282799694681
 30
0.0
 10
87.30216138384742
 20
-121.9119213584111
 30
0.0
 10
87.04343416822587
 20
-121.8895552473056
 30
0.0
  0
SPLINE
  5
6A
330
1F
100
AcDbEntity
  8
_U+30EC_U+30A4_U+30E4_U+30FC 1
 62
   179
420
  2234388
370
    25
100
AcDbSpline
210
0.0
220
0.0
230
1.0
 70
     8
 71
     3
 72
    11
 73
     7
 74
     0
 42
0.0000000001
 43
0.0000000001
 12
1.0
 22
0.0
 32
0.0
 13
1.0
 23
0.0
 33
0.0
 40
0.0
 40
0.0
 40
0.0
 40
0.0
 40
1.0
 40
1.0
 40
1.0
 40
2.0
 40
2.0
 40
2.0
 40
2.0
 10
79.95789268232643
 20
-121.8895552473056
 30
0.0
 10
79.6826554671261
 20
-121.9133324695218
 30
0.0
 10
79.47867936121885
 20
-122.1555144139056
 30
0.0
 10
79.50245658283447
 20
-122.4307869138366
 30
0.0
 10
79.52485797115185
 20
-122.6891613582167
 30
0.0
 10
79.74121657674318
 20
-122.8875988581671
 30
0.0
 10
80.00096684789419
 20
-122.8875988581671
 30
0.0
  0
SPLINE
  5
6B
330
1F
100
AcDbEntity
  8
_U+30EC_U+30A4_U+30E4_U+30FC 1
 62
   179
420
  2234388
370
    25
100
AcDbSpline
210
0.0
220
0.0
230
1.0
 70
     8
 71
     3
 72
     8
 73
     4
 74
     0
 42
0.0000000001
 43
0.0000000001
 12
1.0
 22
0.0
 32
0.0
 13
1.0
 23
0.0
 33
0.0
 40
0.0
 40
0.0
 40
0.0
 40
0.0
 40
1.0
 40
1.0
 40
1.0
 40
1.0
 10
80.50050016848337
 20
-135.8879891326944
 30
0.0
 10
79.94861664667958
 20
-135.8879891326944
 30
0.0
 10
79.50072797176746
 20
-136.3358757992496
 30
0.0
 10
79.50072797176746
 20
-136.8877613546669
 30
0.0
  0
SPLINE
  5
6C
330
1F
100
AcDbEntity
  8
_U+30EC_U+30A4_U+30E4_U+30FC 1
 62
   179
420
  2234388
370
     9
100
AcDbSpline
210
0.0
220
0.0
230
1.0
 70
    11
 71
     3
 72
    17
 73
    13
 74
     0
 42
0.0000000001
 43
0.0000000001
 12
1.0
 22
0.0
 32
0.0
 13
1.0
 23
0.0
 33
0.0
 40
0.0
 40
0.0
 40
0.0
 40
0.0
 40
1.0
 40
1.0
 40
1.0
 40
2.0
 40
2.0
 40
2.0
 40
3.0
 40
3.0
 40
3.0
 40
4.0
 40
4.0
 40
4.0
 40
4.0
 10
87.60085832067146
 20
-117.7378546927878
 30
0.0
 10
87.60085832067146
 20
-117.6827508039126
 30
0.0
 10
87.55605554403671
 20
-117.6379480261462
 30
0.0
 10
87.50059887878486
 20
-117.6379480261462
 30
0.0
 10
87.44549720036099
 20
-117.6379480261462
 30
0.0
 10
87.40069442259427
 20
-117.6827508039126
 30
0.0
 10
87.40069442259427
 20
-117.7378546927878
 30
0.0
 10
87.40069442259427
 20
-117.7929938594406
 30
0.0
 10
87.44549720036099
 20
-117.8377613594294
 30
0.0
 10
87.50059887878486
 20
-117.8377613594294
 30
0.0
 10
87.55605554403671
 20
-117.8377613594294
 30
0.0
 10
87.60085832067146
 20
-117.7929938594406
 30
0.0
 10
87.60085832067146
 20
-117.7378546927878
 30
0.0
  0
SPLINE
  5
6D
330
1F
100
AcDbEntity
  8
_U+30EC_U+30A4_U+30E4_U+30FC 1
 62
   179
420
  2234388
370
     9
100
AcDbSpline
210
0.0
220
0.0
230
1.0
 70
    11
 71
     3
 72
    17
 73
    13
 74
     0
 42
0.0000000001
 43
0.0000000001
 12
1.0
 22
0.0
 32
0.0
 13
1.0
 23
0.0
 33
0.0
 40
0.0
 40
0.0
 40
0.0
 40
0.0
 40
1.0
 40
1.0
 40
1.0
 40
2.0
 40
2.0
 40
2.0
 40
3.0
 40
3.0
 40
3.0
 40
4.0
 40
4.0
 40
4.0
 40
4.0
 10
79.60063463588529
 20
-117.7378546927878
 30
0.0
 10
79.60063463588529
 20
-117.6827508039126
 30
0.0
 10
79.5558671370274
 20
-117.6379480261462
 30
0.0
 10
79.50072797176746
 20
-117.6379480261462
 30
0.0
 10
79.44562408428439
 20
-117.6379480261462
 30
0.0
 10
79.40082130764962
 20
-117.6827508039126
 30
0.0
 10
79.40082130764962
 20
-117.7378546927878
 30
0.0
 10
79.40082130764962
 20
-117.7929938594406
 30
0.0
 10
79.44562408428439
 20
-117.8377613594294
 30
0.0
 10
79.50072797176746
 20
-117.8377613594294
 30
0.0
 10
79.5558671370274
 20
-117.8377613594294
 30
0.0
 10
79.60063463588529
 20
-117.7929938594406
 30
0.0
 10
79.60063463588529
 20
-117.7378546927878
 30
0.0
  0
SPLINE
  5
6E
330
1F
100
AcDbEntity
  8
_U+30EC_U+30A4_U+30E4_U+30FC 1
 62
   179
420
  2234388
370
    25
100
AcDbSpline
210
0.0
220
0.0
230
1.0
 70
     8
 71
     3
 72
     8
 73
     4
 74
     0
 42
0.0000000001
 43
0.0000000001
 12
1.0
 22
0.0
 32
0.0
 13
1.0
 23
0.0
 33
0.0
 40
0.0
 40
0.0
 40
0.0
 40
0.0
 40
1.0
 40
1.0
 40
1.0
 40
1.0
 10
87.04343416822587
 20
-121.8895552473056
 30
0.0
 10
84.68596145059225
 20
-121.6873077473561
 30
0.0
 10
82.31540275719894
 20
-121.6873077473561
 30
0.0
 10
79.95789268232643
 20
-121.8895552473056
 30
0.0
  0
POLYLINE
  5
6F
330
1F
100
AcDbEntity
  8
_U+30EC_U+30A4_U+30E4_U+30FC 1
 62
   179
420
  2234388
370
     9
100
AcDb2dPolyline
 66
     1
 10
0.0
 20
0.0
 30
0.0
  0
VERTEX
  5
70
330
6F
100
AcDbEntity
  8
_U+30EC_U+30A4_U+30E4_U+30FC 1
 62
   179
420
  2234388
370
     9
100
AcDbVertex
100
AcDb2dVertex
 10
79.50072797176746
 20
-140.8882260758893
 30
0.0
  0
VERTEX
  5
71
330
6F
100
AcDbEntity
  8
_U+30EC_U+30A4_U+30E4_U+30FC 1
 62
   179
420
  2234388
370
     9
100
AcDbVertex
100
AcDb2dVertex
 10
97.50068445699475
 20
-140.8882260758893
 30
0.0
  0
SEQEND
  5
72
330
6F
100
AcDbEntity
  8
_U+30EC_U+30A4_U+30E4_U+30FC 1
 62
   179
420
  2234388
370
     9
  0
POLYLINE
  5
73
330
1F
100
AcDbEntity
  8
_U+30EC_U+30A4_U+30E4_U+30FC 1
 62
   179
420
  2234388
370
     9
100
AcDb2dPolyline
 66
     1
 10
0.0
 20
0.0
 30
0.0
  0
VERTEX
  5
74
330
73
100
AcDbEntity
  8
_U+30EC_U+30A4_U+30E4_U+30FC 1
 62
   179
420
  2234388
370
     9
100
AcDbVertex
100
AcDb2dVertex
 10
79.50072797176746
 20
-138.6275555208984
 30
0.0
  0
VERTEX
  5
75
330
73
100
AcDbEntity
  8
_U+30EC_U+30A4_U+30E4_U+30FC 1
 62
   179
420
  2234388
370
     9
100
AcDbVertex
100
AcDb2dVertex
 10
79.50072797176746
 20
-141.8879630200837
 30
0.0
  0
SEQEND
  5
76
330
73
100
AcDbEntity
  8
_U+30EC_U+30A4_U+30E4_U+30FC 1
 62
   179
420
  2234388
370
     9
  0
POLYLINE
  5
77
330
1F
100
AcDbEntity
  8
_U+30EC_U+30A4_U+30E4_U+30FC 1
 62
   179
420
  2234388
370
     9
100
AcDb2dPolyline
 66
     1
 10
0.0
 20
0.0
 30
0.0
  0
VERTEX
  5
78
330
77
100
AcDbEntity
  8
_U+30EC_U+30A4_U+30E4_U+30FC 1
 62
   179
420
  2234388
370
     9
100
AcDbVertex
100
AcDb2dVertex
 10
97.50068445699475
 20
-139.428184687365
 30
0.0
  0
VERTEX
  5
79
330
77
100
AcDbEntity
  8
_U+30EC_U+30A4_U+30E4_U+30FC 1
 62
   179
420
  2234388
370
     9
100
AcDbVertex
100
AcDb2dVertex
 10
97.50068445699475
 20
-141.8879630200837
 30
0.0
  0
SEQEND
  5
7A
330
77
100
AcDbEntity
  8
_U+30EC_U+30A4_U+30E4_U+30FC 1
 62
   179
420
  2234388
370
     9
  0
INSERT
  5
7C
330
1F
100
AcDbEntity
  8
_U+30EC_U+30A4_U+30E4_U+30FC 1
100
AcDbBlockReference
  2
block 2
 10
0.0
 20
0.0
 30
0.0
  0
POLYLINE
  5
85
330
1F
100
AcDbEntity
  8
_U+30EC_U+30A4_U+30E4_U+30FC 1
 62
   179
420
  2234388
370
     9
100
AcDb2dPolyline
 66
     1
 10
0.0
 20
0.0
 30
0.0
  0
VERTEX
  5
86
330
85
100
AcDbEntity
  8
_U+30EC_U+30A4_U+30E4_U+30FC 1
 62
   179
420
  2234388
370
     9
100
AcDbVertex
100
AcDb2dVertex
 10
79.50072797176746
 20
-117.7378546927878
 30
0.0
  0
VERTEX
  5
87
330
85
100
AcDbEntity
  8
_U+30EC_U+30A4_U+30E4_U+30FC 1
 62
   179
420
  2234388
370
     9
100
AcDbVertex
100
AcDb2dVertex
 10
87.50059887878486
 20
-117.7378546927878
 30
0.0
  0
SEQEND
  5
88
330
85
100
AcDbEntity
  8
_U+30EC_U+30A4_U+30E4_U+30FC 1
 62
   179
420
  2234388
370
     9
  0
POLYLINE
  5
89
330
1F
100
AcDbEntity
  8
_U+30EC_U+30A4_U+30E4_U+30FC 1
 62
   179
420
  2234388
370
     9
100
AcDb2dPolyline
 66
     1
 10
0.0
 20
0.0
 30
0.0
  0
VERTEX
  5
8A
330
89
100
AcDbEntity
  8
_U+30EC_U+30A4_U+30E4_U+30FC 1
 62
   179
420
  2234388
370
     9
100
AcDbVertex
100
AcDb2dVertex
 10
79.50072797176746
 20
-119.8979483033588
 30
0.0
  0
VERTEX
  5
8B
330
89
100
AcDbEntity
  8
_U+30EC_U+30A4_U+30E4_U+30FC 1
 62
   179
420
  2234388
370
     9
100
AcDbVertex
100
AcDb2dVertex
 10
79.50072797176746
 20
-116.7377649708157
 30
0.0
  0
SEQEND
  5
8C
330
89
100
AcDbEntity
  8
_U+30EC_U+30A4_U+30E4_U+30FC 1
 62
   179
420
  2234388
370
     9
  0
POLYLINE
  5
8D
330
1F
100
AcDbEntity
  8
_U+30EC_U+30A4_U+30E4_U+30FC 1
 62
   179
420
  2234388
370
     9
100
AcDb2dPolyline
 66
     1
 10
0.0
 20
0.0
 30
0.0
  0
VERTEX
  5
8E
330
8D
100
AcDbEntity
  8
_U+30EC_U+30A4_U+30E4_U+30FC 1
 62
   179
420
  2234388
370
     9
100
AcDbVertex
100
AcDb2dVertex
 10
87.50059887878486
 20
-119.8979483033588
 30
0.0
  0
VERTEX
  5
8F
330
8D
100
AcDbEntity
  8
_U+30EC_U+30A4_U+30E4_U+30FC 1
 62
   179
420
  2234388
370
     9
100
AcDbVertex
100
AcDb2dVertex
 10
87.50059887878486
 20
-116.7377649708157
 30
0.0
  0
SEQEND
  5
90
330
8D
100
AcDbEntity
  8
_U+30EC_U+30A4_U+30E4_U+30FC 1
 62
   179
420
  2234388
370
     9
  0
INSERT
  5
92
330
1F
100
AcDbEntity
  8
_U+30EC_U+30A4_U+30E4_U+30FC 1
100
AcDbBlockReference
  2
block 3
 10
0.0
 20
0.0
 30
0.0
  0
POLYLINE
  5
99
330
1F
100
AcDbEntity
  8
_U+30EC_U+30A4_U+30E4_U+30FC 1
 62
   179
420
  2234388
370
     9
100
AcDb2dPolyline
 66
     1
 10
0.0
 20
0.0
 30
0.0
  0
VERTEX
  5
9A
330
99
100
AcDbEntity
  8
_U+30EC_U+30A4_U+30E4_U+30FC 1
 62
   179
420
  2234388
370
     9
100
AcDbVertex
100
AcDb2dVertex
 10
101.3784882469526
 20
-135.8879891326944
 30
0.0
  0
VERTEX
  5
9B
330
99
100
AcDbEntity
  8
_U+30EC_U+30A4_U+30E4_U+30FC 1
 62
   179
420
  2234388
370
     9
100
AcDbVertex
100
AcDb2dVertex
 10
101.3784882469526
 20
-122.8875988581671
 30
0.0
  0
SEQEND
  5
9C
330
99
100
AcDbEntity
  8
_U+30EC_U+30A4_U+30E4_U+30FC 1
 62
   179
420
  2234388
370
     9
  0
POLYLINE
  5
9D
330
1F
100
AcDbEntity
  8
_U+30EC_U+30A4_U+30E4_U+30FC 1
 62
   179
420
  2234388
370
     9
100
AcDb2dPolyline
 66
     1
 10
0.0
 20
0.0
 30
0.0
  0
VERTEX
  5
9E
330
9D
100
AcDbEntity
  8
_U+30EC_U+30A4_U+30E4_U+30FC 1
 62
   179
420
  2234388
370
     9
100
AcDbVertex
100
AcDb2dVertex
 10
100.3842193834297
 20
-135.8879891326944
 30
0.0
  0
VERTEX
  5
9F
330
9D
100
AcDbEntity
  8
_U+30EC_U+30A4_U+30E4_U+30FC 1
 62
   179
420
  2234388
370
     9
100
AcDbVertex
100
AcDb2dVertex
 10
102.378580529961
 20
-135.8879891326944
 30
0.0
  0
SEQEND
  5
A0
330
9D
100
AcDbEntity
  8
_U+30EC_U+30A4_U+30E4_U+30FC 1
 62
   179
420
  2234388
370
     9
  0
POLYLINE
  5
A1
330
1F
100
AcDbEntity
  8
_U+30EC_U+30A4_U+30E4_U+30FC 1
 62
   179
420
  2234388
370
     9
100
AcDb2dPolyline
 66
     1
 10
0.0
 20
0.0
 30
0.0
  0
VERTEX
  5
A2
330
A1
100
AcDbEntity
  8
_U+30EC_U+30A4_U+30E4_U+30FC 1
 62
   179
420
  2234388
370
     9
100
AcDbVertex
100
AcDb2dVertex
 10
100.4658874369017
 20
-122.8879516359446
 30
0.0
  0
VERTEX
  5
A3
330
A1
100
AcDbEntity
  8
_U+30EC_U+30A4_U+30E4_U+30FC 1
 62
   179
420
  2234388
370
     9
100
AcDbVertex
100
AcDb2dVertex
 10
102.378580529961
 20
-122.8875988581671
 30
0.0
  0
SEQEND
  5
A4
330
A1
100
AcDbEntity
  8
_U+30EC_U+30A4_U+30E4_U+30FC 1
 62
   179
420
  2234388
370
     9
  0
INSERT
  5
A6
330
1F
100
AcDbEntity
  8
_U+30EC_U+30A4_U+30E4_U+30FC 1
100
AcDbBlockReference
  2
block 4
 10
0.0
 20
0.0
 30
0.0
  0
INSERT
  5
AE
330
1F
100
AcDbEntity
  8
_U+30EC_U+30A4_U+30E4_U+30FC 1
100
AcDbBlockReference
  2
block 5
 10
0.0
 20
0.0
 30
0.0
  0
SPLINE
  5
BD
330
1F
100
AcDbEntity
  8
_U+30EC_U+30A4_U+30E4_U+30FC 1
 62
   179
420
  2234388
370
     9
100
AcDbSpline
210
0.0
220
0.0
230
1.0
 70
    11
 71
     3
 72
    17
 73
    13
 74
     0
 42
0.0000000001
 43
0.0000000001
 12
1.0
 22
0.0
 32
0.0
 13
1.0
 23
0.0
 33
0.0
 40
0.0
 40
0.0
 40
0.0
 40
0.0
 40
1.0
 40
1.0
 40
1.0
 40
2.0
 40
2.0
 40
2.0
 40
3.0
 40
3.0
 40
3.0
 40
4.0
 40
4.0
 40
4.0
 40
4.0
 10
101.4797707443687
 20
-136.8812349657796
 30
0.0
 10
101.4797707443687
 20
-136.8257430213494
 30
0.0
 10
101.4349679677339
 20
-136.7809755213602
 30
0.0
 10
101.3798666413218
 20
-136.7809755213602
 30
0.0
 10
101.3247249149909
 20
-136.7809755213602
 30
0.0
 10
101.279957416133
 20
-136.8257430213494
 30
0.0
 10
101.279957416133
 20
-136.8812349657796
 30
0.0
 10
101.279957416133
 20
-136.9363388546545
 30
0.0
 10
101.3247249149909
 20
-136.9811416324213
 30
0.0
 10
101.3798666413218
 20
-136.9811416324213
 30
0.0
 10
101.4349679677339
 20
-136.9811416324213
 30
0.0
 10
101.4797707443687
 20
-136.9363388546545
 30
0.0
 10
101.4797707443687
 20
-136.8812349657796
 30
0.0
  0
POLYLINE
  5
BE
330
1F
100
AcDbEntity
  8
_U+30EC_U+30A4_U+30E4_U+30FC 1
 62
   179
420
  2234388
370
     9
100
AcDb2dPolyline
 66
     1
 10
0.0
 20
0.0
 30
0.0
  0
VERTEX
  5
BF
330
BE
100
AcDbEntity
  8
_U+30EC_U+30A4_U+30E4_U+30FC 1
 62
   179
420
  2234388
370
     9
100
AcDbVertex
100
AcDb2dVertex
 10
101.3798666413218
 20
-135.2337627439693
 30
0.0
  0
VERTEX
  5
C0
330
BE
100
AcDbEntity
  8
_U+30EC_U+30A4_U+30E4_U+30FC 1
 62
   179
420
  2234388
370
     9
100
AcDbVertex
100
AcDb2dVertex
 10
101.3798666413218
 20
-136.8808821880019
 30
0.0
  0
SEQEND
  5
C1
330
BE
100
AcDbEntity
  8
_U+30EC_U+30A4_U+30E4_U+30FC 1
 62
   179
420
  2234388
370
     9
  0
POLYLINE
  5
C2
330
1F
100
AcDbEntity
  8
_U+30EC_U+30A4_U+30E4_U+30FC 1
 62
   179
420
  2234388
370
     9
100
AcDb2dPolyline
 66
     1
 10
0.0
 20
0.0
 30
0.0
  0
VERTEX
  5
C3
330
C2
100
AcDbEntity
  8
_U+30EC_U+30A4_U+30E4_U+30FC 1
 62
   179
420
  2234388
370
     9
100
AcDbVertex
100
AcDb2dVertex
 10
100.3842193834297
 20
-136.8808821880019
 30
0.0
  0
VERTEX
  5
C4
330
C2
100
AcDbEntity
  8
_U+30EC_U+30A4_U+30E4_U+30FC 1
 62
   179
420
  2234388
370
     9
100
AcDbVertex
100
AcDb2dVertex
 10
102.3799537769587
 20
-136.8808821880019
 30
0.0
  0
SEQEND
  5
C5
330
C2
100
AcDbEntity
  8
_U+30EC_U+30A4_U+30E4_U+30FC 1
 62
   179
420
  2234388
370
     9
  0
INSERT
  5
C7
330
1F
100
AcDbEntity
  8
_U+30EC_U+30A4_U+30E4_U+30FC 1
100
AcDbBlockReference
  2
block 7
 10
0.0
 20
0.0
 30
0.0
  0
ENDSEC
  0
SECTION
  2
OBJECTS
  0
DICTIONARY
  5
C
330
0
100
AcDbDictionary
281
     1
  3
ACAD_GROUP
350
D
  3
ACAD_LAYOUT
350
1A
  3
ACAD_MATERIAL
350
3B
  3
ACAD_MLEADERSTYLE
350
CD
  3
ACAD_MLINESTYLE
350
17
  3
ACAD_PLOTSETTINGS
350
19
  3
ACAD_PLOTSTYLENAME
350
E
  3
ACAD_TABLESTYLE
350
CC
  3
ACAD_VISUALSTYLE
350
2A
  0
SUN
  5
3F
330
29
100
AcDbSun
 90
        1
290
     0
 63
     7
421
 16777215
 40
1.0
291
     1
 91
  2455826
 92
 54000000
292
     0
 70
     2
 71
   256
280
     1
  0
DICTIONARY
  5
D
102
{ACAD_REACTORS
330
C
102
}
330
C
100
AcDbDictionary
281
     1
  0
DICTIONARY
  5
1A
102
{ACAD_REACTORS
330
C
102
}
330
C
100
AcDbDictionary
281
     1
  3
Layout1
350
1E
  3
Layout2
350
26
  3
Model
350
22
  0
DICTIONARY
  5
3B
102
{ACAD_REACTORS
330
C
102
}
330
C
100
AcDbDictionary
281
     1
  3
ByBlock
350
3D
  3
ByLayer
350
3C
  3
Global
350
3E
  0
DICTIONARY
  5
CD
102
{ACAD_REACTORS
330
C
102
}
330
C
100
AcDbDictionary
281
     1
  0
DICTIONARY
  5
17
102
{ACAD_REACTORS
330
C
102
}
330
C
100
AcDbDictionary
281
     1
  3
Standard
350
18
  0
DICTIONARY
  5
19
102
{ACAD_REACTORS
330
C
102
}
330
C
100
AcDbDictionary
281
     1
  0
ACDBDICTIONARYWDFLT
  5
E
102
{ACAD_REACTORS
330
C
102
}
330
C
100
AcDbDictionary
281
     1
  3
Normal
350
F
100
AcDbDictionaryWithDefault
340
F
  0
DICTIONARY
  5
CC
102
{ACAD_REACTORS
330
C
102
}
330
C
100
AcDbDictionary
281
     1
  0
DICTIONARY
  5
2A
102
{ACAD_REACTORS
330
C
102
}
330
C
100
AcDbDictionary
281
     1
  3
2dWireframe
350
2F
  3
3D Hidden
350
31
  3
3dWireframe
350
30
  3
Basic
350
32
  3
Brighten
350
36
  3
ColorChange
350
3A
  3
Conceptual
350
34
  3
Dim
350
35
  3
Facepattern
350
39
  3
Flat
350
2B
  3
FlatWithEdges
350
2C
  3
Gouraud
350
2D
  3
GouraudWithEdges
350
2E
  3
Linepattern
350
38
  3
Realistic
350
33
  3
Thicken
350
37
  0
LAYOUT
  5
1E
102
{ACAD_REACTORS
330
1A
102
}
330
1A
100
AcDbPlotSettings
  1

  2
none_device
  4

  6

 40
0.0
 41
0.0
 42
0.0
 43
0.0
 44
0.0
 45
0.0
 46
0.0
 47
0.0
 48
0.0
 49
0.0
140
0.0
141
0.0
142
1.0
143
1.0
 70
   688
 72
     0
 73
     0
 74
     5
  7

 75
    16
 76
     0
 77
     2
 78
   300
147
1.0
148
0.0
149
0.0
100
AcDbLayout
  1
Layout1
 70
     1
 71
     1
 10
0.0
 20
0.0
 11
12.0
 21
9.0
 12
0.0
 22
0.0
 32
0.0
 14
1.000000000000000E+20
 24
1.000000000000000E+20
 34
1.000000000000000E+20
 15
-1.000000000000000E+20
 25
-1.000000000000000E+20
 35
-1.000000000000000E+20
146
0.0
 13
0.0
 23
0.0
 33
0.0
 16
1.0
 26
0.0
 36
0.0
 17
0.0
 27
1.0
 37
0.0
 76
     0
330
1B
  0
LAYOUT
  5
26
102
{ACAD_REACTORS
330
1A
102
}
330
1A
100
AcDbPlotSettings
  1

  2
none_device
  4

  6

 40
0.0
 41
0.0
 42
0.0
 43
0.0
 44
0.0
 45
0.0
 46
0.0
 47
0.0
 48
0.0
 49
0.0
140
0.0
141
0.0
142
1.0
143
1.0
 70
   688
 72
     0
 73
     0
 74
     5
  7

 75
    16
 76
     0
 77
     2
 78
   300
147
1.0
148
0.0
149
0.0
100
AcDbLayout
  1
Layout2
 70
     1
 71
     2
 10
0.0
 20
0.0
 11
0.0
 21
0.0
 12
0.0
 22
0.0
 32
0.0
 14
0.0
 24
0.0
 34
0.0
 15
0.0
 25
0.0
 35
0.0
146
0.0
 13
0.0
 23
0.0
 33
0.0
 16
1.0
 26
0.0
 36
0.0
 17
0.0
 27
1.0
 37
0.0
 76
     0
330
23
  0
LAYOUT
  5
22
102
{ACAD_REACTORS
330
1A
102
}
330
1A
100
AcDbPlotSettings
  1

  2
none_device
  4

  6

 40
0.0
 41
0.0
 42
0.0
 43
0.0
 44
0.0
 45
0.0
 46
0.0
 47
0.0
 48
0.0
 49
0.0
140
0.0
141
0.0
142
1.0
143
1.0
 70
  1712
 72
     0
 73
     0
 74
     0
  7

 75
     0
 76
     0
 77
     2
 78
   300
147
1.0
148
0.0
149
0.0
100
AcDbLayout
  1
Model
 70
     1
 71
     0
 10
0.0
 20
0.0
 11
12.0
 21
9.0
 12
0.0
 22
0.0
 32
0.0
 14
1.000000000000000E+20
 24
1.000000000000000E+20
 34
1.000000000000000E+20
 15
-1.000000000000000E+20
 25
-1.000000000000000E+20
 35
-1.000000000000000E+20
146
0.0
 13
0.0
 23
0.0
 33
0.0
 16
1.0
 26
0.0
 36
0.0
 17
0.0
 27
1.0
 37
0.0
 76
     0
330
1F
331
29
  0
MATERIAL
  5
3D
102
{ACAD_REACTORS
330
3B
102
}
330
3B
100
AcDbMaterial
  1
ByBlock
 72
     1
 94
      127
  0
MATERIAL
  5
3C
102
{ACAD_REACTORS
330
3B
102
}
330
3B
100
AcDbMaterial
  1
ByLayer
 72
     1
 94
      127
  0
MATERIAL
  5
3E
102
{ACAD_REACTORS
330
3B
102
}
330
3B
100
AcDbMaterial
  1
Global
 72
     1
 94
      127
  0
MLINESTYLE
  5
18
102
{ACAD_REACTORS
330
17
102
}
330
17
100
AcDbMlineStyle
  2
Standard
 70
     0
  3

 62
   256
 51
90.0
 52
90.0
 71
     2
 49
0.5
 62
   256
  6
BYLAYER
 49
-0.5
 62
   256
  6
BYLAYER
  0
ACDBPLACEHOLDER
  5
F
102
{ACAD_REACTORS
330
E
102
}
330
E
  0
VISUALSTYLE
  5
2F
102
{ACAD_REACTORS
330
2A
102
}
330
2A
100
AcDbVisualStyle
  2
2dWireframe
 70
     4
177
     2
291
     0
 71
     0
176
     1
 72
     2
176
     1
 73
     0
176
     1
 90
        0
176
     1
 40
-0.6
176
     1
 41
-30.0
176
     1
 62
     5
 63
     7
421
 16777215
176
     1
 74
     1
176
     1
 91
        4
176
     1
 64
     7
176
     1
 65
   257
176
     1
 75
     1
176
     1
175
     1
176
     1
 42
1.0
176
     1
 92
        0
176
     1
 66
   257
176
     1
 43
1.0
176
     1
 76
     1
176
     1
 77
     6
176
     1
 78
     2
176
     1
 67
     7
176
     1
 79
     5
176
     1
170
     0
176
     1
171
     0
176
     1
290
     0
176
     1
 93
        1
176
     1
 44
0.0
176
     1
173
     0
176
     1
  0
VISUALSTYLE
  5
31
102
{ACAD_REACTORS
330
2A
102
}
330
2A
100
AcDbVisualStyle
  2
3D Hidden
 70
     6
177
     2
291
     0
 71
     1
176
     1
 72
     2
176
     1
 73
     2
176
     1
 90
        0
176
     1
 40
-0.6
176
     1
 41
-30.0
176
     1
 62
     5
 63
     7
421
 16777215
176
     1
 74
     2
176
     1
 91
        2
176
     1
 64
     7
176
     1
 65
   257
176
     1
 75
     2
176
     1
175
     1
176
     1
 42
40.0
176
     1
 92
        0
176
     1
 66
   257
176
     1
 43
1.0
176
     1
 76
     1
176
     1
 77
     6
176
     1
 78
     2
176
     1
 67
     7
176
     1
 79
     3
176
     1
170
     0
176
     1
171
     0
176
     1
290
     0
176
     1
 93
        1
176
     1
 44
0.0
176
     1
173
     0
176
     1
  0
VISUALSTYLE
  5
30
102
{ACAD_REACTORS
330
2A
102
}
330
2A
100
AcDbVisualStyle
  2
3dWireframe
 70
     5
177
     2
291
     0
 71
     0
176
     1
 72
     2
176
     1
 73
     0
176
     1
 90
        0
176
     1
 40
-0.6
176
     1
 41
-30.0
176
     1
 62
     5
 63
     7
421
 16777215
176
     1
 74
     1
176
     1
 91
        4
176
     1
 64
     7
176
     1
 65
   257
176
     1
 75
     1
176
     1
175
     1
176
     1
 42
1.0
176
     1
 92
        0
176
     1
 66
   257
176
     1
 43
1.0
176
     1
 76
     1
176
     1
 77
     6
176
     1
 78
     2
176
     1
 67
     7
176
     1
 79
     5
176
     1
170
     0
176
     1
171
     0
176
     1
290
     0
176
     1
 93
        1
176
     1
 44
0.0
176
     1
173
     0
176
     1
  0
VISUALSTYLE
  5
32
102
{ACAD_REACTORS
330
2A
102
}
330
2A
100
AcDbVisualStyle
  2
Basic
 70
     7
177
     2
291
     1
 71
     1
176
     1
 72
     0
176
     1
 73
     1
176
     1
 90
        0
176
     1
 40
-0.6
176
     1
 41
-30.0
176
     1
 62
     5
 63
     7
421
 16777215
176
     1
 74
     0
176
     1
 91
        4
176
     1
 64
     7
176
     1
 65
   257
176
     1
 75
     1
176
     1
175
     1
176
     1
 42
1.0
176
     1
 92
        8
176
     1
 66
     7
176
     1
 43
1.0
176
     1
 76
     1
176
     1
 77
     6
176
     1
 78
     2
176
     1
 67
     7
176
     1
 79
     5
176
     1
170
     0
176
     1
171
     0
176
     1
290
     0
176
     1
 93
        1
176
     1
 44
0.0
176
     1
173
     0
176
     1
  0
VISUALSTYLE
  5
36
102
{ACAD_REACTORS
330
2A
102
}
330
2A
100
AcDbVisualStyle
  2
Brighten
 70
    12
177
     2
291
     1
 71
     2
176
     1
 72
     2
176
     1
 73
     0
176
     1
 90
        0
176
     1
 40
-0.6
176
     1
 41
-30.0
176
     1
 62
     5
 63
     7
421
 16777215
176
     1
 74
     1
176
     1
 91
        4
176
     1
 64
     7
176
     1
 65
   257
176
     1
 75
     1
176
     1
175
     1
176
     1
 42
1.0
176
     1
 92
        8
176
     1
 66
     7
176
     1
 43
1.0
176
     1
 76
     1
176
     1
 77
     6
176
     1
 78
     2
176
     1
 67
     7
176
     1
 79
     5
176
     1
170
     0
176
     1
171
     0
176
     1
290
     0
176
     1
 93
        1
176
     1
 44
50.0
176
     1
173
     0
176
     1
  0
VISUALSTYLE
  5
3A
102
{ACAD_REACTORS
330
2A
102
}
330
2A
100
AcDbVisualStyle
  2
ColorChange
 70
    16
177
     2
291
     1
 71
     2
176
     1
 72
     2
176
     1
 73
     3
176
     1
 90
        0
176
     1
 40
-0.6
176
     1
 41
-30.0
176
     1
 62
     5
 63
     8
421
  8421504
176
     1
 74
     1
176
     1
 91
        4
176
     1
 64
     7
176
     1
 65
   257
176
     1
 75
     1
176
     1
175
     1
176
     1
 42
1.0
176
     1
 92
        8
176
     1
 66
     8
424
  8421504
176
     1
 43
1.0
176
     1
 76
     1
176
     1
 77
     6
176
     1
 78
     2
176
     1
 67
     7
176
     1
 79
     5
176
     1
170
     0
176
     1
171
     0
176
     1
290
     0
176
     1
 93
        1
176
     1
 44
0.0
176
     1
173
     0
176
     1
  0
VISUALSTYLE
  5
34
102
{ACAD_REACTORS
330
2A
102
}
330
2A
100
AcDbVisualStyle
  2
Conceptual
 70
     9
177
     2
291
     0
 71
     3
176
     1
 72
     2
176
     1
 73
     0
176
     1
 90
        0
176
     1
 40
-0.6
176
     1
 41
-30.0
176
     1
 62
     5
 63
     7
421
 16777215
176
     1
 74
     2
176
     1
 91
        2
176
     1
 64
     7
176
     1
 65
   257
176
     1
 75
     1
176
     1
175
     1
176
     1
 42
40.0
176
     1
 92
        8
176
     1
 66
     7
176
     1
 43
1.0
176
     1
 76
     1
176
     1
 77
     6
176
     1
 78
     2
176
     1
 67
     7
176
     1
 79
     3
176
     1
170
     0
176
     1
171
     0
176
     1
290
     0
176
     1
 93
        1
176
     1
 44
0.0
176
     1
173
     0
176
     1
  0
VISUALSTYLE
  5
35
102
{ACAD_REACTORS
330
2A
102
}
330
2A
100
AcDbVisualStyle
  2
Dim
 70
    11
177
     2
291
     1
 71
     2
176
     1
 72
     2
176
     1
 73
     0
176
     1
 90
        0
176
     1
 40
-0.6
176
     1
 41
-30.0
176
     1
 62
     5
 63
     7
421
 16777215
176
     1
 74
     1
176
     1
 91
        4
176
     1
 64
     7
176
     1
 65
   257
176
     1
 75
     1
176
     1
175
     1
176
     1
 42
1.0
176
     1
 92
        8
176
     1
 66
     7
176
     1
 43
1.0
176
     1
 76
     1
176
     1
 77
     6
176
     1
 78
     2
176
     1
 67
     7
176
     1
 79
     5
176
     1
170
     0
176
     1
171
     0
176
     1
290
     0
176
     1
 93
        1
176
     1
 44
-50.0
176
     1
173
     0
176
     1
  0
VISUALSTYLE
  5
39
102
{ACAD_REACTORS
330
2A
102
}
330
2A
100
AcDbVisualStyle
  2
Facepattern
 70
    15
177
     2
291
     1
 71
     2
176
     1
 72
     2
176
     1
 73
     0
176
     1
 90
        0
176
     1
 40
-0.6
176
     1
 41
-30.0
176
     1
 62
     5
 63
     7
421
 16777215
176
     1
 74
     1
176
     1
 91
        4
176
     1
 64
     7
176
     1
 65
   257
176
     1
 75
     1
176
     1
175
     1
176
     1
 42
1.0
176
     1
 92
        8
176
     1
 66
     7
176
     1
 43
1.0
176
     1
 76
     1
176
     1
 77
     6
176
     1
 78
     2
176
     1
 67
     7
176
     1
 79
     5
176
     1
170
     0
176
     1
171
     0
176
     1
290
     0
176
     1
 93
        1
176
     1
 44
0.0
176
     1
173
     0
176
     1
  0
VISUALSTYLE
  5
2B
102
{ACAD_REACTORS
330
2A
102
}
330
2A
100
AcDbVisualStyle
  2
Flat
 70
     0
177
     2
291
     1
 71
     2
176
     1
 72
     1
176
     1
 73
     1
176
     1
 90
        2
176
     1
 40
-0.6
176
     1
 41
30.0
176
     1
 62
     5
 63
     7
421
 16777215
176
     1
 74
     0
176
     1
 91
        4
176
     1
 64
     7
176
     1
 65
   257
176
     1
 75
     1
176
     1
175
     1
176
     1
 42
1.0
176
     1
 92
        8
176
     1
 66
     7
176
     1
 43
1.0
176
     1
 76
     1
176
     1
 77
     6
176
     1
 78
     2
176
     1
 67
     7
176
     1
 79
     5
176
     1
170
     0
176
     1
171
     0
176
     1
290
     0
176
     1
 93
       13
176
     1
 44
0.0
176
     1
173
     0
176
     1
  0
VISUALSTYLE
  5
2C
102
{ACAD_REACTORS
330
2A
102
}
330
2A
100
AcDbVisualStyle
  2
FlatWithEdges
 70
     1
177
     2
291
     1
 71
     2
176
     1
 72
     1
176
     1
 73
     1
176
     1
 90
        2
176
     1
 40
-0.6
176
     1
 41
30.0
176
     1
 62
     5
 63
     7
421
 16777215
176
     1
 74
     1
176
     1
 91
        4
176
     1
 64
     7
176
     1
 65
   257
176
     1
 75
     1
176
     1
175
     1
176
     1
 42
1.0
176
     1
 92
        0
176
     1
 66
   257
176
     1
 43
1.0
176
     1
 76
     1
176
     1
 77
     6
176
     1
 78
     2
176
     1
 67
     7
176
     1
 79
     5
176
     1
170
     0
176
     1
171
     0
176
     1
290
     0
176
     1
 93
       13
176
     1
 44
0.0
176
     1
173
     0
176
     1
  0
VISUALSTYLE
  5
2D
102
{ACAD_REACTORS
330
2A
102
}
330
2A
100
AcDbVisualStyle
  2
Gouraud
 70
     2
177
     2
291
     1
 71
     2
176
     1
 72
     2
176
     1
 73
     1
176
     1
 90
        2
176
     1
 40
-0.6
176
     1
 41
30.0
176
     1
 62
     5
 63
     7
421
 16777215
176
     1
 74
     0
176
     1
 91
        4
176
     1
 64
     7
176
     1
 65
   257
176
     1
 75
     1
176
     1
175
     1
176
     1
 42
1.0
176
     1
 92
        0
176
     1
 66
     7
176
     1
 43
1.0
176
     1
 76
     1
176
     1
 77
     6
176
     1
 78
     2
176
     1
 67
     7
176
     1
 79
     5
176
     1
170
     0
176
     1
171
     0
176
     1
290
     0
176
     1
 93
       13
176
     1
 44
0.0
176
     1
173
     0
176
     1
  0
VISUALSTYLE
  5
2E
102
{ACAD_REACTORS
330
2A
102
}
330
2A
100
AcDbVisualStyle
  2
GouraudWithEdges
 70
     3
177
     2
291
     1
 71
     2
176
     1
 72
     2
176
     1
 73
     1
176
     1
 90
        2
176
     1
 40
-0.6
176
     1
 41
30.0
176
     1
 62
     5
 63
     7
421
 16777215
176
     1
 74
     1
176
     1
 91
        4
176
     1
 64
     7
176
     1
 65
   257
176
     1
 75
     1
176
     1
175
     1
176
     1
 42
1.0
176
     1
 92
        0
176
     1
 66
   257
176
     1
 43
1.0
176
     1
 76
     1
176
     1
 77
     6
176
     1
 78
     2
176
     1
 67
     7
176
     1
 79
     5
176
     1
170
     0
176
     1
171
     0
176
     1
290
     0
176
     1
 93
       13
176
     1
 44
0.0
176
     1
173
     0
176
     1
  0
VISUALSTYLE
  5
38
102
{ACAD_REACTORS
330
2A
102
}
330
2A
100
AcDbVisualStyle
  2
Linepattern
 70
    14
177
     2
291
     1
 71
     2
176
     1
 72
     2
176
     1
 73
     0
176
     1
 90
        0
176
     1
 40
-0.6
176
     1
 41
-30.0
176
     1
 62
     5
 63
     7
421
 16777215
176
     1
 74
     1
176
     1
 91
        4
176
     1
 64
     7
176
     1
 65
   257
176
     1
 75
     7
176
     1
175
     7
176
     1
 42
1.0
176
     1
 92
        8
176
     1
 66
     7
176
     1
 43
1.0
176
     1
 76
     1
176
     1
 77
     6
176
     1
 78
     2
176
     1
 67
     7
176
     1
 79
     5
176
     1
170
     0
176
     1
171
     0
176
     1
290
     0
176
     1
 93
        1
176
     1
 44
0.0
176
     1
173
     0
176
     1
  0
VISUALSTYLE
  5
33
102
{ACAD_REACTORS
330
2A
102
}
330
2A
100
AcDbVisualStyle
  2
Realistic
 70
     8
177
     2
291
     0
 71
     2
176
     1
 72
     2
176
     1
 73
     0
176
     1
 90
        0
176
     1
 40
-0.6
176
     1
 41
-30.0
176
     1
 62
     5
 63
     7
421
 16777215
176
     1
 74
     1
176
     1
 91
        0
176
     1
 64
     7
176
     1
 65
   257
176
     1
 75
     1
176
     1
175
     1
176
     1
 42
1.0
176
     1
 92
        8
176
     1
 66
     8
424
  7895160
176
     1
 43
1.0
176
     1
 76
     1
176
     1
 77
     6
176
     1
 78
     2
176
     1
 67
     7
176
     1
 79
     5
176
     1
170
     0
176
     1
171
     0
176
     1
290
     0
176
     1
 93
       13
176
     1
 44
0.0
176
     1
173
     0
176
     1
  0
VISUALSTYLE
  5
37
102
{ACAD_REACTORS
330
2A
102
}
330
2A
100
AcDbVisualStyle
  2
Thicken
 70
    13
177
     2
291
     1
 71
     2
176
     1
 72
     2
176
     1
 73
     0
176
     1
 90
        0
176
     1
 40
-0.6
176
     1
 41
-30.0
176
     1
 62
     5
 63
     7
421
 16777215
176
     1
 74
     1
176
     1
 91
        4
176
     1
 64
     7
176
     1
 65
   257
176
     1
 75
     1
176
     1
175
     1
176
     1
 42
1.0
176
     1
 92
       12
176
     1
 66
     7
176
     1
 43
1.0
176
     1
 76
     1
176
     1
 77
     6
176
     1
 78
     2
176
     1
 67
     7
176
     1
 79
     5
176
     1
170
     0
176
     1
171
     0
176
     1
290
     0
176
     1
 93
        1
176
     1
 44
0.0
176
     1
173
     0
176
     1
  0
ENDSEC
  0
EOF
