  0
SECTION
  2
HEADER
  9
$ACADVER
  1
AC1024
  9
$ACADMAINTVER
 70
     6
  9
$DWGCODEPAGE
  3
UNDEFINED
  9
$INSBASE
 10
0.0
 20
0.0
 30
0.0
  9
$EXTMIN
 10
1.000000000000000E+20
 20
1.000000000000000E+20
 30
1.000000000000000E+20
  9
$EXTMAX
 10
-1.000000000000000E+20
 20
-1.000000000000000E+20
 30
-1.000000000000000E+20
  9
$LIMMIN
 10
0.0
 20
0.0
  9
$LIMMAX
 10
12.0
 20
9.0
  9
$ORTHOMODE
 70
     0
  9
$REGENMODE
 70
     1
  9
$FILLMODE
 70
     1
  9
$QTEXTMODE
 70
     0
  9
$MIRRTEXT
 70
     1
  9
$LTSCALE
 40
1.0
  9
$ATTMODE
 70
     1
  9
$TEXTSIZE
 40
0.2
  9
$TRACEWID
 40
0.05
  9
$TEXTSTYLE
  7
Standard
  9
$CLAYER
  8
0
  9
$CELTYPE
  6
ByLayer
  9
$CECOLOR
 62
   256
  9
$CELTSCALE
 40
1.0
  9
$DISPSILH
 70
     0
  9
$DIMSCALE
 40
1.0
  9
$DIMASZ
 40
0.18
  9
$DIMEXO
 40
0.0625
  9
$DIMDLI
 40
0.38
  9
$DIMRND
 40
0.0
  9
$DIMDLE
 40
0.0
  9
$DIMEXE
 40
0.18
  9
$DIMTP
 40
0.0
  9
$DIMTM
 40
0.0
  9
$DIMTXT
 40
0.18
  9
$DIMCEN
 40
0.09
  9
$DIMTSZ
 40
0.0
  9
$DIMTOL
 70
     0
  9
$DIMLIM
 70
     0
  9
$DIMTIH
 70
     1
  9
$DIMTOH
 70
     1
  9
$DIMSE1
 70
     0
  9
$DIMSE2
 70
     0
  9
$DIMTAD
 70
     0
  9
$DIMZIN
 70
     0
  9
$DIMBLK
  1

  9
$DIMASO
 70
     1
  9
$DIMSHO
 70
     1
  9
$DIMPOST
  1

  9
$DIMAPOST
  1

  9
$DIMALT
 70
     0
  9
$DIMALTD
 70
     2
  9
$DIMALTF
 40
25.4
  9
$DIMLFAC
 40
1.0
  9
$DIMTOFL
 70
     0
  9
$DIMTVP
 40
0.0
  9
$DIMTIX
 70
     0
  9
$DIMSOXD
 70
     0
  9
$DIMSAH
 70
     0
  9
$DIMBLK1
  1

  9
$DIMBLK2
  1

  9
$DIMSTYLE
  2
Standard
  9
$DIMCLRD
 70
     0
  9
$DIMCLRE
 70
     0
  9
$DIMCLRT
 70
     0
  9
$DIMTFAC
 40
1.0
  9
$DIMGAP
 40
0.09
  9
$DIMJUST
 70
     0
  9
$DIMSD1
 70
     0
  9
$DIMSD2
 70
     0
  9
$DIMTOLJ
 70
     1
  9
$DIMTZIN
 70
     0
  9
$DIMALTZ
 70
     0
  9
$DIMALTTZ
 70
     0
  9
$DIMUPT
 70
     0
  9
$DIMDEC
 70
     4
  9
$DIMTDEC
 70
     4
  9
$DIMALTU
 70
     2
  9
$DIMALTTD
 70
     2
  9
$DIMTXSTY
  7
Standard
  9
$DIMAUNIT
 70
     0
  9
$DIMADEC
 70
     0
  9
$DIMALTRND
 40
0.0
  9
$DIMAZIN
 70
     0
  9
$DIMDSEP
 70
    46
  9
$DIMATFIT
 70
     3
  9
$DIMFRAC
 70
     0
  9
$DIMLDRBLK
  1

  9
$DIMLUNIT
 70
     2
  9
$DIMLWD
 70
    -2
  9
$DIMLWE
 70
    -2
  9
$DIMTMOVE
 70
     0
  9
$DIMFXL
 40
1.0
  9
$DIMFXLON
 70
     0
  9
$DIMJOGANG
 40
0.7853981633974483
  9
$DIMTFILL
 70
     0
  9
$DIMTFILLCLR
 70
     0
  9
$DIMARCSYM
 70
     0
  9
$DIMLTYPE
  6

  9
$DIMLTEX1
  6

  9
$DIMLTEX2
  6

  9
$DIMTXTDIRECTION
 70
     0
  9
$LUNITS
 70
     2
  9
$LUPREC
 70
     4
  9
$SKETCHINC
 40
0.1
  9
$FILLETRAD
 40
0.5
  9
$AUNITS
 70
     0
  9
$AUPREC
 70
     0
  9
$MENU
  1
.
  9
$ELEVATION
 40
0.0
  9
$PELEVATION
 40
0.0
  9
$THICKNESS
 40
0.0
  9
$LIMCHECK
 70
     0
  9
$CHAMFERA
 40
0.5
  9
$CHAMFERB
 40
0.5
  9
$CHAMFERC
 40
1.0
  9
$CHAMFERD
 40
0.0
  9
$SKPOLY
 70
     0
  9
$TDCREATE
 40
2457917.618495359
  9
$TDUCREATE
 40
2457917.24349537
  9
$TDUPDATE
 40
2457917.618495359
  9
$TDUUPDATE
 40
2457917.24349537
  9
$TDINDWG
 40
0.0000000116
  9
$TDUSRTIMER
 40
0.0000000116
  9
$USRTIMER
 70
     1
  9
$ANGBASE
 50
0.0
  9
$ANGDIR
 70
     0
  9
$PDMODE
 70
     0
  9
$PDSIZE
 40
0.0
  9
$PLINEWID
 40
0.0
  9
$SPLFRAME
 70
     0
  9
$SPLINETYPE
 70
     6
  9
$SPLINESEGS
 70
     8
  9
$HANDSEED
  5
AD
  9
$SURFTAB1
 70
     6
  9
$SURFTAB2
 70
     6
  9
$SURFTYPE
 70
     6
  9
$SURFU
 70
     6
  9
$SURFV
 70
     6
  9
$UCSBASE
  2

  9
$UCSNAME
  2

  9
$UCSORG
 10
0.0
 20
0.0
 30
0.0
  9
$UCSXDIR
 10
1.0
 20
0.0
 30
0.0
  9
$UCSYDIR
 10
0.0
 20
1.0
 30
0.0
  9
$UCSORTHOREF
  2

  9
$UCSORTHOVIEW
 70
     0
  9
$UCSORGTOP
 10
0.0
 20
0.0
 30
0.0
  9
$UCSORGBOTTOM
 10
0.0
 20
0.0
 30
0.0
  9
$UCSORGLEFT
 10
0.0
 20
0.0
 30
0.0
  9
$UCSORGRIGHT
 10
0.0
 20
0.0
 30
0.0
  9
$UCSORGFRONT
 10
0.0
 20
0.0
 30
0.0
  9
$UCSORGBACK
 10
0.0
 20
0.0
 30
0.0
  9
$PUCSBASE
  2

  9
$PUCSNAME
  2

  9
$PUCSORG
 10
0.0
 20
0.0
 30
0.0
  9
$PUCSXDIR
 10
1.0
 20
0.0
 30
0.0
  9
$PUCSYDIR
 10
0.0
 20
1.0
 30
0.0
  9
$PUCSORTHOREF
  2

  9
$PUCSORTHOVIEW
 70
     0
  9
$PUCSORGTOP
 10
0.0
 20
0.0
 30
0.0
  9
$PUCSORGBOTTOM
 10
0.0
 20
0.0
 30
0.0
  9
$PUCSORGLEFT
 10
0.0
 20
0.0
 30
0.0
  9
$PUCSORGRIGHT
 10
0.0
 20
0.0
 30
0.0
  9
$PUCSORGFRONT
 10
0.0
 20
0.0
 30
0.0
  9
$PUCSORGBACK
 10
0.0
 20
0.0
 30
0.0
  9
$USERI1
 70
     0
  9
$USERI2
 70
     0
  9
$USERI3
 70
     0
  9
$USERI4
 70
     0
  9
$USERI5
 70
     0
  9
$USERR1
 40
0.0
  9
$USERR2
 40
0.0
  9
$USERR3
 40
0.0
  9
$USERR4
 40
0.0
  9
$USERR5
 40
0.0
  9
$WORLDVIEW
 70
     1
  9
$SHADEDGE
 70
     3
  9
$SHADEDIF
 70
    70
  9
$TILEMODE
 70
     1
  9
$MAXACTVP
 70
    64
  9
$PINSBASE
 10
0.0
 20
0.0
 30
0.0
  9
$PLIMCHECK
 70
     0
  9
$PEXTMIN
 10
1.000000000000000E+20
 20
1.000000000000000E+20
 30
1.000000000000000E+20
  9
$PEXTMAX
 10
-1.000000000000000E+20
 20
-1.000000000000000E+20
 30
-1.000000000000000E+20
  9
$PLIMMIN
 10
0.0
 20
0.0
  9
$PLIMMAX
 10
12.0
 20
9.0
  9
$UNITMODE
 70
     0
  9
$VISRETAIN
 70
     1
  9
$PLINEGEN
 70
     0
  9
$PSLTSCALE
 70
     1
  9
$TREEDEPTH
 70
  3020
  9
$CMLSTYLE
  2
Standard
  9
$CMLJUST
 70
     0
  9
$CMLSCALE
 40
1.0
  9
$PROXYGRAPHICS
 70
     1
  9
$MEASUREMENT
 70
     0
  9
$CELWEIGHT
370
    -1
  9
$ENDCAPS
280
     0
  9
$JOINSTYLE
280
     0
  9
$LWDISPLAY
290
     1
  9
$INSUNITS
 70
     1
  9
$HYPERLINKBASE
  1

  9
$STYLESHEET
  1

  9
$XEDIT
290
     1
  9
$CEPSNTYPE
380
     0
  9
$PSTYLEMODE
290
     1
  9
$FINGERPRINTGUID
  2
{B595714D-B009-3BAC-ED11-A4030AF25CC2}
  9
$VERSIONGUID
  2
{FAEB1C32-E019-11D5-929B-00C0DF256EC4}
  9
$EXTNAMES
290
     1
  9
$PSVPSCALE
 40
0.0
  9
$OLESTARTUP
290
     0
  9
$SORTENTS
280
   127
  9
$INDEXCTL
280
     0
  9
$HIDETEXT
280
     1
  9
$XCLIPFRAME
280
     2
  9
$HALOGAP
280
     0
  9
$OBSCOLOR
 70
   257
  9
$OBSLTYPE
280
     0
  9
$INTERSECTIONDISPLAY
280
     0
  9
$INTERSECTIONCOLOR
 70
   257
  9
$DIMASSOC
280
     2
  9
$PROJECTNAME
  1

  9
$CAMERADISPLAY
290
     0
  9
$LENSLENGTH
 40
50.0
  9
$CAMERAHEIGHT
 40
0.0
  9
$STEPSPERSEC
 40
2.0
  9
$STEPSIZE
 40
6.0
  9
$3DDWFPREC
 40
2.0
  9
$PSOLWIDTH
 40
0.25
  9
$PSOLHEIGHT
 40
4.0
  9
$LOFTANG1
 40
1.570796326794897
  9
$LOFTANG2
 40
1.570796326794897
  9
$LOFTMAG1
 40
0.0
  9
$LOFTMAG2
 40
0.0
  9
$LOFTPARAM
 70
     7
  9
$LOFTNORMALS
280
     1
  9
$LATITUDE
 40
37.795
  9
$LONGITUDE
 40
-122.394
  9
$NORTHDIRECTION
 40
0.0
  9
$TIMEZONE
 70
 -8000
  9
$LIGHTGLYPHDISPLAY
280
     1
  9
$TILEMODELIGHTSYNCH
280
     1
  9
$CMATERIAL
347
3C
  9
$SOLIDHIST
280
     1
  9
$SHOWHIST
280
     1
  9
$DWFFRAME
280
     2
  9
$DGNFRAME
280
     2
  9
$REALWORLDSCALE
290
     1
  9
$INTERFERECOLOR
 62
   256
  9
$CSHADOW
280
     0
  9
$SHADOWPLANELOCATION
 40
0.0
  0
ENDSEC
  0
SECTION
  2
CLASSES
  0
CLASS
  1
ACDBDICTIONARYWDFLT
  2
AcDbDictionaryWithDefault
  3
ObjectDBX Classes
 90
        0
 91
        4
280
     0
281
     0
  0
CLASS
  1
VISUALSTYLE
  2
AcDbVisualStyle
  3
ObjectDBX Classes
 90
     4095
 91
        4
280
     0
281
     0
  0
CLASS
  1
MATERIAL
  2
AcDbMaterial
  3
ObjectDBX Classes
 90
     1153
 91
        4
280
     0
281
     0
  0
CLASS
  1
SUN
  2
AcDbSun
  3
SCENEOE
 90
     1024
 91
        4
280
     0
281
     0
  0
ENDSEC
  0
SECTION
  2
TABLES
  0
TABLE
  2
VPORT
  5
8
330
0
100
AcDbSymbolTable
 70
     1
  0
VPORT
  5
29
330
8
100
AcDbSymbolTableRecord
100
AcDbViewportTableRecord
  2
*Active
 70
     0
 10
0.0
 20
0.0
 11
1.0
 21
1.0
 12
0.0
 22
0.0
 13
0.0
 23
0.0
 14
0.5
 24
0.5
 15
0.5
 25
0.5
 16
0.0
 26
0.0
 36
1.0
 17
91.00082462281999
 27
-128.4993055234307
 37
0.0
 40
256.9986110468615
 41
0.7081814508812795
 42
50.0
 43
0.0
 44
0.0
 50
0.0
 51
0.0
 71
     0
 72
   100
 73
     1
 74
     3
 75
     0
 76
     0
 77
     0
 78
     0
281
     0
 65
     1
110
0.0
120
0.0
130
0.0
111
1.0
121
0.0
131
0.0
112
0.0
122
1.0
132
0.0
 79
     0
146
0.0
 60
     3
 61
     5
292
     1
282
     1
141
0.0
142
0.0
 63
   250
361
3F
  0
ENDTAB
  0
TABLE
  2
LTYPE
  5
5
330
0
100
AcDbSymbolTable
 70
     2
  0
LTYPE
  5
14
330
5
100
AcDbSymbolTableRecord
100
AcDbLinetypeTableRecord
  2
ByBlock
 70
     0
  3

 72
    65
 73
     0
 40
0.0
  0
LTYPE
  5
15
330
5
100
AcDbSymbolTableRecord
100
AcDbLinetypeTableRecord
  2
ByLayer
 70
     0
  3

 72
    65
 73
     0
 40
0.0
  0
LTYPE
  5
16
330
5
100
AcDbSymbolTableRecord
100
AcDbLinetypeTableRecord
  2
Continuous
 70
     0
  3
Solid line
 72
    65
 73
     0
 40
0.0
  0
LTYPE
  5
A9
330
5
100
AcDbSymbolTableRecord
100
AcDbLinetypeTableRecord
  2
AI-Linetype-1
 70
     0
  3
Adobe Illustrator Linetype No. 1
 72
    65
 73
     2
 40
1.411111110758333
 49
0.7055555553791667
 74
     0
 49
-0.7055555553791667
 74
     0
  0
ENDTAB
  0
TABLE
  2
LAYER
  5
2
330
0
100
AcDbSymbolTable
 70
     2
  0
LAYER
  5
10
330
2
100
AcDbSymbolTableRecord
100
AcDbLayerTableRecord
  2
0
 70
     0
 62
     7
  6
Continuous
370
    -3
390
F
347
3E
  0
LAYER
  5
40
330
2
100
AcDbSymbolTableRecord
100
AcDbLayerTableRecord
  2
_U+30EC_U+30A4_U+30E4_U+30FC 1
 70
     0
 62
     7
  6
Continuous
370
    -3
390
F
347
3E
  0
ENDTAB
  0
TABLE
  2
STYLE
  5
3
330
0
100
AcDbSymbolTable
 70
     1
  0
STYLE
  5
11
330
3
100
AcDbSymbolTableRecord
100
AcDbTextStyleTableRecord
  2
Standard
 70
     0
 40
0.0
 41
1.0
 50
0.0
 71
     0
 42
0.2
  3
txt
  4

  0
ENDTAB
  0
TABLE
  2
VIEW
  5
6
330
0
100
AcDbSymbolTable
 70
     0
  0
ENDTAB
  0
TABLE
  2
UCS
  5
7
330
0
100
AcDbSymbolTable
 70
     0
  0
ENDTAB
  0
TABLE
  2
APPID
  5
9
330
0
100
AcDbSymbolTable
 70
     1
  0
APPID
  5
12
330
9
100
AcDbSymbolTableRecord
100
AcDbRegAppTableRecord
  2
ACAD
 70
     0
  0
ENDTAB
  0
TABLE
  2
DIMSTYLE
  5
A
330
0
100
AcDbSymbolTable
 70
     1
100
AcDbDimStyleTable
  0
DIMSTYLE
105
27
330
A
100
AcDbSymbolTableRecord
100
AcDbDimStyleTableRecord
  2
Standard
 70
     0
178
     0
340
11
  0
ENDTAB
  0
TABLE
  2
BLOCK_RECORD
  5
1
330
0
100
AcDbSymbolTable
 70
     6
  0
BLOCK_RECORD
  5
1F
330
1
100
AcDbSymbolTableRecord
100
AcDbBlockTableRecord
  2
*Model_Space
340
22
 70
     0
280
     1
281
     0
  0
BLOCK_RECORD
  5
1B
330
1
100
AcDbSymbolTableRecord
100
AcDbBlockTableRecord
  2
*Paper_Space
340
1E
 70
     0
280
     1
281
     0
  0
BLOCK_RECORD
  5
23
330
1
100
AcDbSymbolTableRecord
100
AcDbBlockTableRecord
  2
*Paper_Space0
340
26
 70
     0
280
     1
281
     0
  0
BLOCK_RECORD
  5
56
330
1
100
AcDbSymbolTableRecord
100
AcDbBlockTableRecord
  2
block 2
340
0
102
{BLKREFS
331
57
102
}
 70
     0
280
     1
281
     0
  0
BLOCK_RECORD
  5
6C
330
1
100
AcDbSymbolTableRecord
100
AcDbBlockTableRecord
  2
block 3
340
0
102
{BLKREFS
331
6D
102
}
 70
     0
280
     1
281
     0
  0
BLOCK_RECORD
  5
80
330
1
100
AcDbSymbolTableRecord
100
AcDbBlockTableRecord
  2
block 4
340
0
102
{BLKREFS
331
81
102
}
 70
     0
280
     1
281
     0
  0
BLOCK_RECORD
  5
8B
330
1
100
AcDbSymbolTableRecord
100
AcDbBlockTableRecord
  2
block 5
340
0
102
{BLKREFS
331
8C
102
}
 70
     0
280
     1
281
     0
  0
BLOCK_RECORD
  5
9E
330
1
100
AcDbSymbolTableRecord
100
AcDbBlockTableRecord
  2
block 6
340
0
102
{BLKREFS
331
9F
102
}
 70
     0
280
     1
281
     0
  0
ENDTAB
  0
ENDSEC
  0
SECTION
  2
BLOCKS
  0
BLOCK
  5
20
330
1F
100
AcDbEntity
  8
0
100
AcDbBlockBegin
  2
*Model_Space
 70
     0
 10
0.0
 20
0.0
 30
0.0
  3
*Model_Space
  1

  0
ENDBLK
  5
21
330
1F
100
AcDbEntity
  8
0
100
AcDbBlockEnd
  0
BLOCK
  5
1C
330
1B
100
AcDbEntity
 67
     1
  8
0
100
AcDbBlockBegin
  2
*Paper_Space
 70
     0
 10
0.0
 20
0.0
 30
0.0
  3
*Paper_Space
  1

  0
ENDBLK
  5
1D
330
1B
100
AcDbEntity
 67
     1
  8
0
100
AcDbBlockEnd
  0
BLOCK
  5
24
330
23
100
AcDbEntity
  8
0
100
AcDbBlockBegin
  2
*Paper_Space0
 70
     0
 10
0.0
 20
0.0
 30
0.0
  3
*Paper_Space0
  1

  0
ENDBLK
  5
25
330
23
100
AcDbEntity
  8
0
100
AcDbBlockEnd
  0
BLOCK
  5
58
330
56
100
AcDbEntity
  8
0
100
AcDbBlockBegin
  2
block 2
 70
     0
 10
0.0
 20
0.0
 30
0.0
  3
block 2
  1

  0
SPLINE
  5
5A
330
56
100
AcDbEntity
  8
_U+30EC_U+30A4_U+30E4_U+30FC 1
370
     0
100
AcDbSpline
210
0.0
220
0.0
230
1.0
 70
    11
 71
     3
 72
    26
 73
    22
 74
     0
 42
0.0000000001
 43
0.0000000001
 12
1.0
 22
0.0
 32
0.0
 13
1.0
 23
0.0
 33
0.0
 40
0.0
 40
0.0
 40
0.0
 40
0.0
 40
1.0
 40
1.0
 40
1.0
 40
2.0
 40
2.0
 40
2.0
 40
3.0
 40
3.0
 40
3.0
 40
4.0
 40
4.0
 40
4.0
 40
5.0
 40
5.0
 40
5.0
 40
6.0
 40
6.0
 40
6.0
 40
7.0
 40
7.0
 40
7.0
 40
7.0
 10
87.87112221110515
 20
-138.8938476215265
 30
0.0
 10
87.87112221110515
 20
-138.8938476215265
 30
0.0
 10
87.87112221110515
 20
-137.789694518504
 30
0.0
 10
87.87112221110515
 20
-137.789694518504
 30
0.0
 10
87.87112221110515
 20
-137.789694518504
 30
0.0
 10
87.51868894296408
 20
-137.789694518504
 30
0.0
 10
87.51868894296408
 20
-137.789694518504
 30
0.0
 10
87.51868894296408
 20
-137.789694518504
 30
0.0
 10
87.51868894296408
 20
-137.6415554126382
 30
0.0
 10
87.51868894296408
 20
-137.6415554126382
 30
0.0
 10
87.87353377794481
 20
-137.6267415020517
 30
0.0
 10
87.92314315293241
 20
-137.4637884855993
 30
0.0
 10
87.9548380313967
 20
-137.349411315489
 30
0.0
 10
87.9548380313967
 20
-137.349411315489
 30
0.0
 10
88.11090085687853
 20
-137.349411315489
 30
0.0
 10
88.11090085687853
 20
-137.349411315489
 30
0.0
 10
88.11090085687853
 20
-137.349411315489
 30
0.0
 10
88.11090085687853
 20
-138.8938476215265
 30
0.0
 10
88.11090085687853
 20
-138.8938476215265
 30
0.0
 10
88.11090085687853
 20
-138.8938476215265
 30
0.0
 10
87.87112221110515
 20
-138.8938476215265
 30
0.0
 10
87.87112221110515
 20
-138.8938476215265
 30
0.0
  0
HATCH
  5
5B
330
56
100
AcDbEntity
  8
_U+30EC_U+30A4_U+30E4_U+30FC 1
 62
     7
420
 16777215
100
AcDbHatch
 10
0.0
 20
0.0
 30
0.0
210
0.0
220
0.0
230
1.0
  2
SOLID
 70
     1
 71
     0
 91
        1
 92
        1
 93
        1
 72
     4
 94
        3
 73
     0
 74
     1
 95
       26
 96
       22
 40
0.0
 40
0.0
 40
0.0
 40
0.0
 40
1.0
 40
1.0
 40
1.0
 40
2.0
 40
2.0
 40
2.0
 40
3.0
 40
3.0
 40
3.0
 40
4.0
 40
4.0
 40
4.0
 40
5.0
 40
5.0
 40
5.0
 40
6.0
 40
6.0
 40
6.0
 40
7.0
 40
7.0
 40
7.0
 40
7.0
 10
87.87112221110515
 20
-138.8938476215265
 10
87.87112221110515
 20
-138.8938476215265
 10
87.87112221110515
 20
-137.789694518504
 10
87.87112221110515
 20
-137.789694518504
 10
87.87112221110515
 20
-137.789694518504
 10
87.51868894296408
 20
-137.789694518504
 10
87.51868894296408
 20
-137.789694518504
 10
87.51868894296408
 20
-137.789694518504
 10
87.51868894296408
 20
-137.6415554126382
 10
87.51868894296408
 20
-137.6415554126382
 10
87.87353377794481
 20
-137.6267415020517
 10
87.92314315293241
 20
-137.4637884855993
 10
87.9548380313967
 20
-137.349411315489
 10
87.9548380313967
 20
-137.349411315489
 10
88.11090085687853
 20
-137.349411315489
 10
88.11090085687853
 20
-137.349411315489
 10
88.11090085687853
 20
-137.349411315489
 10
88.11090085687853
 20
-138.8938476215265
 10
88.11090085687853
 20
-138.8938476215265
 10
88.11090085687853
 20
-138.8938476215265
 10
87.87112221110515
 20
-138.8938476215265
 10
87.87112221110515
 20
-138.8938476215265
 97
        0
 97
        0
 75
     2
 76
     1
 98
        0
  0
SPLINE
  5
5C
330
56
100
AcDbEntity
  8
_U+30EC_U+30A4_U+30E4_U+30FC 1
370
     0
100
AcDbSpline
210
0.0
220
0.0
230
1.0
 70
    11
 71
     3
 72
    29
 73
    25
 74
     0
 42
0.0000000001
 43
0.0000000001
 12
1.0
 22
0.0
 32
0.0
 13
1.0
 23
0.0
 33
0.0
 40
0.0
 40
0.0
 40
0.0
 40
0.0
 40
1.0
 40
1.0
 40
1.0
 40
2.0
 40
2.0
 40
2.0
 40
3.0
 40
3.0
 40
3.0
 40
4.0
 40
4.0
 40
4.0
 40
5.0
 40
5.0
 40
5.0
 40
6.0
 40
6.0
 40
6.0
 40
7.0
 40
7.0
 40
7.0
 40
8.0
 40
8.0
 40
8.0
 40
8.0
 10
89.18094751459712
 20
-138.9444905251597
 30
0.0
 10
88.89603811796697
 20
-138.9444905251597
 30
0.0
 10
88.6249091032778
 20
-138.8070312152983
 30
0.0
 10
88.6249091032778
 20
-138.4580430426424
 30
0.0
 10
88.6249091032778
 20
-138.2020724480884
 30
0.0
 10
88.7764933046288
 20
-138.1069878126955
 30
0.0
 10
88.889492436545
 20
-138.045665113058
 30
0.0
 10
88.75616724126583
 20
-137.9864094707117
 30
0.0
 10
88.6745184782654
 20
-137.8720323006014
 30
0.0
 10
88.6745184782654
 20
-137.7111463414403
 30
0.0
 10
88.6745184782654
 20
-137.4362277217173
 30
0.0
 10
88.88708086970531
 20
-137.300835469147
 30
0.0
 10
89.18094751459712
 20
-137.300835469147
 30
0.0
 10
89.4841159172991
 20
-137.300835469147
 30
0.0
 10
89.68737655092886
 20
-137.4448404604305
 30
0.0
 10
89.68737655092886
 20
-137.7111463414403
 30
0.0
 10
89.68737655092886
 20
-137.8720323006014
 30
0.0
 10
89.60400524018581
 20
-137.9864094707117
 30
0.0
 10
89.47033553535812
 20
-138.045665113058
 30
0.0
 10
89.56542017075101
 20
-138.0963080166912
 30
0.0
 10
89.7349188686253
 20
-138.1913926520841
 30
0.0
 10
89.7349188686253
 20
-138.4539089280601
 30
0.0
 10
89.7349188686253
 20
-138.8283908073068
 30
0.0
 10
89.43657359960267
 20
-138.9444905251597
 30
0.0
 10
89.18094751459712
 20
-138.9444905251597
 30
0.0
  0
SPLINE
  5
5D
330
56
100
AcDbEntity
  8
_U+30EC_U+30A4_U+30E4_U+30FC 1
370
     0
100
AcDbSpline
210
0.0
220
0.0
230
1.0
 70
    11
 71
     3
 72
    17
 73
    13
 74
     0
 42
0.0000000001
 43
0.0000000001
 12
1.0
 22
0.0
 32
0.0
 13
1.0
 23
0.0
 33
0.0
 40
0.0
 40
0.0
 40
0.0
 40
0.0
 40
1.0
 40
1.0
 40
1.0
 40
2.0
 40
2.0
 40
2.0
 40
3.0
 40
3.0
 40
3.0
 40
4.0
 40
4.0
 40
4.0
 40
4.0
 10
89.18094751459712
 20
-138.1534966017464
 30
0.0
 10
89.02729625595498
 20
-138.1534966017464
 30
0.0
 10
88.8646877490512
 20
-138.2403130079747
 30
0.0
 10
88.8646877490512
 20
-138.4432291320559
 30
0.0
 10
88.8646877490512
 20
-138.6485568229768
 30
0.0
 10
89.00008000162151
 20
-138.7498426302431
 30
0.0
 10
89.18094751459712
 20
-138.7498426302431
 30
0.0
 10
89.38007403364458
 20
-138.7498426302431
 30
0.0
 10
89.49755178969158
 20
-138.6271972309682
 30
0.0
 10
89.49755178969158
 20
-138.4494303039293
 30
0.0
 10
89.49755178969158
 20
-138.2275661546792
 30
0.0
 10
89.32357446768647
 20
-138.1534966017464
 30
0.0
 10
89.18094751459712
 20
-138.1534966017464
 30
0.0
  0
SPLINE
  5
5E
330
56
100
AcDbEntity
  8
_U+30EC_U+30A4_U+30E4_U+30FC 1
370
     0
100
AcDbSpline
210
0.0
220
0.0
230
1.0
 70
    11
 71
     3
 72
    17
 73
    13
 74
     0
 42
0.0000000001
 43
0.0000000001
 12
1.0
 22
0.0
 32
0.0
 13
1.0
 23
0.0
 33
0.0
 40
0.0
 40
0.0
 40
0.0
 40
0.0
 40
1.0
 40
1.0
 40
1.0
 40
2.0
 40
2.0
 40
2.0
 40
3.0
 40
3.0
 40
3.0
 40
4.0
 40
4.0
 40
4.0
 40
4.0
 10
89.18094751459712
 20
-137.4934163067725
 30
0.0
 10
89.00490313530086
 20
-137.4934163067725
 30
0.0
 10
88.9142971240388
 20
-137.5885009421654
 30
0.0
 10
88.9142971240388
 20
-137.7238931947357
 30
0.0
 10
88.9142971240388
 20
-137.8465385940106
 30
0.0
 10
88.99112275335986
 20
-137.9650498787032
 30
0.0
 10
89.18094751459712
 20
-137.9650498787032
 30
0.0
 10
89.37111678538292
 20
-137.9650498787032
 30
0.0
 10
89.44794241470399
 20
-137.8465385940106
 30
0.0
 10
89.44794241470399
 20
-137.7238931947357
 30
0.0
 10
89.44794241470399
 20
-137.5885009421654
 30
0.0
 10
89.35526934615076
 20
-137.4934163067725
 30
0.0
 10
89.18094751459712
 20
-137.4934163067725
 30
0.0
  0
HATCH
  5
5F
330
56
100
AcDbEntity
  8
_U+30EC_U+30A4_U+30E4_U+30FC 1
 62
     7
420
 16777215
100
AcDbHatch
 10
0.0
 20
0.0
 30
0.0
210
0.0
220
0.0
230
1.0
  2
SOLID
 70
     1
 71
     0
 91
        3
 92
        1
 93
        1
 72
     4
 94
        3
 73
     0
 74
     1
 95
       29
 96
       25
 40
0.0
 40
0.0
 40
0.0
 40
0.0
 40
1.0
 40
1.0
 40
1.0
 40
2.0
 40
2.0
 40
2.0
 40
3.0
 40
3.0
 40
3.0
 40
4.0
 40
4.0
 40
4.0
 40
5.0
 40
5.0
 40
5.0
 40
6.0
 40
6.0
 40
6.0
 40
7.0
 40
7.0
 40
7.0
 40
8.0
 40
8.0
 40
8.0
 40
8.0
 10
89.18094751459712
 20
-138.9444905251597
 10
88.89603811796697
 20
-138.9444905251597
 10
88.6249091032778
 20
-138.8070312152983
 10
88.6249091032778
 20
-138.4580430426424
 10
88.6249091032778
 20
-138.2020724480884
 10
88.7764933046288
 20
-138.1069878126955
 10
88.889492436545
 20
-138.045665113058
 10
88.75616724126583
 20
-137.9864094707117
 10
88.6745184782654
 20
-137.8720323006014
 10
88.6745184782654
 20
-137.7111463414403
 10
88.6745184782654
 20
-137.4362277217173
 10
88.88708086970531
 20
-137.300835469147
 10
89.18094751459712
 20
-137.300835469147
 10
89.4841159172991
 20
-137.300835469147
 10
89.68737655092886
 20
-137.4448404604305
 10
89.68737655092886
 20
-137.7111463414403
 10
89.68737655092886
 20
-137.8720323006014
 10
89.60400524018581
 20
-137.9864094707117
 10
89.47033553535812
 20
-138.045665113058
 10
89.56542017075101
 20
-138.0963080166912
 10
89.7349188686253
 20
-138.1913926520841
 10
89.7349188686253
 20
-138.4539089280601
 10
89.7349188686253
 20
-138.8283908073068
 10
89.43657359960267
 20
-138.9444905251597
 10
89.18094751459712
 20
-138.9444905251597
 97
        0
 97
        0
 92
        1
 93
        1
 72
     4
 94
        3
 73
     0
 74
     1
 95
       17
 96
       13
 40
0.0
 40
0.0
 40
0.0
 40
0.0
 40
1.0
 40
1.0
 40
1.0
 40
2.0
 40
2.0
 40
2.0
 40
3.0
 40
3.0
 40
3.0
 40
4.0
 40
4.0
 40
4.0
 40
4.0
 10
89.18094751459712
 20
-138.1534966017464
 10
89.02729625595498
 20
-138.1534966017464
 10
88.8646877490512
 20
-138.2403130079747
 10
88.8646877490512
 20
-138.4432291320559
 10
88.8646877490512
 20
-138.6485568229768
 10
89.00008000162151
 20
-138.7498426302431
 10
89.18094751459712
 20
-138.7498426302431
 10
89.38007403364458
 20
-138.7498426302431
 10
89.49755178969158
 20
-138.6271972309682
 10
89.49755178969158
 20
-138.4494303039293
 10
89.49755178969158
 20
-138.2275661546792
 10
89.32357446768647
 20
-138.1534966017464
 10
89.18094751459712
 20
-138.1534966017464
 97
        0
 97
        0
 92
        1
 93
        1
 72
     4
 94
        3
 73
     0
 74
     1
 95
       17
 96
       13
 40
0.0
 40
0.0
 40
0.0
 40
0.0
 40
1.0
 40
1.0
 40
1.0
 40
2.0
 40
2.0
 40
2.0
 40
3.0
 40
3.0
 40
3.0
 40
4.0
 40
4.0
 40
4.0
 40
4.0
 10
89.18094751459712
 20
-137.4934163067725
 10
89.00490313530086
 20
-137.4934163067725
 10
88.9142971240388
 20
-137.5885009421654
 10
88.9142971240388
 20
-137.7238931947357
 10
88.9142971240388
 20
-137.8465385940106
 10
88.99112275335986
 20
-137.9650498787032
 10
89.18094751459712
 20
-137.9650498787032
 10
89.37111678538292
 20
-137.9650498787032
 10
89.44794241470399
 20
-137.8465385940106
 10
89.44794241470399
 20
-137.7238931947357
 10
89.44794241470399
 20
-137.5885009421654
 10
89.35526934615076
 20
-137.4934163067725
 10
89.18094751459712
 20
-137.4934163067725
 97
        0
 97
        0
 75
     2
 76
     1
 98
        0
  0
ENDBLK
  5
59
330
56
100
AcDbEntity
  8
0
100
AcDbBlockEnd
  0
BLOCK
  5
6E
330
6C
100
AcDbEntity
  8
0
100
AcDbBlockBegin
  2
block 3
 70
     0
 10
0.0
 20
0.0
 30
0.0
  3
block 3
  1

  0
SPLINE
  5
70
330
6C
100
AcDbEntity
  8
_U+30EC_U+30A4_U+30E4_U+30FC 1
370
     0
100
AcDbSpline
210
0.0
220
0.0
230
1.0
 70
    11
 71
     3
 72
    29
 73
    25
 74
     0
 42
0.0000000001
 43
0.0000000001
 12
1.0
 22
0.0
 32
0.0
 13
1.0
 23
0.0
 33
0.0
 40
0.0
 40
0.0
 40
0.0
 40
0.0
 40
1.0
 40
1.0
 40
1.0
 40
2.0
 40
2.0
 40
2.0
 40
3.0
 40
3.0
 40
3.0
 40
4.0
 40
4.0
 40
4.0
 40
5.0
 40
5.0
 40
5.0
 40
6.0
 40
6.0
 40
6.0
 40
7.0
 40
7.0
 40
7.0
 40
8.0
 40
8.0
 40
8.0
 40
8.0
 10
83.58990205158517
 20
-118.7956773249018
 30
0.0
 10
83.304992654955
 20
-118.7956773249018
 30
0.0
 10
83.03369138549158
 20
-118.658045760266
 30
0.0
 10
83.03369138549158
 20
-118.3090575876102
 30
0.0
 10
83.03369138549158
 20
-118.0530869930562
 30
0.0
 10
83.18510333206831
 20
-117.957830102889
 30
0.0
 10
83.29827471875876
 20
-117.8965074032516
 30
0.0
 10
83.16477726870534
 20
-117.8372517609053
 30
0.0
 10
83.08347301525345
 20
-117.7230468455692
 30
0.0
 10
83.08347301525345
 20
-117.5623331411823
 30
0.0
 10
83.08347301525345
 20
-117.2872422666851
 30
0.0
 10
83.2958631519191
 20
-117.1518500141148
 30
0.0
 10
83.58990205158517
 20
-117.1518500141148
 30
0.0
 10
83.89289819951289
 20
-117.1518500141148
 30
0.0
 10
84.0963310879169
 20
-117.295682750624
 30
0.0
 10
84.0963310879169
 20
-117.5623331411823
 30
0.0
 10
84.0963310879169
 20
-117.7230468455692
 30
0.0
 10
84.01261526762532
 20
-117.8372517609053
 30
0.0
 10
83.87929007234615
 20
-117.8965074032516
 30
0.0
 10
83.97420245296479
 20
-117.947322561659
 30
0.0
 10
84.14370115083908
 20
-118.0425794518262
 30
0.0
 10
84.14370115083908
 20
-118.3049234730279
 30
0.0
 10
84.14370115083908
 20
-118.6792330975003
 30
0.0
 10
83.84535588181645
 20
-118.7956773249018
 30
0.0
 10
83.58990205158517
 20
-118.7956773249018
 30
0.0
  0
SPLINE
  5
71
330
6C
100
AcDbEntity
  8
_U+30EC_U+30A4_U+30E4_U+30FC 1
370
     0
100
AcDbSpline
210
0.0
220
0.0
230
1.0
 70
    11
 71
     3
 72
    17
 73
    13
 74
     0
 42
0.0000000001
 43
0.0000000001
 12
1.0
 22
0.0
 32
0.0
 13
1.0
 23
0.0
 33
0.0
 40
0.0
 40
0.0
 40
0.0
 40
0.0
 40
1.0
 40
1.0
 40
1.0
 40
2.0
 40
2.0
 40
2.0
 40
3.0
 40
3.0
 40
3.0
 40
4.0
 40
4.0
 40
4.0
 40
4.0
 10
83.58990205158517
 20
-118.0045111467142
 30
0.0
 10
83.43607853816876
 20
-118.0045111467142
 30
0.0
 10
83.27329777649071
 20
-118.0911552981682
 30
0.0
 10
83.27329777649071
 20
-118.2942436770237
 30
0.0
 10
83.27329777649071
 20
-118.4993991131703
 30
0.0
 10
83.40903453860955
 20
-118.6010294299852
 30
0.0
 10
83.58990205158517
 20
-118.6010294299852
 30
0.0
 10
83.78885631585834
 20
-118.6010294299852
 30
0.0
 10
83.90633407190536
 20
-118.4783840307103
 30
0.0
 10
83.90633407190536
 20
-118.3006171036714
 30
0.0
 10
83.90633407190536
 20
-118.0784084448728
 30
0.0
 10
83.73235674990025
 20
-118.0045111467142
 30
0.0
 10
83.58990205158517
 20
-118.0045111467142
 30
0.0
  0
SPLINE
  5
72
330
6C
100
AcDbEntity
  8
_U+30EC_U+30A4_U+30E4_U+30FC 1
370
     0
100
AcDbSpline
210
0.0
220
0.0
230
1.0
 70
    11
 71
     3
 72
    17
 73
    13
 74
     0
 42
0.0000000001
 43
0.0000000001
 12
1.0
 22
0.0
 32
0.0
 13
1.0
 23
0.0
 33
0.0
 40
0.0
 40
0.0
 40
0.0
 40
0.0
 40
1.0
 40
1.0
 40
1.0
 40
2.0
 40
2.0
 40
2.0
 40
3.0
 40
3.0
 40
3.0
 40
4.0
 40
4.0
 40
4.0
 40
4.0
 10
83.58990205158517
 20
-117.3444308517403
 30
0.0
 10
83.41351316274037
 20
-117.3444308517403
 30
0.0
 10
83.32307940625256
 20
-117.4395154871332
 30
0.0
 10
83.32307940625256
 20
-117.5749077397035
 30
0.0
 10
83.32307940625256
 20
-117.6977253937527
 30
0.0
 10
83.39990503557364
 20
-117.8162366784453
 30
0.0
 10
83.58990205158517
 20
-117.8162366784453
 30
0.0
 10
83.77972681282243
 20
-117.8162366784453
 30
0.0
 10
83.85672469691777
 20
-117.6977253937527
 30
0.0
 10
83.85672469691777
 20
-117.5749077397035
 30
0.0
 10
83.85672469691777
 20
-117.4395154871332
 30
0.0
 10
83.76387937359029
 20
-117.3444308517403
 30
0.0
 10
83.58990205158517
 20
-117.3444308517403
 30
0.0
  0
HATCH
  5
73
330
6C
100
AcDbEntity
  8
_U+30EC_U+30A4_U+30E4_U+30FC 1
 62
     7
420
 16777215
100
AcDbHatch
 10
0.0
 20
0.0
 30
0.0
210
0.0
220
0.0
230
1.0
  2
SOLID
 70
     1
 71
     0
 91
        3
 92
        1
 93
        1
 72
     4
 94
        3
 73
     0
 74
     1
 95
       29
 96
       25
 40
0.0
 40
0.0
 40
0.0
 40
0.0
 40
1.0
 40
1.0
 40
1.0
 40
2.0
 40
2.0
 40
2.0
 40
3.0
 40
3.0
 40
3.0
 40
4.0
 40
4.0
 40
4.0
 40
5.0
 40
5.0
 40
5.0
 40
6.0
 40
6.0
 40
6.0
 40
7.0
 40
7.0
 40
7.0
 40
8.0
 40
8.0
 40
8.0
 40
8.0
 10
83.58990205158517
 20
-118.7956773249018
 10
83.304992654955
 20
-118.7956773249018
 10
83.03369138549158
 20
-118.658045760266
 10
83.03369138549158
 20
-118.3090575876102
 10
83.03369138549158
 20
-118.0530869930562
 10
83.18510333206831
 20
-117.957830102889
 10
83.29827471875876
 20
-117.8965074032516
 10
83.16477726870534
 20
-117.8372517609053
 10
83.08347301525345
 20
-117.7230468455692
 10
83.08347301525345
 20
-117.5623331411823
 10
83.08347301525345
 20
-117.2872422666851
 10
83.2958631519191
 20
-117.1518500141148
 10
83.58990205158517
 20
-117.1518500141148
 10
83.89289819951289
 20
-117.1518500141148
 10
84.0963310879169
 20
-117.295682750624
 10
84.0963310879169
 20
-117.5623331411823
 10
84.0963310879169
 20
-117.7230468455692
 10
84.01261526762532
 20
-117.8372517609053
 10
83.87929007234615
 20
-117.8965074032516
 10
83.97420245296479
 20
-117.947322561659
 10
84.14370115083908
 20
-118.0425794518262
 10
84.14370115083908
 20
-118.3049234730279
 10
84.14370115083908
 20
-118.6792330975003
 10
83.84535588181645
 20
-118.7956773249018
 10
83.58990205158517
 20
-118.7956773249018
 97
        0
 97
        0
 92
        1
 93
        1
 72
     4
 94
        3
 73
     0
 74
     1
 95
       17
 96
       13
 40
0.0
 40
0.0
 40
0.0
 40
0.0
 40
1.0
 40
1.0
 40
1.0
 40
2.0
 40
2.0
 40
2.0
 40
3.0
 40
3.0
 40
3.0
 40
4.0
 40
4.0
 40
4.0
 40
4.0
 10
83.58990205158517
 20
-118.0045111467142
 10
83.43607853816876
 20
-118.0045111467142
 10
83.27329777649071
 20
-118.0911552981682
 10
83.27329777649071
 20
-118.2942436770237
 10
83.27329777649071
 20
-118.4993991131703
 10
83.40903453860955
 20
-118.6010294299852
 10
83.58990205158517
 20
-118.6010294299852
 10
83.78885631585834
 20
-118.6010294299852
 10
83.90633407190536
 20
-118.4783840307103
 10
83.90633407190536
 20
-118.3006171036714
 10
83.90633407190536
 20
-118.0784084448728
 10
83.73235674990025
 20
-118.0045111467142
 10
83.58990205158517
 20
-118.0045111467142
 97
        0
 97
        0
 92
        1
 93
        1
 72
     4
 94
        3
 73
     0
 74
     1
 95
       17
 96
       13
 40
0.0
 40
0.0
 40
0.0
 40
0.0
 40
1.0
 40
1.0
 40
1.0
 40
2.0
 40
2.0
 40
2.0
 40
3.0
 40
3.0
 40
3.0
 40
4.0
 40
4.0
 40
4.0
 40
4.0
 10
83.58990205158517
 20
-117.3444308517403
 10
83.41351316274037
 20
-117.3444308517403
 10
83.32307940625256
 20
-117.4395154871332
 10
83.32307940625256
 20
-117.5749077397035
 10
83.32307940625256
 20
-117.6977253937527
 10
83.39990503557364
 20
-117.8162366784453
 10
83.58990205158517
 20
-117.8162366784453
 10
83.77972681282243
 20
-117.8162366784453
 10
83.85672469691777
 20
-117.6977253937527
 10
83.85672469691777
 20
-117.5749077397035
 10
83.85672469691777
 20
-117.4395154871332
 10
83.76387937359029
 20
-117.3444308517403
 10
83.58990205158517
 20
-117.3444308517403
 97
        0
 97
        0
 75
     2
 76
     1
 98
        0
  0
ENDBLK
  5
6F
330
6C
100
AcDbEntity
  8
0
100
AcDbBlockEnd
  0
BLOCK
  5
82
330
80
100
AcDbEntity
  8
0
100
AcDbBlockBegin
  2
block 4
 70
     0
 10
0.0
 20
0.0
 30
0.0
  3
block 4
  1

  0
SPLINE
  5
84
330
80
100
AcDbEntity
  8
_U+30EC_U+30A4_U+30E4_U+30FC 1
370
     0
100
AcDbSpline
210
0.0
220
0.0
230
1.0
 70
    11
 71
     3
 72
    26
 73
    22
 74
     0
 42
0.0000000001
 43
0.0000000001
 12
1.0
 22
0.0
 32
0.0
 13
1.0
 23
0.0
 33
0.0
 40
0.0
 40
0.0
 40
0.0
 40
0.0
 40
1.0
 40
1.0
 40
1.0
 40
2.0
 40
2.0
 40
2.0
 40
3.0
 40
3.0
 40
3.0
 40
4.0
 40
4.0
 40
4.0
 40
5.0
 40
5.0
 40
5.0
 40
6.0
 40
6.0
 40
6.0
 40
7.0
 40
7.0
 40
7.0
 40
7.0
 10
100.4762098273115
 20
-130.1663872287431
 30
0.0
 10
100.4762098273115
 20
-130.1663872287431
 30
0.0
 10
99.37205672428894
 20
-130.1663872287431
 30
0.0
 10
99.37205672428894
 20
-130.1663872287431
 30
0.0
 10
99.37205672428894
 20
-130.1663872287431
 30
0.0
 10
99.37205672428894
 20
-130.5188204968842
 30
0.0
 10
99.37205672428894
 20
-130.5188204968842
 30
0.0
 10
99.37205672428894
 20
-130.5188204968842
 30
0.0
 10
99.22391761842319
 20
-130.5188204968842
 30
0.0
 10
99.22391761842319
 20
-130.5188204968842
 30
0.0
 10
99.20910370783662
 20
-130.1639756619035
 30
0.0
 10
99.0461506913843
 20
-130.1143662869159
 30
0.0
 10
98.93177352127401
 20
-130.0826714084516
 30
0.0
 10
98.93177352127401
 20
-130.0826714084516
 30
0.0
 10
98.93177352127401
 20
-129.9266085829697
 30
0.0
 10
98.93177352127401
 20
-129.9266085829697
 30
0.0
 10
98.93177352127401
 20
-129.9266085829697
 30
0.0
 10
100.4762098273115
 20
-129.9266085829697
 30
0.0
 10
100.4762098273115
 20
-129.9266085829697
 30
0.0
 10
100.4762098273115
 20
-129.9266085829697
 30
0.0
 10
100.4762098273115
 20
-130.1663872287431
 30
0.0
 10
100.4762098273115
 20
-130.1663872287431
 30
0.0
  0
HATCH
  5
85
330
80
100
AcDbEntity
  8
_U+30EC_U+30A4_U+30E4_U+30FC 1
 62
     7
420
 16777215
100
AcDbHatch
 10
0.0
 20
0.0
 30
0.0
210
0.0
220
0.0
230
1.0
  2
SOLID
 70
     1
 71
     0
 91
        1
 92
        1
 93
        1
 72
     4
 94
        3
 73
     0
 74
     1
 95
       26
 96
       22
 40
0.0
 40
0.0
 40
0.0
 40
0.0
 40
1.0
 40
1.0
 40
1.0
 40
2.0
 40
2.0
 40
2.0
 40
3.0
 40
3.0
 40
3.0
 40
4.0
 40
4.0
 40
4.0
 40
5.0
 40
5.0
 40
5.0
 40
6.0
 40
6.0
 40
6.0
 40
7.0
 40
7.0
 40
7.0
 40
7.0
 10
100.4762098273115
 20
-130.1663872287431
 10
100.4762098273115
 20
-130.1663872287431
 10
99.37205672428894
 20
-130.1663872287431
 10
99.37205672428894
 20
-130.1663872287431
 10
99.37205672428894
 20
-130.1663872287431
 10
99.37205672428894
 20
-130.5188204968842
 10
99.37205672428894
 20
-130.5188204968842
 10
99.37205672428894
 20
-130.5188204968842
 10
99.22391761842319
 20
-130.5188204968842
 10
99.22391761842319
 20
-130.5188204968842
 10
99.20910370783662
 20
-130.1639756619035
 10
99.0461506913843
 20
-130.1143662869159
 10
98.93177352127401
 20
-130.0826714084516
 10
98.93177352127401
 20
-130.0826714084516
 10
98.93177352127401
 20
-129.9266085829697
 10
98.93177352127401
 20
-129.9266085829697
 10
98.93177352127401
 20
-129.9266085829697
 10
100.4762098273115
 20
-129.9266085829697
 10
100.4762098273115
 20
-129.9266085829697
 10
100.4762098273115
 20
-129.9266085829697
 10
100.4762098273115
 20
-130.1663872287431
 10
100.4762098273115
 20
-130.1663872287431
 97
        0
 97
        0
 75
     2
 76
     1
 98
        0
  0
SPLINE
  5
86
330
80
100
AcDbEntity
  8
_U+30EC_U+30A4_U+30E4_U+30FC 1
370
     0
100
AcDbSpline
210
0.0
220
0.0
230
1.0
 70
    11
 71
     3
 72
    29
 73
    25
 74
     0
 42
0.0000000001
 43
0.0000000001
 12
1.0
 22
0.0
 32
0.0
 13
1.0
 23
0.0
 33
0.0
 40
0.0
 40
0.0
 40
0.0
 40
0.0
 40
1.0
 40
1.0
 40
1.0
 40
2.0
 40
2.0
 40
2.0
 40
3.0
 40
3.0
 40
3.0
 40
4.0
 40
4.0
 40
4.0
 40
5.0
 40
5.0
 40
5.0
 40
6.0
 40
6.0
 40
6.0
 40
7.0
 40
7.0
 40
7.0
 40
8.0
 40
8.0
 40
8.0
 40
8.0
 10
100.2984429002726
 20
-128.4314371423713
 30
0.0
 10
100.5079047057758
 20
-128.5468478411272
 30
0.0
 10
100.5268527309447
 20
-128.7321939782336
 30
0.0
 10
100.5268527309447
 20
-128.8565619252512
 30
0.0
 10
100.5268527309447
 20
-129.0281276804166
 30
0.0
 10
100.4803439418938
 20
-129.1797118817676
 30
0.0
 10
100.2984429002726
 20
-129.2813421985825
 30
0.0
 10
100.103795005356
 20
-129.3922742732075
 30
0.0
 10
99.86677243597082
 20
-129.4126003365705
 30
0.0
 10
99.70416392906702
 20
-129.4126003365705
 30
0.0
 10
99.56015893778357
 20
-129.4126003365705
 30
0.0
 10
99.30832245781181
 20
-129.3943413304986
 30
0.0
 10
99.1095404483129
 20
-129.2813421985825
 30
0.0
 10
98.90662432423169
 20
-129.1662760093751
 30
0.0
 10
98.88319767493198
 20
-128.9943657446611
 30
0.0
 10
98.88319767493198
 20
-128.8565619252512
 30
0.0
 10
98.88319767493198
 20
-128.6867187178283
 30
0.0
 10
98.92763940669171
 20
-128.5330674591862
 30
0.0
 10
99.1095404483129
 20
-128.4314371423713
 30
0.0
 10
99.30212128593837
 20
-128.3249836918771
 30
0.0
 10
99.53053111661043
 20
-128.3001790043833
 30
0.0
 10
99.70416392906702
 20
-128.3001790043833
 30
0.0
 10
99.87538517468394
 20
-128.3001790043833
 30
0.0
 10
100.1058620626471
 20
-128.3229166345859
 30
0.0
 10
100.2984429002726
 20
-128.4314371423713
 30
0.0
  0
SPLINE
  5
87
330
80
100
AcDbEntity
  8
_U+30EC_U+30A4_U+30E4_U+30FC 1
370
     0
100
AcDbSpline
210
0.0
220
0.0
230
1.0
 70
    11
 71
     3
 72
    17
 73
    13
 74
     0
 42
0.0000000001
 43
0.0000000001
 12
1.0
 22
0.0
 32
0.0
 13
1.0
 23
0.0
 33
0.0
 40
0.0
 40
0.0
 40
0.0
 40
0.0
 40
1.0
 40
1.0
 40
1.0
 40
2.0
 40
2.0
 40
2.0
 40
3.0
 40
3.0
 40
3.0
 40
4.0
 40
4.0
 40
4.0
 40
4.0
 10
99.07577851255745
 20
-128.8565619252512
 30
0.0
 10
99.07577851255745
 20
-129.1232123158095
 30
0.0
 10
99.35930987099351
 20
-129.1728216907971
 30
0.0
 10
99.70416392906702
 20
-129.1728216907971
 30
0.0
 10
100.0235242805497
 20
-129.1728216907971
 30
0.0
 10
100.3322048360281
 20
-129.1345811309108
 30
0.0
 10
100.3322048360281
 20
-128.8565619252512
 30
0.0
 10
100.3322048360281
 20
-128.5919785919839
 30
0.0
 10
100.0510850444317
 20
-128.5399576501567
 30
0.0
 10
99.70416392906702
 20
-128.5399576501567
 30
0.0
 10
99.38445906803584
 20
-128.5399576501567
 30
0.0
 10
99.07577851255745
 20
-128.5806097768826
 30
0.0
 10
99.07577851255745
 20
-128.8565619252512
 30
0.0
  0
HATCH
  5
88
330
80
100
AcDbEntity
  8
_U+30EC_U+30A4_U+30E4_U+30FC 1
 62
     7
420
 16777215
100
AcDbHatch
 10
0.0
 20
0.0
 30
0.0
210
0.0
220
0.0
230
1.0
  2
SOLID
 70
     1
 71
     0
 91
        2
 92
        1
 93
        1
 72
     4
 94
        3
 73
     0
 74
     1
 95
       29
 96
       25
 40
0.0
 40
0.0
 40
0.0
 40
0.0
 40
1.0
 40
1.0
 40
1.0
 40
2.0
 40
2.0
 40
2.0
 40
3.0
 40
3.0
 40
3.0
 40
4.0
 40
4.0
 40
4.0
 40
5.0
 40
5.0
 40
5.0
 40
6.0
 40
6.0
 40
6.0
 40
7.0
 40
7.0
 40
7.0
 40
8.0
 40
8.0
 40
8.0
 40
8.0
 10
100.2984429002726
 20
-128.4314371423713
 10
100.5079047057758
 20
-128.5468478411272
 10
100.5268527309447
 20
-128.7321939782336
 10
100.5268527309447
 20
-128.8565619252512
 10
100.5268527309447
 20
-129.0281276804166
 10
100.4803439418938
 20
-129.1797118817676
 10
100.2984429002726
 20
-129.2813421985825
 10
100.103795005356
 20
-129.3922742732075
 10
99.86677243597082
 20
-129.4126003365705
 10
99.70416392906702
 20
-129.4126003365705
 10
99.56015893778357
 20
-129.4126003365705
 10
99.30832245781181
 20
-129.3943413304986
 10
99.1095404483129
 20
-129.2813421985825
 10
98.90662432423169
 20
-129.1662760093751
 10
98.88319767493198
 20
-128.9943657446611
 10
98.88319767493198
 20
-128.8565619252512
 10
98.88319767493198
 20
-128.6867187178283
 10
98.92763940669171
 20
-128.5330674591862
 10
99.1095404483129
 20
-128.4314371423713
 10
99.30212128593837
 20
-128.3249836918771
 10
99.53053111661043
 20
-128.3001790043833
 10
99.70416392906702
 20
-128.3001790043833
 10
99.87538517468394
 20
-128.3001790043833
 10
100.1058620626471
 20
-128.3229166345859
 10
100.2984429002726
 20
-128.4314371423713
 97
        0
 97
        0
 92
        1
 93
        1
 72
     4
 94
        3
 73
     0
 74
     1
 95
       17
 96
       13
 40
0.0
 40
0.0
 40
0.0
 40
0.0
 40
1.0
 40
1.0
 40
1.0
 40
2.0
 40
2.0
 40
2.0
 40
3.0
 40
3.0
 40
3.0
 40
4.0
 40
4.0
 40
4.0
 40
4.0
 10
99.07577851255745
 20
-128.8565619252512
 10
99.07577851255745
 20
-129.1232123158095
 10
99.35930987099351
 20
-129.1728216907971
 10
99.70416392906702
 20
-129.1728216907971
 10
100.0235242805497
 20
-129.1728216907971
 10
100.3322048360281
 20
-129.1345811309108
 10
100.3322048360281
 20
-128.8565619252512
 10
100.3322048360281
 20
-128.5919785919839
 10
100.0510850444317
 20
-128.5399576501567
 10
99.70416392906702
 20
-128.5399576501567
 10
99.38445906803584
 20
-128.5399576501567
 10
99.07577851255745
 20
-128.5806097768826
 10
99.07577851255745
 20
-128.8565619252512
 97
        0
 97
        0
 75
     2
 76
     1
 98
        0
  0
ENDBLK
  5
83
330
80
100
AcDbEntity
  8
0
100
AcDbBlockEnd
  0
BLOCK
  5
8D
330
8B
100
AcDbEntity
  8
0
100
AcDbBlockBegin
  2
block 5
 70
     0
 10
0.0
 20
0.0
 30
0.0
  3
block 5
  1

  0
SPLINE
  5
8F
330
8B
100
AcDbEntity
  8
_U+30EC_U+30A4_U+30E4_U+30FC 1
370
     0
100
AcDbSpline
210
0.0
220
0.0
230
1.0
 70
    11
 71
     3
 72
    26
 73
    22
 74
     0
 42
0.0000000001
 43
0.0000000001
 12
1.0
 22
0.0
 32
0.0
 13
1.0
 23
0.0
 33
0.0
 40
0.0
 40
0.0
 40
0.0
 40
0.0
 40
1.0
 40
1.0
 40
1.0
 40
2.0
 40
2.0
 40
2.0
 40
3.0
 40
3.0
 40
3.0
 40
4.0
 40
4.0
 40
4.0
 40
5.0
 40
5.0
 40
5.0
 40
6.0
 40
6.0
 40
6.0
 40
7.0
 40
7.0
 40
7.0
 40
7.0
 10
81.8694213662514
 20
-129.0219265085431
 30
0.0
 10
81.8694213662514
 20
-129.0219265085431
 30
0.0
 10
81.8694213662514
 20
-127.917428895972
 30
0.0
 10
81.8694213662514
 20
-127.917428895972
 30
0.0
 10
81.8694213662514
 20
-127.917428895972
 30
0.0
 10
81.53938121876446
 20
-127.917428895972
 30
0.0
 10
81.53938121876446
 20
-127.917428895972
 30
0.0
 10
81.53938121876446
 20
-127.917428895972
 30
0.0
 10
81.53938121876446
 20
-127.7692897901063
 30
0.0
 10
81.53938121876446
 20
-127.7692897901063
 30
0.0
 10
81.87148842354254
 20
-127.754648134294
 30
0.0
 10
81.91799721259342
 20
-127.5916951178417
 30
0.0
 10
81.94762503376657
 20
-127.4774902025056
 30
0.0
 10
81.94762503376657
 20
-127.4774902025056
 30
0.0
 10
82.09369708234117
 20
-127.4774902025056
 30
0.0
 10
82.09369708234117
 20
-127.4774902025056
 30
0.0
 10
82.09369708234117
 20
-127.4774902025056
 30
0.0
 10
82.09369708234117
 20
-129.0219265085431
 30
0.0
 10
82.09369708234117
 20
-129.0219265085431
 30
0.0
 10
82.09369708234117
 20
-129.0219265085431
 30
0.0
 10
81.8694213662514
 20
-129.0219265085431
 30
0.0
 10
81.8694213662514
 20
-129.0219265085431
 30
0.0
  0
HATCH
  5
90
330
8B
100
AcDbEntity
  8
_U+30EC_U+30A4_U+30E4_U+30FC 1
 62
     7
420
 16777215
100
AcDbHatch
 10
0.0
 20
0.0
 30
0.0
210
0.0
220
0.0
230
1.0
  2
SOLID
 70
     1
 71
     0
 91
        1
 92
        1
 93
        1
 72
     4
 94
        3
 73
     0
 74
     1
 95
       26
 96
       22
 40
0.0
 40
0.0
 40
0.0
 40
0.0
 40
1.0
 40
1.0
 40
1.0
 40
2.0
 40
2.0
 40
2.0
 40
3.0
 40
3.0
 40
3.0
 40
4.0
 40
4.0
 40
4.0
 40
5.0
 40
5.0
 40
5.0
 40
6.0
 40
6.0
 40
6.0
 40
7.0
 40
7.0
 40
7.0
 40
7.0
 10
81.8694213662514
 20
-129.0219265085431
 10
81.8694213662514
 20
-129.0219265085431
 10
81.8694213662514
 20
-127.917428895972
 10
81.8694213662514
 20
-127.917428895972
 10
81.8694213662514
 20
-127.917428895972
 10
81.53938121876446
 20
-127.917428895972
 10
81.53938121876446
 20
-127.917428895972
 10
81.53938121876446
 20
-127.917428895972
 10
81.53938121876446
 20
-127.7692897901063
 10
81.53938121876446
 20
-127.7692897901063
 10
81.87148842354254
 20
-127.754648134294
 10
81.91799721259342
 20
-127.5916951178417
 10
81.94762503376657
 20
-127.4774902025056
 10
81.94762503376657
 20
-127.4774902025056
 10
82.09369708234117
 20
-127.4774902025056
 10
82.09369708234117
 20
-127.4774902025056
 10
82.09369708234117
 20
-127.4774902025056
 10
82.09369708234117
 20
-129.0219265085431
 10
82.09369708234117
 20
-129.0219265085431
 10
82.09369708234117
 20
-129.0219265085431
 10
81.8694213662514
 20
-129.0219265085431
 10
81.8694213662514
 20
-129.0219265085431
 97
        0
 97
        0
 75
     2
 76
     1
 98
        0
  0
ENDBLK
  5
8E
330
8B
100
AcDbEntity
  8
0
100
AcDbBlockEnd
  0
BLOCK
  5
A0
330
9E
100
AcDbEntity
  8
0
100
AcDbBlockBegin
  2
block 6
 70
     0
 10
0.0
 20
0.0
 30
0.0
  3
block 6
  1

  0
SPLINE
  5
A2
330
9E
100
AcDbEntity
  8
_U+30EC_U+30A4_U+30E4_U+30FC 1
370
     0
100
AcDbSpline
210
0.0
220
0.0
230
1.0
 70
    11
 71
     3
 72
    26
 73
    22
 74
     0
 42
0.0000000001
 43
0.0000000001
 12
1.0
 22
0.0
 32
0.0
 13
1.0
 23
0.0
 33
0.0
 40
0.0
 40
0.0
 40
0.0
 40
0.0
 40
1.0
 40
1.0
 40
1.0
 40
2.0
 40
2.0
 40
2.0
 40
3.0
 40
3.0
 40
3.0
 40
4.0
 40
4.0
 40
4.0
 40
5.0
 40
5.0
 40
5.0
 40
6.0
 40
6.0
 40
6.0
 40
7.0
 40
7.0
 40
7.0
 40
7.0
 10
100.3304822882854
 20
-135.0067463855192
 30
0.0
 10
100.3304822882854
 20
-135.0067463855192
 30
0.0
 10
99.22632918526287
 20
-135.0067463855192
 30
0.0
 10
99.22632918526287
 20
-135.0067463855192
 30
0.0
 10
99.22632918526287
 20
-135.0067463855192
 30
0.0
 10
99.22632918526287
 20
-135.3591796536602
 30
0.0
 10
99.22632918526287
 20
-135.3591796536602
 30
0.0
 10
99.22632918526287
 20
-135.3591796536602
 30
0.0
 10
99.07819007939712
 20
-135.3591796536602
 30
0.0
 10
99.07819007939712
 20
-135.3591796536602
 30
0.0
 10
99.06337616881055
 20
-135.0043348186795
 30
0.0
 10
98.90042315235823
 20
-134.9547254436919
 30
0.0
 10
98.78604598224794
 20
-134.9230305652276
 30
0.0
 10
98.78604598224794
 20
-134.9230305652276
 30
0.0
 10
98.78604598224794
 20
-134.7669677397458
 30
0.0
 10
98.78604598224794
 20
-134.7669677397458
 30
0.0
 10
98.78604598224794
 20
-134.7669677397458
 30
0.0
 10
100.3304822882854
 20
-134.7669677397458
 30
0.0
 10
100.3304822882854
 20
-134.7669677397458
 30
0.0
 10
100.3304822882854
 20
-134.7669677397458
 30
0.0
 10
100.3304822882854
 20
-135.0067463855192
 30
0.0
 10
100.3304822882854
 20
-135.0067463855192
 30
0.0
  0
HATCH
  5
A3
330
9E
100
AcDbEntity
  8
_U+30EC_U+30A4_U+30E4_U+30FC 1
 62
     7
420
 16777215
100
AcDbHatch
 10
0.0
 20
0.0
 30
0.0
210
0.0
220
0.0
230
1.0
  2
SOLID
 70
     1
 71
     0
 91
        1
 92
        1
 93
        1
 72
     4
 94
        3
 73
     0
 74
     1
 95
       26
 96
       22
 40
0.0
 40
0.0
 40
0.0
 40
0.0
 40
1.0
 40
1.0
 40
1.0
 40
2.0
 40
2.0
 40
2.0
 40
3.0
 40
3.0
 40
3.0
 40
4.0
 40
4.0
 40
4.0
 40
5.0
 40
5.0
 40
5.0
 40
6.0
 40
6.0
 40
6.0
 40
7.0
 40
7.0
 40
7.0
 40
7.0
 10
100.3304822882854
 20
-135.0067463855192
 10
100.3304822882854
 20
-135.0067463855192
 10
99.22632918526287
 20
-135.0067463855192
 10
99.22632918526287
 20
-135.0067463855192
 10
99.22632918526287
 20
-135.0067463855192
 10
99.22632918526287
 20
-135.3591796536602
 10
99.22632918526287
 20
-135.3591796536602
 10
99.22632918526287
 20
-135.3591796536602
 10
99.07819007939712
 20
-135.3591796536602
 10
99.07819007939712
 20
-135.3591796536602
 10
99.06337616881055
 20
-135.0043348186795
 10
98.90042315235823
 20
-134.9547254436919
 10
98.78604598224794
 20
-134.9230305652276
 10
98.78604598224794
 20
-134.9230305652276
 10
98.78604598224794
 20
-134.7669677397458
 10
98.78604598224794
 20
-134.7669677397458
 10
98.78604598224794
 20
-134.7669677397458
 10
100.3304822882854
 20
-134.7669677397458
 10
100.3304822882854
 20
-134.7669677397458
 10
100.3304822882854
 20
-134.7669677397458
 10
100.3304822882854
 20
-135.0067463855192
 10
100.3304822882854
 20
-135.0067463855192
 97
        0
 97
        0
 75
     2
 76
     1
 98
        0
  0
ENDBLK
  5
A1
330
9E
100
AcDbEntity
  8
0
100
AcDbBlockEnd
  0
ENDSEC
  0
SECTION
  2
ENTITIES
  0
SPLINE
  5
41
330
1F
100
AcDbEntity
  8
_U+30EC_U+30A4_U+30E4_U+30FC 1
370
     0
100
AcDbSpline
210
0.0
220
0.0
230
1.0
 70
    11
 71
     3
 72
    53
 73
    49
 74
     0
 42
0.0000000001
 43
0.0000000001
 12
1.0
 22
0.0
 32
0.0
 13
1.0
 23
0.0
 33
0.0
 40
0.0
 40
0.0
 40
0.0
 40
0.0
 40
1.0
 40
1.0
 40
1.0
 40
2.0
 40
2.0
 40
2.0
 40
3.0
 40
3.0
 40
3.0
 40
4.0
 40
4.0
 40
4.0
 40
5.0
 40
5.0
 40
5.0
 40
6.0
 40
6.0
 40
6.0
 40
7.0
 40
7.0
 40
7.0
 40
8.0
 40
8.0
 40
8.0
 40
9.0
 40
9.0
 40
9.0
 40
10.0
 40
10.0
 40
10.0
 40
11.0
 40
11.0
 40
11.0
 40
12.0
 40
12.0
 40
12.0
 40
13.0
 40
13.0
 40
13.0
 40
14.0
 40
14.0
 40
14.0
 40
15.0
 40
15.0
 40
15.0
 40
16.0
 40
16.0
 40
16.0
 40
16.0
 10
97.04764724633047
 20
-134.9902049662525
 30
0.0
 10
97.04764724633047
 20
-134.9902049662525
 30
0.0
 10
87.413109992128
 20
-134.9902049662525
 30
0.0
 10
87.413109992128
 20
-134.9902049662525
 30
0.0
 10
87.23463971890337
 20
-134.6808541329962
 30
0.0
 10
86.90461611621187
 20
-134.4906716330437
 30
0.0
 10
86.54767775614098
 20
-134.4906716330437
 30
0.0
 10
86.54767775614098
 20
-134.4906716330437
 30
0.0
 10
84.04722202244339
 20
-134.4906716330437
 30
0.0
 10
84.04722202244339
 20
-134.4906716330437
 30
0.0
 10
84.04722202244339
 20
-134.4906716330437
 30
0.0
 10
84.04722202244339
 20
-124.4905858022107
 30
0.0
 10
84.04722202244339
 20
-124.4905858022107
 30
0.0
 10
84.04722202244339
 20
-124.4905858022107
 30
0.0
 10
87.04721108934916
 20
-124.4905858022107
 30
0.0
 10
87.04721108934916
 20
-124.4905858022107
 30
0.0
 10
87.32353971663535
 20
-124.4905858022107
 30
0.0
 10
87.5474499781132
 20
-124.2673480244886
 30
0.0
 10
87.5474499781132
 20
-123.9910524690022
 30
0.0
 10
87.5474499781132
 20
-123.7313021912895
 30
0.0
 10
87.34901027154109
 20
-123.5149435802325
 30
0.0
 10
87.08993027815077
 20
-123.4928949691269
 30
0.0
 10
84.73281033828592
 20
-123.2903299691775
 30
0.0
 10
82.36189678766185
 20
-123.2903299691775
 30
0.0
 10
80.00477684779699
 20
-123.4928949691269
 30
0.0
 10
79.729151577051
 20
-123.5163194135654
 30
0.0
 10
79.52521074892063
 20
-123.758854135727
 30
0.0
 10
79.54930547052814
 20
-124.0337738578805
 30
0.0
 10
79.57135408107675
 20
-124.2921483022603
 30
0.0
 10
79.78771268666809
 20
-124.4905858022107
 30
0.0
 10
80.04749823559597
 20
-124.4905858022107
 30
0.0
 10
80.04749823559597
 20
-124.4905858022107
 30
0.0
 10
83.04748510350437
 20
-124.4905858022107
 30
0.0
 10
83.04748510350437
 20
-124.4905858022107
 30
0.0
 10
83.04748510350437
 20
-124.4905858022107
 30
0.0
 10
83.04748510350437
 20
-134.4906716330437
 30
0.0
 10
83.04748510350437
 20
-134.4906716330437
 30
0.0
 10
83.04748510350437
 20
-134.4906716330437
 30
0.0
 10
80.54703155618513
 20
-134.4906716330437
 30
0.0
 10
80.54703155618513
 20
-134.4906716330437
 30
0.0
 10
79.99511073693247
 20
-134.4906716330437
 30
0.0
 10
79.54725935946924
 20
-134.9385230218207
 30
0.0
 10
79.54725935946924
 20
-135.4904438550163
 30
0.0
 10
79.54725935946924
 20
-135.4904438550163
 30
0.0
 10
97.54718056691965
 20
-135.4904438550163
 30
0.0
 10
97.54718056691965
 20
-135.4904438550163
 30
0.0
 10
97.54718056691965
 20
-135.2141482995298
 30
0.0
 10
97.32327497566934
 20
-134.9902049662525
 30
0.0
 10
97.04764724633047
 20
-134.9902049662525
 30
0.0
  0
HATCH
  5
42
330
1F
100
AcDbEntity
  8
_U+30EC_U+30A4_U+30E4_U+30FC 1
 62
   253
420
 11711154
100
AcDbHatch
 10
0.0
 20
0.0
 30
0.0
210
0.0
220
0.0
230
1.0
  2
SOLID
 70
     1
 71
     0
 91
        1
 92
        1
 93
        1
 72
     4
 94
        3
 73
     0
 74
     1
 95
       53
 96
       49
 40
0.0
 40
0.0
 40
0.0
 40
0.0
 40
1.0
 40
1.0
 40
1.0
 40
2.0
 40
2.0
 40
2.0
 40
3.0
 40
3.0
 40
3.0
 40
4.0
 40
4.0
 40
4.0
 40
5.0
 40
5.0
 40
5.0
 40
6.0
 40
6.0
 40
6.0
 40
7.0
 40
7.0
 40
7.0
 40
8.0
 40
8.0
 40
8.0
 40
9.0
 40
9.0
 40
9.0
 40
10.0
 40
10.0
 40
10.0
 40
11.0
 40
11.0
 40
11.0
 40
12.0
 40
12.0
 40
12.0
 40
13.0
 40
13.0
 40
13.0
 40
14.0
 40
14.0
 40
14.0
 40
15.0
 40
15.0
 40
15.0
 40
16.0
 40
16.0
 40
16.0
 40
16.0
 10
97.04764724633047
 20
-134.9902049662525
 10
97.04764724633047
 20
-134.9902049662525
 10
87.413109992128
 20
-134.9902049662525
 10
87.413109992128
 20
-134.9902049662525
 10
87.23463971890337
 20
-134.6808541329962
 10
86.90461611621187
 20
-134.4906716330437
 10
86.54767775614098
 20
-134.4906716330437
 10
86.54767775614098
 20
-134.4906716330437
 10
84.04722202244339
 20
-134.4906716330437
 10
84.04722202244339
 20
-134.4906716330437
 10
84.04722202244339
 20
-134.4906716330437
 10
84.04722202244339
 20
-124.4905858022107
 10
84.04722202244339
 20
-124.4905858022107
 10
84.04722202244339
 20
-124.4905858022107
 10
87.04721108934916
 20
-124.4905858022107
 10
87.04721108934916
 20
-124.4905858022107
 10
87.32353971663535
 20
-124.4905858022107
 10
87.5474499781132
 20
-124.2673480244886
 10
87.5474499781132
 20
-123.9910524690022
 10
87.5474499781132
 20
-123.7313021912895
 10
87.34901027154109
 20
-123.5149435802325
 10
87.08993027815077
 20
-123.4928949691269
 10
84.73281033828592
 20
-123.2903299691775
 10
82.36189678766185
 20
-123.2903299691775
 10
80.00477684779699
 20
-123.4928949691269
 10
79.729151577051
 20
-123.5163194135654
 10
79.52521074892063
 20
-123.758854135727
 10
79.54930547052814
 20
-124.0337738578805
 10
79.57135408107675
 20
-124.2921483022603
 10
79.78771268666809
 20
-124.4905858022107
 10
80.04749823559597
 20
-124.4905858022107
 10
80.04749823559597
 20
-124.4905858022107
 10
83.04748510350437
 20
-124.4905858022107
 10
83.04748510350437
 20
-124.4905858022107
 10
83.04748510350437
 20
-124.4905858022107
 10
83.04748510350437
 20
-134.4906716330437
 10
83.04748510350437
 20
-134.4906716330437
 10
83.04748510350437
 20
-134.4906716330437
 10
80.54703155618513
 20
-134.4906716330437
 10
80.54703155618513
 20
-134.4906716330437
 10
79.99511073693247
 20
-134.4906716330437
 10
79.54725935946924
 20
-134.9385230218207
 10
79.54725935946924
 20
-135.4904438550163
 10
79.54725935946924
 20
-135.4904438550163
 10
97.54718056691965
 20
-135.4904438550163
 10
97.54718056691965
 20
-135.4904438550163
 10
97.54718056691965
 20
-135.2141482995298
 10
97.32327497566934
 20
-134.9902049662525
 10
97.04764724633047
 20
-134.9902049662525
 97
        0
 97
        0
 75
     2
 76
     1
 98
        0
  0
SPLINE
  5
43
330
1F
100
AcDbEntity
  8
_U+30EC_U+30A4_U+30E4_U+30FC 1
 62
     7
420
 16777215
370
     9
100
AcDbSpline
210
0.0
220
0.0
230
1.0
 70
    11
 71
     3
 72
    17
 73
    13
 74
     0
 42
0.0000000001
 43
0.0000000001
 12
1.0
 22
0.0
 32
0.0
 13
1.0
 23
0.0
 33
0.0
 40
0.0
 40
0.0
 40
0.0
 40
0.0
 40
1.0
 40
1.0
 40
1.0
 40
2.0
 40
2.0
 40
2.0
 40
3.0
 40
3.0
 40
3.0
 40
4.0
 40
4.0
 40
4.0
 40
4.0
 10
101.5248910209954
 20
-124.4905858022107
 30
0.0
 10
101.5248910209954
 20
-124.4354819133355
 30
0.0
 10
101.4801235221375
 20
-124.3906791355691
 30
0.0
 10
101.4249843568775
 20
-124.3906791355691
 30
0.0
 10
101.3698804693944
 20
-124.3906791355691
 30
0.0
 10
101.3250776927597
 20
-124.4354819133355
 30
0.0
 10
101.3250776927597
 20
-124.4905858022107
 30
0.0
 10
101.3250776927597
 20
-124.5463952466411
 30
0.0
 10
101.3698804693944
 20
-124.5911980244079
 30
0.0
 10
101.4249843568775
 20
-124.5911980244079
 30
0.0
 10
101.4801235221375
 20
-124.5911980244079
 30
0.0
 10
101.5248910209954
 20
-124.5463952466411
 30
0.0
 10
101.5248910209954
 20
-124.4905858022107
 30
0.0
  0
SPLINE
  5
44
330
1F
100
AcDbEntity
  8
_U+30EC_U+30A4_U+30E4_U+30FC 1
 62
     7
420
 16777215
370
     9
100
AcDbSpline
210
0.0
220
0.0
230
1.0
 70
    11
 71
     3
 72
    17
 73
    13
 74
     0
 42
0.0000000001
 43
0.0000000001
 12
1.0
 22
0.0
 32
0.0
 13
1.0
 23
0.0
 33
0.0
 40
0.0
 40
0.0
 40
0.0
 40
0.0
 40
1.0
 40
1.0
 40
1.0
 40
2.0
 40
2.0
 40
2.0
 40
3.0
 40
3.0
 40
3.0
 40
4.0
 40
4.0
 40
4.0
 40
4.0
 10
101.5248910209954
 20
-134.4906716330437
 30
0.0
 10
101.5248910209954
 20
-134.4355324663913
 30
0.0
 10
101.4801235221375
 20
-134.3907649664021
 30
0.0
 10
101.4249843568775
 20
-134.3907649664021
 30
0.0
 10
101.3698804693944
 20
-134.3907649664021
 30
0.0
 10
101.3250776927597
 20
-134.4355324663913
 30
0.0
 10
101.3250776927597
 20
-134.4906716330437
 30
0.0
 10
101.3250776927597
 20
-134.5457755219193
 30
0.0
 10
101.3698804693944
 20
-134.590578299686
 30
0.0
 10
101.4249843568775
 20
-134.590578299686
 30
0.0
 10
101.4801235221375
 20
-134.590578299686
 30
0.0
 10
101.5248910209954
 20
-134.5457755219193
 30
0.0
 10
101.5248910209954
 20
-134.4906716330437
 30
0.0
  0
SPLINE
  5
45
330
1F
100
AcDbEntity
  8
_U+30EC_U+30A4_U+30E4_U+30FC 1
 62
     7
420
 16777215
370
     9
100
AcDbSpline
210
0.0
220
0.0
230
1.0
 70
    11
 71
     3
 72
    17
 73
    13
 74
     0
 42
0.0000000001
 43
0.0000000001
 12
1.0
 22
0.0
 32
0.0
 13
1.0
 23
0.0
 33
0.0
 40
0.0
 40
0.0
 40
0.0
 40
0.0
 40
1.0
 40
1.0
 40
1.0
 40
2.0
 40
2.0
 40
2.0
 40
3.0
 40
3.0
 40
3.0
 40
4.0
 40
4.0
 40
4.0
 40
4.0
 10
79.64716602358706
 20
-139.4908732984605
 30
0.0
 10
79.64716602358706
 20
-139.4350638540301
 30
0.0
 10
79.60236324695231
 20
-139.3902963540415
 30
0.0
 10
79.54725935946924
 20
-139.3902963540415
 30
0.0
 10
79.49212220234931
 20
-139.3902963540415
 30
0.0
 10
79.4473526953514
 20
-139.4350638540301
 30
0.0
 10
79.4473526953514
 20
-139.4908732984605
 30
0.0
 10
79.4473526953514
 20
-139.5460124651136
 30
0.0
 10
79.49212220234931
 20
-139.5907799651021
 30
0.0
 10
79.54725935946924
 20
-139.5907799651021
 30
0.0
 10
79.60236324695231
 20
-139.5907799651021
 30
0.0
 10
79.64716602358706
 20
-139.5460124651136
 30
0.0
 10
79.64716602358706
 20
-139.4908732984605
 30
0.0
  0
SPLINE
  5
46
330
1F
100
AcDbEntity
  8
_U+30EC_U+30A4_U+30E4_U+30FC 1
 62
     7
420
 16777215
370
     9
100
AcDbSpline
210
0.0
220
0.0
230
1.0
 70
    11
 71
     3
 72
    17
 73
    13
 74
     0
 42
0.0000000001
 43
0.0000000001
 12
1.0
 22
0.0
 32
0.0
 13
1.0
 23
0.0
 33
0.0
 40
0.0
 40
0.0
 40
0.0
 40
0.0
 40
1.0
 40
1.0
 40
1.0
 40
2.0
 40
2.0
 40
2.0
 40
3.0
 40
3.0
 40
3.0
 40
4.0
 40
4.0
 40
4.0
 40
4.0
 10
97.64708723103749
 20
-139.4908732984605
 30
0.0
 10
97.64708723103749
 20
-139.4350638540301
 30
0.0
 10
97.60232219782152
 20
-139.3902963540415
 30
0.0
 10
97.54718056691965
 20
-139.3902963540415
 30
0.0
 10
97.49207667943658
 20
-139.3902963540415
 30
0.0
 10
97.44727390280181
 20
-139.4350638540301
 30
0.0
 10
97.44727390280181
 20
-139.4908732984605
 30
0.0
 10
97.44727390280181
 20
-139.5460124651136
 30
0.0
 10
97.49207667943658
 20
-139.5907799651021
 30
0.0
 10
97.54718056691965
 20
-139.5907799651021
 30
0.0
 10
97.60232219782152
 20
-139.5907799651021
 30
0.0
 10
97.64708723103749
 20
-139.5460124651136
 30
0.0
 10
97.64708723103749
 20
-139.4908732984605
 30
0.0
  0
SPLINE
  5
47
330
1F
100
AcDbEntity
  8
_U+30EC_U+30A4_U+30E4_U+30FC 1
 62
     7
420
 16777215
370
     9
100
AcDbSpline
210
0.0
220
0.0
230
1.0
 70
    11
 71
     3
 72
    17
 73
    13
 74
     0
 42
0.0000000001
 43
0.0000000001
 12
1.0
 22
0.0
 32
0.0
 13
1.0
 23
0.0
 33
0.0
 40
0.0
 40
0.0
 40
0.0
 40
0.0
 40
1.0
 40
1.0
 40
1.0
 40
2.0
 40
2.0
 40
2.0
 40
3.0
 40
3.0
 40
3.0
 40
4.0
 40
4.0
 40
4.0
 40
4.0
 10
87.64735443059637
 20
-119.3408769146092
 30
0.0
 10
87.64735443059637
 20
-119.2857377479565
 30
0.0
 10
87.60258693173849
 20
-119.2409702479676
 30
0.0
 10
87.5474499781132
 20
-119.2409702479676
 30
0.0
 10
87.49234387899546
 20
-119.2409702479676
 30
0.0
 10
87.4475411023607
 20
-119.2857377479565
 30
0.0
 10
87.4475411023607
 20
-119.3408769146092
 30
0.0
 10
87.4475411023607
 20
-119.3959808034844
 30
0.0
 10
87.49234387899546
 20
-119.4407835812509
 30
0.0
 10
87.5474499781132
 20
-119.4407835812509
 30
0.0
 10
87.60258693173849
 20
-119.4407835812509
 30
0.0
 10
87.64735443059637
 20
-119.3959808034844
 30
0.0
 10
87.64735443059637
 20
-119.3408769146092
 30
0.0
  0
SPLINE
  5
48
330
1F
100
AcDbEntity
  8
_U+30EC_U+30A4_U+30E4_U+30FC 1
 62
     7
420
 16777215
370
     9
100
AcDbSpline
210
0.0
220
0.0
230
1.0
 70
    11
 71
     3
 72
    17
 73
    13
 74
     0
 42
0.0000000001
 43
0.0000000001
 12
1.0
 22
0.0
 32
0.0
 13
1.0
 23
0.0
 33
0.0
 40
0.0
 40
0.0
 40
0.0
 40
0.0
 40
1.0
 40
1.0
 40
1.0
 40
2.0
 40
2.0
 40
2.0
 40
3.0
 40
3.0
 40
3.0
 40
4.0
 40
4.0
 40
4.0
 40
4.0
 10
79.64716602358706
 20
-119.3408769146092
 30
0.0
 10
79.64716602358706
 20
-119.2857377479565
 30
0.0
 10
79.60236324695231
 20
-119.2409702479676
 30
0.0
 10
79.54725935946924
 20
-119.2409702479676
 30
0.0
 10
79.49212220234931
 20
-119.2409702479676
 30
0.0
 10
79.4473526953514
 20
-119.2857377479565
 30
0.0
 10
79.4473526953514
 20
-119.3408769146092
 30
0.0
 10
79.4473526953514
 20
-119.3959808034844
 30
0.0
 10
79.49212220234931
 20
-119.4407835812509
 30
0.0
 10
79.54725935946924
 20
-119.4407835812509
 30
0.0
 10
79.60236324695231
 20
-119.4407835812509
 30
0.0
 10
79.64716602358706
 20
-119.3959808034844
 30
0.0
 10
79.64716602358706
 20
-119.3408769146092
 30
0.0
  0
SPLINE
  5
49
330
1F
100
AcDbEntity
  8
_U+30EC_U+30A4_U+30E4_U+30FC 1
 62
     7
420
 16777215
370
    25
100
AcDbSpline
210
0.0
220
0.0
230
1.0
 70
    11
 71
     3
 72
    53
 73
    49
 74
     0
 42
0.0000000001
 43
0.0000000001
 12
1.0
 22
0.0
 32
0.0
 13
1.0
 23
0.0
 33
0.0
 40
0.0
 40
0.0
 40
0.0
 40
0.0
 40
1.0
 40
1.0
 40
1.0
 40
2.0
 40
2.0
 40
2.0
 40
3.0
 40
3.0
 40
3.0
 40
4.0
 40
4.0
 40
4.0
 40
5.0
 40
5.0
 40
5.0
 40
6.0
 40
6.0
 40
6.0
 40
7.0
 40
7.0
 40
7.0
 40
8.0
 40
8.0
 40
8.0
 40
9.0
 40
9.0
 40
9.0
 40
10.0
 40
10.0
 40
10.0
 40
11.0
 40
11.0
 40
11.0
 40
12.0
 40
12.0
 40
12.0
 40
13.0
 40
13.0
 40
13.0
 40
14.0
 40
14.0
 40
14.0
 40
15.0
 40
15.0
 40
15.0
 40
16.0
 40
16.0
 40
16.0
 40
16.0
 10
80.00477684779699
 20
-123.4928949691269
 30
0.0
 10
82.36189678766185
 20
-123.2903299691775
 30
0.0
 10
84.73281033828592
 20
-123.2903299691775
 30
0.0
 10
87.08993027815077
 20
-123.4928949691269
 30
0.0
 10
87.34901027154109
 20
-123.5149435802325
 30
0.0
 10
87.5474499781132
 20
-123.7313021912895
 30
0.0
 10
87.5474499781132
 20
-123.9910524690022
 30
0.0
 10
87.5474499781132
 20
-124.2673480244886
 30
0.0
 10
87.32353971663535
 20
-124.4905858022107
 30
0.0
 10
87.04721108934916
 20
-124.4905858022107
 30
0.0
 10
87.04721108934916
 20
-124.4905858022107
 30
0.0
 10
84.04722202244339
 20
-124.4905858022107
 30
0.0
 10
84.04722202244339
 20
-124.4905858022107
 30
0.0
 10
84.04722202244339
 20
-124.4905858022107
 30
0.0
 10
84.04722202244339
 20
-134.4906716330437
 30
0.0
 10
84.04722202244339
 20
-134.4906716330437
 30
0.0
 10
84.04722202244339
 20
-134.4906716330437
 30
0.0
 10
86.54767775614098
 20
-134.4906716330437
 30
0.0
 10
86.54767775614098
 20
-134.4906716330437
 30
0.0
 10
86.90461611621187
 20
-134.4906716330437
 30
0.0
 10
87.23463971890337
 20
-134.6808541329962
 30
0.0
 10
87.413109992128
 20
-134.9902049662525
 30
0.0
 10
87.413109992128
 20
-134.9902049662525
 30
0.0
 10
97.04764724633047
 20
-134.9902049662525
 30
0.0
 10
97.04764724633047
 20
-134.9902049662525
 30
0.0
 10
97.32327497566934
 20
-134.9902049662525
 30
0.0
 10
97.54718056691965
 20
-135.2141482995298
 30
0.0
 10
97.54718056691965
 20
-135.4904438550163
 30
0.0
 10
97.54718056691965
 20
-135.4904438550163
 30
0.0
 10
79.54725935946924
 20
-135.4904438550163
 30
0.0
 10
79.54725935946924
 20
-135.4904438550163
 30
0.0
 10
79.54725935946924
 20
-134.9385230218207
 30
0.0
 10
79.99511073693247
 20
-134.4906716330437
 30
0.0
 10
80.54703155618513
 20
-134.4906716330437
 30
0.0
 10
80.54703155618513
 20
-134.4906716330437
 30
0.0
 10
83.04748510350437
 20
-134.4906716330437
 30
0.0
 10
83.04748510350437
 20
-134.4906716330437
 30
0.0
 10
83.04748510350437
 20
-134.4906716330437
 30
0.0
 10
83.04748510350437
 20
-124.4905858022107
 30
0.0
 10
83.04748510350437
 20
-124.4905858022107
 30
0.0
 10
83.04748510350437
 20
-124.4905858022107
 30
0.0
 10
80.04749823559597
 20
-124.4905858022107
 30
0.0
 10
80.04749823559597
 20
-124.4905858022107
 30
0.0
 10
79.78771268666809
 20
-124.4905858022107
 30
0.0
 10
79.57135408107675
 20
-124.2921483022603
 30
0.0
 10
79.54930547052814
 20
-124.0337738578805
 30
0.0
 10
79.52521074892063
 20
-123.758854135727
 30
0.0
 10
79.729151577051
 20
-123.5163194135654
 30
0.0
 10
80.00477684779699
 20
-123.4928949691269
 30
0.0
  0
POLYLINE
  5
4A
330
1F
100
AcDbEntity
  8
_U+30EC_U+30A4_U+30E4_U+30FC 1
 62
     7
420
 16777215
370
     9
100
AcDb2dPolyline
 66
     1
 10
0.0
 20
0.0
 30
0.0
  0
VERTEX
  5
4B
330
4A
100
AcDbEntity
  8
_U+30EC_U+30A4_U+30E4_U+30FC 1
 62
     7
420
 16777215
370
     9
100
AcDbVertex
100
AcDb2dVertex
 10
79.54725935946924
 20
-139.4908732984605
 30
0.0
  0
VERTEX
  5
4C
330
4A
100
AcDbEntity
  8
_U+30EC_U+30A4_U+30E4_U+30FC 1
 62
     7
420
 16777215
370
     9
100
AcDbVertex
100
AcDb2dVertex
 10
97.54718056691965
 20
-139.4908732984605
 30
0.0
  0
SEQEND
  5
4D
330
4A
100
AcDbEntity
  8
_U+30EC_U+30A4_U+30E4_U+30FC 1
 62
     7
420
 16777215
370
     9
  0
POLYLINE
  5
4E
330
1F
100
AcDbEntity
  8
_U+30EC_U+30A4_U+30E4_U+30FC 1
 62
     7
420
 16777215
370
     9
100
AcDb2dPolyline
 66
     1
 10
0.0
 20
0.0
 30
0.0
  0
VERTEX
  5
4F
330
4E
100
AcDbEntity
  8
_U+30EC_U+30A4_U+30E4_U+30FC 1
 62
     7
420
 16777215
370
     9
100
AcDbVertex
100
AcDb2dVertex
 10
79.54725935946924
 20
-137.2302027434702
 30
0.0
  0
VERTEX
  5
50
330
4E
100
AcDbEntity
  8
_U+30EC_U+30A4_U+30E4_U+30FC 1
 62
     7
420
 16777215
370
     9
100
AcDbVertex
100
AcDb2dVertex
 10
79.54725935946924
 20
-140.490645520433
 30
0.0
  0
SEQEND
  5
51
330
4E
100
AcDbEntity
  8
_U+30EC_U+30A4_U+30E4_U+30FC 1
 62
     7
420
 16777215
370
     9
  0
POLYLINE
  5
52
330
1F
100
AcDbEntity
  8
_U+30EC_U+30A4_U+30E4_U+30FC 1
 62
     7
420
 16777215
370
     9
100
AcDb2dPolyline
 66
     1
 10
0.0
 20
0.0
 30
0.0
  0
VERTEX
  5
53
330
52
100
AcDbEntity
  8
_U+30EC_U+30A4_U+30E4_U+30FC 1
 62
     7
420
 16777215
370
     9
100
AcDbVertex
100
AcDb2dVertex
 10
97.54718056691965
 20
-138.0308671877143
 30
0.0
  0
VERTEX
  5
54
330
52
100
AcDbEntity
  8
_U+30EC_U+30A4_U+30E4_U+30FC 1
 62
     7
420
 16777215
370
     9
100
AcDbVertex
100
AcDb2dVertex
 10
97.54718056691965
 20
-140.490645520433
 30
0.0
  0
SEQEND
  5
55
330
52
100
AcDbEntity
  8
_U+30EC_U+30A4_U+30E4_U+30FC 1
 62
     7
420
 16777215
370
     9
  0
INSERT
  5
57
330
1F
100
AcDbEntity
  8
_U+30EC_U+30A4_U+30E4_U+30FC 1
100
AcDbBlockReference
  2
block 2
 10
0.0
 20
0.0
 30
0.0
  0
POLYLINE
  5
60
330
1F
100
AcDbEntity
  8
_U+30EC_U+30A4_U+30E4_U+30FC 1
 62
     7
420
 16777215
370
     9
100
AcDb2dPolyline
 66
     1
 10
0.0
 20
0.0
 30
0.0
  0
VERTEX
  5
61
330
60
100
AcDbEntity
  8
_U+30EC_U+30A4_U+30E4_U+30FC 1
 62
     7
420
 16777215
370
     9
100
AcDbVertex
100
AcDb2dVertex
 10
79.54725935946924
 20
-119.3408769146092
 30
0.0
  0
VERTEX
  5
62
330
60
100
AcDbEntity
  8
_U+30EC_U+30A4_U+30E4_U+30FC 1
 62
     7
420
 16777215
370
     9
100
AcDbVertex
100
AcDb2dVertex
 10
87.5474499781132
 20
-119.3408769146092
 30
0.0
  0
SEQEND
  5
63
330
60
100
AcDbEntity
  8
_U+30EC_U+30A4_U+30E4_U+30FC 1
 62
     7
420
 16777215
370
     9
  0
POLYLINE
  5
64
330
1F
100
AcDbEntity
  8
_U+30EC_U+30A4_U+30E4_U+30FC 1
 62
     7
420
 16777215
370
     9
100
AcDb2dPolyline
 66
     1
 10
0.0
 20
0.0
 30
0.0
  0
VERTEX
  5
65
330
64
100
AcDbEntity
  8
_U+30EC_U+30A4_U+30E4_U+30FC 1
 62
     7
420
 16777215
370
     9
100
AcDbVertex
100
AcDb2dVertex
 10
79.54725935946924
 20
-121.5009352474024
 30
0.0
  0
VERTEX
  5
66
330
64
100
AcDbEntity
  8
_U+30EC_U+30A4_U+30E4_U+30FC 1
 62
     7
420
 16777215
370
     9
100
AcDbVertex
100
AcDb2dVertex
 10
79.54725935946924
 20
-118.341104692637
 30
0.0
  0
SEQEND
  5
67
330
64
100
AcDbEntity
  8
_U+30EC_U+30A4_U+30E4_U+30FC 1
 62
     7
420
 16777215
370
     9
  0
POLYLINE
  5
68
330
1F
100
AcDbEntity
  8
_U+30EC_U+30A4_U+30E4_U+30FC 1
 62
     7
420
 16777215
370
     9
100
AcDb2dPolyline
 66
     1
 10
0.0
 20
0.0
 30
0.0
  0
VERTEX
  5
69
330
68
100
AcDbEntity
  8
_U+30EC_U+30A4_U+30E4_U+30FC 1
 62
     7
420
 16777215
370
     9
100
AcDbVertex
100
AcDb2dVertex
 10
87.5474499781132
 20
-121.5009352474024
 30
0.0
  0
VERTEX
  5
6A
330
68
100
AcDbEntity
  8
_U+30EC_U+30A4_U+30E4_U+30FC 1
 62
     7
420
 16777215
370
     9
100
AcDbVertex
100
AcDb2dVertex
 10
87.5474499781132
 20
-118.341104692637
 30
0.0
  0
SEQEND
  5
6B
330
68
100
AcDbEntity
  8
_U+30EC_U+30A4_U+30E4_U+30FC 1
 62
     7
420
 16777215
370
     9
  0
INSERT
  5
6D
330
1F
100
AcDbEntity
  8
_U+30EC_U+30A4_U+30E4_U+30FC 1
100
AcDbBlockReference
  2
block 3
 10
0.0
 20
0.0
 30
0.0
  0
POLYLINE
  5
74
330
1F
100
AcDbEntity
  8
_U+30EC_U+30A4_U+30E4_U+30FC 1
 62
     7
420
 16777215
370
     9
100
AcDb2dPolyline
 66
     1
 10
0.0
 20
0.0
 30
0.0
  0
VERTEX
  5
75
330
74
100
AcDbEntity
  8
_U+30EC_U+30A4_U+30E4_U+30FC 1
 62
     7
420
 16777215
370
     9
100
AcDbVertex
100
AcDb2dVertex
 10
101.4249843568775
 20
-134.4906716330437
 30
0.0
  0
VERTEX
  5
76
330
74
100
AcDbEntity
  8
_U+30EC_U+30A4_U+30E4_U+30FC 1
 62
     7
420
 16777215
370
     9
100
AcDbVertex
100
AcDb2dVertex
 10
101.4249843568775
 20
-124.4905858022107
 30
0.0
  0
SEQEND
  5
77
330
74
100
AcDbEntity
  8
_U+30EC_U+30A4_U+30E4_U+30FC 1
 62
     7
420
 16777215
370
     9
  0
POLYLINE
  5
78
330
1F
100
AcDbEntity
  8
_U+30EC_U+30A4_U+30E4_U+30FC 1
 62
     7
420
 16777215
370
     9
100
AcDb2dPolyline
 66
     1
 10
0.0
 20
0.0
 30
0.0
  0
VERTEX
  5
79
330
78
100
AcDbEntity
  8
_U+30EC_U+30A4_U+30E4_U+30FC 1
 62
     7
420
 16777215
370
     9
100
AcDbVertex
100
AcDb2dVertex
 10
100.4293396600563
 20
-134.4906716330437
 30
0.0
  0
VERTEX
  5
7A
330
78
100
AcDbEntity
  8
_U+30EC_U+30A4_U+30E4_U+30FC 1
 62
     7
420
 16777215
370
     9
100
AcDbVertex
100
AcDb2dVertex
 10
102.4254268313541
 20
-134.4906716330437
 30
0.0
  0
SEQEND
  5
7B
330
78
100
AcDbEntity
  8
_U+30EC_U+30A4_U+30E4_U+30FC 1
 62
     7
420
 16777215
370
     9
  0
POLYLINE
  5
7C
330
1F
100
AcDbEntity
  8
_U+30EC_U+30A4_U+30E4_U+30FC 1
 62
     7
420
 16777215
370
     9
100
AcDb2dPolyline
 66
     1
 10
0.0
 20
0.0
 30
0.0
  0
VERTEX
  5
7D
330
7C
100
AcDbEntity
  8
_U+30EC_U+30A4_U+30E4_U+30FC 1
 62
     7
420
 16777215
370
     9
100
AcDbVertex
100
AcDb2dVertex
 10
100.4293396600563
 20
-124.4905858022107
 30
0.0
  0
VERTEX
  5
7E
330
7C
100
AcDbEntity
  8
_U+30EC_U+30A4_U+30E4_U+30FC 1
 62
     7
420
 16777215
370
     9
100
AcDbVertex
100
AcDb2dVertex
 10
102.4254268313541
 20
-124.4905858022107
 30
0.0
  0
SEQEND
  5
7F
330
7C
100
AcDbEntity
  8
_U+30EC_U+30A4_U+30E4_U+30FC 1
 62
     7
420
 16777215
370
     9
  0
INSERT
  5
81
330
1F
100
AcDbEntity
  8
_U+30EC_U+30A4_U+30E4_U+30FC 1
100
AcDbBlockReference
  2
block 4
 10
0.0
 20
0.0
 30
0.0
  0
SPLINE
  5
89
330
1F
100
AcDbEntity
  8
_U+30EC_U+30A4_U+30E4_U+30FC 1
 62
     7
420
 16777215
370
     9
100
AcDbSpline
210
0.0
220
0.0
230
1.0
 70
    11
 71
     3
 72
    17
 73
    13
 74
     0
 42
0.0000000001
 43
0.0000000001
 12
1.0
 22
0.0
 32
0.0
 13
1.0
 23
0.0
 33
0.0
 40
0.0
 40
0.0
 40
0.0
 40
0.0
 40
1.0
 40
1.0
 40
1.0
 40
2.0
 40
2.0
 40
2.0
 40
3.0
 40
3.0
 40
3.0
 40
4.0
 40
4.0
 40
4.0
 40
4.0
 10
83.14460482324886
 20
-129.2579188565746
 30
0.0
 10
83.14460482324886
 20
-129.2027796899215
 30
0.0
 10
83.09983732439098
 20
-129.1580121899329
 30
0.0
 10
83.04469815913102
 20
-129.1580121899329
 30
0.0
 10
82.98959427164795
 20
-129.1580121899329
 30
0.0
 10
82.94479149501319
 20
-129.2027796899215
 30
0.0
 10
82.94479149501319
 20
-129.2579188565746
 30
0.0
 10
82.94479149501319
 20
-129.3130227454495
 30
0.0
 10
82.98959427164795
 20
-129.3578255232162
 30
0.0
 10
83.04469815913102
 20
-129.3578255232162
 30
0.0
 10
83.09983732439098
 20
-129.3578255232162
 30
0.0
 10
83.14460482324886
 20
-129.3130227454495
 30
0.0
 10
83.14460482324886
 20
-129.2579188565746
 30
0.0
  0
SPLINE
  5
8A
330
1F
100
AcDbEntity
  8
_U+30EC_U+30A4_U+30E4_U+30FC 1
 62
     7
420
 16777215
370
     9
100
AcDbSpline
210
0.0
220
0.0
230
1.0
 70
    11
 71
     3
 72
    17
 73
    13
 74
     0
 42
0.0000000001
 43
0.0000000001
 12
1.0
 22
0.0
 32
0.0
 13
1.0
 23
0.0
 33
0.0
 40
0.0
 40
0.0
 40
0.0
 40
0.0
 40
1.0
 40
1.0
 40
1.0
 40
2.0
 40
2.0
 40
2.0
 40
3.0
 40
3.0
 40
3.0
 40
4.0
 40
4.0
 40
4.0
 40
4.0
 10
84.14437701996476
 20
-129.2579188565746
 30
0.0
 10
84.14437701996476
 20
-129.2027796899215
 30
0.0
 10
84.09960952110688
 20
-129.1580121899329
 30
0.0
 10
84.04447035584693
 20
-129.1580121899329
 30
0.0
 10
83.98936646836385
 20
-129.1580121899329
 30
0.0
 10
83.9445636917291
 20
-129.2027796899215
 30
0.0
 10
83.9445636917291
 20
-129.2579188565746
 30
0.0
 10
83.9445636917291
 20
-129.3130227454495
 30
0.0
 10
83.98936646836385
 20
-129.3578255232162
 30
0.0
 10
84.04447035584693
 20
-129.3578255232162
 30
0.0
 10
84.09960952110688
 20
-129.3578255232162
 30
0.0
 10
84.14437701996476
 20
-129.3130227454495
 30
0.0
 10
84.14437701996476
 20
-129.2579188565746
 30
0.0
  0
INSERT
  5
8C
330
1F
100
AcDbEntity
  8
_U+30EC_U+30A4_U+30E4_U+30FC 1
100
AcDbBlockReference
  2
block 5
 10
0.0
 20
0.0
 30
0.0
  0
POLYLINE
  5
91
330
1F
100
AcDbEntity
  8
_U+30EC_U+30A4_U+30E4_U+30FC 1
 62
     7
420
 16777215
370
     9
100
AcDb2dPolyline
 66
     1
 10
0.0
 20
0.0
 30
0.0
  0
VERTEX
  5
92
330
91
100
AcDbEntity
  8
_U+30EC_U+30A4_U+30E4_U+30FC 1
 62
     7
420
 16777215
370
     9
100
AcDbVertex
100
AcDb2dVertex
 10
84.90574200054073
 20
-129.2579188565746
 30
0.0
  0
VERTEX
  5
93
330
91
100
AcDbEntity
  8
_U+30EC_U+30A4_U+30E4_U+30FC 1
 62
     7
420
 16777215
370
     9
100
AcDbVertex
100
AcDb2dVertex
 10
81.06653209848713
 20
-129.2579188565746
 30
0.0
  0
SEQEND
  5
94
330
91
100
AcDbEntity
  8
_U+30EC_U+30A4_U+30E4_U+30FC 1
 62
     7
420
 16777215
370
     9
  0
SPLINE
  5
95
330
1F
100
AcDbEntity
  8
_U+30EC_U+30A4_U+30E4_U+30FC 1
 62
     7
420
 16777215
370
     9
100
AcDbSpline
210
0.0
220
0.0
230
1.0
 70
    11
 71
     3
 72
    17
 73
    13
 74
     0
 42
0.0000000001
 43
0.0000000001
 12
1.0
 22
0.0
 32
0.0
 13
1.0
 23
0.0
 33
0.0
 40
0.0
 40
0.0
 40
0.0
 40
0.0
 40
1.0
 40
1.0
 40
1.0
 40
2.0
 40
2.0
 40
2.0
 40
3.0
 40
3.0
 40
3.0
 40
4.0
 40
4.0
 40
4.0
 40
4.0
 10
101.5248910209954
 20
-135.4838821883514
 30
0.0
 10
101.5248910209954
 20
-135.4284255216988
 30
0.0
 10
101.4801235221375
 20
-135.383622743932
 30
0.0
 10
101.4249843568775
 20
-135.383622743932
 30
0.0
 10
101.3698804693944
 20
-135.383622743932
 30
0.0
 10
101.3250776927597
 20
-135.4284255216988
 30
0.0
 10
101.3250776927597
 20
-135.4838821883514
 30
0.0
 10
101.3250776927597
 20
-135.5390213550039
 30
0.0
 10
101.3698804693944
 20
-135.5837888549931
 30
0.0
 10
101.4249843568775
 20
-135.5837888549931
 30
0.0
 10
101.4801235221375
 20
-135.5837888549931
 30
0.0
 10
101.5248910209954
 20
-135.5390213550039
 30
0.0
 10
101.5248910209954
 20
-135.4838821883514
 30
0.0
  0
POLYLINE
  5
96
330
1F
100
AcDbEntity
  8
_U+30EC_U+30A4_U+30E4_U+30FC 1
 62
     7
420
 16777215
370
     9
100
AcDb2dPolyline
 66
     1
 10
0.0
 20
0.0
 30
0.0
  0
VERTEX
  5
97
330
96
100
AcDbEntity
  8
_U+30EC_U+30A4_U+30E4_U+30FC 1
 62
     7
420
 16777215
370
     9
100
AcDbVertex
100
AcDb2dVertex
 10
101.4249843568775
 20
-133.0564888556247
 30
0.0
  0
VERTEX
  5
98
330
96
100
AcDbEntity
  8
_U+30EC_U+30A4_U+30E4_U+30FC 1
 62
     7
420
 16777215
370
     9
100
AcDbVertex
100
AcDb2dVertex
 10
101.4249843568775
 20
-135.4835646883512
 30
0.0
  0
SEQEND
  5
99
330
96
100
AcDbEntity
  8
_U+30EC_U+30A4_U+30E4_U+30FC 1
 62
     7
420
 16777215
370
     9
  0
POLYLINE
  5
9A
330
1F
100
AcDbEntity
  8
_U+30EC_U+30A4_U+30E4_U+30FC 1
 62
     7
420
 16777215
370
     9
100
AcDb2dPolyline
 66
     1
 10
0.0
 20
0.0
 30
0.0
  0
VERTEX
  5
9B
330
9A
100
AcDbEntity
  8
_U+30EC_U+30A4_U+30E4_U+30FC 1
 62
     7
420
 16777215
370
     9
100
AcDbVertex
100
AcDb2dVertex
 10
100.4293396600563
 20
-135.4835646883512
 30
0.0
  0
VERTEX
  5
9C
330
9A
100
AcDbEntity
  8
_U+30EC_U+30A4_U+30E4_U+30FC 1
 62
     7
420
 16777215
370
     9
100
AcDbVertex
100
AcDb2dVertex
 10
102.4254268313541
 20
-135.4835646883512
 30
0.0
  0
SEQEND
  5
9D
330
9A
100
AcDbEntity
  8
_U+30EC_U+30A4_U+30E4_U+30FC 1
 62
     7
420
 16777215
370
     9
  0
INSERT
  5
9F
330
1F
100
AcDbEntity
  8
_U+30EC_U+30A4_U+30E4_U+30FC 1
100
AcDbBlockReference
  2
block 6
 10
0.0
 20
0.0
 30
0.0
  0
POLYLINE
  5
A4
330
1F
100
AcDbEntity
  8
_U+30EC_U+30A4_U+30E4_U+30FC 1
  6
AI-Linetype-1
 62
   251
420
  5855577
370
    25
100
AcDb2dPolyline
 66
     1
 10
0.0
 20
0.0
 30
0.0
  0
VERTEX
  5
A5
330
A4
100
AcDbEntity
  8
_U+30EC_U+30A4_U+30E4_U+30FC 1
  6
AI-Linetype-1
 62
   251
420
  5855577
370
    25
100
AcDbVertex
100
AcDb2dVertex
 10
79.00842659543822
 20
-124.616351079957
 30
0.0
  0
VERTEX
  5
A6
330
A4
100
AcDbEntity
  8
_U+30EC_U+30A4_U+30E4_U+30FC 1
  6
AI-Linetype-1
 62
   251
420
  5855577
370
    25
100
AcDbVertex
100
AcDb2dVertex
 10
79.00842659543822
 20
-122.766666635975
 30
0.0
  0
VERTEX
  5
A7
330
A4
100
AcDbEntity
  8
_U+30EC_U+30A4_U+30E4_U+30FC 1
  6
AI-Linetype-1
 62
   251
420
  5855577
370
    25
100
AcDbVertex
100
AcDb2dVertex
 10
88.13655136256035
 20
-122.766666635975
 30
0.0
  0
VERTEX
  5
A8
330
A4
100
AcDbEntity
  8
_U+30EC_U+30A4_U+30E4_U+30FC 1
  6
AI-Linetype-1
 62
   251
420
  5855577
370
    25
100
AcDbVertex
100
AcDb2dVertex
 10
88.13655136256035
 20
-124.616351079957
 30
0.0
  0
SEQEND
  5
AA
330
A4
100
AcDbEntity
  8
_U+30EC_U+30A4_U+30E4_U+30FC 1
  6
AI-Linetype-1
 62
   251
420
  5855577
370
    25
  0
ENDSEC
  0
SECTION
  2
OBJECTS
  0
DICTIONARY
  5
C
330
0
100
AcDbDictionary
281
     1
  3
ACAD_GROUP
350
D
  3
ACAD_LAYOUT
350
1A
  3
ACAD_MATERIAL
350
3B
  3
ACAD_MLEADERSTYLE
350
AC
  3
ACAD_MLINESTYLE
350
17
  3
ACAD_PLOTSETTINGS
350
19
  3
ACAD_PLOTSTYLENAME
350
E
  3
ACAD_TABLESTYLE
350
AB
  3
ACAD_VISUALSTYLE
350
2A
  0
SUN
  5
3F
330
29
100
AcDbSun
 90
        1
290
     0
 63
     7
421
 16777215
 40
1.0
291
     1
 91
  2455826
 92
 54000000
292
     0
 70
     2
 71
   256
280
     1
  0
DICTIONARY
  5
D
102
{ACAD_REACTORS
330
C
102
}
330
C
100
AcDbDictionary
281
     1
  0
DICTIONARY
  5
1A
102
{ACAD_REACTORS
330
C
102
}
330
C
100
AcDbDictionary
281
     1
  3
Layout1
350
1E
  3
Layout2
350
26
  3
Model
350
22
  0
DICTIONARY
  5
3B
102
{ACAD_REACTORS
330
C
102
}
330
C
100
AcDbDictionary
281
     1
  3
ByBlock
350
3D
  3
ByLayer
350
3C
  3
Global
350
3E
  0
DICTIONARY
  5
AC
102
{ACAD_REACTORS
330
C
102
}
330
C
100
AcDbDictionary
281
     1
  0
DICTIONARY
  5
17
102
{ACAD_REACTORS
330
C
102
}
330
C
100
AcDbDictionary
281
     1
  3
Standard
350
18
  0
DICTIONARY
  5
19
102
{ACAD_REACTORS
330
C
102
}
330
C
100
AcDbDictionary
281
     1
  0
ACDBDICTIONARYWDFLT
  5
E
102
{ACAD_REACTORS
330
C
102
}
330
C
100
AcDbDictionary
281
     1
  3
Normal
350
F
100
AcDbDictionaryWithDefault
340
F
  0
DICTIONARY
  5
AB
102
{ACAD_REACTORS
330
C
102
}
330
C
100
AcDbDictionary
281
     1
  0
DICTIONARY
  5
2A
102
{ACAD_REACTORS
330
C
102
}
330
C
100
AcDbDictionary
281
     1
  3
2dWireframe
350
2F
  3
3D Hidden
350
31
  3
3dWireframe
350
30
  3
Basic
350
32
  3
Brighten
350
36
  3
ColorChange
350
3A
  3
Conceptual
350
34
  3
Dim
350
35
  3
Facepattern
350
39
  3
Flat
350
2B
  3
FlatWithEdges
350
2C
  3
Gouraud
350
2D
  3
GouraudWithEdges
350
2E
  3
Linepattern
350
38
  3
Realistic
350
33
  3
Thicken
350
37
  0
LAYOUT
  5
1E
102
{ACAD_REACTORS
330
1A
102
}
330
1A
100
AcDbPlotSettings
  1

  2
none_device
  4

  6

 40
0.0
 41
0.0
 42
0.0
 43
0.0
 44
0.0
 45
0.0
 46
0.0
 47
0.0
 48
0.0
 49
0.0
140
0.0
141
0.0
142
1.0
143
1.0
 70
   688
 72
     0
 73
     0
 74
     5
  7

 75
    16
 76
     0
 77
     2
 78
   300
147
1.0
148
0.0
149
0.0
100
AcDbLayout
  1
Layout1
 70
     1
 71
     1
 10
0.0
 20
0.0
 11
12.0
 21
9.0
 12
0.0
 22
0.0
 32
0.0
 14
1.000000000000000E+20
 24
1.000000000000000E+20
 34
1.000000000000000E+20
 15
-1.000000000000000E+20
 25
-1.000000000000000E+20
 35
-1.000000000000000E+20
146
0.0
 13
0.0
 23
0.0
 33
0.0
 16
1.0
 26
0.0
 36
0.0
 17
0.0
 27
1.0
 37
0.0
 76
     0
330
1B
  0
LAYOUT
  5
26
102
{ACAD_REACTORS
330
1A
102
}
330
1A
100
AcDbPlotSettings
  1

  2
none_device
  4

  6

 40
0.0
 41
0.0
 42
0.0
 43
0.0
 44
0.0
 45
0.0
 46
0.0
 47
0.0
 48
0.0
 49
0.0
140
0.0
141
0.0
142
1.0
143
1.0
 70
   688
 72
     0
 73
     0
 74
     5
  7

 75
    16
 76
     0
 77
     2
 78
   300
147
1.0
148
0.0
149
0.0
100
AcDbLayout
  1
Layout2
 70
     1
 71
     2
 10
0.0
 20
0.0
 11
0.0
 21
0.0
 12
0.0
 22
0.0
 32
0.0
 14
0.0
 24
0.0
 34
0.0
 15
0.0
 25
0.0
 35
0.0
146
0.0
 13
0.0
 23
0.0
 33
0.0
 16
1.0
 26
0.0
 36
0.0
 17
0.0
 27
1.0
 37
0.0
 76
     0
330
23
  0
LAYOUT
  5
22
102
{ACAD_REACTORS
330
1A
102
}
330
1A
100
AcDbPlotSettings
  1

  2
none_device
  4

  6

 40
0.0
 41
0.0
 42
0.0
 43
0.0
 44
0.0
 45
0.0
 46
0.0
 47
0.0
 48
0.0
 49
0.0
140
0.0
141
0.0
142
1.0
143
1.0
 70
  1712
 72
     0
 73
     0
 74
     0
  7

 75
     0
 76
     0
 77
     2
 78
   300
147
1.0
148
0.0
149
0.0
100
AcDbLayout
  1
Model
 70
     1
 71
     0
 10
0.0
 20
0.0
 11
12.0
 21
9.0
 12
0.0
 22
0.0
 32
0.0
 14
1.000000000000000E+20
 24
1.000000000000000E+20
 34
1.000000000000000E+20
 15
-1.000000000000000E+20
 25
-1.000000000000000E+20
 35
-1.000000000000000E+20
146
0.0
 13
0.0
 23
0.0
 33
0.0
 16
1.0
 26
0.0
 36
0.0
 17
0.0
 27
1.0
 37
0.0
 76
     0
330
1F
331
29
  0
MATERIAL
  5
3D
102
{ACAD_REACTORS
330
3B
102
}
330
3B
100
AcDbMaterial
  1
ByBlock
 72
     1
 94
      127
  0
MATERIAL
  5
3C
102
{ACAD_REACTORS
330
3B
102
}
330
3B
100
AcDbMaterial
  1
ByLayer
 72
     1
 94
      127
  0
MATERIAL
  5
3E
102
{ACAD_REACTORS
330
3B
102
}
330
3B
100
AcDbMaterial
  1
Global
 72
     1
 94
      127
  0
MLINESTYLE
  5
18
102
{ACAD_REACTORS
330
17
102
}
330
17
100
AcDbMlineStyle
  2
Standard
 70
     0
  3

 62
   256
 51
90.0
 52
90.0
 71
     2
 49
0.5
 62
   256
  6
BYLAYER
 49
-0.5
 62
   256
  6
BYLAYER
  0
ACDBPLACEHOLDER
  5
F
102
{ACAD_REACTORS
330
E
102
}
330
E
  0
VISUALSTYLE
  5
2F
102
{ACAD_REACTORS
330
2A
102
}
330
2A
100
AcDbVisualStyle
  2
2dWireframe
 70
     4
177
     2
291
     0
 71
     0
176
     1
 72
     2
176
     1
 73
     0
176
     1
 90
        0
176
     1
 40
-0.6
176
     1
 41
-30.0
176
     1
 62
     5
 63
     7
421
 16777215
176
     1
 74
     1
176
     1
 91
        4
176
     1
 64
     7
176
     1
 65
   257
176
     1
 75
     1
176
     1
175
     1
176
     1
 42
1.0
176
     1
 92
        0
176
     1
 66
   257
176
     1
 43
1.0
176
     1
 76
     1
176
     1
 77
     6
176
     1
 78
     2
176
     1
 67
     7
176
     1
 79
     5
176
     1
170
     0
176
     1
171
     0
176
     1
290
     0
176
     1
 93
        1
176
     1
 44
0.0
176
     1
173
     0
176
     1
  0
VISUALSTYLE
  5
31
102
{ACAD_REACTORS
330
2A
102
}
330
2A
100
AcDbVisualStyle
  2
3D Hidden
 70
     6
177
     2
291
     0
 71
     1
176
     1
 72
     2
176
     1
 73
     2
176
     1
 90
        0
176
     1
 40
-0.6
176
     1
 41
-30.0
176
     1
 62
     5
 63
     7
421
 16777215
176
     1
 74
     2
176
     1
 91
        2
176
     1
 64
     7
176
     1
 65
   257
176
     1
 75
     2
176
     1
175
     1
176
     1
 42
40.0
176
     1
 92
        0
176
     1
 66
   257
176
     1
 43
1.0
176
     1
 76
     1
176
     1
 77
     6
176
     1
 78
     2
176
     1
 67
     7
176
     1
 79
     3
176
     1
170
     0
176
     1
171
     0
176
     1
290
     0
176
     1
 93
        1
176
     1
 44
0.0
176
     1
173
     0
176
     1
  0
VISUALSTYLE
  5
30
102
{ACAD_REACTORS
330
2A
102
}
330
2A
100
AcDbVisualStyle
  2
3dWireframe
 70
     5
177
     2
291
     0
 71
     0
176
     1
 72
     2
176
     1
 73
     0
176
     1
 90
        0
176
     1
 40
-0.6
176
     1
 41
-30.0
176
     1
 62
     5
 63
     7
421
 16777215
176
     1
 74
     1
176
     1
 91
        4
176
     1
 64
     7
176
     1
 65
   257
176
     1
 75
     1
176
     1
175
     1
176
     1
 42
1.0
176
     1
 92
        0
176
     1
 66
   257
176
     1
 43
1.0
176
     1
 76
     1
176
     1
 77
     6
176
     1
 78
     2
176
     1
 67
     7
176
     1
 79
     5
176
     1
170
     0
176
     1
171
     0
176
     1
290
     0
176
     1
 93
        1
176
     1
 44
0.0
176
     1
173
     0
176
     1
  0
VISUALSTYLE
  5
32
102
{ACAD_REACTORS
330
2A
102
}
330
2A
100
AcDbVisualStyle
  2
Basic
 70
     7
177
     2
291
     1
 71
     1
176
     1
 72
     0
176
     1
 73
     1
176
     1
 90
        0
176
     1
 40
-0.6
176
     1
 41
-30.0
176
     1
 62
     5
 63
     7
421
 16777215
176
     1
 74
     0
176
     1
 91
        4
176
     1
 64
     7
176
     1
 65
   257
176
     1
 75
     1
176
     1
175
     1
176
     1
 42
1.0
176
     1
 92
        8
176
     1
 66
     7
176
     1
 43
1.0
176
     1
 76
     1
176
     1
 77
     6
176
     1
 78
     2
176
     1
 67
     7
176
     1
 79
     5
176
     1
170
     0
176
     1
171
     0
176
     1
290
     0
176
     1
 93
        1
176
     1
 44
0.0
176
     1
173
     0
176
     1
  0
VISUALSTYLE
  5
36
102
{ACAD_REACTORS
330
2A
102
}
330
2A
100
AcDbVisualStyle
  2
Brighten
 70
    12
177
     2
291
     1
 71
     2
176
     1
 72
     2
176
     1
 73
     0
176
     1
 90
        0
176
     1
 40
-0.6
176
     1
 41
-30.0
176
     1
 62
     5
 63
     7
421
 16777215
176
     1
 74
     1
176
     1
 91
        4
176
     1
 64
     7
176
     1
 65
   257
176
     1
 75
     1
176
     1
175
     1
176
     1
 42
1.0
176
     1
 92
        8
176
     1
 66
     7
176
     1
 43
1.0
176
     1
 76
     1
176
     1
 77
     6
176
     1
 78
     2
176
     1
 67
     7
176
     1
 79
     5
176
     1
170
     0
176
     1
171
     0
176
     1
290
     0
176
     1
 93
        1
176
     1
 44
50.0
176
     1
173
     0
176
     1
  0
VISUALSTYLE
  5
3A
102
{ACAD_REACTORS
330
2A
102
}
330
2A
100
AcDbVisualStyle
  2
ColorChange
 70
    16
177
     2
291
     1
 71
     2
176
     1
 72
     2
176
     1
 73
     3
176
     1
 90
        0
176
     1
 40
-0.6
176
     1
 41
-30.0
176
     1
 62
     5
 63
     8
421
  8421504
176
     1
 74
     1
176
     1
 91
        4
176
     1
 64
     7
176
     1
 65
   257
176
     1
 75
     1
176
     1
175
     1
176
     1
 42
1.0
176
     1
 92
        8
176
     1
 66
     8
424
  8421504
176
     1
 43
1.0
176
     1
 76
     1
176
     1
 77
     6
176
     1
 78
     2
176
     1
 67
     7
176
     1
 79
     5
176
     1
170
     0
176
     1
171
     0
176
     1
290
     0
176
     1
 93
        1
176
     1
 44
0.0
176
     1
173
     0
176
     1
  0
VISUALSTYLE
  5
34
102
{ACAD_REACTORS
330
2A
102
}
330
2A
100
AcDbVisualStyle
  2
Conceptual
 70
     9
177
     2
291
     0
 71
     3
176
     1
 72
     2
176
     1
 73
     0
176
     1
 90
        0
176
     1
 40
-0.6
176
     1
 41
-30.0
176
     1
 62
     5
 63
     7
421
 16777215
176
     1
 74
     2
176
     1
 91
        2
176
     1
 64
     7
176
     1
 65
   257
176
     1
 75
     1
176
     1
175
     1
176
     1
 42
40.0
176
     1
 92
        8
176
     1
 66
     7
176
     1
 43
1.0
176
     1
 76
     1
176
     1
 77
     6
176
     1
 78
     2
176
     1
 67
     7
176
     1
 79
     3
176
     1
170
     0
176
     1
171
     0
176
     1
290
     0
176
     1
 93
        1
176
     1
 44
0.0
176
     1
173
     0
176
     1
  0
VISUALSTYLE
  5
35
102
{ACAD_REACTORS
330
2A
102
}
330
2A
100
AcDbVisualStyle
  2
Dim
 70
    11
177
     2
291
     1
 71
     2
176
     1
 72
     2
176
     1
 73
     0
176
     1
 90
        0
176
     1
 40
-0.6
176
     1
 41
-30.0
176
     1
 62
     5
 63
     7
421
 16777215
176
     1
 74
     1
176
     1
 91
        4
176
     1
 64
     7
176
     1
 65
   257
176
     1
 75
     1
176
     1
175
     1
176
     1
 42
1.0
176
     1
 92
        8
176
     1
 66
     7
176
     1
 43
1.0
176
     1
 76
     1
176
     1
 77
     6
176
     1
 78
     2
176
     1
 67
     7
176
     1
 79
     5
176
     1
170
     0
176
     1
171
     0
176
     1
290
     0
176
     1
 93
        1
176
     1
 44
-50.0
176
     1
173
     0
176
     1
  0
VISUALSTYLE
  5
39
102
{ACAD_REACTORS
330
2A
102
}
330
2A
100
AcDbVisualStyle
  2
Facepattern
 70
    15
177
     2
291
     1
 71
     2
176
     1
 72
     2
176
     1
 73
     0
176
     1
 90
        0
176
     1
 40
-0.6
176
     1
 41
-30.0
176
     1
 62
     5
 63
     7
421
 16777215
176
     1
 74
     1
176
     1
 91
        4
176
     1
 64
     7
176
     1
 65
   257
176
     1
 75
     1
176
     1
175
     1
176
     1
 42
1.0
176
     1
 92
        8
176
     1
 66
     7
176
     1
 43
1.0
176
     1
 76
     1
176
     1
 77
     6
176
     1
 78
     2
176
     1
 67
     7
176
     1
 79
     5
176
     1
170
     0
176
     1
171
     0
176
     1
290
     0
176
     1
 93
        1
176
     1
 44
0.0
176
     1
173
     0
176
     1
  0
VISUALSTYLE
  5
2B
102
{ACAD_REACTORS
330
2A
102
}
330
2A
100
AcDbVisualStyle
  2
Flat
 70
     0
177
     2
291
     1
 71
     2
176
     1
 72
     1
176
     1
 73
     1
176
     1
 90
        2
176
     1
 40
-0.6
176
     1
 41
30.0
176
     1
 62
     5
 63
     7
421
 16777215
176
     1
 74
     0
176
     1
 91
        4
176
     1
 64
     7
176
     1
 65
   257
176
     1
 75
     1
176
     1
175
     1
176
     1
 42
1.0
176
     1
 92
        8
176
     1
 66
     7
176
     1
 43
1.0
176
     1
 76
     1
176
     1
 77
     6
176
     1
 78
     2
176
     1
 67
     7
176
     1
 79
     5
176
     1
170
     0
176
     1
171
     0
176
     1
290
     0
176
     1
 93
       13
176
     1
 44
0.0
176
     1
173
     0
176
     1
  0
VISUALSTYLE
  5
2C
102
{ACAD_REACTORS
330
2A
102
}
330
2A
100
AcDbVisualStyle
  2
FlatWithEdges
 70
     1
177
     2
291
     1
 71
     2
176
     1
 72
     1
176
     1
 73
     1
176
     1
 90
        2
176
     1
 40
-0.6
176
     1
 41
30.0
176
     1
 62
     5
 63
     7
421
 16777215
176
     1
 74
     1
176
     1
 91
        4
176
     1
 64
     7
176
     1
 65
   257
176
     1
 75
     1
176
     1
175
     1
176
     1
 42
1.0
176
     1
 92
        0
176
     1
 66
   257
176
     1
 43
1.0
176
     1
 76
     1
176
     1
 77
     6
176
     1
 78
     2
176
     1
 67
     7
176
     1
 79
     5
176
     1
170
     0
176
     1
171
     0
176
     1
290
     0
176
     1
 93
       13
176
     1
 44
0.0
176
     1
173
     0
176
     1
  0
VISUALSTYLE
  5
2D
102
{ACAD_REACTORS
330
2A
102
}
330
2A
100
AcDbVisualStyle
  2
Gouraud
 70
     2
177
     2
291
     1
 71
     2
176
     1
 72
     2
176
     1
 73
     1
176
     1
 90
        2
176
     1
 40
-0.6
176
     1
 41
30.0
176
     1
 62
     5
 63
     7
421
 16777215
176
     1
 74
     0
176
     1
 91
        4
176
     1
 64
     7
176
     1
 65
   257
176
     1
 75
     1
176
     1
175
     1
176
     1
 42
1.0
176
     1
 92
        0
176
     1
 66
     7
176
     1
 43
1.0
176
     1
 76
     1
176
     1
 77
     6
176
     1
 78
     2
176
     1
 67
     7
176
     1
 79
     5
176
     1
170
     0
176
     1
171
     0
176
     1
290
     0
176
     1
 93
       13
176
     1
 44
0.0
176
     1
173
     0
176
     1
  0
VISUALSTYLE
  5
2E
102
{ACAD_REACTORS
330
2A
102
}
330
2A
100
AcDbVisualStyle
  2
GouraudWithEdges
 70
     3
177
     2
291
     1
 71
     2
176
     1
 72
     2
176
     1
 73
     1
176
     1
 90
        2
176
     1
 40
-0.6
176
     1
 41
30.0
176
     1
 62
     5
 63
     7
421
 16777215
176
     1
 74
     1
176
     1
 91
        4
176
     1
 64
     7
176
     1
 65
   257
176
     1
 75
     1
176
     1
175
     1
176
     1
 42
1.0
176
     1
 92
        0
176
     1
 66
   257
176
     1
 43
1.0
176
     1
 76
     1
176
     1
 77
     6
176
     1
 78
     2
176
     1
 67
     7
176
     1
 79
     5
176
     1
170
     0
176
     1
171
     0
176
     1
290
     0
176
     1
 93
       13
176
     1
 44
0.0
176
     1
173
     0
176
     1
  0
VISUALSTYLE
  5
38
102
{ACAD_REACTORS
330
2A
102
}
330
2A
100
AcDbVisualStyle
  2
Linepattern
 70
    14
177
     2
291
     1
 71
     2
176
     1
 72
     2
176
     1
 73
     0
176
     1
 90
        0
176
     1
 40
-0.6
176
     1
 41
-30.0
176
     1
 62
     5
 63
     7
421
 16777215
176
     1
 74
     1
176
     1
 91
        4
176
     1
 64
     7
176
     1
 65
   257
176
     1
 75
     7
176
     1
175
     7
176
     1
 42
1.0
176
     1
 92
        8
176
     1
 66
     7
176
     1
 43
1.0
176
     1
 76
     1
176
     1
 77
     6
176
     1
 78
     2
176
     1
 67
     7
176
     1
 79
     5
176
     1
170
     0
176
     1
171
     0
176
     1
290
     0
176
     1
 93
        1
176
     1
 44
0.0
176
     1
173
     0
176
     1
  0
VISUALSTYLE
  5
33
102
{ACAD_REACTORS
330
2A
102
}
330
2A
100
AcDbVisualStyle
  2
Realistic
 70
     8
177
     2
291
     0
 71
     2
176
     1
 72
     2
176
     1
 73
     0
176
     1
 90
        0
176
     1
 40
-0.6
176
     1
 41
-30.0
176
     1
 62
     5
 63
     7
421
 16777215
176
     1
 74
     1
176
     1
 91
        0
176
     1
 64
     7
176
     1
 65
   257
176
     1
 75
     1
176
     1
175
     1
176
     1
 42
1.0
176
     1
 92
        8
176
     1
 66
     8
424
  7895160
176
     1
 43
1.0
176
     1
 76
     1
176
     1
 77
     6
176
     1
 78
     2
176
     1
 67
     7
176
     1
 79
     5
176
     1
170
     0
176
     1
171
     0
176
     1
290
     0
176
     1
 93
       13
176
     1
 44
0.0
176
     1
173
     0
176
     1
  0
VISUALSTYLE
  5
37
102
{ACAD_REACTORS
330
2A
102
}
330
2A
100
AcDbVisualStyle
  2
Thicken
 70
    13
177
     2
291
     1
 71
     2
176
     1
 72
     2
176
     1
 73
     0
176
     1
 90
        0
176
     1
 40
-0.6
176
     1
 41
-30.0
176
     1
 62
     5
 63
     7
421
 16777215
176
     1
 74
     1
176
     1
 91
        4
176
     1
 64
     7
176
     1
 65
   257
176
     1
 75
     1
176
     1
175
     1
176
     1
 42
1.0
176
     1
 92
       12
176
     1
 66
     7
176
     1
 43
1.0
176
     1
 76
     1
176
     1
 77
     6
176
     1
 78
     2
176
     1
 67
     7
176
     1
 79
     5
176
     1
170
     0
176
     1
171
     0
176
     1
290
     0
176
     1
 93
        1
176
     1
 44
0.0
176
     1
173
     0
176
     1
  0
ENDSEC
  0
EOF
