  0
SECTION
  2
HEADER
  9
$ACADVER
  1
AC1024
  9
$ACADMAINTVER
 70
     6
  9
$DWGCODEPAGE
  3
UNDEFINED
  9
$INSBASE
 10
0.0
 20
0.0
 30
0.0
  9
$EXTMIN
 10
1.000000000000000E+20
 20
1.000000000000000E+20
 30
1.000000000000000E+20
  9
$EXTMAX
 10
-1.000000000000000E+20
 20
-1.000000000000000E+20
 30
-1.000000000000000E+20
  9
$LIMMIN
 10
0.0
 20
0.0
  9
$LIMMAX
 10
12.0
 20
9.0
  9
$ORTHOMODE
 70
     0
  9
$REGENMODE
 70
     1
  9
$FILLMODE
 70
     1
  9
$QTEXTMODE
 70
     0
  9
$MIRRTEXT
 70
     1
  9
$LTSCALE
 40
1.0
  9
$ATTMODE
 70
     1
  9
$TEXTSIZE
 40
0.2
  9
$TRACEWID
 40
0.05
  9
$TEXTSTYLE
  7
Standard
  9
$CLAYER
  8
0
  9
$CELTYPE
  6
ByLayer
  9
$CECOLOR
 62
   256
  9
$CELTSCALE
 40
1.0
  9
$DISPSILH
 70
     0
  9
$DIMSCALE
 40
1.0
  9
$DIMASZ
 40
0.18
  9
$DIMEXO
 40
0.0625
  9
$DIMDLI
 40
0.38
  9
$DIMRND
 40
0.0
  9
$DIMDLE
 40
0.0
  9
$DIMEXE
 40
0.18
  9
$DIMTP
 40
0.0
  9
$DIMTM
 40
0.0
  9
$DIMTXT
 40
0.18
  9
$DIMCEN
 40
0.09
  9
$DIMTSZ
 40
0.0
  9
$DIMTOL
 70
     0
  9
$DIMLIM
 70
     0
  9
$DIMTIH
 70
     1
  9
$DIMTOH
 70
     1
  9
$DIMSE1
 70
     0
  9
$DIMSE2
 70
     0
  9
$DIMTAD
 70
     0
  9
$DIMZIN
 70
     0
  9
$DIMBLK
  1

  9
$DIMASO
 70
     1
  9
$DIMSHO
 70
     1
  9
$DIMPOST
  1

  9
$DIMAPOST
  1

  9
$DIMALT
 70
     0
  9
$DIMALTD
 70
     2
  9
$DIMALTF
 40
25.4
  9
$DIMLFAC
 40
1.0
  9
$DIMTOFL
 70
     0
  9
$DIMTVP
 40
0.0
  9
$DIMTIX
 70
     0
  9
$DIMSOXD
 70
     0
  9
$DIMSAH
 70
     0
  9
$DIMBLK1
  1

  9
$DIMBLK2
  1

  9
$DIMSTYLE
  2
Standard
  9
$DIMCLRD
 70
     0
  9
$DIMCLRE
 70
     0
  9
$DIMCLRT
 70
     0
  9
$DIMTFAC
 40
1.0
  9
$DIMGAP
 40
0.09
  9
$DIMJUST
 70
     0
  9
$DIMSD1
 70
     0
  9
$DIMSD2
 70
     0
  9
$DIMTOLJ
 70
     1
  9
$DIMTZIN
 70
     0
  9
$DIMALTZ
 70
     0
  9
$DIMALTTZ
 70
     0
  9
$DIMUPT
 70
     0
  9
$DIMDEC
 70
     4
  9
$DIMTDEC
 70
     4
  9
$DIMALTU
 70
     2
  9
$DIMALTTD
 70
     2
  9
$DIMTXSTY
  7
Standard
  9
$DIMAUNIT
 70
     0
  9
$DIMADEC
 70
     0
  9
$DIMALTRND
 40
0.0
  9
$DIMAZIN
 70
     0
  9
$DIMDSEP
 70
    46
  9
$DIMATFIT
 70
     3
  9
$DIMFRAC
 70
     0
  9
$DIMLDRBLK
  1

  9
$DIMLUNIT
 70
     2
  9
$DIMLWD
 70
    -2
  9
$DIMLWE
 70
    -2
  9
$DIMTMOVE
 70
     0
  9
$DIMFXL
 40
1.0
  9
$DIMFXLON
 70
     0
  9
$DIMJOGANG
 40
0.7853981633974483
  9
$DIMTFILL
 70
     0
  9
$DIMTFILLCLR
 70
     0
  9
$DIMARCSYM
 70
     0
  9
$DIMLTYPE
  6

  9
$DIMLTEX1
  6

  9
$DIMLTEX2
  6

  9
$DIMTXTDIRECTION
 70
     0
  9
$LUNITS
 70
     2
  9
$LUPREC
 70
     4
  9
$SKETCHINC
 40
0.1
  9
$FILLETRAD
 40
0.5
  9
$AUNITS
 70
     0
  9
$AUPREC
 70
     0
  9
$MENU
  1
.
  9
$ELEVATION
 40
0.0
  9
$PELEVATION
 40
0.0
  9
$THICKNESS
 40
0.0
  9
$LIMCHECK
 70
     0
  9
$CHAMFERA
 40
0.5
  9
$CHAMFERB
 40
0.5
  9
$CHAMFERC
 40
1.0
  9
$CHAMFERD
 40
0.0
  9
$SKPOLY
 70
     0
  9
$TDCREATE
 40
2458263.582314815
  9
$TDUCREATE
 40
2458263.207314815
  9
$TDUPDATE
 40
2458263.582314815
  9
$TDUUPDATE
 40
2458263.207314815
  9
$TDINDWG
 40
0.0000000116
  9
$TDUSRTIMER
 40
0.0000000116
  9
$USRTIMER
 70
     1
  9
$ANGBASE
 50
0.0
  9
$ANGDIR
 70
     0
  9
$PDMODE
 70
     0
  9
$PDSIZE
 40
0.0
  9
$PLINEWID
 40
0.0
  9
$SPLFRAME
 70
     0
  9
$SPLINETYPE
 70
     6
  9
$SPLINESEGS
 70
     8
  9
$HANDSEED
  5
AD
  9
$SURFTAB1
 70
     6
  9
$SURFTAB2
 70
     6
  9
$SURFTYPE
 70
     6
  9
$SURFU
 70
     6
  9
$SURFV
 70
     6
  9
$UCSBASE
  2

  9
$UCSNAME
  2

  9
$UCSORG
 10
0.0
 20
0.0
 30
0.0
  9
$UCSXDIR
 10
1.0
 20
0.0
 30
0.0
  9
$UCSYDIR
 10
0.0
 20
1.0
 30
0.0
  9
$UCSORTHOREF
  2

  9
$UCSORTHOVIEW
 70
     0
  9
$UCSORGTOP
 10
0.0
 20
0.0
 30
0.0
  9
$UCSORGBOTTOM
 10
0.0
 20
0.0
 30
0.0
  9
$UCSORGLEFT
 10
0.0
 20
0.0
 30
0.0
  9
$UCSORGRIGHT
 10
0.0
 20
0.0
 30
0.0
  9
$UCSORGFRONT
 10
0.0
 20
0.0
 30
0.0
  9
$UCSORGBACK
 10
0.0
 20
0.0
 30
0.0
  9
$PUCSBASE
  2

  9
$PUCSNAME
  2

  9
$PUCSORG
 10
0.0
 20
0.0
 30
0.0
  9
$PUCSXDIR
 10
1.0
 20
0.0
 30
0.0
  9
$PUCSYDIR
 10
0.0
 20
1.0
 30
0.0
  9
$PUCSORTHOREF
  2

  9
$PUCSORTHOVIEW
 70
     0
  9
$PUCSORGTOP
 10
0.0
 20
0.0
 30
0.0
  9
$PUCSORGBOTTOM
 10
0.0
 20
0.0
 30
0.0
  9
$PUCSORGLEFT
 10
0.0
 20
0.0
 30
0.0
  9
$PUCSORGRIGHT
 10
0.0
 20
0.0
 30
0.0
  9
$PUCSORGFRONT
 10
0.0
 20
0.0
 30
0.0
  9
$PUCSORGBACK
 10
0.0
 20
0.0
 30
0.0
  9
$USERI1
 70
     0
  9
$USERI2
 70
     0
  9
$USERI3
 70
     0
  9
$USERI4
 70
     0
  9
$USERI5
 70
     0
  9
$USERR1
 40
0.0
  9
$USERR2
 40
0.0
  9
$USERR3
 40
0.0
  9
$USERR4
 40
0.0
  9
$USERR5
 40
0.0
  9
$WORLDVIEW
 70
     1
  9
$SHADEDGE
 70
     3
  9
$SHADEDIF
 70
    70
  9
$TILEMODE
 70
     1
  9
$MAXACTVP
 70
    64
  9
$PINSBASE
 10
0.0
 20
0.0
 30
0.0
  9
$PLIMCHECK
 70
     0
  9
$PEXTMIN
 10
1.000000000000000E+20
 20
1.000000000000000E+20
 30
1.000000000000000E+20
  9
$PEXTMAX
 10
-1.000000000000000E+20
 20
-1.000000000000000E+20
 30
-1.000000000000000E+20
  9
$PLIMMIN
 10
0.0
 20
0.0
  9
$PLIMMAX
 10
12.0
 20
9.0
  9
$UNITMODE
 70
     0
  9
$VISRETAIN
 70
     1
  9
$PLINEGEN
 70
     0
  9
$PSLTSCALE
 70
     1
  9
$TREEDEPTH
 70
  3020
  9
$CMLSTYLE
  2
Standard
  9
$CMLJUST
 70
     0
  9
$CMLSCALE
 40
1.0
  9
$PROXYGRAPHICS
 70
     1
  9
$MEASUREMENT
 70
     0
  9
$CELWEIGHT
370
    -1
  9
$ENDCAPS
280
     0
  9
$JOINSTYLE
280
     0
  9
$LWDISPLAY
290
     1
  9
$INSUNITS
 70
     1
  9
$HYPERLINKBASE
  1

  9
$STYLESHEET
  1

  9
$XEDIT
290
     1
  9
$CEPSNTYPE
380
     0
  9
$PSTYLEMODE
290
     1
  9
$FINGERPRINTGUID
  2
{F4A3A294-302B-8A0F-F498-E5A5F365245F}
  9
$VERSIONGUID
  2
{FAEB1C32-E019-11D5-929B-00C0DF256EC4}
  9
$EXTNAMES
290
     1
  9
$PSVPSCALE
 40
0.0
  9
$OLESTARTUP
290
     0
  9
$SORTENTS
280
   127
  9
$INDEXCTL
280
     0
  9
$HIDETEXT
280
     1
  9
$XCLIPFRAME
280
     2
  9
$HALOGAP
280
     0
  9
$OBSCOLOR
 70
   257
  9
$OBSLTYPE
280
     0
  9
$INTERSECTIONDISPLAY
280
     0
  9
$INTERSECTIONCOLOR
 70
   257
  9
$DIMASSOC
280
     2
  9
$PROJECTNAME
  1

  9
$CAMERADISPLAY
290
     0
  9
$LENSLENGTH
 40
50.0
  9
$CAMERAHEIGHT
 40
0.0
  9
$STEPSPERSEC
 40
2.0
  9
$STEPSIZE
 40
6.0
  9
$3DDWFPREC
 40
2.0
  9
$PSOLWIDTH
 40
0.25
  9
$PSOLHEIGHT
 40
4.0
  9
$LOFTANG1
 40
1.570796326794897
  9
$LOFTANG2
 40
1.570796326794897
  9
$LOFTMAG1
 40
0.0
  9
$LOFTMAG2
 40
0.0
  9
$LOFTPARAM
 70
     7
  9
$LOFTNORMALS
280
     1
  9
$LATITUDE
 40
37.795
  9
$LONGITUDE
 40
-122.394
  9
$NORTHDIRECTION
 40
0.0
  9
$TIMEZONE
 70
 -8000
  9
$LIGHTGLYPHDISPLAY
280
     1
  9
$TILEMODELIGHTSYNCH
280
     1
  9
$CMATERIAL
347
3C
  9
$SOLIDHIST
280
     1
  9
$SHOWHIST
280
     1
  9
$DWFFRAME
280
     2
  9
$DGNFRAME
280
     2
  9
$REALWORLDSCALE
290
     1
  9
$INTERFERECOLOR
 62
   256
  9
$CSHADOW
280
     0
  9
$SHADOWPLANELOCATION
 40
0.0
  0
ENDSEC
  0
SECTION
  2
CLASSES
  0
CLASS
  1
ACDBDICTIONARYWDFLT
  2
AcDbDictionaryWithDefault
  3
ObjectDBX Classes
 90
        0
 91
        4
280
     0
281
     0
  0
CLASS
  1
VISUALSTYLE
  2
AcDbVisualStyle
  3
ObjectDBX Classes
 90
     4095
 91
        4
280
     0
281
     0
  0
CLASS
  1
MATERIAL
  2
AcDbMaterial
  3
ObjectDBX Classes
 90
     1153
 91
        4
280
     0
281
     0
  0
CLASS
  1
SUN
  2
AcDbSun
  3
SCENEOE
 90
     1024
 91
        4
280
     0
281
     0
  0
ENDSEC
  0
SECTION
  2
TABLES
  0
TABLE
  2
VPORT
  5
8
330
0
100
AcDbSymbolTable
 70
     1
  0
VPORT
  5
29
330
8
100
AcDbSymbolTableRecord
100
AcDbViewportTableRecord
  2
*Active
 70
     0
 10
0.0
 20
0.0
 11
1.0
 21
1.0
 12
0.0
 22
0.0
 13
0.0
 23
0.0
 14
0.5
 24
0.5
 15
0.5
 25
0.5
 16
0.0
 26
0.0
 36
1.0
 17
105.0007777515277
 27
-148.5000416295416
 37
0.0
 40
297.0000832590831
 41
0.7070757462376333
 42
50.0
 43
0.0
 44
0.0
 50
0.0
 51
0.0
 71
     0
 72
   100
 73
     1
 74
     3
 75
     0
 76
     0
 77
     0
 78
     0
281
     0
 65
     1
110
0.0
120
0.0
130
0.0
111
1.0
121
0.0
131
0.0
112
0.0
122
1.0
132
0.0
 79
     0
146
0.0
 60
     3
 61
     5
292
     1
282
     1
141
0.0
142
0.0
 63
   250
361
3F
  0
ENDTAB
  0
TABLE
  2
LTYPE
  5
5
330
0
100
AcDbSymbolTable
 70
     2
  0
LTYPE
  5
14
330
5
100
AcDbSymbolTableRecord
100
AcDbLinetypeTableRecord
  2
ByBlock
 70
     0
  3

 72
    65
 73
     0
 40
0.0
  0
LTYPE
  5
15
330
5
100
AcDbSymbolTableRecord
100
AcDbLinetypeTableRecord
  2
ByLayer
 70
     0
  3

 72
    65
 73
     0
 40
0.0
  0
LTYPE
  5
16
330
5
100
AcDbSymbolTableRecord
100
AcDbLinetypeTableRecord
  2
Continuous
 70
     0
  3
Solid line
 72
    65
 73
     0
 40
0.0
  0
LTYPE
  5
A9
330
5
100
AcDbSymbolTableRecord
100
AcDbLinetypeTableRecord
  2
AI-Linetype-1
 70
     0
  3
Adobe Illustrator Linetype No. 1
 72
    65
 73
     2
 40
1.411111110758333
 49
0.7055555553791667
 74
     0
 49
-0.7055555553791667
 74
     0
  0
ENDTAB
  0
TABLE
  2
LAYER
  5
2
330
0
100
AcDbSymbolTable
 70
     2
  0
LAYER
  5
10
330
2
100
AcDbSymbolTableRecord
100
AcDbLayerTableRecord
  2
0
 70
     0
 62
     7
  6
Continuous
370
    -3
390
F
347
3E
  0
LAYER
  5
40
330
2
100
AcDbSymbolTableRecord
100
AcDbLayerTableRecord
  2
_U+30EC_U+30A4_U+30E4_U+30FC 1
 70
     0
 62
     7
  6
Continuous
370
    -3
390
F
347
3E
  0
ENDTAB
  0
TABLE
  2
STYLE
  5
3
330
0
100
AcDbSymbolTable
 70
     1
  0
STYLE
  5
11
330
3
100
AcDbSymbolTableRecord
100
AcDbTextStyleTableRecord
  2
Standard
 70
     0
 40
0.0
 41
1.0
 50
0.0
 71
     0
 42
0.2
  3
txt
  4

  0
ENDTAB
  0
TABLE
  2
VIEW
  5
6
330
0
100
AcDbSymbolTable
 70
     0
  0
ENDTAB
  0
TABLE
  2
UCS
  5
7
330
0
100
AcDbSymbolTable
 70
     0
  0
ENDTAB
  0
TABLE
  2
APPID
  5
9
330
0
100
AcDbSymbolTable
 70
     1
  0
APPID
  5
12
330
9
100
AcDbSymbolTableRecord
100
AcDbRegAppTableRecord
  2
ACAD
 70
     0
  0
ENDTAB
  0
TABLE
  2
DIMSTYLE
  5
A
330
0
100
AcDbSymbolTable
 70
     1
100
AcDbDimStyleTable
  0
DIMSTYLE
105
27
330
A
100
AcDbSymbolTableRecord
100
AcDbDimStyleTableRecord
  2
Standard
 70
     0
178
     0
340
11
  0
ENDTAB
  0
TABLE
  2
BLOCK_RECORD
  5
1
330
0
100
AcDbSymbolTable
 70
     6
  0
BLOCK_RECORD
  5
1F
330
1
100
AcDbSymbolTableRecord
100
AcDbBlockTableRecord
  2
*Model_Space
340
22
 70
     0
280
     1
281
     0
  0
BLOCK_RECORD
  5
1B
330
1
100
AcDbSymbolTableRecord
100
AcDbBlockTableRecord
  2
*Paper_Space
340
1E
 70
     0
280
     1
281
     0
  0
BLOCK_RECORD
  5
23
330
1
100
AcDbSymbolTableRecord
100
AcDbBlockTableRecord
  2
*Paper_Space0
340
26
 70
     0
280
     1
281
     0
  0
BLOCK_RECORD
  5
56
330
1
100
AcDbSymbolTableRecord
100
AcDbBlockTableRecord
  2
block 2
340
0
102
{BLKREFS
331
57
102
}
 70
     0
280
     1
281
     0
  0
BLOCK_RECORD
  5
6C
330
1
100
AcDbSymbolTableRecord
100
AcDbBlockTableRecord
  2
block 3
340
0
102
{BLKREFS
331
6D
102
}
 70
     0
280
     1
281
     0
  0
BLOCK_RECORD
  5
80
330
1
100
AcDbSymbolTableRecord
100
AcDbBlockTableRecord
  2
block 4
340
0
102
{BLKREFS
331
81
102
}
 70
     0
280
     1
281
     0
  0
BLOCK_RECORD
  5
8B
330
1
100
AcDbSymbolTableRecord
100
AcDbBlockTableRecord
  2
block 5
340
0
102
{BLKREFS
331
8C
102
}
 70
     0
280
     1
281
     0
  0
BLOCK_RECORD
  5
9E
330
1
100
AcDbSymbolTableRecord
100
AcDbBlockTableRecord
  2
block 6
340
0
102
{BLKREFS
331
9F
102
}
 70
     0
280
     1
281
     0
  0
ENDTAB
  0
ENDSEC
  0
SECTION
  2
BLOCKS
  0
BLOCK
  5
20
330
1F
100
AcDbEntity
  8
0
100
AcDbBlockBegin
  2
*Model_Space
 70
     0
 10
0.0
 20
0.0
 30
0.0
  3
*Model_Space
  1

  0
ENDBLK
  5
21
330
1F
100
AcDbEntity
  8
0
100
AcDbBlockEnd
  0
BLOCK
  5
1C
330
1B
100
AcDbEntity
 67
     1
  8
0
100
AcDbBlockBegin
  2
*Paper_Space
 70
     0
 10
0.0
 20
0.0
 30
0.0
  3
*Paper_Space
  1

  0
ENDBLK
  5
1D
330
1B
100
AcDbEntity
 67
     1
  8
0
100
AcDbBlockEnd
  0
BLOCK
  5
24
330
23
100
AcDbEntity
  8
0
100
AcDbBlockBegin
  2
*Paper_Space0
 70
     0
 10
0.0
 20
0.0
 30
0.0
  3
*Paper_Space0
  1

  0
ENDBLK
  5
25
330
23
100
AcDbEntity
  8
0
100
AcDbBlockEnd
  0
BLOCK
  5
58
330
56
100
AcDbEntity
  8
0
100
AcDbBlockBegin
  2
block 2
 70
     0
 10
0.0
 20
0.0
 30
0.0
  3
block 2
  1

  0
SPLINE
  5
5A
330
56
100
AcDbEntity
  8
_U+30EC_U+30A4_U+30E4_U+30FC 1
370
     0
100
AcDbSpline
210
0.0
220
0.0
230
1.0
 70
    11
 71
     3
 72
    26
 73
    22
 74
     0
 42
0.0000000001
 43
0.0000000001
 12
1.0
 22
0.0
 32
0.0
 13
1.0
 23
0.0
 33
0.0
 40
0.0
 40
0.0
 40
0.0
 40
0.0
 40
1.0
 40
1.0
 40
1.0
 40
2.0
 40
2.0
 40
2.0
 40
3.0
 40
3.0
 40
3.0
 40
4.0
 40
4.0
 40
4.0
 40
5.0
 40
5.0
 40
5.0
 40
6.0
 40
6.0
 40
6.0
 40
7.0
 40
7.0
 40
7.0
 40
7.0
 10
102.1071180300288
 20
-159.0748724645716
 30
0.0
 10
102.1071180300288
 20
-159.0748724645716
 30
0.0
 10
102.1071180300288
 20
-157.970719361549
 30
0.0
 10
102.1071180300288
 20
-157.970719361549
 30
0.0
 10
102.1071180300288
 20
-157.970719361549
 30
0.0
 10
101.7546847618877
 20
-157.970719361549
 30
0.0
 10
101.7546847618877
 20
-157.970719361549
 30
0.0
 10
101.7546847618877
 20
-157.970719361549
 30
0.0
 10
101.7546847618877
 20
-157.8225802556832
 30
0.0
 10
101.7546847618877
 20
-157.8225802556832
 30
0.0
 10
102.1095295968685
 20
-157.8077663450967
 30
0.0
 10
102.1591389718561
 20
-157.6448133286443
 30
0.0
 10
102.1908338503203
 20
-157.5304361585341
 30
0.0
 10
102.1908338503203
 20
-157.5304361585341
 30
0.0
 10
102.3468966758022
 20
-157.5304361585341
 30
0.0
 10
102.3468966758022
 20
-157.5304361585341
 30
0.0
 10
102.3468966758022
 20
-157.5304361585341
 30
0.0
 10
102.3468966758022
 20
-159.0748724645716
 30
0.0
 10
102.3468966758022
 20
-159.0748724645716
 30
0.0
 10
102.3468966758022
 20
-159.0748724645716
 30
0.0
 10
102.1071180300288
 20
-159.0748724645716
 30
0.0
 10
102.1071180300288
 20
-159.0748724645716
 30
0.0
  0
HATCH
  5
5B
330
56
100
AcDbEntity
  8
_U+30EC_U+30A4_U+30E4_U+30FC 1
 62
   179
420
  2234388
100
AcDbHatch
 10
0.0
 20
0.0
 30
0.0
210
0.0
220
0.0
230
1.0
  2
SOLID
 70
     1
 71
     0
 91
        1
 92
        1
 93
        1
 72
     4
 94
        3
 73
     0
 74
     1
 95
       26
 96
       22
 40
0.0
 40
0.0
 40
0.0
 40
0.0
 40
1.0
 40
1.0
 40
1.0
 40
2.0
 40
2.0
 40
2.0
 40
3.0
 40
3.0
 40
3.0
 40
4.0
 40
4.0
 40
4.0
 40
5.0
 40
5.0
 40
5.0
 40
6.0
 40
6.0
 40
6.0
 40
7.0
 40
7.0
 40
7.0
 40
7.0
 10
102.1071180300288
 20
-159.0748724645716
 10
102.1071180300288
 20
-159.0748724645716
 10
102.1071180300288
 20
-157.970719361549
 10
102.1071180300288
 20
-157.970719361549
 10
102.1071180300288
 20
-157.970719361549
 10
101.7546847618877
 20
-157.970719361549
 10
101.7546847618877
 20
-157.970719361549
 10
101.7546847618877
 20
-157.970719361549
 10
101.7546847618877
 20
-157.8225802556832
 10
101.7546847618877
 20
-157.8225802556832
 10
102.1095295968685
 20
-157.8077663450967
 10
102.1591389718561
 20
-157.6448133286443
 10
102.1908338503203
 20
-157.5304361585341
 10
102.1908338503203
 20
-157.5304361585341
 10
102.3468966758022
 20
-157.5304361585341
 10
102.3468966758022
 20
-157.5304361585341
 10
102.3468966758022
 20
-157.5304361585341
 10
102.3468966758022
 20
-159.0748724645716
 10
102.3468966758022
 20
-159.0748724645716
 10
102.3468966758022
 20
-159.0748724645716
 10
102.1071180300288
 20
-159.0748724645716
 10
102.1071180300288
 20
-159.0748724645716
 97
        0
 97
        0
 75
     2
 76
     1
 98
        0
  0
SPLINE
  5
5C
330
56
100
AcDbEntity
  8
_U+30EC_U+30A4_U+30E4_U+30FC 1
370
     0
100
AcDbSpline
210
0.0
220
0.0
230
1.0
 70
    11
 71
     3
 72
    29
 73
    25
 74
     0
 42
0.0000000001
 43
0.0000000001
 12
1.0
 22
0.0
 32
0.0
 13
1.0
 23
0.0
 33
0.0
 40
0.0
 40
0.0
 40
0.0
 40
0.0
 40
1.0
 40
1.0
 40
1.0
 40
2.0
 40
2.0
 40
2.0
 40
3.0
 40
3.0
 40
3.0
 40
4.0
 40
4.0
 40
4.0
 40
5.0
 40
5.0
 40
5.0
 40
6.0
 40
6.0
 40
6.0
 40
7.0
 40
7.0
 40
7.0
 40
8.0
 40
8.0
 40
8.0
 40
8.0
 10
103.4169433335208
 20
-159.1255153682047
 30
0.0
 10
103.1323784464391
 20
-159.1255153682047
 30
0.0
 10
102.8609049222014
 20
-158.9880560583433
 30
0.0
 10
102.8609049222014
 20
-158.6390678856875
 30
0.0
 10
102.8609049222014
 20
-158.3830972911334
 30
0.0
 10
103.0124891235524
 20
-158.2880126557405
 30
0.0
 10
103.1254882554686
 20
-158.2266899561031
 30
0.0
 10
102.9921630601895
 20
-158.1674343137568
 30
0.0
 10
102.910514297189
 20
-158.0530571436465
 30
0.0
 10
102.910514297189
 20
-157.8921711844853
 30
0.0
 10
102.910514297189
 20
-157.6172525647624
 30
0.0
 10
103.123076688629
 20
-157.4818603121921
 30
0.0
 10
103.4169433335208
 20
-157.4818603121921
 30
0.0
 10
103.7201117362227
 20
-157.4818603121921
 30
0.0
 10
103.9233723698525
 20
-157.6258653034755
 30
0.0
 10
103.9233723698525
 20
-157.8921711844853
 30
0.0
 10
103.9233723698525
 20
-158.0530571436465
 30
0.0
 10
103.8400010591095
 20
-158.1674343137568
 30
0.0
 10
103.7063313542818
 20
-158.2266899561031
 30
0.0
 10
103.8014159896747
 20
-158.2773328597362
 30
0.0
 10
103.9709146875489
 20
-158.3724174951291
 30
0.0
 10
103.9709146875489
 20
-158.6349337711052
 30
0.0
 10
103.9709146875489
 20
-159.0094156503518
 30
0.0
 10
103.6725694185263
 20
-159.1255153682047
 30
0.0
 10
103.4169433335208
 20
-159.1255153682047
 30
0.0
  0
SPLINE
  5
5D
330
56
100
AcDbEntity
  8
_U+30EC_U+30A4_U+30E4_U+30FC 1
370
     0
100
AcDbSpline
210
0.0
220
0.0
230
1.0
 70
    11
 71
     3
 72
    17
 73
    13
 74
     0
 42
0.0000000001
 43
0.0000000001
 12
1.0
 22
0.0
 32
0.0
 13
1.0
 23
0.0
 33
0.0
 40
0.0
 40
0.0
 40
0.0
 40
0.0
 40
1.0
 40
1.0
 40
1.0
 40
2.0
 40
2.0
 40
2.0
 40
3.0
 40
3.0
 40
3.0
 40
4.0
 40
4.0
 40
4.0
 40
4.0
 10
103.4169433335208
 20
-158.3345214447914
 30
0.0
 10
103.2632920748786
 20
-158.3345214447914
 30
0.0
 10
103.1006835679748
 20
-158.4213378510197
 30
0.0
 10
103.1006835679748
 20
-158.6242539751009
 30
0.0
 10
103.1006835679748
 20
-158.8295816660218
 30
0.0
 10
103.2360758205452
 20
-158.9308674732881
 30
0.0
 10
103.4169433335208
 20
-158.9308674732881
 30
0.0
 10
103.6160698525682
 20
-158.9308674732881
 30
0.0
 10
103.7335476086152
 20
-158.8082220740132
 30
0.0
 10
103.7335476086152
 20
-158.6304551469743
 30
0.0
 10
103.7335476086152
 20
-158.4085909977242
 30
0.0
 10
103.5595702866101
 20
-158.3345214447914
 30
0.0
 10
103.4169433335208
 20
-158.3345214447914
 30
0.0
  0
SPLINE
  5
5E
330
56
100
AcDbEntity
  8
_U+30EC_U+30A4_U+30E4_U+30FC 1
370
     0
100
AcDbSpline
210
0.0
220
0.0
230
1.0
 70
    11
 71
     3
 72
    17
 73
    13
 74
     0
 42
0.0000000001
 43
0.0000000001
 12
1.0
 22
0.0
 32
0.0
 13
1.0
 23
0.0
 33
0.0
 40
0.0
 40
0.0
 40
0.0
 40
0.0
 40
1.0
 40
1.0
 40
1.0
 40
2.0
 40
2.0
 40
2.0
 40
3.0
 40
3.0
 40
3.0
 40
4.0
 40
4.0
 40
4.0
 40
4.0
 10
103.4169433335208
 20
-157.6744411498175
 30
0.0
 10
103.240554444676
 20
-157.6744411498175
 30
0.0
 10
103.1502929429624
 20
-157.7695257852104
 30
0.0
 10
103.1502929429624
 20
-157.9049180377807
 30
0.0
 10
103.1502929429624
 20
-158.0275634370556
 30
0.0
 10
103.2271185722835
 20
-158.1460747217482
 30
0.0
 10
103.4169433335208
 20
-158.1460747217482
 30
0.0
 10
103.6071126043066
 20
-158.1460747217482
 30
0.0
 10
103.6839382336276
 20
-158.0275634370556
 30
0.0
 10
103.6839382336276
 20
-157.9049180377807
 30
0.0
 10
103.6839382336276
 20
-157.7695257852104
 30
0.0
 10
103.5912651650744
 20
-157.6744411498175
 30
0.0
 10
103.4169433335208
 20
-157.6744411498175
 30
0.0
  0
HATCH
  5
5F
330
56
100
AcDbEntity
  8
_U+30EC_U+30A4_U+30E4_U+30FC 1
 62
   179
420
  2234388
100
AcDbHatch
 10
0.0
 20
0.0
 30
0.0
210
0.0
220
0.0
230
1.0
  2
SOLID
 70
     1
 71
     0
 91
        3
 92
        1
 93
        1
 72
     4
 94
        3
 73
     0
 74
     1
 95
       29
 96
       25
 40
0.0
 40
0.0
 40
0.0
 40
0.0
 40
1.0
 40
1.0
 40
1.0
 40
2.0
 40
2.0
 40
2.0
 40
3.0
 40
3.0
 40
3.0
 40
4.0
 40
4.0
 40
4.0
 40
5.0
 40
5.0
 40
5.0
 40
6.0
 40
6.0
 40
6.0
 40
7.0
 40
7.0
 40
7.0
 40
8.0
 40
8.0
 40
8.0
 40
8.0
 10
103.4169433335208
 20
-159.1255153682047
 10
103.1323784464391
 20
-159.1255153682047
 10
102.8609049222014
 20
-158.9880560583433
 10
102.8609049222014
 20
-158.6390678856875
 10
102.8609049222014
 20
-158.3830972911334
 10
103.0124891235524
 20
-158.2880126557405
 10
103.1254882554686
 20
-158.2266899561031
 10
102.9921630601895
 20
-158.1674343137568
 10
102.910514297189
 20
-158.0530571436465
 10
102.910514297189
 20
-157.8921711844853
 10
102.910514297189
 20
-157.6172525647624
 10
103.123076688629
 20
-157.4818603121921
 10
103.4169433335208
 20
-157.4818603121921
 10
103.7201117362227
 20
-157.4818603121921
 10
103.9233723698525
 20
-157.6258653034755
 10
103.9233723698525
 20
-157.8921711844853
 10
103.9233723698525
 20
-158.0530571436465
 10
103.8400010591095
 20
-158.1674343137568
 10
103.7063313542818
 20
-158.2266899561031
 10
103.8014159896747
 20
-158.2773328597362
 10
103.9709146875489
 20
-158.3724174951291
 10
103.9709146875489
 20
-158.6349337711052
 10
103.9709146875489
 20
-159.0094156503518
 10
103.6725694185263
 20
-159.1255153682047
 10
103.4169433335208
 20
-159.1255153682047
 97
        0
 97
        0
 92
        1
 93
        1
 72
     4
 94
        3
 73
     0
 74
     1
 95
       17
 96
       13
 40
0.0
 40
0.0
 40
0.0
 40
0.0
 40
1.0
 40
1.0
 40
1.0
 40
2.0
 40
2.0
 40
2.0
 40
3.0
 40
3.0
 40
3.0
 40
4.0
 40
4.0
 40
4.0
 40
4.0
 10
103.4169433335208
 20
-158.3345214447914
 10
103.2632920748786
 20
-158.3345214447914
 10
103.1006835679748
 20
-158.4213378510197
 10
103.1006835679748
 20
-158.6242539751009
 10
103.1006835679748
 20
-158.8295816660218
 10
103.2360758205452
 20
-158.9308674732881
 10
103.4169433335208
 20
-158.9308674732881
 10
103.6160698525682
 20
-158.9308674732881
 10
103.7335476086152
 20
-158.8082220740132
 10
103.7335476086152
 20
-158.6304551469743
 10
103.7335476086152
 20
-158.4085909977242
 10
103.5595702866101
 20
-158.3345214447914
 10
103.4169433335208
 20
-158.3345214447914
 97
        0
 97
        0
 92
        1
 93
        1
 72
     4
 94
        3
 73
     0
 74
     1
 95
       17
 96
       13
 40
0.0
 40
0.0
 40
0.0
 40
0.0
 40
1.0
 40
1.0
 40
1.0
 40
2.0
 40
2.0
 40
2.0
 40
3.0
 40
3.0
 40
3.0
 40
4.0
 40
4.0
 40
4.0
 40
4.0
 10
103.4169433335208
 20
-157.6744411498175
 10
103.240554444676
 20
-157.6744411498175
 10
103.1502929429624
 20
-157.7695257852104
 10
103.1502929429624
 20
-157.9049180377807
 10
103.1502929429624
 20
-158.0275634370556
 10
103.2271185722835
 20
-158.1460747217482
 10
103.4169433335208
 20
-158.1460747217482
 10
103.6071126043066
 20
-158.1460747217482
 10
103.6839382336276
 20
-158.0275634370556
 10
103.6839382336276
 20
-157.9049180377807
 10
103.6839382336276
 20
-157.7695257852104
 10
103.5912651650744
 20
-157.6744411498175
 10
103.4169433335208
 20
-157.6744411498175
 97
        0
 97
        0
 75
     2
 76
     1
 98
        0
  0
ENDBLK
  5
59
330
56
100
AcDbEntity
  8
0
100
AcDbBlockEnd
  0
BLOCK
  5
6E
330
6C
100
AcDbEntity
  8
0
100
AcDbBlockBegin
  2
block 3
 70
     0
 10
0.0
 20
0.0
 30
0.0
  3
block 3
  1

  0
SPLINE
  5
70
330
6C
100
AcDbEntity
  8
_U+30EC_U+30A4_U+30E4_U+30FC 1
370
     0
100
AcDbSpline
210
0.0
220
0.0
230
1.0
 70
    11
 71
     3
 72
    29
 73
    25
 74
     0
 42
0.0000000001
 43
0.0000000001
 12
1.0
 22
0.0
 32
0.0
 13
1.0
 23
0.0
 33
0.0
 40
0.0
 40
0.0
 40
0.0
 40
0.0
 40
1.0
 40
1.0
 40
1.0
 40
2.0
 40
2.0
 40
2.0
 40
3.0
 40
3.0
 40
3.0
 40
4.0
 40
4.0
 40
4.0
 40
5.0
 40
5.0
 40
5.0
 40
6.0
 40
6.0
 40
6.0
 40
7.0
 40
7.0
 40
7.0
 40
8.0
 40
8.0
 40
8.0
 40
8.0
 10
97.82555336096028
 20
-138.9770466774953
 30
0.0
 10
97.54098847387864
 20
-138.9770466774953
 30
0.0
 10
97.26951494964096
 20
-138.8395873676339
 30
0.0
 10
97.26951494964096
 20
-138.490599194978
 30
0.0
 10
97.26951494964096
 20
-138.234628600424
 30
0.0
 10
97.42109915099195
 20
-138.1395439650311
 30
0.0
 10
97.53409828290815
 20
-138.0782212653936
 30
0.0
 10
97.40077308762898
 20
-138.0189656230473
 30
0.0
 10
97.31912432462856
 20
-137.904588452937
 30
0.0
 10
97.31912432462856
 20
-137.7437024937759
 30
0.0
 10
97.31912432462856
 20
-137.4687838740529
 30
0.0
 10
97.53168671606848
 20
-137.3333916214826
 30
0.0
 10
97.82555336096028
 20
-137.3333916214826
 30
0.0
 10
98.12872176366227
 20
-137.3333916214826
 30
0.0
 10
98.33198239729201
 20
-137.4773966127661
 30
0.0
 10
98.33198239729201
 20
-137.7437024937759
 30
0.0
 10
98.33198239729201
 20
-137.904588452937
 30
0.0
 10
98.24861108654896
 20
-138.0189656230473
 30
0.0
 10
98.11494138172127
 20
-138.0782212653936
 30
0.0
 10
98.21002601711416
 20
-138.1288641690268
 30
0.0
 10
98.37952471498846
 20
-138.2239488044197
 30
0.0
 10
98.37952471498846
 20
-138.4864650803958
 30
0.0
 10
98.37952471498846
 20
-138.8609469596424
 30
0.0
 10
98.08117944596582
 20
-138.9770466774953
 30
0.0
 10
97.82555336096028
 20
-138.9770466774953
 30
0.0
  0
SPLINE
  5
71
330
6C
100
AcDbEntity
  8
_U+30EC_U+30A4_U+30E4_U+30FC 1
370
     0
100
AcDbSpline
210
0.0
220
0.0
230
1.0
 70
    11
 71
     3
 72
    17
 73
    13
 74
     0
 42
0.0000000001
 43
0.0000000001
 12
1.0
 22
0.0
 32
0.0
 13
1.0
 23
0.0
 33
0.0
 40
0.0
 40
0.0
 40
0.0
 40
0.0
 40
1.0
 40
1.0
 40
1.0
 40
2.0
 40
2.0
 40
2.0
 40
3.0
 40
3.0
 40
3.0
 40
4.0
 40
4.0
 40
4.0
 40
4.0
 10
97.82555336096028
 20
-138.186052754082
 30
0.0
 10
97.67190210231814
 20
-138.186052754082
 30
0.0
 10
97.50929359541435
 20
-138.2728691603103
 30
0.0
 10
97.50929359541435
 20
-138.4757852843915
 30
0.0
 10
97.50929359541435
 20
-138.6811129753124
 30
0.0
 10
97.64468584798466
 20
-138.7823987825787
 30
0.0
 10
97.82555336096028
 20
-138.7823987825787
 30
0.0
 10
98.02467988000772
 20
-138.7823987825787
 30
0.0
 10
98.14215763605475
 20
-138.6597533833038
 30
0.0
 10
98.14215763605475
 20
-138.4819864562649
 30
0.0
 10
98.14215763605475
 20
-138.2601223070148
 30
0.0
 10
97.96818031404963
 20
-138.186052754082
 30
0.0
 10
97.82555336096028
 20
-138.186052754082
 30
0.0
  0
SPLINE
  5
72
330
6C
100
AcDbEntity
  8
_U+30EC_U+30A4_U+30E4_U+30FC 1
370
     0
100
AcDbSpline
210
0.0
220
0.0
230
1.0
 70
    11
 71
     3
 72
    17
 73
    13
 74
     0
 42
0.0000000001
 43
0.0000000001
 12
1.0
 22
0.0
 32
0.0
 13
1.0
 23
0.0
 33
0.0
 40
0.0
 40
0.0
 40
0.0
 40
0.0
 40
1.0
 40
1.0
 40
1.0
 40
2.0
 40
2.0
 40
2.0
 40
3.0
 40
3.0
 40
3.0
 40
4.0
 40
4.0
 40
4.0
 40
4.0
 10
97.82555336096028
 20
-137.5259724591081
 30
0.0
 10
97.64916447211549
 20
-137.5259724591081
 30
0.0
 10
97.55890297040195
 20
-137.621057094501
 30
0.0
 10
97.55890297040195
 20
-137.7564493470713
 30
0.0
 10
97.55890297040195
 20
-137.8790947463462
 30
0.0
 10
97.63572859972302
 20
-137.9976060310388
 30
0.0
 10
97.82555336096028
 20
-137.9976060310388
 30
0.0
 10
98.01572263174607
 20
-137.9976060310388
 30
0.0
 10
98.09254826106715
 20
-137.8790947463462
 30
0.0
 10
98.09254826106715
 20
-137.7564493470713
 30
0.0
 10
98.09254826106715
 20
-137.621057094501
 30
0.0
 10
97.99987519251393
 20
-137.5259724591081
 30
0.0
 10
97.82555336096028
 20
-137.5259724591081
 30
0.0
  0
HATCH
  5
73
330
6C
100
AcDbEntity
  8
_U+30EC_U+30A4_U+30E4_U+30FC 1
 62
   179
420
  2234388
100
AcDbHatch
 10
0.0
 20
0.0
 30
0.0
210
0.0
220
0.0
230
1.0
  2
SOLID
 70
     1
 71
     0
 91
        3
 92
        1
 93
        1
 72
     4
 94
        3
 73
     0
 74
     1
 95
       29
 96
       25
 40
0.0
 40
0.0
 40
0.0
 40
0.0
 40
1.0
 40
1.0
 40
1.0
 40
2.0
 40
2.0
 40
2.0
 40
3.0
 40
3.0
 40
3.0
 40
4.0
 40
4.0
 40
4.0
 40
5.0
 40
5.0
 40
5.0
 40
6.0
 40
6.0
 40
6.0
 40
7.0
 40
7.0
 40
7.0
 40
8.0
 40
8.0
 40
8.0
 40
8.0
 10
97.82555336096028
 20
-138.9770466774953
 10
97.54098847387864
 20
-138.9770466774953
 10
97.26951494964096
 20
-138.8395873676339
 10
97.26951494964096
 20
-138.490599194978
 10
97.26951494964096
 20
-138.234628600424
 10
97.42109915099195
 20
-138.1395439650311
 10
97.53409828290815
 20
-138.0782212653936
 10
97.40077308762898
 20
-138.0189656230473
 10
97.31912432462856
 20
-137.904588452937
 10
97.31912432462856
 20
-137.7437024937759
 10
97.31912432462856
 20
-137.4687838740529
 10
97.53168671606848
 20
-137.3333916214826
 10
97.82555336096028
 20
-137.3333916214826
 10
98.12872176366227
 20
-137.3333916214826
 10
98.33198239729201
 20
-137.4773966127661
 10
98.33198239729201
 20
-137.7437024937759
 10
98.33198239729201
 20
-137.904588452937
 10
98.24861108654896
 20
-138.0189656230473
 10
98.11494138172127
 20
-138.0782212653936
 10
98.21002601711416
 20
-138.1288641690268
 10
98.37952471498846
 20
-138.2239488044197
 10
98.37952471498846
 20
-138.4864650803958
 10
98.37952471498846
 20
-138.8609469596424
 10
98.08117944596582
 20
-138.9770466774953
 10
97.82555336096028
 20
-138.9770466774953
 97
        0
 97
        0
 92
        1
 93
        1
 72
     4
 94
        3
 73
     0
 74
     1
 95
       17
 96
       13
 40
0.0
 40
0.0
 40
0.0
 40
0.0
 40
1.0
 40
1.0
 40
1.0
 40
2.0
 40
2.0
 40
2.0
 40
3.0
 40
3.0
 40
3.0
 40
4.0
 40
4.0
 40
4.0
 40
4.0
 10
97.82555336096028
 20
-138.186052754082
 10
97.67190210231814
 20
-138.186052754082
 10
97.50929359541435
 20
-138.2728691603103
 10
97.50929359541435
 20
-138.4757852843915
 10
97.50929359541435
 20
-138.6811129753124
 10
97.64468584798466
 20
-138.7823987825787
 10
97.82555336096028
 20
-138.7823987825787
 10
98.02467988000772
 20
-138.7823987825787
 10
98.14215763605475
 20
-138.6597533833038
 10
98.14215763605475
 20
-138.4819864562649
 10
98.14215763605475
 20
-138.2601223070148
 10
97.96818031404963
 20
-138.186052754082
 10
97.82555336096028
 20
-138.186052754082
 97
        0
 97
        0
 92
        1
 93
        1
 72
     4
 94
        3
 73
     0
 74
     1
 95
       17
 96
       13
 40
0.0
 40
0.0
 40
0.0
 40
0.0
 40
1.0
 40
1.0
 40
1.0
 40
2.0
 40
2.0
 40
2.0
 40
3.0
 40
3.0
 40
3.0
 40
4.0
 40
4.0
 40
4.0
 40
4.0
 10
97.82555336096028
 20
-137.5259724591081
 10
97.64916447211549
 20
-137.5259724591081
 10
97.55890297040195
 20
-137.621057094501
 10
97.55890297040195
 20
-137.7564493470713
 10
97.55890297040195
 20
-137.8790947463462
 10
97.63572859972302
 20
-137.9976060310388
 10
97.82555336096028
 20
-137.9976060310388
 10
98.01572263174607
 20
-137.9976060310388
 10
98.09254826106715
 20
-137.8790947463462
 10
98.09254826106715
 20
-137.7564493470713
 10
98.09254826106715
 20
-137.621057094501
 10
97.99987519251393
 20
-137.5259724591081
 10
97.82555336096028
 20
-137.5259724591081
 97
        0
 97
        0
 75
     2
 76
     1
 98
        0
  0
ENDBLK
  5
6F
330
6C
100
AcDbEntity
  8
0
100
AcDbBlockEnd
  0
BLOCK
  5
82
330
80
100
AcDbEntity
  8
0
100
AcDbBlockBegin
  2
block 4
 70
     0
 10
0.0
 20
0.0
 30
0.0
  3
block 4
  1

  0
SPLINE
  5
84
330
80
100
AcDbEntity
  8
_U+30EC_U+30A4_U+30E4_U+30FC 1
370
     0
100
AcDbSpline
210
0.0
220
0.0
230
1.0
 70
    11
 71
     3
 72
    26
 73
    22
 74
     0
 42
0.0000000001
 43
0.0000000001
 12
1.0
 22
0.0
 32
0.0
 13
1.0
 23
0.0
 33
0.0
 40
0.0
 40
0.0
 40
0.0
 40
0.0
 40
1.0
 40
1.0
 40
1.0
 40
2.0
 40
2.0
 40
2.0
 40
3.0
 40
3.0
 40
3.0
 40
4.0
 40
4.0
 40
4.0
 40
5.0
 40
5.0
 40
5.0
 40
6.0
 40
6.0
 40
6.0
 40
7.0
 40
7.0
 40
7.0
 40
7.0
 10
114.7120333914609
 20
-150.3470675622396
 30
0.0
 10
114.7120333914609
 20
-150.3470675622396
 30
0.0
 10
113.6078802884383
 20
-150.3470675622396
 30
0.0
 10
113.6078802884383
 20
-150.3470675622396
 30
0.0
 10
113.6078802884383
 20
-150.3470675622396
 30
0.0
 10
113.6078802884383
 20
-150.6995008303807
 30
0.0
 10
113.6078802884383
 20
-150.6995008303807
 30
0.0
 10
113.6078802884383
 20
-150.6995008303807
 30
0.0
 10
113.4597411825726
 20
-150.6995008303807
 30
0.0
 10
113.4597411825726
 20
-150.6995008303807
 30
0.0
 10
113.444927271986
 20
-150.3446559954
 30
0.0
 10
113.2819742555337
 20
-150.2950466204124
 30
0.0
 10
113.1675970854234
 20
-150.2633517419481
 30
0.0
 10
113.1675970854234
 20
-150.2633517419481
 30
0.0
 10
113.1675970854234
 20
-150.1072889164662
 30
0.0
 10
113.1675970854234
 20
-150.1072889164662
 30
0.0
 10
113.1675970854234
 20
-150.1072889164662
 30
0.0
 10
114.7120333914609
 20
-150.1072889164662
 30
0.0
 10
114.7120333914609
 20
-150.1072889164662
 30
0.0
 10
114.7120333914609
 20
-150.1072889164662
 30
0.0
 10
114.7120333914609
 20
-150.3470675622396
 30
0.0
 10
114.7120333914609
 20
-150.3470675622396
 30
0.0
  0
HATCH
  5
85
330
80
100
AcDbEntity
  8
_U+30EC_U+30A4_U+30E4_U+30FC 1
 62
   179
420
  2234388
100
AcDbHatch
 10
0.0
 20
0.0
 30
0.0
210
0.0
220
0.0
230
1.0
  2
SOLID
 70
     1
 71
     0
 91
        1
 92
        1
 93
        1
 72
     4
 94
        3
 73
     0
 74
     1
 95
       26
 96
       22
 40
0.0
 40
0.0
 40
0.0
 40
0.0
 40
1.0
 40
1.0
 40
1.0
 40
2.0
 40
2.0
 40
2.0
 40
3.0
 40
3.0
 40
3.0
 40
4.0
 40
4.0
 40
4.0
 40
5.0
 40
5.0
 40
5.0
 40
6.0
 40
6.0
 40
6.0
 40
7.0
 40
7.0
 40
7.0
 40
7.0
 10
114.7120333914609
 20
-150.3470675622396
 10
114.7120333914609
 20
-150.3470675622396
 10
113.6078802884383
 20
-150.3470675622396
 10
113.6078802884383
 20
-150.3470675622396
 10
113.6078802884383
 20
-150.3470675622396
 10
113.6078802884383
 20
-150.6995008303807
 10
113.6078802884383
 20
-150.6995008303807
 10
113.6078802884383
 20
-150.6995008303807
 10
113.4597411825726
 20
-150.6995008303807
 10
113.4597411825726
 20
-150.6995008303807
 10
113.444927271986
 20
-150.3446559954
 10
113.2819742555337
 20
-150.2950466204124
 10
113.1675970854234
 20
-150.2633517419481
 10
113.1675970854234
 20
-150.2633517419481
 10
113.1675970854234
 20
-150.1072889164662
 10
113.1675970854234
 20
-150.1072889164662
 10
113.1675970854234
 20
-150.1072889164662
 10
114.7120333914609
 20
-150.1072889164662
 10
114.7120333914609
 20
-150.1072889164662
 10
114.7120333914609
 20
-150.1072889164662
 10
114.7120333914609
 20
-150.3470675622396
 10
114.7120333914609
 20
-150.3470675622396
 97
        0
 97
        0
 75
     2
 76
     1
 98
        0
  0
SPLINE
  5
86
330
80
100
AcDbEntity
  8
_U+30EC_U+30A4_U+30E4_U+30FC 1
370
     0
100
AcDbSpline
210
0.0
220
0.0
230
1.0
 70
    11
 71
     3
 72
    29
 73
    25
 74
     0
 42
0.0000000001
 43
0.0000000001
 12
1.0
 22
0.0
 32
0.0
 13
1.0
 23
0.0
 33
0.0
 40
0.0
 40
0.0
 40
0.0
 40
0.0
 40
1.0
 40
1.0
 40
1.0
 40
2.0
 40
2.0
 40
2.0
 40
3.0
 40
3.0
 40
3.0
 40
4.0
 40
4.0
 40
4.0
 40
5.0
 40
5.0
 40
5.0
 40
6.0
 40
6.0
 40
6.0
 40
7.0
 40
7.0
 40
7.0
 40
8.0
 40
8.0
 40
8.0
 40
8.0
 10
114.534266464422
 20
-148.6121174758678
 30
0.0
 10
114.7437282699252
 20
-148.7275281746237
 30
0.0
 10
114.7626762950941
 20
-148.9128743117301
 30
0.0
 10
114.7626762950941
 20
-149.0372422587477
 30
0.0
 10
114.7626762950941
 20
-149.2088080139131
 30
0.0
 10
114.7161675060432
 20
-149.3603922152641
 30
0.0
 10
114.534266464422
 20
-149.4620225320789
 30
0.0
 10
114.3396185695054
 20
-149.572954606704
 30
0.0
 10
114.1025960001202
 20
-149.593280670067
 30
0.0
 10
113.9399874932164
 20
-149.593280670067
 30
0.0
 10
113.795982501933
 20
-149.593280670067
 30
0.0
 10
113.5441460219612
 20
-149.5750216639951
 30
0.0
 10
113.3453640124623
 20
-149.4620225320789
 30
0.0
 10
113.1424478883811
 20
-149.3469563428716
 30
0.0
 10
113.1190212390814
 20
-149.1750460781576
 30
0.0
 10
113.1190212390814
 20
-149.0372422587477
 30
0.0
 10
113.1190212390814
 20
-148.8673990513248
 30
0.0
 10
113.1634629708411
 20
-148.7137477926827
 30
0.0
 10
113.3453640124623
 20
-148.6121174758678
 30
0.0
 10
113.5379448500877
 20
-148.5056640253736
 30
0.0
 10
113.7663546807598
 20
-148.4808593378798
 30
0.0
 10
113.9399874932164
 20
-148.4808593378798
 30
0.0
 10
114.1112087388333
 20
-148.4808593378798
 30
0.0
 10
114.3416856267965
 20
-148.5035969680824
 30
0.0
 10
114.534266464422
 20
-148.6121174758678
 30
0.0
  0
SPLINE
  5
87
330
80
100
AcDbEntity
  8
_U+30EC_U+30A4_U+30E4_U+30FC 1
370
     0
100
AcDbSpline
210
0.0
220
0.0
230
1.0
 70
    11
 71
     3
 72
    17
 73
    13
 74
     0
 42
0.0000000001
 43
0.0000000001
 12
1.0
 22
0.0
 32
0.0
 13
1.0
 23
0.0
 33
0.0
 40
0.0
 40
0.0
 40
0.0
 40
0.0
 40
1.0
 40
1.0
 40
1.0
 40
2.0
 40
2.0
 40
2.0
 40
3.0
 40
3.0
 40
3.0
 40
4.0
 40
4.0
 40
4.0
 40
4.0
 10
113.3116020767068
 20
-149.0372422587477
 30
0.0
 10
113.3116020767068
 20
-149.303892649306
 30
0.0
 10
113.5951334351429
 20
-149.3535020242936
 30
0.0
 10
113.9399874932164
 20
-149.3535020242936
 30
0.0
 10
114.2593478446991
 20
-149.3535020242936
 30
0.0
 10
114.5680284001774
 20
-149.3152614644073
 30
0.0
 10
114.5680284001774
 20
-149.0372422587477
 30
0.0
 10
114.5680284001774
 20
-148.7726589254804
 30
0.0
 10
114.2869086085811
 20
-148.7206379836532
 30
0.0
 10
113.9399874932164
 20
-148.7206379836532
 30
0.0
 10
113.6202826321852
 20
-148.7206379836532
 30
0.0
 10
113.3116020767068
 20
-148.7612901103791
 30
0.0
 10
113.3116020767068
 20
-149.0372422587477
 30
0.0
  0
HATCH
  5
88
330
80
100
AcDbEntity
  8
_U+30EC_U+30A4_U+30E4_U+30FC 1
 62
   179
420
  2234388
100
AcDbHatch
 10
0.0
 20
0.0
 30
0.0
210
0.0
220
0.0
230
1.0
  2
SOLID
 70
     1
 71
     0
 91
        2
 92
        1
 93
        1
 72
     4
 94
        3
 73
     0
 74
     1
 95
       29
 96
       25
 40
0.0
 40
0.0
 40
0.0
 40
0.0
 40
1.0
 40
1.0
 40
1.0
 40
2.0
 40
2.0
 40
2.0
 40
3.0
 40
3.0
 40
3.0
 40
4.0
 40
4.0
 40
4.0
 40
5.0
 40
5.0
 40
5.0
 40
6.0
 40
6.0
 40
6.0
 40
7.0
 40
7.0
 40
7.0
 40
8.0
 40
8.0
 40
8.0
 40
8.0
 10
114.534266464422
 20
-148.6121174758678
 10
114.7437282699252
 20
-148.7275281746237
 10
114.7626762950941
 20
-148.9128743117301
 10
114.7626762950941
 20
-149.0372422587477
 10
114.7626762950941
 20
-149.2088080139131
 10
114.7161675060432
 20
-149.3603922152641
 10
114.534266464422
 20
-149.4620225320789
 10
114.3396185695054
 20
-149.572954606704
 10
114.1025960001202
 20
-149.593280670067
 10
113.9399874932164
 20
-149.593280670067
 10
113.795982501933
 20
-149.593280670067
 10
113.5441460219612
 20
-149.5750216639951
 10
113.3453640124623
 20
-149.4620225320789
 10
113.1424478883811
 20
-149.3469563428716
 10
113.1190212390814
 20
-149.1750460781576
 10
113.1190212390814
 20
-149.0372422587477
 10
113.1190212390814
 20
-148.8673990513248
 10
113.1634629708411
 20
-148.7137477926827
 10
113.3453640124623
 20
-148.6121174758678
 10
113.5379448500877
 20
-148.5056640253736
 10
113.7663546807598
 20
-148.4808593378798
 10
113.9399874932164
 20
-148.4808593378798
 10
114.1112087388333
 20
-148.4808593378798
 10
114.3416856267965
 20
-148.5035969680824
 10
114.534266464422
 20
-148.6121174758678
 97
        0
 97
        0
 92
        1
 93
        1
 72
     4
 94
        3
 73
     0
 74
     1
 95
       17
 96
       13
 40
0.0
 40
0.0
 40
0.0
 40
0.0
 40
1.0
 40
1.0
 40
1.0
 40
2.0
 40
2.0
 40
2.0
 40
3.0
 40
3.0
 40
3.0
 40
4.0
 40
4.0
 40
4.0
 40
4.0
 10
113.3116020767068
 20
-149.0372422587477
 10
113.3116020767068
 20
-149.303892649306
 10
113.5951334351429
 20
-149.3535020242936
 10
113.9399874932164
 20
-149.3535020242936
 10
114.2593478446991
 20
-149.3535020242936
 10
114.5680284001774
 20
-149.3152614644073
 10
114.5680284001774
 20
-149.0372422587477
 10
114.5680284001774
 20
-148.7726589254804
 10
114.2869086085811
 20
-148.7206379836532
 10
113.9399874932164
 20
-148.7206379836532
 10
113.6202826321852
 20
-148.7206379836532
 10
113.3116020767068
 20
-148.7612901103791
 10
113.3116020767068
 20
-149.0372422587477
 97
        0
 97
        0
 75
     2
 76
     1
 98
        0
  0
ENDBLK
  5
83
330
80
100
AcDbEntity
  8
0
100
AcDbBlockEnd
  0
BLOCK
  5
8D
330
8B
100
AcDbEntity
  8
0
100
AcDbBlockBegin
  2
block 5
 70
     0
 10
0.0
 20
0.0
 30
0.0
  3
block 5
  1

  0
SPLINE
  5
8F
330
8B
100
AcDbEntity
  8
_U+30EC_U+30A4_U+30E4_U+30FC 1
370
     0
100
AcDbSpline
210
0.0
220
0.0
230
1.0
 70
    11
 71
     3
 72
    26
 73
    22
 74
     0
 42
0.0000000001
 43
0.0000000001
 12
1.0
 22
0.0
 32
0.0
 13
1.0
 23
0.0
 33
0.0
 40
0.0
 40
0.0
 40
0.0
 40
0.0
 40
1.0
 40
1.0
 40
1.0
 40
2.0
 40
2.0
 40
2.0
 40
3.0
 40
3.0
 40
3.0
 40
4.0
 40
4.0
 40
4.0
 40
5.0
 40
5.0
 40
5.0
 40
6.0
 40
6.0
 40
6.0
 40
7.0
 40
7.0
 40
7.0
 40
7.0
 10
96.12608775808654
 20
-149.2026068420396
 30
0.0
 10
96.12608775808654
 20
-149.2026068420396
 30
0.0
 10
96.12608775808654
 20
-148.0986259937913
 30
0.0
 10
96.12608775808654
 20
-148.0986259937913
 30
0.0
 10
96.12608775808654
 20
-148.0986259937913
 30
0.0
 10
95.7960476105996
 20
-148.0986259937913
 30
0.0
 10
95.7960476105996
 20
-148.0986259937913
 30
0.0
 10
95.7960476105996
 20
-148.0986259937913
 30
0.0
 10
95.7960476105996
 20
-147.9504868879256
 30
0.0
 10
95.7960476105996
 20
-147.9504868879256
 30
0.0
 10
96.12815481537768
 20
-147.935672977339
 30
0.0
 10
96.17466360442856
 20
-147.7727199608867
 30
0.0
 10
96.20429142560171
 20
-147.6583427907764
 30
0.0
 10
96.20429142560171
 20
-147.6583427907764
 30
0.0
 10
96.3503634741763
 20
-147.6583427907764
 30
0.0
 10
96.3503634741763
 20
-147.6583427907764
 30
0.0
 10
96.3503634741763
 20
-147.6583427907764
 30
0.0
 10
96.3503634741763
 20
-149.2026068420396
 30
0.0
 10
96.3503634741763
 20
-149.2026068420396
 30
0.0
 10
96.3503634741763
 20
-149.2026068420396
 30
0.0
 10
96.12608775808654
 20
-149.2026068420396
 30
0.0
 10
96.12608775808654
 20
-149.2026068420396
 30
0.0
  0
HATCH
  5
90
330
8B
100
AcDbEntity
  8
_U+30EC_U+30A4_U+30E4_U+30FC 1
 62
   179
420
  2234388
100
AcDbHatch
 10
0.0
 20
0.0
 30
0.0
210
0.0
220
0.0
230
1.0
  2
SOLID
 70
     1
 71
     0
 91
        1
 92
        1
 93
        1
 72
     4
 94
        3
 73
     0
 74
     1
 95
       26
 96
       22
 40
0.0
 40
0.0
 40
0.0
 40
0.0
 40
1.0
 40
1.0
 40
1.0
 40
2.0
 40
2.0
 40
2.0
 40
3.0
 40
3.0
 40
3.0
 40
4.0
 40
4.0
 40
4.0
 40
5.0
 40
5.0
 40
5.0
 40
6.0
 40
6.0
 40
6.0
 40
7.0
 40
7.0
 40
7.0
 40
7.0
 10
96.12608775808654
 20
-149.2026068420396
 10
96.12608775808654
 20
-149.2026068420396
 10
96.12608775808654
 20
-148.0986259937913
 10
96.12608775808654
 20
-148.0986259937913
 10
96.12608775808654
 20
-148.0986259937913
 10
95.7960476105996
 20
-148.0986259937913
 10
95.7960476105996
 20
-148.0986259937913
 10
95.7960476105996
 20
-148.0986259937913
 10
95.7960476105996
 20
-147.9504868879256
 10
95.7960476105996
 20
-147.9504868879256
 10
96.12815481537768
 20
-147.935672977339
 10
96.17466360442856
 20
-147.7727199608867
 10
96.20429142560171
 20
-147.6583427907764
 10
96.20429142560171
 20
-147.6583427907764
 10
96.3503634741763
 20
-147.6583427907764
 10
96.3503634741763
 20
-147.6583427907764
 10
96.3503634741763
 20
-147.6583427907764
 10
96.3503634741763
 20
-149.2026068420396
 10
96.3503634741763
 20
-149.2026068420396
 10
96.3503634741763
 20
-149.2026068420396
 10
96.12608775808654
 20
-149.2026068420396
 10
96.12608775808654
 20
-149.2026068420396
 97
        0
 97
        0
 75
     2
 76
     1
 98
        0
  0
ENDBLK
  5
8E
330
8B
100
AcDbEntity
  8
0
100
AcDbBlockEnd
  0
BLOCK
  5
A0
330
9E
100
AcDbEntity
  8
0
100
AcDbBlockBegin
  2
block 6
 70
     0
 10
0.0
 20
0.0
 30
0.0
  3
block 6
  1

  0
SPLINE
  5
A2
330
9E
100
AcDbEntity
  8
_U+30EC_U+30A4_U+30E4_U+30FC 1
370
     0
100
AcDbSpline
210
0.0
220
0.0
230
1.0
 70
    11
 71
     3
 72
    26
 73
    22
 74
     0
 42
0.0000000001
 43
0.0000000001
 12
1.0
 22
0.0
 32
0.0
 13
1.0
 23
0.0
 33
0.0
 40
0.0
 40
0.0
 40
0.0
 40
0.0
 40
1.0
 40
1.0
 40
1.0
 40
2.0
 40
2.0
 40
2.0
 40
3.0
 40
3.0
 40
3.0
 40
4.0
 40
4.0
 40
4.0
 40
5.0
 40
5.0
 40
5.0
 40
6.0
 40
6.0
 40
6.0
 40
7.0
 40
7.0
 40
7.0
 40
7.0
 10
114.5666503619833
 20
-155.1877712285642
 30
0.0
 10
114.5666503619833
 20
-155.1877712285642
 30
0.0
 10
113.4621527494122
 20
-155.1877712285642
 30
0.0
 10
113.4621527494122
 20
-155.1877712285642
 30
0.0
 10
113.4621527494122
 20
-155.1877712285642
 30
0.0
 10
113.4621527494122
 20
-155.5402044967052
 30
0.0
 10
113.4621527494122
 20
-155.5402044967052
 30
0.0
 10
113.4621527494122
 20
-155.5402044967052
 30
0.0
 10
113.3140136435465
 20
-155.5402044967052
 30
0.0
 10
113.3140136435465
 20
-155.5402044967052
 30
0.0
 10
113.2995442425084
 20
-155.1853596617245
 30
0.0
 10
113.1362467165076
 20
-155.1357502867369
 30
0.0
 10
113.0218695463973
 20
-155.1040554082726
 30
0.0
 10
113.0218695463973
 20
-155.1040554082726
 30
0.0
 10
113.0218695463973
 20
-154.9479925827908
 30
0.0
 10
113.0218695463973
 20
-154.9479925827908
 30
0.0
 10
113.0218695463973
 20
-154.9479925827908
 30
0.0
 10
114.5666503619833
 20
-154.9479925827908
 30
0.0
 10
114.5666503619833
 20
-154.9479925827908
 30
0.0
 10
114.5666503619833
 20
-154.9479925827908
 30
0.0
 10
114.5666503619833
 20
-155.1877712285642
 30
0.0
 10
114.5666503619833
 20
-155.1877712285642
 30
0.0
  0
HATCH
  5
A3
330
9E
100
AcDbEntity
  8
_U+30EC_U+30A4_U+30E4_U+30FC 1
 62
   179
420
  2234388
100
AcDbHatch
 10
0.0
 20
0.0
 30
0.0
210
0.0
220
0.0
230
1.0
  2
SOLID
 70
     1
 71
     0
 91
        1
 92
        1
 93
        1
 72
     4
 94
        3
 73
     0
 74
     1
 95
       26
 96
       22
 40
0.0
 40
0.0
 40
0.0
 40
0.0
 40
1.0
 40
1.0
 40
1.0
 40
2.0
 40
2.0
 40
2.0
 40
3.0
 40
3.0
 40
3.0
 40
4.0
 40
4.0
 40
4.0
 40
5.0
 40
5.0
 40
5.0
 40
6.0
 40
6.0
 40
6.0
 40
7.0
 40
7.0
 40
7.0
 40
7.0
 10
114.5666503619833
 20
-155.1877712285642
 10
114.5666503619833
 20
-155.1877712285642
 10
113.4621527494122
 20
-155.1877712285642
 10
113.4621527494122
 20
-155.1877712285642
 10
113.4621527494122
 20
-155.1877712285642
 10
113.4621527494122
 20
-155.5402044967052
 10
113.4621527494122
 20
-155.5402044967052
 10
113.4621527494122
 20
-155.5402044967052
 10
113.3140136435465
 20
-155.5402044967052
 10
113.3140136435465
 20
-155.5402044967052
 10
113.2995442425084
 20
-155.1853596617245
 10
113.1362467165076
 20
-155.1357502867369
 10
113.0218695463973
 20
-155.1040554082726
 10
113.0218695463973
 20
-155.1040554082726
 10
113.0218695463973
 20
-154.9479925827908
 10
113.0218695463973
 20
-154.9479925827908
 10
113.0218695463973
 20
-154.9479925827908
 10
114.5666503619833
 20
-154.9479925827908
 10
114.5666503619833
 20
-154.9479925827908
 10
114.5666503619833
 20
-154.9479925827908
 10
114.5666503619833
 20
-155.1877712285642
 10
114.5666503619833
 20
-155.1877712285642
 97
        0
 97
        0
 75
     2
 76
     1
 98
        0
  0
ENDBLK
  5
A1
330
9E
100
AcDbEntity
  8
0
100
AcDbBlockEnd
  0
ENDSEC
  0
SECTION
  2
ENTITIES
  0
SPLINE
  5
41
330
1F
100
AcDbEntity
  8
_U+30EC_U+30A4_U+30E4_U+30FC 1
370
     0
100
AcDbSpline
210
0.0
220
0.0
230
1.0
 70
    11
 71
     3
 72
    53
 73
    49
 74
     0
 42
0.0000000001
 43
0.0000000001
 12
1.0
 22
0.0
 32
0.0
 13
1.0
 23
0.0
 33
0.0
 40
0.0
 40
0.0
 40
0.0
 40
0.0
 40
1.0
 40
1.0
 40
1.0
 40
2.0
 40
2.0
 40
2.0
 40
3.0
 40
3.0
 40
3.0
 40
4.0
 40
4.0
 40
4.0
 40
5.0
 40
5.0
 40
5.0
 40
6.0
 40
6.0
 40
6.0
 40
7.0
 40
7.0
 40
7.0
 40
8.0
 40
8.0
 40
8.0
 40
9.0
 40
9.0
 40
9.0
 40
10.0
 40
10.0
 40
10.0
 40
11.0
 40
11.0
 40
11.0
 40
12.0
 40
12.0
 40
12.0
 40
13.0
 40
13.0
 40
13.0
 40
14.0
 40
14.0
 40
14.0
 40
15.0
 40
15.0
 40
15.0
 40
16.0
 40
16.0
 40
16.0
 40
16.0
 10
111.2836035556209
 20
-155.1713208976221
 30
0.0
 10
111.2836035556209
 20
-155.1713208976221
 30
0.0
 10
101.6488880327204
 20
-155.1713208976221
 30
0.0
 10
101.6488880327204
 20
-155.1713208976221
 30
0.0
 10
101.4707335324394
 20
-154.8619405571233
 30
0.0
 10
101.1405318961016
 20
-154.6717928181843
 30
0.0
 10
100.7835231105192
 20
-154.6717928181843
 30
0.0
 10
100.7835231105192
 20
-154.6717928181843
 30
0.0
 10
98.28302974363129
 20
-154.6717928181843
 30
0.0
 10
98.28302974363129
 20
-154.6717928181843
 30
0.0
 10
98.28302974363129
 20
-154.6717928181843
 30
0.0
 10
98.28302974363129
 20
-144.6719510034642
 30
0.0
 10
98.28302974363129
 20
-144.6719510034642
 30
0.0
 10
98.28302974363129
 20
-144.6719510034642
 30
0.0
 10
101.283051189957
 20
-144.6719510034642
 30
0.0
 10
101.283051189957
 20
-144.6719510034642
 30
0.0
 10
101.5596277618822
 20
-144.6719510034642
 30
0.0
 10
101.7832898203387
 20
-144.4486442204797
 30
0.0
 10
101.7832898203387
 20
-144.1724229240263
 30
0.0
 10
101.7832898203387
 20
-143.9127811495958
 30
0.0
 10
101.585035341086
 20
-143.696526046433
 30
0.0
 10
101.3257380762039
 20
-143.6742944146294
 30
0.0
 10
98.96882982958722
 20
-143.4717981615604
 30
0.0
 10
96.59780745740437
 20
-143.4717981615604
 30
0.0
 10
94.24055470123913
 20
-143.6742944146294
 30
0.0
 10
93.96503318980628
 20
-143.6979363823969
 30
0.0
 10
93.76112660077305
 20
-143.9402880838608
 30
0.0
 10
93.7851130780891
 20
-144.2151098102733
 30
0.0
 10
93.80734470989235
 20
-144.4736965242114
 30
0.0
 10
94.02358904713245
 20
-144.6719510034642
 30
0.0
 10
94.28358609703457
 20
-144.6719510034642
 30
0.0
 10
94.28358609703457
 20
-144.6719510034642
 30
0.0
 10
97.28326303381178
 20
-144.6719510034642
 30
0.0
 10
97.28326303381178
 20
-144.6719510034642
 30
0.0
 10
97.28326303381178
 20
-144.6719510034642
 30
0.0
 10
97.28326303381178
 20
-154.6717928181843
 30
0.0
 10
97.28326303381178
 20
-154.6717928181843
 30
0.0
 10
97.28326303381178
 20
-154.6717928181843
 30
0.0
 10
94.7831249423958
 20
-154.6717928181843
 30
0.0
 10
94.7831249423958
 20
-154.6717928181843
 30
0.0
 10
94.23102685903774
 20
-154.6717928181843
 30
0.0
 10
93.78334746665291
 20
-155.1198167201176
 30
0.0
 10
93.78334746665291
 20
-155.6715702939272
 30
0.0
 10
93.78334746665291
 20
-155.6715702939272
 30
0.0
 10
111.7831316350588
 20
-155.6715702939272
 30
0.0
 10
111.7831316350588
 20
-155.6715702939272
 30
0.0
 10
111.7831316350588
 20
-155.3953382315505
 30
0.0
 10
111.5591143011304
 20
-155.1713208976221
 30
0.0
 10
111.2836035556209
 20
-155.1713208976221
 30
0.0
  0
HATCH
  5
42
330
1F
100
AcDbEntity
  8
_U+30EC_U+30A4_U+30E4_U+30FC 1
 62
     9
420
 13224394
100
AcDbHatch
 10
0.0
 20
0.0
 30
0.0
210
0.0
220
0.0
230
1.0
  2
SOLID
 70
     1
 71
     0
 91
        1
 92
        1
 93
        2
 72
     4
 94
        3
 73
     0
 74
     0
 95
       53
 96
       49
 40
0.0
 40
0.0
 40
0.0
 40
0.0
 40
0.3527777776895833
 40
0.3527777776895833
 40
0.3527777776895833
 40
0.7055555553791667
 40
0.7055555553791667
 40
0.7055555553791667
 40
1.05833333306875
 40
1.05833333306875
 40
1.05833333306875
 40
1.411111110758333
 40
1.411111110758333
 40
1.411111110758333
 40
1.763888888447917
 40
1.763888888447917
 40
1.763888888447917
 40
2.1166666661375
 40
2.1166666661375
 40
2.1166666661375
 40
2.469444443827083
 40
2.469444443827083
 40
2.469444443827083
 40
2.822222221516667
 40
2.822222221516667
 40
2.822222221516667
 40
3.17499999920625
 40
3.17499999920625
 40
3.17499999920625
 40
3.527777776895833
 40
3.527777776895833
 40
3.527777776895833
 40
3.880555554585417
 40
3.880555554585417
 40
3.880555554585417
 40
4.233333332275
 40
4.233333332275
 40
4.233333332275
 40
4.586111109964584
 40
4.586111109964584
 40
4.586111109964584
 40
4.938888887654167
 40
4.938888887654167
 40
4.938888887654167
 40
5.29166666534375
 40
5.29166666534375
 40
5.29166666534375
 40
5.644444443033334
 40
5.644444443033334
 40
5.644444443033334
 40
5.644444443033334
 10
111.2836035556209
 20
-155.1713208976221
 10
111.2836035556209
 20
-155.1713208976221
 10
101.6488880327204
 20
-155.1713208976221
 10
101.6488880327204
 20
-155.1713208976221
 10
101.4707335324394
 20
-154.8619405571233
 10
101.1405318961016
 20
-154.6717928181843
 10
100.7835231105192
 20
-154.6717928181843
 10
100.7835231105192
 20
-154.6717928181843
 10
98.28302974363129
 20
-154.6717928181843
 10
98.28302974363129
 20
-154.6717928181843
 10
98.28302974363129
 20
-154.6717928181843
 10
98.28302974363129
 20
-144.6719510034642
 10
98.28302974363129
 20
-144.6719510034642
 10
98.28302974363129
 20
-144.6719510034642
 10
101.283051189957
 20
-144.6719510034642
 10
101.283051189957
 20
-144.6719510034642
 10
101.5596277618822
 20
-144.6719510034642
 10
101.7832898203387
 20
-144.4486442204797
 10
101.7832898203387
 20
-144.1724229240263
 10
101.7832898203387
 20
-143.9127811495958
 10
101.585035341086
 20
-143.696526046433
 10
101.3257380762039
 20
-143.6742944146294
 10
98.96882982958722
 20
-143.4717981615604
 10
96.59780745740437
 20
-143.4717981615604
 10
94.24055470123913
 20
-143.6742944146294
 10
93.96503318980628
 20
-143.6979363823969
 10
93.76112660077305
 20
-143.9402880838608
 10
93.7851130780891
 20
-144.2151098102733
 10
93.80734470989235
 20
-144.4736965242114
 10
94.02358904713245
 20
-144.6719510034642
 10
94.28358609703457
 20
-144.6719510034642
 10
94.28358609703457
 20
-144.6719510034642
 10
97.28326303381178
 20
-144.6719510034642
 10
97.28326303381178
 20
-144.6719510034642
 10
97.28326303381178
 20
-144.6719510034642
 10
97.28326303381178
 20
-154.6717928181843
 10
97.28326303381178
 20
-154.6717928181843
 10
97.28326303381178
 20
-154.6717928181843
 10
94.7831249423958
 20
-154.6717928181843
 10
94.7831249423958
 20
-154.6717928181843
 10
94.23102685903774
 20
-154.6717928181843
 10
93.78334746665291
 20
-155.1198167201176
 10
93.78334746665291
 20
-155.6715702939272
 10
93.78334746665291
 20
-155.6715702939272
 10
111.7831316350588
 20
-155.6715702939272
 10
111.7831316350588
 20
-155.6715702939272
 10
111.7831316350588
 20
-155.3953382315505
 10
111.5591143011304
 20
-155.1713208976221
 10
111.2836035556209
 20
-155.1713208976221
 97
        0
 72
     1
 10
111.2836035556209
 20
-155.1713208976221
 11
111.2836035556209
 21
-155.1713208976221
 97
        0
 75
     2
 76
     1
 98
        0
  0
SPLINE
  5
43
330
1F
100
AcDbEntity
  8
_U+30EC_U+30A4_U+30E4_U+30FC 1
 62
   179
420
  2234388
370
     9
100
AcDbSpline
210
0.0
220
0.0
230
1.0
 70
    11
 71
     3
 72
    17
 73
    13
 74
     0
 42
0.0000000001
 43
0.0000000001
 12
1.0
 22
0.0
 32
0.0
 13
1.0
 23
0.0
 33
0.0
 40
0.0
 40
0.0
 40
0.0
 40
0.0
 40
1.0
 40
1.0
 40
1.0
 40
2.0
 40
2.0
 40
2.0
 40
3.0
 40
3.0
 40
3.0
 40
4.0
 40
4.0
 40
4.0
 40
4.0
 10
115.7608496482516
 20
-144.6720586626981
 30
0.0
 10
115.7608496482516
 20
-144.6170340282446
 30
0.0
 10
115.7160418750966
 20
-144.5722262550896
 30
0.0
 10
115.6610064747197
 20
-144.5722262550896
 30
0.0
 10
115.6059710743429
 20
-144.5722262550896
 30
0.0
 10
115.5611740671112
 20
-144.6170340282446
 30
0.0
 10
115.5611740671112
 20
-144.6720586626981
 30
0.0
 10
115.5611740671112
 20
-144.7278046140188
 30
0.0
 10
115.6059710743429
 20
-144.7726016212507
 30
0.0
 10
115.6610064747197
 20
-144.7726016212507
 30
0.0
 10
115.7160418750966
 20
-144.7726016212507
 30
0.0
 10
115.7608496482516
 20
-144.7278046140188
 30
0.0
 10
115.7608496482516
 20
-144.6720586626981
 30
0.0
  0
SPLINE
  5
44
330
1F
100
AcDbEntity
  8
_U+30EC_U+30A4_U+30E4_U+30FC 1
 62
   179
420
  2234388
370
     9
100
AcDbSpline
210
0.0
220
0.0
230
1.0
 70
    11
 71
     3
 72
    17
 73
    13
 74
     0
 42
0.0000000001
 43
0.0000000001
 12
1.0
 22
0.0
 32
0.0
 13
1.0
 23
0.0
 33
0.0
 40
0.0
 40
0.0
 40
0.0
 40
0.0
 40
1.0
 40
1.0
 40
1.0
 40
2.0
 40
2.0
 40
2.0
 40
3.0
 40
3.0
 40
3.0
 40
4.0
 40
4.0
 40
4.0
 40
4.0
 10
115.7608496482516
 20
-154.6717928181843
 30
0.0
 10
115.7608496482516
 20
-154.6167681837308
 30
0.0
 10
115.7160418750966
 20
-154.5719604105758
 30
0.0
 10
115.6610064747197
 20
-154.5719604105758
 30
0.0
 10
115.6059710743429
 20
-154.5719604105758
 30
0.0
 10
115.5611740671112
 20
-154.6167681837308
 30
0.0
 10
115.5611740671112
 20
-154.6717928181843
 30
0.0
 10
115.5611740671112
 20
-154.7268282185611
 30
0.0
 10
115.6059710743429
 20
-154.7716359917162
 30
0.0
 10
115.6610064747197
 20
-154.7716359917162
 30
0.0
 10
115.7160418750966
 20
-154.7716359917162
 30
0.0
 10
115.7608496482516
 20
-154.7268282185611
 30
0.0
 10
115.7608496482516
 20
-154.6717928181843
 30
0.0
  0
SPLINE
  5
45
330
1F
100
AcDbEntity
  8
_U+30EC_U+30A4_U+30E4_U+30FC 1
 62
   179
420
  2234388
370
     9
100
AcDbSpline
210
0.0
220
0.0
230
1.0
 70
    11
 71
     3
 72
    17
 73
    13
 74
     0
 42
0.0000000001
 43
0.0000000001
 12
1.0
 22
0.0
 32
0.0
 13
1.0
 23
0.0
 33
0.0
 40
0.0
 40
0.0
 40
0.0
 40
0.0
 40
1.0
 40
1.0
 40
1.0
 40
2.0
 40
2.0
 40
2.0
 40
3.0
 40
3.0
 40
3.0
 40
4.0
 40
4.0
 40
4.0
 40
4.0
 10
93.88312604464446
 20
-159.6719613417823
 30
0.0
 10
93.88312604464446
 20
-159.616226156385
 30
0.0
 10
93.83831827148943
 20
-159.5714291491534
 30
0.0
 10
93.78328287111256
 20
-159.5714291491534
 30
0.0
 10
93.7282474707357
 20
-159.5714291491534
 30
0.0
 10
93.68345046350406
 20
-159.616226156385
 30
0.0
 10
93.68345046350406
 20
-159.6719613417823
 30
0.0
 10
93.68345046350406
 20
-159.7269967421592
 30
0.0
 10
93.7282474707357
 20
-159.7718045153142
 30
0.0
 10
93.78328287111256
 20
-159.7718045153142
 30
0.0
 10
93.83831827148943
 20
-159.7718045153142
 30
0.0
 10
93.88312604464446
 20
-159.7269967421592
 30
0.0
 10
93.88312604464446
 20
-159.6719613417823
 30
0.0
  0
SPLINE
  5
46
330
1F
100
AcDbEntity
  8
_U+30EC_U+30A4_U+30E4_U+30FC 1
 62
   179
420
  2234388
370
     9
100
AcDbSpline
210
0.0
220
0.0
230
1.0
 70
    11
 71
     3
 72
    17
 73
    13
 74
     0
 42
0.0000000001
 43
0.0000000001
 12
1.0
 22
0.0
 32
0.0
 13
1.0
 23
0.0
 33
0.0
 40
0.0
 40
0.0
 40
0.0
 40
0.0
 40
1.0
 40
1.0
 40
1.0
 40
2.0
 40
2.0
 40
2.0
 40
3.0
 40
3.0
 40
3.0
 40
4.0
 40
4.0
 40
4.0
 40
4.0
 10
111.8830501700544
 20
-159.6719613417823
 30
0.0
 10
111.8830501700544
 20
-159.616226156385
 30
0.0
 10
111.8382423968994
 20
-159.5714291491534
 30
0.0
 10
111.7832069965225
 20
-159.5714291491534
 30
0.0
 10
111.7281715961457
 20
-159.5714291491534
 30
0.0
 10
111.683374588914
 20
-159.616226156385
 30
0.0
 10
111.683374588914
 20
-159.6719613417823
 30
0.0
 10
111.683374588914
 20
-159.7269967421592
 30
0.0
 10
111.7281715961457
 20
-159.7718045153142
 30
0.0
 10
111.7832069965225
 20
-159.7718045153142
 30
0.0
 10
111.8382423968994
 20
-159.7718045153142
 30
0.0
 10
111.8830501700544
 20
-159.7269967421592
 30
0.0
 10
111.8830501700544
 20
-159.6719613417823
 30
0.0
  0
SPLINE
  5
47
330
1F
100
AcDbEntity
  8
_U+30EC_U+30A4_U+30E4_U+30FC 1
 62
   179
420
  2234388
370
     9
100
AcDbSpline
210
0.0
220
0.0
230
1.0
 70
    11
 71
     3
 72
    17
 73
    13
 74
     0
 42
0.0000000001
 43
0.0000000001
 12
1.0
 22
0.0
 32
0.0
 13
1.0
 23
0.0
 33
0.0
 40
0.0
 40
0.0
 40
0.0
 40
0.0
 40
1.0
 40
1.0
 40
1.0
 40
2.0
 40
2.0
 40
2.0
 40
3.0
 40
3.0
 40
3.0
 40
4.0
 40
4.0
 40
4.0
 40
4.0
 10
101.8833160145686
 20
-139.5223514631934
 30
0.0
 10
101.8833160145686
 20
-139.4673268287403
 30
0.0
 10
101.8385082414132
 20
-139.4225190555849
 30
0.0
 10
101.7834728410363
 20
-139.4225190555849
 30
0.0
 10
101.7284374406595
 20
-139.4225190555849
 30
0.0
 10
101.6836404334278
 20
-139.4673268287403
 30
0.0
 10
101.6836404334278
 20
-139.5223514631934
 30
0.0
 10
101.6836404334278
 20
-139.5773868635703
 30
0.0
 10
101.7284374406595
 20
-139.6221946367253
 30
0.0
 10
101.7834728410363
 20
-139.6221946367253
 30
0.0
 10
101.8385082414132
 20
-139.6221946367253
 30
0.0
 10
101.8833160145686
 20
-139.5773868635703
 30
0.0
 10
101.8833160145686
 20
-139.5223514631934
 30
0.0
  0
SPLINE
  5
48
330
1F
100
AcDbEntity
  8
_U+30EC_U+30A4_U+30E4_U+30FC 1
 62
   179
420
  2234388
370
     9
100
AcDbSpline
210
0.0
220
0.0
230
1.0
 70
    11
 71
     3
 72
    17
 73
    13
 74
     0
 42
0.0000000001
 43
0.0000000001
 12
1.0
 22
0.0
 32
0.0
 13
1.0
 23
0.0
 33
0.0
 40
0.0
 40
0.0
 40
0.0
 40
0.0
 40
1.0
 40
1.0
 40
1.0
 40
2.0
 40
2.0
 40
2.0
 40
3.0
 40
3.0
 40
3.0
 40
4.0
 40
4.0
 40
4.0
 40
4.0
 10
93.88312604464446
 20
-139.5223514631934
 30
0.0
 10
93.88312604464446
 20
-139.4673268287403
 30
0.0
 10
93.83831827148943
 20
-139.4225190555849
 30
0.0
 10
93.78328287111256
 20
-139.4225190555849
 30
0.0
 10
93.7282474707357
 20
-139.4225190555849
 30
0.0
 10
93.68345046350406
 20
-139.4673268287403
 30
0.0
 10
93.68345046350406
 20
-139.5223514631934
 30
0.0
 10
93.68345046350406
 20
-139.5773868635703
 30
0.0
 10
93.7282474707357
 20
-139.6221946367253
 30
0.0
 10
93.78328287111256
 20
-139.6221946367253
 30
0.0
 10
93.83831827148943
 20
-139.6221946367253
 30
0.0
 10
93.88312604464446
 20
-139.5773868635703
 30
0.0
 10
93.88312604464446
 20
-139.5223514631934
 30
0.0
  0
SPLINE
  5
49
330
1F
100
AcDbEntity
  8
_U+30EC_U+30A4_U+30E4_U+30FC 1
 62
   179
420
  2234388
370
    25
100
AcDbSpline
210
0.0
220
0.0
230
1.0
 70
    11
 71
     3
 72
    53
 73
    49
 74
     0
 42
0.0000000001
 43
0.0000000001
 12
1.0
 22
0.0
 32
0.0
 13
1.0
 23
0.0
 33
0.0
 40
0.0
 40
0.0
 40
0.0
 40
0.0
 40
1.0
 40
1.0
 40
1.0
 40
2.0
 40
2.0
 40
2.0
 40
3.0
 40
3.0
 40
3.0
 40
4.0
 40
4.0
 40
4.0
 40
5.0
 40
5.0
 40
5.0
 40
6.0
 40
6.0
 40
6.0
 40
7.0
 40
7.0
 40
7.0
 40
8.0
 40
8.0
 40
8.0
 40
9.0
 40
9.0
 40
9.0
 40
10.0
 40
10.0
 40
10.0
 40
11.0
 40
11.0
 40
11.0
 40
12.0
 40
12.0
 40
12.0
 40
13.0
 40
13.0
 40
13.0
 40
14.0
 40
14.0
 40
14.0
 40
15.0
 40
15.0
 40
15.0
 40
16.0
 40
16.0
 40
16.0
 40
16.0
 10
94.24073772193678
 20
-143.6743697760931
 30
0.0
 10
96.59799047810202
 20
-143.4718842889476
 30
0.0
 10
98.96865757481297
 20
-143.4718842889476
 30
0.0
 10
101.3259210969016
 20
-143.6743697760931
 30
0.0
 10
101.5848630863117
 20
-143.6966014078964
 30
0.0
 10
101.7834728410363
 20
-143.9128565110595
 30
0.0
 10
101.7834728410363
 20
-144.1724982854901
 30
0.0
 10
101.7834728410363
 20
-144.4487195819434
 30
0.0
 10
101.559455507108
 20
-144.6720263649279
 30
0.0
 10
101.2832342106547
 20
-144.6720263649279
 30
0.0
 10
101.2832342106547
 20
-144.6720263649279
 30
0.0
 10
98.28321276432894
 20
-144.6720263649279
 30
0.0
 10
98.28321276432894
 20
-144.6720263649279
 30
0.0
 10
98.28321276432894
 20
-144.6720263649279
 30
0.0
 10
98.28321276432894
 20
-154.671868179648
 30
0.0
 10
98.28321276432894
 20
-154.671868179648
 30
0.0
 10
98.28321276432894
 20
-154.671868179648
 30
0.0
 10
100.7837061312168
 20
-154.671868179648
 30
0.0
 10
100.7837061312168
 20
-154.671868179648
 30
0.0
 10
101.1407149167992
 20
-154.671868179648
 30
0.0
 10
101.4705612776651
 20
-154.862015918587
 30
0.0
 10
101.649071053418
 20
-155.1714070250092
 30
0.0
 10
101.649071053418
 20
-155.1714070250092
 30
0.0
 10
111.2837758103952
 20
-155.1714070250092
 30
0.0
 10
111.2837758103952
 20
-155.1714070250092
 30
0.0
 10
111.5592973218281
 20
-155.1714070250092
 30
0.0
 10
111.7833146557564
 20
-155.3954135930142
 30
0.0
 10
111.7833146557564
 20
-155.6716456553909
 30
0.0
 10
111.7833146557564
 20
-155.6716456553909
 30
0.0
 10
93.78317521187864
 20
-155.6716456553909
 30
0.0
 10
93.78317521187864
 20
-155.6716456553909
 30
0.0
 10
93.78317521187864
 20
-155.1195475720328
 30
0.0
 10
94.23120987973539
 20
-154.671868179648
 30
0.0
 10
94.78295268762155
 20
-154.671868179648
 30
0.0
 10
94.78295268762155
 20
-154.671868179648
 30
0.0
 10
97.28344605450944
 20
-154.671868179648
 30
0.0
 10
97.28344605450944
 20
-154.671868179648
 30
0.0
 10
97.28344605450944
 20
-154.671868179648
 30
0.0
 10
97.28344605450944
 20
-144.6720263649279
 30
0.0
 10
97.28344605450944
 20
-144.6720263649279
 30
0.0
 10
97.28344605450944
 20
-144.6720263649279
 30
0.0
 10
94.28341384226032
 20
-144.6720263649279
 30
0.0
 10
94.28341384226032
 20
-144.6720263649279
 30
0.0
 10
94.02377206782978
 20
-144.6720263649279
 30
0.0
 10
93.80717245511809
 20
-144.4737718856752
 30
0.0
 10
93.78529609878676
 20
-144.2151851717373
 30
0.0
 10
93.7613096214707
 20
-143.940374211248
 30
0.0
 10
93.96521621050393
 20
-143.6976564683887
 30
0.0
 10
94.24073772193678
 20
-143.6743697760931
 30
0.0
  0
POLYLINE
  5
4A
330
1F
100
AcDbEntity
  8
_U+30EC_U+30A4_U+30E4_U+30FC 1
 62
   179
420
  2234388
370
     9
100
AcDb2dPolyline
 66
     1
 10
0.0
 20
0.0
 30
0.0
  0
VERTEX
  5
4B
330
4A
100
AcDbEntity
  8
_U+30EC_U+30A4_U+30E4_U+30FC 1
 62
   179
420
  2234388
370
     9
100
AcDbVertex
100
AcDb2dVertex
 10
93.78321827557221
 20
-159.6719613417823
 30
0.0
  0
VERTEX
  5
4C
330
4A
100
AcDbEntity
  8
_U+30EC_U+30A4_U+30E4_U+30FC 1
 62
   179
420
  2234388
370
     9
100
AcDbVertex
100
AcDb2dVertex
 10
111.7829916780547
 20
-159.6719613417823
 30
0.0
  0
SEQEND
  5
4D
330
4A
100
AcDbEntity
  8
_U+30EC_U+30A4_U+30E4_U+30FC 1
 62
   179
420
  2234388
370
     9
  0
POLYLINE
  5
4E
330
1F
100
AcDbEntity
  8
_U+30EC_U+30A4_U+30E4_U+30FC 1
 62
   179
420
  2234388
370
     9
100
AcDb2dPolyline
 66
     1
 10
0.0
 20
0.0
 30
0.0
  0
VERTEX
  5
4F
330
4E
100
AcDbEntity
  8
_U+30EC_U+30A4_U+30E4_U+30FC 1
 62
   179
420
  2234388
370
     9
100
AcDbVertex
100
AcDb2dVertex
 10
93.78321827557221
 20
-157.4113219821315
 30
0.0
  0
VERTEX
  5
50
330
4E
100
AcDbEntity
  8
_U+30EC_U+30A4_U+30E4_U+30FC 1
 62
   179
420
  2234388
370
     9
100
AcDbVertex
100
AcDb2dVertex
 10
93.78321827557221
 20
-160.6716957538316
 30
0.0
  0
SEQEND
  5
51
330
4E
100
AcDbEntity
  8
_U+30EC_U+30A4_U+30E4_U+30FC 1
 62
   179
420
  2234388
370
     9
  0
POLYLINE
  5
52
330
1F
100
AcDbEntity
  8
_U+30EC_U+30A4_U+30E4_U+30FC 1
 62
   179
420
  2234388
370
     9
100
AcDb2dPolyline
 66
     1
 10
0.0
 20
0.0
 30
0.0
  0
VERTEX
  5
53
330
52
100
AcDbEntity
  8
_U+30EC_U+30A4_U+30E4_U+30FC 1
 62
   179
420
  2234388
370
     9
100
AcDbVertex
100
AcDb2dVertex
 10
111.7831424009822
 20
-158.2119837047504
 30
0.0
  0
VERTEX
  5
54
330
52
100
AcDbEntity
  8
_U+30EC_U+30A4_U+30E4_U+30FC 1
 62
   179
420
  2234388
370
     9
100
AcDbVertex
100
AcDb2dVertex
 10
111.7831424009822
 20
-160.6719110722995
 30
0.0
  0
SEQEND
  5
55
330
52
100
AcDbEntity
  8
_U+30EC_U+30A4_U+30E4_U+30FC 1
 62
   179
420
  2234388
370
     9
  0
INSERT
  5
57
330
1F
100
AcDbEntity
  8
_U+30EC_U+30A4_U+30E4_U+30FC 1
100
AcDbBlockReference
  2
block 2
 10
0.0
 20
0.0
 30
0.0
  0
POLYLINE
  5
60
330
1F
100
AcDbEntity
  8
_U+30EC_U+30A4_U+30E4_U+30FC 1
 62
   179
420
  2234388
370
     9
100
AcDb2dPolyline
 66
     1
 10
0.0
 20
0.0
 30
0.0
  0
VERTEX
  5
61
330
60
100
AcDbEntity
  8
_U+30EC_U+30A4_U+30E4_U+30FC 1
 62
   179
420
  2234388
370
     9
100
AcDbVertex
100
AcDb2dVertex
 10
93.78321827557221
 20
-139.5223514631934
 30
0.0
  0
VERTEX
  5
62
330
60
100
AcDbEntity
  8
_U+30EC_U+30A4_U+30E4_U+30FC 1
 62
   179
420
  2234388
370
     9
100
AcDbVertex
100
AcDb2dVertex
 10
101.7835051388065
 20
-139.5223514631934
 30
0.0
  0
SEQEND
  5
63
330
60
100
AcDbEntity
  8
_U+30EC_U+30A4_U+30E4_U+30FC 1
 62
   179
420
  2234388
370
     9
  0
POLYLINE
  5
64
330
1F
100
AcDbEntity
  8
_U+30EC_U+30A4_U+30E4_U+30FC 1
 62
   179
420
  2234388
370
     9
100
AcDb2dPolyline
 66
     1
 10
0.0
 20
0.0
 30
0.0
  0
VERTEX
  5
65
330
64
100
AcDbEntity
  8
_U+30EC_U+30A4_U+30E4_U+30FC 1
 62
   179
420
  2234388
370
     9
100
AcDbVertex
100
AcDb2dVertex
 10
93.78321827557221
 20
-141.6824048005983
 30
0.0
  0
VERTEX
  5
66
330
64
100
AcDbEntity
  8
_U+30EC_U+30A4_U+30E4_U+30FC 1
 62
   179
420
  2234388
370
     9
100
AcDbVertex
100
AcDb2dVertex
 10
93.78321827557221
 20
-138.5225847533739
 30
0.0
  0
SEQEND
  5
67
330
64
100
AcDbEntity
  8
_U+30EC_U+30A4_U+30E4_U+30FC 1
 62
   179
420
  2234388
370
     9
  0
POLYLINE
  5
68
330
1F
100
AcDbEntity
  8
_U+30EC_U+30A4_U+30E4_U+30FC 1
 62
   179
420
  2234388
370
     9
100
AcDb2dPolyline
 66
     1
 10
0.0
 20
0.0
 30
0.0
  0
VERTEX
  5
69
330
68
100
AcDbEntity
  8
_U+30EC_U+30A4_U+30E4_U+30FC 1
 62
   179
420
  2234388
370
     9
100
AcDbVertex
100
AcDb2dVertex
 10
101.7834082454963
 20
-141.6824048005983
 30
0.0
  0
VERTEX
  5
6A
330
68
100
AcDbEntity
  8
_U+30EC_U+30A4_U+30E4_U+30FC 1
 62
   179
420
  2234388
370
     9
100
AcDbVertex
100
AcDb2dVertex
 10
101.7834082454963
 20
-138.5225847533739
 30
0.0
  0
SEQEND
  5
6B
330
68
100
AcDbEntity
  8
_U+30EC_U+30A4_U+30E4_U+30FC 1
 62
   179
420
  2234388
370
     9
  0
INSERT
  5
6D
330
1F
100
AcDbEntity
  8
_U+30EC_U+30A4_U+30E4_U+30FC 1
100
AcDbBlockReference
  2
block 3
 10
0.0
 20
0.0
 30
0.0
  0
POLYLINE
  5
74
330
1F
100
AcDbEntity
  8
_U+30EC_U+30A4_U+30E4_U+30FC 1
 62
   179
420
  2234388
370
     9
100
AcDb2dPolyline
 66
     1
 10
0.0
 20
0.0
 30
0.0
  0
VERTEX
  5
75
330
74
100
AcDbEntity
  8
_U+30EC_U+30A4_U+30E4_U+30FC 1
 62
   179
420
  2234388
370
     9
100
AcDbVertex
100
AcDb2dVertex
 10
115.6609418791794
 20
-154.6717928181843
 30
0.0
  0
VERTEX
  5
76
330
74
100
AcDbEntity
  8
_U+30EC_U+30A4_U+30E4_U+30FC 1
 62
   179
420
  2234388
370
     9
100
AcDbVertex
100
AcDb2dVertex
 10
115.6609418791794
 20
-144.6719617693876
 30
0.0
  0
SEQEND
  5
77
330
74
100
AcDbEntity
  8
_U+30EC_U+30A4_U+30E4_U+30FC 1
 62
   179
420
  2234388
370
     9
  0
POLYLINE
  5
78
330
1F
100
AcDbEntity
  8
_U+30EC_U+30A4_U+30E4_U+30FC 1
 62
   179
420
  2234388
370
     9
100
AcDb2dPolyline
 66
     1
 10
0.0
 20
0.0
 30
0.0
  0
VERTEX
  5
79
330
78
100
AcDbEntity
  8
_U+30EC_U+30A4_U+30E4_U+30FC 1
 62
   179
420
  2234388
370
     9
100
AcDbVertex
100
AcDb2dVertex
 10
114.6652985180188
 20
-154.6717928181843
 30
0.0
  0
VERTEX
  5
7A
330
78
100
AcDbEntity
  8
_U+30EC_U+30A4_U+30E4_U+30FC 1
 62
   179
420
  2234388
370
     9
100
AcDbVertex
100
AcDb2dVertex
 10
116.6613114807088
 20
-154.6717928181843
 30
0.0
  0
SEQEND
  5
7B
330
78
100
AcDbEntity
  8
_U+30EC_U+30A4_U+30E4_U+30FC 1
 62
   179
420
  2234388
370
     9
  0
POLYLINE
  5
7C
330
1F
100
AcDbEntity
  8
_U+30EC_U+30A4_U+30E4_U+30FC 1
 62
   179
420
  2234388
370
     9
100
AcDb2dPolyline
 66
     1
 10
0.0
 20
0.0
 30
0.0
  0
VERTEX
  5
7D
330
7C
100
AcDbEntity
  8
_U+30EC_U+30A4_U+30E4_U+30FC 1
 62
   179
420
  2234388
370
     9
100
AcDbVertex
100
AcDb2dVertex
 10
114.6652985180188
 20
-144.6720586626981
 30
0.0
  0
VERTEX
  5
7E
330
7C
100
AcDbEntity
  8
_U+30EC_U+30A4_U+30E4_U+30FC 1
 62
   179
420
  2234388
370
     9
100
AcDbVertex
100
AcDb2dVertex
 10
116.6613114807088
 20
-144.6720586626981
 30
0.0
  0
SEQEND
  5
7F
330
7C
100
AcDbEntity
  8
_U+30EC_U+30A4_U+30E4_U+30FC 1
 62
   179
420
  2234388
370
     9
  0
INSERT
  5
81
330
1F
100
AcDbEntity
  8
_U+30EC_U+30A4_U+30E4_U+30FC 1
100
AcDbBlockReference
  2
block 4
 10
0.0
 20
0.0
 30
0.0
  0
SPLINE
  5
89
330
1F
100
AcDbEntity
  8
_U+30EC_U+30A4_U+30E4_U+30FC 1
 62
   179
420
  2234388
370
     9
100
AcDbSpline
210
0.0
220
0.0
230
1.0
 70
    11
 71
     3
 72
    17
 73
    13
 74
     0
 42
0.0000000001
 43
0.0000000001
 12
1.0
 22
0.0
 32
0.0
 13
1.0
 23
0.0
 33
0.0
 40
0.0
 40
0.0
 40
0.0
 40
0.0
 40
1.0
 40
1.0
 40
1.0
 40
2.0
 40
2.0
 40
2.0
 40
3.0
 40
3.0
 40
3.0
 40
4.0
 40
4.0
 40
4.0
 40
4.0
 10
97.40056853508455
 20
-149.4393925611102
 30
0.0
 10
97.40056853508455
 20
-149.3843679266567
 30
0.0
 10
97.35576076192952
 20
-149.3395601535017
 30
0.0
 10
97.30072536155265
 20
-149.3395601535017
 30
0.0
 10
97.24568996117578
 20
-149.3395601535017
 30
0.0
 10
97.20089295394413
 20
-149.3843679266567
 30
0.0
 10
97.20089295394413
 20
-149.4393925611102
 30
0.0
 10
97.20089295394413
 20
-149.4944279614871
 30
0.0
 10
97.24568996117578
 20
-149.5392357346421
 30
0.0
 10
97.30072536155265
 20
-149.5392357346421
 30
0.0
 10
97.35576076192952
 20
-149.5392357346421
 30
0.0
 10
97.40056853508455
 20
-149.4944279614871
 30
0.0
 10
97.40056853508455
 20
-149.4393925611102
 30
0.0
  0
SPLINE
  5
8A
330
1F
100
AcDbEntity
  8
_U+30EC_U+30A4_U+30E4_U+30FC 1
 62
   179
420
  2234388
370
     9
100
AcDbSpline
210
0.0
220
0.0
230
1.0
 70
    11
 71
     3
 72
    17
 73
    13
 74
     0
 42
0.0000000001
 43
0.0000000001
 12
1.0
 22
0.0
 32
0.0
 13
1.0
 23
0.0
 33
0.0
 40
0.0
 40
0.0
 40
0.0
 40
0.0
 40
1.0
 40
1.0
 40
1.0
 40
2.0
 40
2.0
 40
2.0
 40
3.0
 40
3.0
 40
3.0
 40
4.0
 40
4.0
 40
4.0
 40
4.0
 10
98.40034601082743
 20
-149.4393925611102
 30
0.0
 10
98.40034601082743
 20
-149.3843679266567
 30
0.0
 10
98.35553823767273
 20
-149.3395601535017
 30
0.0
 10
98.30050283729587
 20
-149.3395601535017
 30
0.0
 10
98.245467436919
 20
-149.3395601535017
 30
0.0
 10
98.20067042968704
 20
-149.3843679266567
 30
0.0
 10
98.20067042968704
 20
-149.4393925611102
 30
0.0
 10
98.20067042968704
 20
-149.4944279614871
 30
0.0
 10
98.245467436919
 20
-149.5392357346421
 30
0.0
 10
98.30050283729587
 20
-149.5392357346421
 30
0.0
 10
98.35553823767273
 20
-149.5392357346421
 30
0.0
 10
98.40034601082743
 20
-149.4944279614871
 30
0.0
 10
98.40034601082743
 20
-149.4393925611102
 30
0.0
  0
INSERT
  5
8C
330
1F
100
AcDbEntity
  8
_U+30EC_U+30A4_U+30E4_U+30FC 1
100
AcDbBlockReference
  2
block 5
 10
0.0
 20
0.0
 30
0.0
  0
POLYLINE
  5
91
330
1F
100
AcDbEntity
  8
_U+30EC_U+30A4_U+30E4_U+30FC 1
 62
   179
420
  2234388
370
     9
100
AcDb2dPolyline
 66
     1
 10
0.0
 20
0.0
 30
0.0
  0
VERTEX
  5
92
330
91
100
AcDbEntity
  8
_U+30EC_U+30A4_U+30E4_U+30FC 1
 62
   179
420
  2234388
370
     9
100
AcDbVertex
100
AcDb2dVertex
 10
99.16170134714426
 20
-149.4393925611102
 30
0.0
  0
VERTEX
  5
93
330
91
100
AcDbEntity
  8
_U+30EC_U+30A4_U+30E4_U+30FC 1
 62
   179
420
  2234388
370
     9
100
AcDbVertex
100
AcDb2dVertex
 10
95.3224115769181
 20
-149.4393925611102
 30
0.0
  0
SEQEND
  5
94
330
91
100
AcDbEntity
  8
_U+30EC_U+30A4_U+30E4_U+30FC 1
 62
   179
420
  2234388
370
     9
  0
SPLINE
  5
95
330
1F
100
AcDbEntity
  8
_U+30EC_U+30A4_U+30E4_U+30FC 1
 62
   179
420
  2234388
370
     9
100
AcDbSpline
210
0.0
220
0.0
230
1.0
 70
    11
 71
     3
 72
    17
 73
    13
 74
     0
 42
0.0000000001
 43
0.0000000001
 12
1.0
 22
0.0
 32
0.0
 13
1.0
 23
0.0
 33
0.0
 40
0.0
 40
0.0
 40
0.0
 40
0.0
 40
1.0
 40
1.0
 40
1.0
 40
2.0
 40
2.0
 40
2.0
 40
3.0
 40
3.0
 40
3.0
 40
4.0
 40
4.0
 40
4.0
 40
4.0
 10
115.7608496482516
 20
-155.6653583561303
 30
0.0
 10
115.7608496482516
 20
-155.609623170733
 30
0.0
 10
115.7160418750966
 20
-155.5648261635014
 30
0.0
 10
115.6610064747197
 20
-155.5648261635014
 30
0.0
 10
115.6059710743429
 20
-155.5648261635014
 30
0.0
 10
115.5611740671112
 20
-155.609623170733
 30
0.0
 10
115.5611740671112
 20
-155.6653583561303
 30
0.0
 10
115.5611740671112
 20
-155.7203937565072
 30
0.0
 10
115.6059710743429
 20
-155.7652015296622
 30
0.0
 10
115.6610064747197
 20
-155.7652015296622
 30
0.0
 10
115.7160418750966
 20
-155.7652015296622
 30
0.0
 10
115.7608496482516
 20
-155.7203937565072
 30
0.0
 10
115.7608496482516
 20
-155.6653583561303
 30
0.0
  0
POLYLINE
  5
96
330
1F
100
AcDbEntity
  8
_U+30EC_U+30A4_U+30E4_U+30FC 1
 62
   179
420
  2234388
370
     9
100
AcDb2dPolyline
 66
     1
 10
0.0
 20
0.0
 30
0.0
  0
VERTEX
  5
97
330
96
100
AcDbEntity
  8
_U+30EC_U+30A4_U+30E4_U+30FC 1
 62
   179
420
  2234388
370
     9
100
AcDbVertex
100
AcDb2dVertex
 10
115.6609418791794
 20
-153.2379656090701
 30
0.0
  0
VERTEX
  5
98
330
96
100
AcDbEntity
  8
_U+30EC_U+30A4_U+30E4_U+30FC 1
 62
   179
420
  2234388
370
     9
100
AcDbVertex
100
AcDb2dVertex
 10
115.6609418791794
 20
-155.6647339325736
 30
0.0
  0
SEQEND
  5
99
330
96
100
AcDbEntity
  8
_U+30EC_U+30A4_U+30E4_U+30FC 1
 62
   179
420
  2234388
370
     9
  0
POLYLINE
  5
9A
330
1F
100
AcDbEntity
  8
_U+30EC_U+30A4_U+30E4_U+30FC 1
 62
   179
420
  2234388
370
     9
100
AcDb2dPolyline
 66
     1
 10
0.0
 20
0.0
 30
0.0
  0
VERTEX
  5
9B
330
9A
100
AcDbEntity
  8
_U+30EC_U+30A4_U+30E4_U+30FC 1
 62
   179
420
  2234388
370
     9
100
AcDbVertex
100
AcDb2dVertex
 10
114.6652985180188
 20
-155.6646801029567
 30
0.0
  0
VERTEX
  5
9C
330
9A
100
AcDbEntity
  8
_U+30EC_U+30A4_U+30E4_U+30FC 1
 62
   179
420
  2234388
370
     9
100
AcDbVertex
100
AcDb2dVertex
 10
116.6613114807088
 20
-155.6646801029567
 30
0.0
  0
SEQEND
  5
9D
330
9A
100
AcDbEntity
  8
_U+30EC_U+30A4_U+30E4_U+30FC 1
 62
   179
420
  2234388
370
     9
  0
INSERT
  5
9F
330
1F
100
AcDbEntity
  8
_U+30EC_U+30A4_U+30E4_U+30FC 1
100
AcDbBlockReference
  2
block 6
 10
0.0
 20
0.0
 30
0.0
  0
POLYLINE
  5
A4
330
1F
100
AcDbEntity
  8
_U+30EC_U+30A4_U+30E4_U+30FC 1
  6
AI-Linetype-1
 62
     8
420
  8223869
370
    25
100
AcDb2dPolyline
 66
     1
 10
0.0
 20
0.0
 30
0.0
  0
VERTEX
  5
A5
330
A4
100
AcDbEntity
  8
_U+30EC_U+30A4_U+30E4_U+30FC 1
  6
AI-Linetype-1
 62
     8
420
  8223869
370
    25
100
AcDbVertex
100
AcDb2dVertex
 10
93.24438380983236
 20
-144.7974709042846
 30
0.0
  0
VERTEX
  5
A6
330
A4
100
AcDbEntity
  8
_U+30EC_U+30A4_U+30E4_U+30FC 1
  6
AI-Linetype-1
 62
     8
420
  8223869
370
    25
100
AcDbVertex
100
AcDb2dVertex
 10
93.24438380983236
 20
-142.9482190092662
 30
0.0
  0
VERTEX
  5
A7
330
A4
100
AcDbEntity
  8
_U+30EC_U+30A4_U+30E4_U+30FC 1
  6
AI-Linetype-1
 62
     8
420
  8223869
370
    25
100
AcDbVertex
100
AcDb2dVertex
 10
102.3725088075503
 20
-142.9482190092662
 30
0.0
  0
VERTEX
  5
A8
330
A4
100
AcDbEntity
  8
_U+30EC_U+30A4_U+30E4_U+30FC 1
  6
AI-Linetype-1
 62
     8
420
  8223869
370
    25
100
AcDbVertex
100
AcDb2dVertex
 10
102.3725088075503
 20
-144.7974709042846
 30
0.0
  0
SEQEND
  5
AA
330
A4
100
AcDbEntity
  8
_U+30EC_U+30A4_U+30E4_U+30FC 1
  6
AI-Linetype-1
 62
     8
420
  8223869
370
    25
  0
ENDSEC
  0
SECTION
  2
OBJECTS
  0
DICTIONARY
  5
C
330
0
100
AcDbDictionary
281
     1
  3
ACAD_GROUP
350
D
  3
ACAD_LAYOUT
350
1A
  3
ACAD_MATERIAL
350
3B
  3
ACAD_MLEADERSTYLE
350
AC
  3
ACAD_MLINESTYLE
350
17
  3
ACAD_PLOTSETTINGS
350
19
  3
ACAD_PLOTSTYLENAME
350
E
  3
ACAD_TABLESTYLE
350
AB
  3
ACAD_VISUALSTYLE
350
2A
  0
SUN
  5
3F
330
29
100
AcDbSun
 90
        1
290
     0
 63
     7
421
 16777215
 40
1.0
291
     1
 91
  2455826
 92
 54000000
292
     0
 70
     2
 71
   256
280
     1
  0
DICTIONARY
  5
D
102
{ACAD_REACTORS
330
C
102
}
330
C
100
AcDbDictionary
281
     1
  0
DICTIONARY
  5
1A
102
{ACAD_REACTORS
330
C
102
}
330
C
100
AcDbDictionary
281
     1
  3
Layout1
350
1E
  3
Layout2
350
26
  3
Model
350
22
  0
DICTIONARY
  5
3B
102
{ACAD_REACTORS
330
C
102
}
330
C
100
AcDbDictionary
281
     1
  3
ByBlock
350
3D
  3
ByLayer
350
3C
  3
Global
350
3E
  0
DICTIONARY
  5
AC
102
{ACAD_REACTORS
330
C
102
}
330
C
100
AcDbDictionary
281
     1
  0
DICTIONARY
  5
17
102
{ACAD_REACTORS
330
C
102
}
330
C
100
AcDbDictionary
281
     1
  3
Standard
350
18
  0
DICTIONARY
  5
19
102
{ACAD_REACTORS
330
C
102
}
330
C
100
AcDbDictionary
281
     1
  0
ACDBDICTIONARYWDFLT
  5
E
102
{ACAD_REACTORS
330
C
102
}
330
C
100
AcDbDictionary
281
     1
  3
Normal
350
F
100
AcDbDictionaryWithDefault
340
F
  0
DICTIONARY
  5
AB
102
{ACAD_REACTORS
330
C
102
}
330
C
100
AcDbDictionary
281
     1
  0
DICTIONARY
  5
2A
102
{ACAD_REACTORS
330
C
102
}
330
C
100
AcDbDictionary
281
     1
  3
2dWireframe
350
2F
  3
3D Hidden
350
31
  3
3dWireframe
350
30
  3
Basic
350
32
  3
Brighten
350
36
  3
ColorChange
350
3A
  3
Conceptual
350
34
  3
Dim
350
35
  3
Facepattern
350
39
  3
Flat
350
2B
  3
FlatWithEdges
350
2C
  3
Gouraud
350
2D
  3
GouraudWithEdges
350
2E
  3
Linepattern
350
38
  3
Realistic
350
33
  3
Thicken
350
37
  0
LAYOUT
  5
1E
102
{ACAD_REACTORS
330
1A
102
}
330
1A
100
AcDbPlotSettings
  1

  2
none_device
  4

  6

 40
0.0
 41
0.0
 42
0.0
 43
0.0
 44
0.0
 45
0.0
 46
0.0
 47
0.0
 48
0.0
 49
0.0
140
0.0
141
0.0
142
1.0
143
1.0
 70
   688
 72
     0
 73
     0
 74
     5
  7

 75
    16
 76
     0
 77
     2
 78
   300
147
1.0
148
0.0
149
0.0
100
AcDbLayout
  1
Layout1
 70
     1
 71
     1
 10
0.0
 20
0.0
 11
12.0
 21
9.0
 12
0.0
 22
0.0
 32
0.0
 14
1.000000000000000E+20
 24
1.000000000000000E+20
 34
1.000000000000000E+20
 15
-1.000000000000000E+20
 25
-1.000000000000000E+20
 35
-1.000000000000000E+20
146
0.0
 13
0.0
 23
0.0
 33
0.0
 16
1.0
 26
0.0
 36
0.0
 17
0.0
 27
1.0
 37
0.0
 76
     0
330
1B
  0
LAYOUT
  5
26
102
{ACAD_REACTORS
330
1A
102
}
330
1A
100
AcDbPlotSettings
  1

  2
none_device
  4

  6

 40
0.0
 41
0.0
 42
0.0
 43
0.0
 44
0.0
 45
0.0
 46
0.0
 47
0.0
 48
0.0
 49
0.0
140
0.0
141
0.0
142
1.0
143
1.0
 70
   688
 72
     0
 73
     0
 74
     5
  7

 75
    16
 76
     0
 77
     2
 78
   300
147
1.0
148
0.0
149
0.0
100
AcDbLayout
  1
Layout2
 70
     1
 71
     2
 10
0.0
 20
0.0
 11
0.0
 21
0.0
 12
0.0
 22
0.0
 32
0.0
 14
0.0
 24
0.0
 34
0.0
 15
0.0
 25
0.0
 35
0.0
146
0.0
 13
0.0
 23
0.0
 33
0.0
 16
1.0
 26
0.0
 36
0.0
 17
0.0
 27
1.0
 37
0.0
 76
     0
330
23
  0
LAYOUT
  5
22
102
{ACAD_REACTORS
330
1A
102
}
330
1A
100
AcDbPlotSettings
  1

  2
none_device
  4

  6

 40
0.0
 41
0.0
 42
0.0
 43
0.0
 44
0.0
 45
0.0
 46
0.0
 47
0.0
 48
0.0
 49
0.0
140
0.0
141
0.0
142
1.0
143
1.0
 70
  1712
 72
     0
 73
     0
 74
     0
  7

 75
     0
 76
     0
 77
     2
 78
   300
147
1.0
148
0.0
149
0.0
100
AcDbLayout
  1
Model
 70
     1
 71
     0
 10
0.0
 20
0.0
 11
12.0
 21
9.0
 12
0.0
 22
0.0
 32
0.0
 14
1.000000000000000E+20
 24
1.000000000000000E+20
 34
1.000000000000000E+20
 15
-1.000000000000000E+20
 25
-1.000000000000000E+20
 35
-1.000000000000000E+20
146
0.0
 13
0.0
 23
0.0
 33
0.0
 16
1.0
 26
0.0
 36
0.0
 17
0.0
 27
1.0
 37
0.0
 76
     0
330
1F
331
29
  0
MATERIAL
  5
3D
102
{ACAD_REACTORS
330
3B
102
}
330
3B
100
AcDbMaterial
  1
ByBlock
 72
     1
 94
      127
  0
MATERIAL
  5
3C
102
{ACAD_REACTORS
330
3B
102
}
330
3B
100
AcDbMaterial
  1
ByLayer
 72
     1
 94
      127
  0
MATERIAL
  5
3E
102
{ACAD_REACTORS
330
3B
102
}
330
3B
100
AcDbMaterial
  1
Global
 72
     1
 94
      127
  0
MLINESTYLE
  5
18
102
{ACAD_REACTORS
330
17
102
}
330
17
100
AcDbMlineStyle
  2
Standard
 70
     0
  3

 62
   256
 51
90.0
 52
90.0
 71
     2
 49
0.5
 62
   256
  6
BYLAYER
 49
-0.5
 62
   256
  6
BYLAYER
  0
ACDBPLACEHOLDER
  5
F
102
{ACAD_REACTORS
330
E
102
}
330
E
  0
VISUALSTYLE
  5
2F
102
{ACAD_REACTORS
330
2A
102
}
330
2A
100
AcDbVisualStyle
  2
2dWireframe
 70
     4
177
     2
291
     0
 71
     0
176
     1
 72
     2
176
     1
 73
     0
176
     1
 90
        0
176
     1
 40
-0.6
176
     1
 41
-30.0
176
     1
 62
     5
 63
     7
421
 16777215
176
     1
 74
     1
176
     1
 91
        4
176
     1
 64
     7
176
     1
 65
   257
176
     1
 75
     1
176
     1
175
     1
176
     1
 42
1.0
176
     1
 92
        0
176
     1
 66
   257
176
     1
 43
1.0
176
     1
 76
     1
176
     1
 77
     6
176
     1
 78
     2
176
     1
 67
     7
176
     1
 79
     5
176
     1
170
     0
176
     1
171
     0
176
     1
290
     0
176
     1
 93
        1
176
     1
 44
0.0
176
     1
173
     0
176
     1
  0
VISUALSTYLE
  5
31
102
{ACAD_REACTORS
330
2A
102
}
330
2A
100
AcDbVisualStyle
  2
3D Hidden
 70
     6
177
     2
291
     0
 71
     1
176
     1
 72
     2
176
     1
 73
     2
176
     1
 90
        0
176
     1
 40
-0.6
176
     1
 41
-30.0
176
     1
 62
     5
 63
     7
421
 16777215
176
     1
 74
     2
176
     1
 91
        2
176
     1
 64
     7
176
     1
 65
   257
176
     1
 75
     2
176
     1
175
     1
176
     1
 42
40.0
176
     1
 92
        0
176
     1
 66
   257
176
     1
 43
1.0
176
     1
 76
     1
176
     1
 77
     6
176
     1
 78
     2
176
     1
 67
     7
176
     1
 79
     3
176
     1
170
     0
176
     1
171
     0
176
     1
290
     0
176
     1
 93
        1
176
     1
 44
0.0
176
     1
173
     0
176
     1
  0
VISUALSTYLE
  5
30
102
{ACAD_REACTORS
330
2A
102
}
330
2A
100
AcDbVisualStyle
  2
3dWireframe
 70
     5
177
     2
291
     0
 71
     0
176
     1
 72
     2
176
     1
 73
     0
176
     1
 90
        0
176
     1
 40
-0.6
176
     1
 41
-30.0
176
     1
 62
     5
 63
     7
421
 16777215
176
     1
 74
     1
176
     1
 91
        4
176
     1
 64
     7
176
     1
 65
   257
176
     1
 75
     1
176
     1
175
     1
176
     1
 42
1.0
176
     1
 92
        0
176
     1
 66
   257
176
     1
 43
1.0
176
     1
 76
     1
176
     1
 77
     6
176
     1
 78
     2
176
     1
 67
     7
176
     1
 79
     5
176
     1
170
     0
176
     1
171
     0
176
     1
290
     0
176
     1
 93
        1
176
     1
 44
0.0
176
     1
173
     0
176
     1
  0
VISUALSTYLE
  5
32
102
{ACAD_REACTORS
330
2A
102
}
330
2A
100
AcDbVisualStyle
  2
Basic
 70
     7
177
     2
291
     1
 71
     1
176
     1
 72
     0
176
     1
 73
     1
176
     1
 90
        0
176
     1
 40
-0.6
176
     1
 41
-30.0
176
     1
 62
     5
 63
     7
421
 16777215
176
     1
 74
     0
176
     1
 91
        4
176
     1
 64
     7
176
     1
 65
   257
176
     1
 75
     1
176
     1
175
     1
176
     1
 42
1.0
176
     1
 92
        8
176
     1
 66
     7
176
     1
 43
1.0
176
     1
 76
     1
176
     1
 77
     6
176
     1
 78
     2
176
     1
 67
     7
176
     1
 79
     5
176
     1
170
     0
176
     1
171
     0
176
     1
290
     0
176
     1
 93
        1
176
     1
 44
0.0
176
     1
173
     0
176
     1
  0
VISUALSTYLE
  5
36
102
{ACAD_REACTORS
330
2A
102
}
330
2A
100
AcDbVisualStyle
  2
Brighten
 70
    12
177
     2
291
     1
 71
     2
176
     1
 72
     2
176
     1
 73
     0
176
     1
 90
        0
176
     1
 40
-0.6
176
     1
 41
-30.0
176
     1
 62
     5
 63
     7
421
 16777215
176
     1
 74
     1
176
     1
 91
        4
176
     1
 64
     7
176
     1
 65
   257
176
     1
 75
     1
176
     1
175
     1
176
     1
 42
1.0
176
     1
 92
        8
176
     1
 66
     7
176
     1
 43
1.0
176
     1
 76
     1
176
     1
 77
     6
176
     1
 78
     2
176
     1
 67
     7
176
     1
 79
     5
176
     1
170
     0
176
     1
171
     0
176
     1
290
     0
176
     1
 93
        1
176
     1
 44
50.0
176
     1
173
     0
176
     1
  0
VISUALSTYLE
  5
3A
102
{ACAD_REACTORS
330
2A
102
}
330
2A
100
AcDbVisualStyle
  2
ColorChange
 70
    16
177
     2
291
     1
 71
     2
176
     1
 72
     2
176
     1
 73
     3
176
     1
 90
        0
176
     1
 40
-0.6
176
     1
 41
-30.0
176
     1
 62
     5
 63
     8
421
  8421504
176
     1
 74
     1
176
     1
 91
        4
176
     1
 64
     7
176
     1
 65
   257
176
     1
 75
     1
176
     1
175
     1
176
     1
 42
1.0
176
     1
 92
        8
176
     1
 66
     8
424
  8421504
176
     1
 43
1.0
176
     1
 76
     1
176
     1
 77
     6
176
     1
 78
     2
176
     1
 67
     7
176
     1
 79
     5
176
     1
170
     0
176
     1
171
     0
176
     1
290
     0
176
     1
 93
        1
176
     1
 44
0.0
176
     1
173
     0
176
     1
  0
VISUALSTYLE
  5
34
102
{ACAD_REACTORS
330
2A
102
}
330
2A
100
AcDbVisualStyle
  2
Conceptual
 70
     9
177
     2
291
     0
 71
     3
176
     1
 72
     2
176
     1
 73
     0
176
     1
 90
        0
176
     1
 40
-0.6
176
     1
 41
-30.0
176
     1
 62
     5
 63
     7
421
 16777215
176
     1
 74
     2
176
     1
 91
        2
176
     1
 64
     7
176
     1
 65
   257
176
     1
 75
     1
176
     1
175
     1
176
     1
 42
40.0
176
     1
 92
        8
176
     1
 66
     7
176
     1
 43
1.0
176
     1
 76
     1
176
     1
 77
     6
176
     1
 78
     2
176
     1
 67
     7
176
     1
 79
     3
176
     1
170
     0
176
     1
171
     0
176
     1
290
     0
176
     1
 93
        1
176
     1
 44
0.0
176
     1
173
     0
176
     1
  0
VISUALSTYLE
  5
35
102
{ACAD_REACTORS
330
2A
102
}
330
2A
100
AcDbVisualStyle
  2
Dim
 70
    11
177
     2
291
     1
 71
     2
176
     1
 72
     2
176
     1
 73
     0
176
     1
 90
        0
176
     1
 40
-0.6
176
     1
 41
-30.0
176
     1
 62
     5
 63
     7
421
 16777215
176
     1
 74
     1
176
     1
 91
        4
176
     1
 64
     7
176
     1
 65
   257
176
     1
 75
     1
176
     1
175
     1
176
     1
 42
1.0
176
     1
 92
        8
176
     1
 66
     7
176
     1
 43
1.0
176
     1
 76
     1
176
     1
 77
     6
176
     1
 78
     2
176
     1
 67
     7
176
     1
 79
     5
176
     1
170
     0
176
     1
171
     0
176
     1
290
     0
176
     1
 93
        1
176
     1
 44
-50.0
176
     1
173
     0
176
     1
  0
VISUALSTYLE
  5
39
102
{ACAD_REACTORS
330
2A
102
}
330
2A
100
AcDbVisualStyle
  2
Facepattern
 70
    15
177
     2
291
     1
 71
     2
176
     1
 72
     2
176
     1
 73
     0
176
     1
 90
        0
176
     1
 40
-0.6
176
     1
 41
-30.0
176
     1
 62
     5
 63
     7
421
 16777215
176
     1
 74
     1
176
     1
 91
        4
176
     1
 64
     7
176
     1
 65
   257
176
     1
 75
     1
176
     1
175
     1
176
     1
 42
1.0
176
     1
 92
        8
176
     1
 66
     7
176
     1
 43
1.0
176
     1
 76
     1
176
     1
 77
     6
176
     1
 78
     2
176
     1
 67
     7
176
     1
 79
     5
176
     1
170
     0
176
     1
171
     0
176
     1
290
     0
176
     1
 93
        1
176
     1
 44
0.0
176
     1
173
     0
176
     1
  0
VISUALSTYLE
  5
2B
102
{ACAD_REACTORS
330
2A
102
}
330
2A
100
AcDbVisualStyle
  2
Flat
 70
     0
177
     2
291
     1
 71
     2
176
     1
 72
     1
176
     1
 73
     1
176
     1
 90
        2
176
     1
 40
-0.6
176
     1
 41
30.0
176
     1
 62
     5
 63
     7
421
 16777215
176
     1
 74
     0
176
     1
 91
        4
176
     1
 64
     7
176
     1
 65
   257
176
     1
 75
     1
176
     1
175
     1
176
     1
 42
1.0
176
     1
 92
        8
176
     1
 66
     7
176
     1
 43
1.0
176
     1
 76
     1
176
     1
 77
     6
176
     1
 78
     2
176
     1
 67
     7
176
     1
 79
     5
176
     1
170
     0
176
     1
171
     0
176
     1
290
     0
176
     1
 93
       13
176
     1
 44
0.0
176
     1
173
     0
176
     1
  0
VISUALSTYLE
  5
2C
102
{ACAD_REACTORS
330
2A
102
}
330
2A
100
AcDbVisualStyle
  2
FlatWithEdges
 70
     1
177
     2
291
     1
 71
     2
176
     1
 72
     1
176
     1
 73
     1
176
     1
 90
        2
176
     1
 40
-0.6
176
     1
 41
30.0
176
     1
 62
     5
 63
     7
421
 16777215
176
     1
 74
     1
176
     1
 91
        4
176
     1
 64
     7
176
     1
 65
   257
176
     1
 75
     1
176
     1
175
     1
176
     1
 42
1.0
176
     1
 92
        0
176
     1
 66
   257
176
     1
 43
1.0
176
     1
 76
     1
176
     1
 77
     6
176
     1
 78
     2
176
     1
 67
     7
176
     1
 79
     5
176
     1
170
     0
176
     1
171
     0
176
     1
290
     0
176
     1
 93
       13
176
     1
 44
0.0
176
     1
173
     0
176
     1
  0
VISUALSTYLE
  5
2D
102
{ACAD_REACTORS
330
2A
102
}
330
2A
100
AcDbVisualStyle
  2
Gouraud
 70
     2
177
     2
291
     1
 71
     2
176
     1
 72
     2
176
     1
 73
     1
176
     1
 90
        2
176
     1
 40
-0.6
176
     1
 41
30.0
176
     1
 62
     5
 63
     7
421
 16777215
176
     1
 74
     0
176
     1
 91
        4
176
     1
 64
     7
176
     1
 65
   257
176
     1
 75
     1
176
     1
175
     1
176
     1
 42
1.0
176
     1
 92
        0
176
     1
 66
     7
176
     1
 43
1.0
176
     1
 76
     1
176
     1
 77
     6
176
     1
 78
     2
176
     1
 67
     7
176
     1
 79
     5
176
     1
170
     0
176
     1
171
     0
176
     1
290
     0
176
     1
 93
       13
176
     1
 44
0.0
176
     1
173
     0
176
     1
  0
VISUALSTYLE
  5
2E
102
{ACAD_REACTORS
330
2A
102
}
330
2A
100
AcDbVisualStyle
  2
GouraudWithEdges
 70
     3
177
     2
291
     1
 71
     2
176
     1
 72
     2
176
     1
 73
     1
176
     1
 90
        2
176
     1
 40
-0.6
176
     1
 41
30.0
176
     1
 62
     5
 63
     7
421
 16777215
176
     1
 74
     1
176
     1
 91
        4
176
     1
 64
     7
176
     1
 65
   257
176
     1
 75
     1
176
     1
175
     1
176
     1
 42
1.0
176
     1
 92
        0
176
     1
 66
   257
176
     1
 43
1.0
176
     1
 76
     1
176
     1
 77
     6
176
     1
 78
     2
176
     1
 67
     7
176
     1
 79
     5
176
     1
170
     0
176
     1
171
     0
176
     1
290
     0
176
     1
 93
       13
176
     1
 44
0.0
176
     1
173
     0
176
     1
  0
VISUALSTYLE
  5
38
102
{ACAD_REACTORS
330
2A
102
}
330
2A
100
AcDbVisualStyle
  2
Linepattern
 70
    14
177
     2
291
     1
 71
     2
176
     1
 72
     2
176
     1
 73
     0
176
     1
 90
        0
176
     1
 40
-0.6
176
     1
 41
-30.0
176
     1
 62
     5
 63
     7
421
 16777215
176
     1
 74
     1
176
     1
 91
        4
176
     1
 64
     7
176
     1
 65
   257
176
     1
 75
     7
176
     1
175
     7
176
     1
 42
1.0
176
     1
 92
        8
176
     1
 66
     7
176
     1
 43
1.0
176
     1
 76
     1
176
     1
 77
     6
176
     1
 78
     2
176
     1
 67
     7
176
     1
 79
     5
176
     1
170
     0
176
     1
171
     0
176
     1
290
     0
176
     1
 93
        1
176
     1
 44
0.0
176
     1
173
     0
176
     1
  0
VISUALSTYLE
  5
33
102
{ACAD_REACTORS
330
2A
102
}
330
2A
100
AcDbVisualStyle
  2
Realistic
 70
     8
177
     2
291
     0
 71
     2
176
     1
 72
     2
176
     1
 73
     0
176
     1
 90
        0
176
     1
 40
-0.6
176
     1
 41
-30.0
176
     1
 62
     5
 63
     7
421
 16777215
176
     1
 74
     1
176
     1
 91
        0
176
     1
 64
     7
176
     1
 65
   257
176
     1
 75
     1
176
     1
175
     1
176
     1
 42
1.0
176
     1
 92
        8
176
     1
 66
     8
424
  7895160
176
     1
 43
1.0
176
     1
 76
     1
176
     1
 77
     6
176
     1
 78
     2
176
     1
 67
     7
176
     1
 79
     5
176
     1
170
     0
176
     1
171
     0
176
     1
290
     0
176
     1
 93
       13
176
     1
 44
0.0
176
     1
173
     0
176
     1
  0
VISUALSTYLE
  5
37
102
{ACAD_REACTORS
330
2A
102
}
330
2A
100
AcDbVisualStyle
  2
Thicken
 70
    13
177
     2
291
     1
 71
     2
176
     1
 72
     2
176
     1
 73
     0
176
     1
 90
        0
176
     1
 40
-0.6
176
     1
 41
-30.0
176
     1
 62
     5
 63
     7
421
 16777215
176
     1
 74
     1
176
     1
 91
        4
176
     1
 64
     7
176
     1
 65
   257
176
     1
 75
     1
176
     1
175
     1
176
     1
 42
1.0
176
     1
 92
       12
176
     1
 66
     7
176
     1
 43
1.0
176
     1
 76
     1
176
     1
 77
     6
176
     1
 78
     2
176
     1
 67
     7
176
     1
 79
     5
176
     1
170
     0
176
     1
171
     0
176
     1
290
     0
176
     1
 93
        1
176
     1
 44
0.0
176
     1
173
     0
176
     1
  0
ENDSEC
  0
EOF
