  0
SECTION
  2
HEADER
  9
$ACADVER
  1
AC1024
  9
$ACADMAINTVER
 70
     6
  9
$DWGCODEPAGE
  3
UNDEFINED
  9
$INSBASE
 10
0.0
 20
0.0
 30
0.0
  9
$EXTMIN
 10
1.000000000000000E+20
 20
1.000000000000000E+20
 30
1.000000000000000E+20
  9
$EXTMAX
 10
-1.000000000000000E+20
 20
-1.000000000000000E+20
 30
-1.000000000000000E+20
  9
$LIMMIN
 10
0.0
 20
0.0
  9
$LIMMAX
 10
12.0
 20
9.0
  9
$ORTHOMODE
 70
     0
  9
$REGENMODE
 70
     1
  9
$FILLMODE
 70
     1
  9
$QTEXTMODE
 70
     0
  9
$MIRRTEXT
 70
     1
  9
$LTSCALE
 40
1.0
  9
$ATTMODE
 70
     1
  9
$TEXTSIZE
 40
0.2
  9
$TRACEWID
 40
0.05
  9
$TEXTSTYLE
  7
Standard
  9
$CLAYER
  8
0
  9
$CELTYPE
  6
ByLayer
  9
$CECOLOR
 62
   256
  9
$CELTSCALE
 40
1.0
  9
$DISPSILH
 70
     0
  9
$DIMSCALE
 40
1.0
  9
$DIMASZ
 40
0.18
  9
$DIMEXO
 40
0.0625
  9
$DIMDLI
 40
0.38
  9
$DIMRND
 40
0.0
  9
$DIMDLE
 40
0.0
  9
$DIMEXE
 40
0.18
  9
$DIMTP
 40
0.0
  9
$DIMTM
 40
0.0
  9
$DIMTXT
 40
0.18
  9
$DIMCEN
 40
0.09
  9
$DIMTSZ
 40
0.0
  9
$DIMTOL
 70
     0
  9
$DIMLIM
 70
     0
  9
$DIMTIH
 70
     1
  9
$DIMTOH
 70
     1
  9
$DIMSE1
 70
     0
  9
$DIMSE2
 70
     0
  9
$DIMTAD
 70
     0
  9
$DIMZIN
 70
     0
  9
$DIMBLK
  1

  9
$DIMASO
 70
     1
  9
$DIMSHO
 70
     1
  9
$DIMPOST
  1

  9
$DIMAPOST
  1

  9
$DIMALT
 70
     0
  9
$DIMALTD
 70
     2
  9
$DIMALTF
 40
25.4
  9
$DIMLFAC
 40
1.0
  9
$DIMTOFL
 70
     0
  9
$DIMTVP
 40
0.0
  9
$DIMTIX
 70
     0
  9
$DIMSOXD
 70
     0
  9
$DIMSAH
 70
     0
  9
$DIMBLK1
  1

  9
$DIMBLK2
  1

  9
$DIMSTYLE
  2
Standard
  9
$DIMCLRD
 70
     0
  9
$DIMCLRE
 70
     0
  9
$DIMCLRT
 70
     0
  9
$DIMTFAC
 40
1.0
  9
$DIMGAP
 40
0.09
  9
$DIMJUST
 70
     0
  9
$DIMSD1
 70
     0
  9
$DIMSD2
 70
     0
  9
$DIMTOLJ
 70
     1
  9
$DIMTZIN
 70
     0
  9
$DIMALTZ
 70
     0
  9
$DIMALTTZ
 70
     0
  9
$DIMUPT
 70
     0
  9
$DIMDEC
 70
     4
  9
$DIMTDEC
 70
     4
  9
$DIMALTU
 70
     2
  9
$DIMALTTD
 70
     2
  9
$DIMTXSTY
  7
Standard
  9
$DIMAUNIT
 70
     0
  9
$DIMADEC
 70
     0
  9
$DIMALTRND
 40
0.0
  9
$DIMAZIN
 70
     0
  9
$DIMDSEP
 70
    46
  9
$DIMATFIT
 70
     3
  9
$DIMFRAC
 70
     0
  9
$DIMLDRBLK
  1

  9
$DIMLUNIT
 70
     2
  9
$DIMLWD
 70
    -2
  9
$DIMLWE
 70
    -2
  9
$DIMTMOVE
 70
     0
  9
$DIMFXL
 40
1.0
  9
$DIMFXLON
 70
     0
  9
$DIMJOGANG
 40
0.7853981633974483
  9
$DIMTFILL
 70
     0
  9
$DIMTFILLCLR
 70
     0
  9
$DIMARCSYM
 70
     0
  9
$DIMLTYPE
  6

  9
$DIMLTEX1
  6

  9
$DIMLTEX2
  6

  9
$DIMTXTDIRECTION
 70
     0
  9
$LUNITS
 70
     2
  9
$LUPREC
 70
     4
  9
$SKETCHINC
 40
0.1
  9
$FILLETRAD
 40
0.5
  9
$AUNITS
 70
     0
  9
$AUPREC
 70
     0
  9
$MENU
  1
.
  9
$ELEVATION
 40
0.0
  9
$PELEVATION
 40
0.0
  9
$THICKNESS
 40
0.0
  9
$LIMCHECK
 70
     0
  9
$CHAMFERA
 40
0.5
  9
$CHAMFERB
 40
0.5
  9
$CHAMFERC
 40
1.0
  9
$CHAMFERD
 40
0.0
  9
$SKPOLY
 70
     0
  9
$TDCREATE
 40
2457917.61837963
  9
$TDUCREATE
 40
2457917.24337963
  9
$TDUPDATE
 40
2457917.61837963
  9
$TDUUPDATE
 40
2457917.24337963
  9
$TDINDWG
 40
0.0000000116
  9
$TDUSRTIMER
 40
0.0000000116
  9
$USRTIMER
 70
     1
  9
$ANGBASE
 50
0.0
  9
$ANGDIR
 70
     0
  9
$PDMODE
 70
     0
  9
$PDSIZE
 40
0.0
  9
$PLINEWID
 40
0.0
  9
$SPLFRAME
 70
     0
  9
$SPLINETYPE
 70
     6
  9
$SPLINESEGS
 70
     8
  9
$HANDSEED
  5
DB
  9
$SURFTAB1
 70
     6
  9
$SURFTAB2
 70
     6
  9
$SURFTYPE
 70
     6
  9
$SURFU
 70
     6
  9
$SURFV
 70
     6
  9
$UCSBASE
  2

  9
$UCSNAME
  2

  9
$UCSORG
 10
0.0
 20
0.0
 30
0.0
  9
$UCSXDIR
 10
1.0
 20
0.0
 30
0.0
  9
$UCSYDIR
 10
0.0
 20
1.0
 30
0.0
  9
$UCSORTHOREF
  2

  9
$UCSORTHOVIEW
 70
     0
  9
$UCSORGTOP
 10
0.0
 20
0.0
 30
0.0
  9
$UCSORGBOTTOM
 10
0.0
 20
0.0
 30
0.0
  9
$UCSORGLEFT
 10
0.0
 20
0.0
 30
0.0
  9
$UCSORGRIGHT
 10
0.0
 20
0.0
 30
0.0
  9
$UCSORGFRONT
 10
0.0
 20
0.0
 30
0.0
  9
$UCSORGBACK
 10
0.0
 20
0.0
 30
0.0
  9
$PUCSBASE
  2

  9
$PUCSNAME
  2

  9
$PUCSORG
 10
0.0
 20
0.0
 30
0.0
  9
$PUCSXDIR
 10
1.0
 20
0.0
 30
0.0
  9
$PUCSYDIR
 10
0.0
 20
1.0
 30
0.0
  9
$PUCSORTHOREF
  2

  9
$PUCSORTHOVIEW
 70
     0
  9
$PUCSORGTOP
 10
0.0
 20
0.0
 30
0.0
  9
$PUCSORGBOTTOM
 10
0.0
 20
0.0
 30
0.0
  9
$PUCSORGLEFT
 10
0.0
 20
0.0
 30
0.0
  9
$PUCSORGRIGHT
 10
0.0
 20
0.0
 30
0.0
  9
$PUCSORGFRONT
 10
0.0
 20
0.0
 30
0.0
  9
$PUCSORGBACK
 10
0.0
 20
0.0
 30
0.0
  9
$USERI1
 70
     0
  9
$USERI2
 70
     0
  9
$USERI3
 70
     0
  9
$USERI4
 70
     0
  9
$USERI5
 70
     0
  9
$USERR1
 40
0.0
  9
$USERR2
 40
0.0
  9
$USERR3
 40
0.0
  9
$USERR4
 40
0.0
  9
$USERR5
 40
0.0
  9
$WORLDVIEW
 70
     1
  9
$SHADEDGE
 70
     3
  9
$SHADEDIF
 70
    70
  9
$TILEMODE
 70
     1
  9
$MAXACTVP
 70
    64
  9
$PINSBASE
 10
0.0
 20
0.0
 30
0.0
  9
$PLIMCHECK
 70
     0
  9
$PEXTMIN
 10
1.000000000000000E+20
 20
1.000000000000000E+20
 30
1.000000000000000E+20
  9
$PEXTMAX
 10
-1.000000000000000E+20
 20
-1.000000000000000E+20
 30
-1.000000000000000E+20
  9
$PLIMMIN
 10
0.0
 20
0.0
  9
$PLIMMAX
 10
12.0
 20
9.0
  9
$UNITMODE
 70
     0
  9
$VISRETAIN
 70
     1
  9
$PLINEGEN
 70
     0
  9
$PSLTSCALE
 70
     1
  9
$TREEDEPTH
 70
  3020
  9
$CMLSTYLE
  2
Standard
  9
$CMLJUST
 70
     0
  9
$CMLSCALE
 40
1.0
  9
$PROXYGRAPHICS
 70
     1
  9
$MEASUREMENT
 70
     0
  9
$CELWEIGHT
370
    -1
  9
$ENDCAPS
280
     0
  9
$JOINSTYLE
280
     0
  9
$LWDISPLAY
290
     1
  9
$INSUNITS
 70
     1
  9
$HYPERLINKBASE
  1

  9
$STYLESHEET
  1

  9
$XEDIT
290
     1
  9
$CEPSNTYPE
380
     0
  9
$PSTYLEMODE
290
     1
  9
$FINGERPRINTGUID
  2
{A63FEC5F-CF35-F76A-F6D7-4B9454115017}
  9
$VERSIONGUID
  2
{FAEB1C32-E019-11D5-929B-00C0DF256EC4}
  9
$EXTNAMES
290
     1
  9
$PSVPSCALE
 40
0.0
  9
$OLESTARTUP
290
     0
  9
$SORTENTS
280
   127
  9
$INDEXCTL
280
     0
  9
$HIDETEXT
280
     1
  9
$XCLIPFRAME
280
     2
  9
$HALOGAP
280
     0
  9
$OBSCOLOR
 70
   257
  9
$OBSLTYPE
280
     0
  9
$INTERSECTIONDISPLAY
280
     0
  9
$INTERSECTIONCOLOR
 70
   257
  9
$DIMASSOC
280
     2
  9
$PROJECTNAME
  1

  9
$CAMERADISPLAY
290
     0
  9
$LENSLENGTH
 40
50.0
  9
$CAMERAHEIGHT
 40
0.0
  9
$STEPSPERSEC
 40
2.0
  9
$STEPSIZE
 40
6.0
  9
$3DDWFPREC
 40
2.0
  9
$PSOLWIDTH
 40
0.25
  9
$PSOLHEIGHT
 40
4.0
  9
$LOFTANG1
 40
1.570796326794897
  9
$LOFTANG2
 40
1.570796326794897
  9
$LOFTMAG1
 40
0.0
  9
$LOFTMAG2
 40
0.0
  9
$LOFTPARAM
 70
     7
  9
$LOFTNORMALS
280
     1
  9
$LATITUDE
 40
37.795
  9
$LONGITUDE
 40
-122.394
  9
$NORTHDIRECTION
 40
0.0
  9
$TIMEZONE
 70
 -8000
  9
$LIGHTGLYPHDISPLAY
280
     1
  9
$TILEMODELIGHTSYNCH
280
     1
  9
$CMATERIAL
347
3C
  9
$SOLIDHIST
280
     1
  9
$SHOWHIST
280
     1
  9
$DWFFRAME
280
     2
  9
$DGNFRAME
280
     2
  9
$REALWORLDSCALE
290
     1
  9
$INTERFERECOLOR
 62
   256
  9
$CSHADOW
280
     0
  9
$SHADOWPLANELOCATION
 40
0.0
  0
ENDSEC
  0
SECTION
  2
CLASSES
  0
CLASS
  1
ACDBDICTIONARYWDFLT
  2
AcDbDictionaryWithDefault
  3
ObjectDBX Classes
 90
        0
 91
        4
280
     0
281
     0
  0
CLASS
  1
VISUALSTYLE
  2
AcDbVisualStyle
  3
ObjectDBX Classes
 90
     4095
 91
        4
280
     0
281
     0
  0
CLASS
  1
MATERIAL
  2
AcDbMaterial
  3
ObjectDBX Classes
 90
     1153
 91
        4
280
     0
281
     0
  0
CLASS
  1
SUN
  2
AcDbSun
  3
SCENEOE
 90
     1024
 91
        4
280
     0
281
     0
  0
ENDSEC
  0
SECTION
  2
TABLES
  0
TABLE
  2
VPORT
  5
8
330
0
100
AcDbSymbolTable
 70
     1
  0
VPORT
  5
29
330
8
100
AcDbSymbolTableRecord
100
AcDbViewportTableRecord
  2
*Active
 70
     0
 10
0.0
 20
0.0
 11
1.0
 21
1.0
 12
0.0
 22
0.0
 13
0.0
 23
0.0
 14
0.5
 24
0.5
 15
0.5
 25
0.5
 16
0.0
 26
0.0
 36
1.0
 17
91.00082462281999
 27
-128.4993055234307
 37
0.0
 40
256.9986110468615
 41
0.7081814508812795
 42
50.0
 43
0.0
 44
0.0
 50
0.0
 51
0.0
 71
     0
 72
   100
 73
     1
 74
     3
 75
     0
 76
     0
 77
     0
 78
     0
281
     0
 65
     1
110
0.0
120
0.0
130
0.0
111
1.0
121
0.0
131
0.0
112
0.0
122
1.0
132
0.0
 79
     0
146
0.0
 60
     3
 61
     5
292
     1
282
     1
141
0.0
142
0.0
 63
   250
361
3F
  0
ENDTAB
  0
TABLE
  2
LTYPE
  5
5
330
0
100
AcDbSymbolTable
 70
     2
  0
LTYPE
  5
14
330
5
100
AcDbSymbolTableRecord
100
AcDbLinetypeTableRecord
  2
ByBlock
 70
     0
  3

 72
    65
 73
     0
 40
0.0
  0
LTYPE
  5
15
330
5
100
AcDbSymbolTableRecord
100
AcDbLinetypeTableRecord
  2
ByLayer
 70
     0
  3

 72
    65
 73
     0
 40
0.0
  0
LTYPE
  5
16
330
5
100
AcDbSymbolTableRecord
100
AcDbLinetypeTableRecord
  2
Continuous
 70
     0
  3
Solid line
 72
    65
 73
     0
 40
0.0
  0
LTYPE
  5
D3
330
5
100
AcDbSymbolTableRecord
100
AcDbLinetypeTableRecord
  2
AI-Linetype-1
 70
     0
  3
Adobe Illustrator Linetype No. 1
 72
    65
 73
     2
 40
1.411111110758333
 49
0.7055555553791667
 74
     0
 49
-0.7055555553791667
 74
     0
  0
ENDTAB
  0
TABLE
  2
LAYER
  5
2
330
0
100
AcDbSymbolTable
 70
     2
  0
LAYER
  5
10
330
2
100
AcDbSymbolTableRecord
100
AcDbLayerTableRecord
  2
0
 70
     0
 62
     7
  6
Continuous
370
    -3
390
F
347
3E
  0
LAYER
  5
40
330
2
100
AcDbSymbolTableRecord
100
AcDbLayerTableRecord
  2
_U+30EC_U+30A4_U+30E4_U+30FC 1
 70
     0
 62
     7
  6
Continuous
370
    -3
390
F
347
3E
  0
ENDTAB
  0
TABLE
  2
STYLE
  5
3
330
0
100
AcDbSymbolTable
 70
     1
  0
STYLE
  5
11
330
3
100
AcDbSymbolTableRecord
100
AcDbTextStyleTableRecord
  2
Standard
 70
     0
 40
0.0
 41
1.0
 50
0.0
 71
     0
 42
0.2
  3
txt
  4

  0
ENDTAB
  0
TABLE
  2
VIEW
  5
6
330
0
100
AcDbSymbolTable
 70
     0
  0
ENDTAB
  0
TABLE
  2
UCS
  5
7
330
0
100
AcDbSymbolTable
 70
     0
  0
ENDTAB
  0
TABLE
  2
APPID
  5
9
330
0
100
AcDbSymbolTable
 70
     1
  0
APPID
  5
12
330
9
100
AcDbSymbolTableRecord
100
AcDbRegAppTableRecord
  2
ACAD
 70
     0
  0
ENDTAB
  0
TABLE
  2
DIMSTYLE
  5
A
330
0
100
AcDbSymbolTable
 70
     1
100
AcDbDimStyleTable
  0
DIMSTYLE
105
27
330
A
100
AcDbSymbolTableRecord
100
AcDbDimStyleTableRecord
  2
Standard
 70
     0
178
     0
340
11
  0
ENDTAB
  0
TABLE
  2
BLOCK_RECORD
  5
1
330
0
100
AcDbSymbolTable
 70
     6
  0
BLOCK_RECORD
  5
1F
330
1
100
AcDbSymbolTableRecord
100
AcDbBlockTableRecord
  2
*Model_Space
340
22
 70
     0
280
     1
281
     0
  0
BLOCK_RECORD
  5
1B
330
1
100
AcDbSymbolTableRecord
100
AcDbBlockTableRecord
  2
*Paper_Space
340
1E
 70
     0
280
     1
281
     0
  0
BLOCK_RECORD
  5
23
330
1
100
AcDbSymbolTableRecord
100
AcDbBlockTableRecord
  2
*Paper_Space0
340
26
 70
     0
280
     1
281
     0
  0
BLOCK_RECORD
  5
53
330
1
100
AcDbSymbolTableRecord
100
AcDbBlockTableRecord
  2
block 2
340
0
102
{BLKREFS
331
54
102
}
 70
     0
280
     1
281
     0
  0
BLOCK_RECORD
  5
6C
330
1
100
AcDbSymbolTableRecord
100
AcDbBlockTableRecord
  2
block 3
340
0
102
{BLKREFS
331
6D
102
}
 70
     0
280
     1
281
     0
  0
BLOCK_RECORD
  5
72
330
1
100
AcDbSymbolTableRecord
100
AcDbBlockTableRecord
  2
block 4
340
0
102
{BLKREFS
331
73
102
}
 70
     0
280
     1
281
     0
  0
BLOCK_RECORD
  5
B0
330
1
100
AcDbSymbolTableRecord
100
AcDbBlockTableRecord
  2
block 5
340
0
102
{BLKREFS
331
B1
102
}
 70
     0
280
     1
281
     0
  0
BLOCK_RECORD
  5
C6
330
1
100
AcDbSymbolTableRecord
100
AcDbBlockTableRecord
  2
block 6
340
0
102
{BLKREFS
331
C7
102
}
 70
     0
280
     1
281
     0
  0
ENDTAB
  0
ENDSEC
  0
SECTION
  2
BLOCKS
  0
BLOCK
  5
20
330
1F
100
AcDbEntity
  8
0
100
AcDbBlockBegin
  2
*Model_Space
 70
     0
 10
0.0
 20
0.0
 30
0.0
  3
*Model_Space
  1

  0
ENDBLK
  5
21
330
1F
100
AcDbEntity
  8
0
100
AcDbBlockEnd
  0
BLOCK
  5
1C
330
1B
100
AcDbEntity
 67
     1
  8
0
100
AcDbBlockBegin
  2
*Paper_Space
 70
     0
 10
0.0
 20
0.0
 30
0.0
  3
*Paper_Space
  1

  0
ENDBLK
  5
1D
330
1B
100
AcDbEntity
 67
     1
  8
0
100
AcDbBlockEnd
  0
BLOCK
  5
24
330
23
100
AcDbEntity
  8
0
100
AcDbBlockBegin
  2
*Paper_Space0
 70
     0
 10
0.0
 20
0.0
 30
0.0
  3
*Paper_Space0
  1

  0
ENDBLK
  5
25
330
23
100
AcDbEntity
  8
0
100
AcDbBlockEnd
  0
BLOCK
  5
55
330
53
100
AcDbEntity
  8
0
100
AcDbBlockBegin
  2
block 2
 70
     0
 10
0.0
 20
0.0
 30
0.0
  3
block 2
  1

  0
SPLINE
  5
57
330
53
100
AcDbEntity
  8
_U+30EC_U+30A4_U+30E4_U+30FC 1
370
     0
100
AcDbSpline
210
0.0
220
0.0
230
1.0
 70
    11
 71
     3
 72
    53
 73
    49
 74
     0
 42
0.0000000001
 43
0.0000000001
 12
1.0
 22
0.0
 32
0.0
 13
1.0
 23
0.0
 33
0.0
 40
0.0
 40
0.0
 40
0.0
 40
0.0
 40
1.0
 40
1.0
 40
1.0
 40
2.0
 40
2.0
 40
2.0
 40
3.0
 40
3.0
 40
3.0
 40
4.0
 40
4.0
 40
4.0
 40
5.0
 40
5.0
 40
5.0
 40
6.0
 40
6.0
 40
6.0
 40
7.0
 40
7.0
 40
7.0
 40
8.0
 40
8.0
 40
8.0
 40
9.0
 40
9.0
 40
9.0
 40
10.0
 40
10.0
 40
10.0
 40
11.0
 40
11.0
 40
11.0
 40
12.0
 40
12.0
 40
12.0
 40
13.0
 40
13.0
 40
13.0
 40
14.0
 40
14.0
 40
14.0
 40
15.0
 40
15.0
 40
15.0
 40
16.0
 40
16.0
 40
16.0
 40
16.0
 10
100.5819742587087
 20
-124.304212751042
 30
0.0
 10
100.5819742587087
 20
-124.3879285713336
 30
0.0
 10
100.565093290831
 20
-124.4961045695704
 30
0.0
 10
100.5017035339024
 20
-124.6049695869043
 30
0.0
 10
100.3918049879229
 20
-124.7903157240108
 30
0.0
 10
100.2605468499349
 20
-124.8127088446649
 30
0.0
 10
100.1527153612465
 20
-124.8330349080279
 30
0.0
 10
100.1527153612465
 20
-124.8330349080279
 30
0.0
 10
100.1527153612465
 20
-124.5956678290941
 30
0.0
 10
100.1527153612465
 20
-124.5956678290941
 30
0.0
 10
100.3514973707455
 20
-124.5371012058449
 30
0.0
 10
100.3811251919186
 20
-124.4013644437261
 30
0.0
 10
100.3811251919186
 20
-124.3018011842023
 30
0.0
 10
100.3811251919186
 20
-124.152628549691
 30
0.0
 10
100.2815619323949
 20
-123.9896755332387
 30
0.0
 10
100.0490179871405
 20
-123.9896755332387
 30
0.0
 10
99.79304739258646
 20
-123.9896755332387
 30
0.0
 10
99.72311195423589
 20
-124.1819118613156
 30
0.0
 10
99.72311195423589
 20
-124.310758432464
 30
0.0
 10
99.72311195423589
 20
-124.344864877768
 30
0.0
 10
99.72311195423589
 20
-124.4961045695704
 30
0.0
 10
99.85230303493276
 20
-124.5911892049633
 30
0.0
 10
99.85230303493276
 20
-124.5911892049633
 30
0.0
 10
99.83335500976389
 20
-124.7789469089094
 30
0.0
 10
99.83335500976389
 20
-124.7789469089094
 30
0.0
 10
99.83335500976389
 20
-124.7789469089094
 30
0.0
 10
98.986895049038
 20
-124.6501003377611
 30
0.0
 10
98.986895049038
 20
-124.6501003377611
 30
0.0
 10
98.986895049038
 20
-124.6501003377611
 30
0.0
 10
98.986895049038
 20
-123.8181097780733
 30
0.0
 10
98.986895049038
 20
-123.8181097780733
 30
0.0
 10
98.986895049038
 20
-123.8181097780733
 30
0.0
 10
99.18154294395463
 20
-123.8181097780733
 30
0.0
 10
99.18154294395463
 20
-123.8181097780733
 30
0.0
 10
99.18154294395463
 20
-123.8181097780733
 30
0.0
 10
99.18154294395463
 20
-124.4757785062074
 30
0.0
 10
99.18154294395463
 20
-124.4757785062074
 30
0.0
 10
99.18154294395463
 20
-124.4757785062074
 30
0.0
 10
99.6046006695433
 20
-124.5460584541065
 30
0.0
 10
99.6046006695433
 20
-124.5460584541065
 30
0.0
 10
99.57083873378785
 20
-124.4806016398868
 30
0.0
 10
99.53053111661043
 20
-124.3924071954644
 30
0.0
 10
99.53053111661043
 20
-124.2656276816072
 30
0.0
 10
99.53053111661043
 20
-123.994498666918
 30
0.0
 10
99.71691078236245
 20
-123.7412841487522
 30
0.0
 10
100.0300699619716
 20
-123.7412841487522
 30
0.0
 10
100.3473632561632
 20
-123.7412841487522
 30
0.0
 10
100.5819742587087
 20
-123.980718284977
 30
0.0
 10
100.5819742587087
 20
-124.304212751042
 30
0.0
  0
HATCH
  5
58
330
53
100
AcDbEntity
  8
_U+30EC_U+30A4_U+30E4_U+30FC 1
 62
     7
420
 16777215
100
AcDbHatch
 10
0.0
 20
0.0
 30
0.0
210
0.0
220
0.0
230
1.0
  2
SOLID
 70
     1
 71
     0
 91
        1
 92
        1
 93
        1
 72
     4
 94
        3
 73
     0
 74
     1
 95
       53
 96
       49
 40
0.0
 40
0.0
 40
0.0
 40
0.0
 40
1.0
 40
1.0
 40
1.0
 40
2.0
 40
2.0
 40
2.0
 40
3.0
 40
3.0
 40
3.0
 40
4.0
 40
4.0
 40
4.0
 40
5.0
 40
5.0
 40
5.0
 40
6.0
 40
6.0
 40
6.0
 40
7.0
 40
7.0
 40
7.0
 40
8.0
 40
8.0
 40
8.0
 40
9.0
 40
9.0
 40
9.0
 40
10.0
 40
10.0
 40
10.0
 40
11.0
 40
11.0
 40
11.0
 40
12.0
 40
12.0
 40
12.0
 40
13.0
 40
13.0
 40
13.0
 40
14.0
 40
14.0
 40
14.0
 40
15.0
 40
15.0
 40
15.0
 40
16.0
 40
16.0
 40
16.0
 40
16.0
 10
100.5819742587087
 20
-124.304212751042
 10
100.5819742587087
 20
-124.3879285713336
 10
100.565093290831
 20
-124.4961045695704
 10
100.5017035339024
 20
-124.6049695869043
 10
100.3918049879229
 20
-124.7903157240108
 10
100.2605468499349
 20
-124.8127088446649
 10
100.1527153612465
 20
-124.8330349080279
 10
100.1527153612465
 20
-124.8330349080279
 10
100.1527153612465
 20
-124.5956678290941
 10
100.1527153612465
 20
-124.5956678290941
 10
100.3514973707455
 20
-124.5371012058449
 10
100.3811251919186
 20
-124.4013644437261
 10
100.3811251919186
 20
-124.3018011842023
 10
100.3811251919186
 20
-124.152628549691
 10
100.2815619323949
 20
-123.9896755332387
 10
100.0490179871405
 20
-123.9896755332387
 10
99.79304739258646
 20
-123.9896755332387
 10
99.72311195423589
 20
-124.1819118613156
 10
99.72311195423589
 20
-124.310758432464
 10
99.72311195423589
 20
-124.344864877768
 10
99.72311195423589
 20
-124.4961045695704
 10
99.85230303493276
 20
-124.5911892049633
 10
99.85230303493276
 20
-124.5911892049633
 10
99.83335500976389
 20
-124.7789469089094
 10
99.83335500976389
 20
-124.7789469089094
 10
99.83335500976389
 20
-124.7789469089094
 10
98.986895049038
 20
-124.6501003377611
 10
98.986895049038
 20
-124.6501003377611
 10
98.986895049038
 20
-124.6501003377611
 10
98.986895049038
 20
-123.8181097780733
 10
98.986895049038
 20
-123.8181097780733
 10
98.986895049038
 20
-123.8181097780733
 10
99.18154294395463
 20
-123.8181097780733
 10
99.18154294395463
 20
-123.8181097780733
 10
99.18154294395463
 20
-123.8181097780733
 10
99.18154294395463
 20
-124.4757785062074
 10
99.18154294395463
 20
-124.4757785062074
 10
99.18154294395463
 20
-124.4757785062074
 10
99.6046006695433
 20
-124.5460584541065
 10
99.6046006695433
 20
-124.5460584541065
 10
99.57083873378785
 20
-124.4806016398868
 10
99.53053111661043
 20
-124.3924071954644
 10
99.53053111661043
 20
-124.2656276816072
 10
99.53053111661043
 20
-123.994498666918
 10
99.71691078236245
 20
-123.7412841487522
 10
100.0300699619716
 20
-123.7412841487522
 10
100.3473632561632
 20
-123.7412841487522
 10
100.5819742587087
 20
-123.980718284977
 10
100.5819742587087
 20
-124.304212751042
 97
        0
 97
        0
 75
     2
 76
     1
 98
        0
  0
POLYLINE
  5
59
330
53
100
AcDbEntity
  8
_U+30EC_U+30A4_U+30E4_U+30FC 1
370
     0
100
AcDb2dPolyline
 66
     1
 10
0.0
 20
0.0
 30
0.0
  0
VERTEX
  5
5A
330
59
100
AcDbEntity
  8
_U+30EC_U+30A4_U+30E4_U+30FC 1
370
     0
100
AcDbVertex
100
AcDb2dVertex
 10
100.5313313550755
 20
-123.4963378597509
 30
0.0
  0
VERTEX
  5
5B
330
59
100
AcDbEntity
  8
_U+30EC_U+30A4_U+30E4_U+30FC 1
370
     0
100
AcDbVertex
100
AcDb2dVertex
 10
100.2794948751037
 20
-123.4963378597509
 30
0.0
  0
VERTEX
  5
5C
330
59
100
AcDbEntity
  8
_U+30EC_U+30A4_U+30E4_U+30FC 1
370
     0
100
AcDbVertex
100
AcDb2dVertex
 10
100.2794948751037
 20
-123.2272759023529
 30
0.0
  0
VERTEX
  5
5D
330
59
100
AcDbEntity
  8
_U+30EC_U+30A4_U+30E4_U+30FC 1
370
     0
100
AcDbVertex
100
AcDb2dVertex
 10
100.5313313550755
 20
-123.2272759023529
 30
0.0
  0
VERTEX
  5
5E
330
59
100
AcDbEntity
  8
_U+30EC_U+30A4_U+30E4_U+30FC 1
370
     0
100
AcDbVertex
100
AcDb2dVertex
 10
100.5313313550755
 20
-123.4963378597509
 30
0.0
  0
SEQEND
  5
5F
330
59
100
AcDbEntity
  8
_U+30EC_U+30A4_U+30E4_U+30FC 1
370
     0
  0
HATCH
  5
60
330
53
100
AcDbEntity
  8
_U+30EC_U+30A4_U+30E4_U+30FC 1
 62
     7
420
 16777215
100
AcDbHatch
 10
0.0
 20
0.0
 30
0.0
210
0.0
220
0.0
230
1.0
  2
SOLID
 70
     1
 71
     0
 91
        1
 92
        1
 93
        4
 72
     1
 10
100.5313313550755
 20
-123.4963378597509
 11
100.2794948751037
 21
-123.4963378597509
 72
     1
 10
100.2794948751037
 20
-123.4963378597509
 11
100.2794948751037
 21
-123.2272759023529
 72
     1
 10
100.2794948751037
 20
-123.2272759023529
 11
100.5313313550755
 21
-123.2272759023529
 72
     1
 10
100.5313313550755
 20
-123.2272759023529
 11
100.5313313550755
 21
-123.4963378597509
 97
        0
 75
     2
 76
     1
 98
        0
  0
SPLINE
  5
61
330
53
100
AcDbEntity
  8
_U+30EC_U+30A4_U+30E4_U+30FC 1
370
     0
100
AcDbSpline
210
0.0
220
0.0
230
1.0
 70
    11
 71
     3
 72
    53
 73
    49
 74
     0
 42
0.0000000001
 43
0.0000000001
 12
1.0
 22
0.0
 32
0.0
 13
1.0
 23
0.0
 33
0.0
 40
0.0
 40
0.0
 40
0.0
 40
0.0
 40
1.0
 40
1.0
 40
1.0
 40
2.0
 40
2.0
 40
2.0
 40
3.0
 40
3.0
 40
3.0
 40
4.0
 40
4.0
 40
4.0
 40
5.0
 40
5.0
 40
5.0
 40
6.0
 40
6.0
 40
6.0
 40
7.0
 40
7.0
 40
7.0
 40
8.0
 40
8.0
 40
8.0
 40
9.0
 40
9.0
 40
9.0
 40
10.0
 40
10.0
 40
10.0
 40
11.0
 40
11.0
 40
11.0
 40
12.0
 40
12.0
 40
12.0
 40
13.0
 40
13.0
 40
13.0
 40
14.0
 40
14.0
 40
14.0
 40
15.0
 40
15.0
 40
15.0
 40
16.0
 40
16.0
 40
16.0
 40
16.0
 10
100.5819742587087
 20
-122.4603976473363
 30
0.0
 10
100.5819742587087
 20
-122.5441134676279
 30
0.0
 10
100.565093290831
 20
-122.6522894658647
 30
0.0
 10
100.5017035339024
 20
-122.7611544831986
 30
0.0
 10
100.3918049879229
 20
-122.946500620305
 30
0.0
 10
100.2605468499349
 20
-122.9688937409592
 30
0.0
 10
100.1527153612465
 20
-122.9892198043221
 30
0.0
 10
100.1527153612465
 20
-122.9892198043221
 30
0.0
 10
100.1527153612465
 20
-122.7518527253884
 30
0.0
 10
100.1527153612465
 20
-122.7518527253884
 30
0.0
 10
100.3514973707455
 20
-122.6932861021392
 30
0.0
 10
100.3811251919186
 20
-122.5575493400203
 30
0.0
 10
100.3811251919186
 20
-122.4579860804966
 30
0.0
 10
100.3811251919186
 20
-122.3088134459853
 30
0.0
 10
100.2815619323949
 20
-122.145860429533
 30
0.0
 10
100.0490179871405
 20
-122.145860429533
 30
0.0
 10
99.79304739258646
 20
-122.145860429533
 30
0.0
 10
99.72311195423589
 20
-122.3380967576099
 30
0.0
 10
99.72311195423589
 20
-122.4669433287583
 30
0.0
 10
99.72311195423589
 20
-122.5010497740622
 30
0.0
 10
99.72311195423589
 20
-122.6522894658647
 30
0.0
 10
99.85230303493276
 20
-122.7473741012576
 30
0.0
 10
99.85230303493276
 20
-122.7473741012576
 30
0.0
 10
99.83335500976389
 20
-122.9351318052037
 30
0.0
 10
99.83335500976389
 20
-122.9351318052037
 30
0.0
 10
99.83335500976389
 20
-122.9351318052037
 30
0.0
 10
98.986895049038
 20
-122.8062852340554
 30
0.0
 10
98.986895049038
 20
-122.8062852340554
 30
0.0
 10
98.986895049038
 20
-122.8062852340554
 30
0.0
 10
98.986895049038
 20
-121.9742946743675
 30
0.0
 10
98.986895049038
 20
-121.9742946743675
 30
0.0
 10
98.986895049038
 20
-121.9742946743675
 30
0.0
 10
99.18154294395463
 20
-121.9742946743675
 30
0.0
 10
99.18154294395463
 20
-121.9742946743675
 30
0.0
 10
99.18154294395463
 20
-121.9742946743675
 30
0.0
 10
99.18154294395463
 20
-122.6319634025017
 30
0.0
 10
99.18154294395463
 20
-122.6319634025017
 30
0.0
 10
99.18154294395463
 20
-122.6319634025017
 30
0.0
 10
99.6046006695433
 20
-122.7022433504008
 30
0.0
 10
99.6046006695433
 20
-122.7022433504008
 30
0.0
 10
99.57083873378785
 20
-122.6367865361811
 30
0.0
 10
99.53053111661043
 20
-122.5485920917587
 30
0.0
 10
99.53053111661043
 20
-122.4218125779015
 30
0.0
 10
99.53053111661043
 20
-122.1506835632123
 30
0.0
 10
99.71691078236245
 20
-121.8974690450465
 30
0.0
 10
100.0300699619716
 20
-121.8974690450465
 30
0.0
 10
100.3473632561632
 20
-121.8974690450465
 30
0.0
 10
100.5819742587087
 20
-122.1369031812713
 30
0.0
 10
100.5819742587087
 20
-122.4603976473363
 30
0.0
  0
HATCH
  5
62
330
53
100
AcDbEntity
  8
_U+30EC_U+30A4_U+30E4_U+30FC 1
 62
     7
420
 16777215
100
AcDbHatch
 10
0.0
 20
0.0
 30
0.0
210
0.0
220
0.0
230
1.0
  2
SOLID
 70
     1
 71
     0
 91
        1
 92
        1
 93
        1
 72
     4
 94
        3
 73
     0
 74
     1
 95
       53
 96
       49
 40
0.0
 40
0.0
 40
0.0
 40
0.0
 40
1.0
 40
1.0
 40
1.0
 40
2.0
 40
2.0
 40
2.0
 40
3.0
 40
3.0
 40
3.0
 40
4.0
 40
4.0
 40
4.0
 40
5.0
 40
5.0
 40
5.0
 40
6.0
 40
6.0
 40
6.0
 40
7.0
 40
7.0
 40
7.0
 40
8.0
 40
8.0
 40
8.0
 40
9.0
 40
9.0
 40
9.0
 40
10.0
 40
10.0
 40
10.0
 40
11.0
 40
11.0
 40
11.0
 40
12.0
 40
12.0
 40
12.0
 40
13.0
 40
13.0
 40
13.0
 40
14.0
 40
14.0
 40
14.0
 40
15.0
 40
15.0
 40
15.0
 40
16.0
 40
16.0
 40
16.0
 40
16.0
 10
100.5819742587087
 20
-122.4603976473363
 10
100.5819742587087
 20
-122.5441134676279
 10
100.565093290831
 20
-122.6522894658647
 10
100.5017035339024
 20
-122.7611544831986
 10
100.3918049879229
 20
-122.946500620305
 10
100.2605468499349
 20
-122.9688937409592
 10
100.1527153612465
 20
-122.9892198043221
 10
100.1527153612465
 20
-122.9892198043221
 10
100.1527153612465
 20
-122.7518527253884
 10
100.1527153612465
 20
-122.7518527253884
 10
100.3514973707455
 20
-122.6932861021392
 10
100.3811251919186
 20
-122.5575493400203
 10
100.3811251919186
 20
-122.4579860804966
 10
100.3811251919186
 20
-122.3088134459853
 10
100.2815619323949
 20
-122.145860429533
 10
100.0490179871405
 20
-122.145860429533
 10
99.79304739258646
 20
-122.145860429533
 10
99.72311195423589
 20
-122.3380967576099
 10
99.72311195423589
 20
-122.4669433287583
 10
99.72311195423589
 20
-122.5010497740622
 10
99.72311195423589
 20
-122.6522894658647
 10
99.85230303493276
 20
-122.7473741012576
 10
99.85230303493276
 20
-122.7473741012576
 10
99.83335500976389
 20
-122.9351318052037
 10
99.83335500976389
 20
-122.9351318052037
 10
99.83335500976389
 20
-122.9351318052037
 10
98.986895049038
 20
-122.8062852340554
 10
98.986895049038
 20
-122.8062852340554
 10
98.986895049038
 20
-122.8062852340554
 10
98.986895049038
 20
-121.9742946743675
 10
98.986895049038
 20
-121.9742946743675
 10
98.986895049038
 20
-121.9742946743675
 10
99.18154294395463
 20
-121.9742946743675
 10
99.18154294395463
 20
-121.9742946743675
 10
99.18154294395463
 20
-121.9742946743675
 10
99.18154294395463
 20
-122.6319634025017
 10
99.18154294395463
 20
-122.6319634025017
 10
99.18154294395463
 20
-122.6319634025017
 10
99.6046006695433
 20
-122.7022433504008
 10
99.6046006695433
 20
-122.7022433504008
 10
99.57083873378785
 20
-122.6367865361811
 10
99.53053111661043
 20
-122.5485920917587
 10
99.53053111661043
 20
-122.4218125779015
 10
99.53053111661043
 20
-122.1506835632123
 10
99.71691078236245
 20
-121.8974690450465
 10
100.0300699619716
 20
-121.8974690450465
 10
100.3473632561632
 20
-121.8974690450465
 10
100.5819742587087
 20
-122.1369031812713
 10
100.5819742587087
 20
-122.4603976473363
 97
        0
 97
        0
 75
     2
 76
     1
 98
        0
  0
ENDBLK
  5
56
330
53
100
AcDbEntity
  8
0
100
AcDbBlockEnd
  0
BLOCK
  5
6E
330
6C
100
AcDbEntity
  8
0
100
AcDbBlockBegin
  2
block 3
 70
     0
 10
0.0
 20
0.0
 30
0.0
  3
block 3
  1

  0
SPLINE
  5
70
330
6C
100
AcDbEntity
  8
_U+30EC_U+30A4_U+30E4_U+30FC 1
370
     0
100
AcDbSpline
210
0.0
220
0.0
230
1.0
 70
    11
 71
     3
 72
    26
 73
    22
 74
     0
 42
0.0000000001
 43
0.0000000001
 12
1.0
 22
0.0
 32
0.0
 13
1.0
 23
0.0
 33
0.0
 40
0.0
 40
0.0
 40
0.0
 40
0.0
 40
1.0
 40
1.0
 40
1.0
 40
2.0
 40
2.0
 40
2.0
 40
3.0
 40
3.0
 40
3.0
 40
4.0
 40
4.0
 40
4.0
 40
5.0
 40
5.0
 40
5.0
 40
6.0
 40
6.0
 40
6.0
 40
7.0
 40
7.0
 40
7.0
 40
7.0
 10
100.5313313550755
 20
-132.5273111647848
 30
0.0
 10
100.5313313550755
 20
-132.5273111647848
 30
0.0
 10
99.42717825205293
 20
-132.5273111647848
 30
0.0
 10
99.42717825205293
 20
-132.5273111647848
 30
0.0
 10
99.42717825205293
 20
-132.5273111647848
 30
0.0
 10
99.42717825205293
 20
-132.8797444329259
 30
0.0
 10
99.42717825205293
 20
-132.8797444329259
 30
0.0
 10
99.42717825205293
 20
-132.8797444329259
 30
0.0
 10
99.27903914618719
 20
-132.8797444329259
 30
0.0
 10
99.27903914618719
 20
-132.8797444329259
 30
0.0
 10
99.26422523560062
 20
-132.5248995979452
 30
0.0
 10
99.1012722191483
 20
-132.4752902229576
 30
0.0
 10
98.986895049038
 20
-132.4435953444933
 30
0.0
 10
98.986895049038
 20
-132.4435953444933
 30
0.0
 10
98.986895049038
 20
-132.2875325190114
 30
0.0
 10
98.986895049038
 20
-132.2875325190114
 30
0.0
 10
98.986895049038
 20
-132.2875325190114
 30
0.0
 10
100.5313313550755
 20
-132.2875325190114
 30
0.0
 10
100.5313313550755
 20
-132.2875325190114
 30
0.0
 10
100.5313313550755
 20
-132.2875325190114
 30
0.0
 10
100.5313313550755
 20
-132.5273111647848
 30
0.0
 10
100.5313313550755
 20
-132.5273111647848
 30
0.0
  0
HATCH
  5
71
330
6C
100
AcDbEntity
  8
_U+30EC_U+30A4_U+30E4_U+30FC 1
 62
   179
420
  2234388
100
AcDbHatch
 10
0.0
 20
0.0
 30
0.0
210
0.0
220
0.0
230
1.0
  2
SOLID
 70
     1
 71
     0
 91
        1
 92
        1
 93
        1
 72
     4
 94
        3
 73
     0
 74
     1
 95
       26
 96
       22
 40
0.0
 40
0.0
 40
0.0
 40
0.0
 40
1.0
 40
1.0
 40
1.0
 40
2.0
 40
2.0
 40
2.0
 40
3.0
 40
3.0
 40
3.0
 40
4.0
 40
4.0
 40
4.0
 40
5.0
 40
5.0
 40
5.0
 40
6.0
 40
6.0
 40
6.0
 40
7.0
 40
7.0
 40
7.0
 40
7.0
 10
100.5313313550755
 20
-132.5273111647848
 10
100.5313313550755
 20
-132.5273111647848
 10
99.42717825205293
 20
-132.5273111647848
 10
99.42717825205293
 20
-132.5273111647848
 10
99.42717825205293
 20
-132.5273111647848
 10
99.42717825205293
 20
-132.8797444329259
 10
99.42717825205293
 20
-132.8797444329259
 10
99.42717825205293
 20
-132.8797444329259
 10
99.27903914618719
 20
-132.8797444329259
 10
99.27903914618719
 20
-132.8797444329259
 10
99.26422523560062
 20
-132.5248995979452
 10
99.1012722191483
 20
-132.4752902229576
 10
98.986895049038
 20
-132.4435953444933
 10
98.986895049038
 20
-132.4435953444933
 10
98.986895049038
 20
-132.2875325190114
 10
98.986895049038
 20
-132.2875325190114
 10
98.986895049038
 20
-132.2875325190114
 10
100.5313313550755
 20
-132.2875325190114
 10
100.5313313550755
 20
-132.2875325190114
 10
100.5313313550755
 20
-132.2875325190114
 10
100.5313313550755
 20
-132.5273111647848
 10
100.5313313550755
 20
-132.5273111647848
 97
        0
 97
        0
 75
     2
 76
     1
 98
        0
  0
ENDBLK
  5
6F
330
6C
100
AcDbEntity
  8
0
100
AcDbBlockEnd
  0
BLOCK
  5
74
330
72
100
AcDbEntity
  8
0
100
AcDbBlockBegin
  2
block 4
 70
     0
 10
0.0
 20
0.0
 30
0.0
  3
block 4
  1

  0
SPLINE
  5
76
330
72
100
AcDbEntity
  8
_U+30EC_U+30A4_U+30E4_U+30FC 1
370
     0
100
AcDbSpline
210
0.0
220
0.0
230
1.0
 70
    11
 71
     3
 72
    26
 73
    22
 74
     0
 42
0.0000000001
 43
0.0000000001
 12
1.0
 22
0.0
 32
0.0
 13
1.0
 23
0.0
 33
0.0
 40
0.0
 40
0.0
 40
0.0
 40
0.0
 40
1.0
 40
1.0
 40
1.0
 40
2.0
 40
2.0
 40
2.0
 40
3.0
 40
3.0
 40
3.0
 40
4.0
 40
4.0
 40
4.0
 40
5.0
 40
5.0
 40
5.0
 40
6.0
 40
6.0
 40
6.0
 40
7.0
 40
7.0
 40
7.0
 40
7.0
 10
82.11677922209233
 20
-129.5038953669296
 30
0.0
 10
82.11677922209233
 20
-129.5038953669296
 30
0.0
 10
82.11677922209233
 20
-128.3993977543585
 30
0.0
 10
82.11677922209233
 20
-128.3993977543585
 30
0.0
 10
82.11677922209233
 20
-128.3993977543585
 30
0.0
 10
81.7867390746054
 20
-128.3993977543585
 30
0.0
 10
81.7867390746054
 20
-128.3993977543585
 30
0.0
 10
81.7867390746054
 20
-128.3993977543585
 30
0.0
 10
81.7867390746054
 20
-128.2512586484928
 30
0.0
 10
81.7867390746054
 20
-128.2512586484928
 30
0.0
 10
82.11884627938349
 20
-128.2366169926804
 30
0.0
 10
82.16535506843437
 20
-128.0736639762281
 30
0.0
 10
82.1949828896075
 20
-127.9594590608921
 30
0.0
 10
82.1949828896075
 20
-127.9594590608921
 30
0.0
 10
82.3410549381821
 20
-127.9594590608921
 30
0.0
 10
82.3410549381821
 20
-127.9594590608921
 30
0.0
 10
82.3410549381821
 20
-127.9594590608921
 30
0.0
 10
82.3410549381821
 20
-129.5038953669296
 30
0.0
 10
82.3410549381821
 20
-129.5038953669296
 30
0.0
 10
82.3410549381821
 20
-129.5038953669296
 30
0.0
 10
82.11677922209233
 20
-129.5038953669296
 30
0.0
 10
82.11677922209233
 20
-129.5038953669296
 30
0.0
  0
HATCH
  5
77
330
72
100
AcDbEntity
  8
_U+30EC_U+30A4_U+30E4_U+30FC 1
 62
   179
420
  2234388
100
AcDbHatch
 10
0.0
 20
0.0
 30
0.0
210
0.0
220
0.0
230
1.0
  2
SOLID
 70
     1
 71
     0
 91
        1
 92
        1
 93
        1
 72
     4
 94
        3
 73
     0
 74
     1
 95
       26
 96
       22
 40
0.0
 40
0.0
 40
0.0
 40
0.0
 40
1.0
 40
1.0
 40
1.0
 40
2.0
 40
2.0
 40
2.0
 40
3.0
 40
3.0
 40
3.0
 40
4.0
 40
4.0
 40
4.0
 40
5.0
 40
5.0
 40
5.0
 40
6.0
 40
6.0
 40
6.0
 40
7.0
 40
7.0
 40
7.0
 40
7.0
 10
82.11677922209233
 20
-129.5038953669296
 10
82.11677922209233
 20
-129.5038953669296
 10
82.11677922209233
 20
-128.3993977543585
 10
82.11677922209233
 20
-128.3993977543585
 10
82.11677922209233
 20
-128.3993977543585
 10
81.7867390746054
 20
-128.3993977543585
 10
81.7867390746054
 20
-128.3993977543585
 10
81.7867390746054
 20
-128.3993977543585
 10
81.7867390746054
 20
-128.2512586484928
 10
81.7867390746054
 20
-128.2512586484928
 10
82.11884627938349
 20
-128.2366169926804
 10
82.16535506843437
 20
-128.0736639762281
 10
82.1949828896075
 20
-127.9594590608921
 10
82.1949828896075
 20
-127.9594590608921
 10
82.3410549381821
 20
-127.9594590608921
 10
82.3410549381821
 20
-127.9594590608921
 10
82.3410549381821
 20
-127.9594590608921
 10
82.3410549381821
 20
-129.5038953669296
 10
82.3410549381821
 20
-129.5038953669296
 10
82.3410549381821
 20
-129.5038953669296
 10
82.11677922209233
 20
-129.5038953669296
 10
82.11677922209233
 20
-129.5038953669296
 97
        0
 97
        0
 75
     2
 76
     1
 98
        0
  0
ENDBLK
  5
75
330
72
100
AcDbEntity
  8
0
100
AcDbBlockEnd
  0
BLOCK
  5
B2
330
B0
100
AcDbEntity
  8
0
100
AcDbBlockBegin
  2
block 5
 70
     0
 10
0.0
 20
0.0
 30
0.0
  3
block 5
  1

  0
SPLINE
  5
B4
330
B0
100
AcDbEntity
  8
_U+30EC_U+30A4_U+30E4_U+30FC 1
370
     0
100
AcDbSpline
210
0.0
220
0.0
230
1.0
 70
    11
 71
     3
 72
    26
 73
    22
 74
     0
 42
0.0000000001
 43
0.0000000001
 12
1.0
 22
0.0
 32
0.0
 13
1.0
 23
0.0
 33
0.0
 40
0.0
 40
0.0
 40
0.0
 40
0.0
 40
1.0
 40
1.0
 40
1.0
 40
2.0
 40
2.0
 40
2.0
 40
3.0
 40
3.0
 40
3.0
 40
4.0
 40
4.0
 40
4.0
 40
5.0
 40
5.0
 40
5.0
 40
6.0
 40
6.0
 40
6.0
 40
7.0
 40
7.0
 40
7.0
 40
7.0
 10
88.02529023407007
 20
-136.4133788721467
 30
0.0
 10
88.02529023407007
 20
-136.4133788721467
 30
0.0
 10
88.02529023407007
 20
-135.3092257691241
 30
0.0
 10
88.02529023407007
 20
-135.3092257691241
 30
0.0
 10
88.02529023407007
 20
-135.3092257691241
 30
0.0
 10
87.67285696592901
 20
-135.3092257691241
 30
0.0
 10
87.67285696592901
 20
-135.3092257691241
 30
0.0
 10
87.67285696592901
 20
-135.3092257691241
 30
0.0
 10
87.67285696592901
 20
-135.1610866632583
 30
0.0
 10
87.67285696592901
 20
-135.1610866632583
 30
0.0
 10
88.02770180090974
 20
-135.1462727526718
 30
0.0
 10
88.07731117589735
 20
-134.9833197362194
 30
0.0
 10
88.10900605436164
 20
-134.8689425661092
 30
0.0
 10
88.10900605436164
 20
-134.8689425661092
 30
0.0
 10
88.26506887984345
 20
-134.8689425661092
 30
0.0
 10
88.26506887984345
 20
-134.8689425661092
 30
0.0
 10
88.26506887984345
 20
-134.8689425661092
 30
0.0
 10
88.26506887984345
 20
-136.4133788721467
 30
0.0
 10
88.26506887984345
 20
-136.4133788721467
 30
0.0
 10
88.26506887984345
 20
-136.4133788721467
 30
0.0
 10
88.02529023407007
 20
-136.4133788721467
 30
0.0
 10
88.02529023407007
 20
-136.4133788721467
 30
0.0
  0
HATCH
  5
B5
330
B0
100
AcDbEntity
  8
_U+30EC_U+30A4_U+30E4_U+30FC 1
 62
   179
420
  2234388
100
AcDbHatch
 10
0.0
 20
0.0
 30
0.0
210
0.0
220
0.0
230
1.0
  2
SOLID
 70
     1
 71
     0
 91
        1
 92
        1
 93
        1
 72
     4
 94
        3
 73
     0
 74
     1
 95
       26
 96
       22
 40
0.0
 40
0.0
 40
0.0
 40
0.0
 40
1.0
 40
1.0
 40
1.0
 40
2.0
 40
2.0
 40
2.0
 40
3.0
 40
3.0
 40
3.0
 40
4.0
 40
4.0
 40
4.0
 40
5.0
 40
5.0
 40
5.0
 40
6.0
 40
6.0
 40
6.0
 40
7.0
 40
7.0
 40
7.0
 40
7.0
 10
88.02529023407007
 20
-136.4133788721467
 10
88.02529023407007
 20
-136.4133788721467
 10
88.02529023407007
 20
-135.3092257691241
 10
88.02529023407007
 20
-135.3092257691241
 10
88.02529023407007
 20
-135.3092257691241
 10
87.67285696592901
 20
-135.3092257691241
 10
87.67285696592901
 20
-135.3092257691241
 10
87.67285696592901
 20
-135.3092257691241
 10
87.67285696592901
 20
-135.1610866632583
 10
87.67285696592901
 20
-135.1610866632583
 10
88.02770180090974
 20
-135.1462727526718
 10
88.07731117589735
 20
-134.9833197362194
 10
88.10900605436164
 20
-134.8689425661092
 10
88.10900605436164
 20
-134.8689425661092
 10
88.26506887984345
 20
-134.8689425661092
 10
88.26506887984345
 20
-134.8689425661092
 10
88.26506887984345
 20
-134.8689425661092
 10
88.26506887984345
 20
-136.4133788721467
 10
88.26506887984345
 20
-136.4133788721467
 10
88.26506887984345
 20
-136.4133788721467
 10
88.02529023407007
 20
-136.4133788721467
 10
88.02529023407007
 20
-136.4133788721467
 97
        0
 97
        0
 75
     2
 76
     1
 98
        0
  0
SPLINE
  5
B6
330
B0
100
AcDbEntity
  8
_U+30EC_U+30A4_U+30E4_U+30FC 1
370
     0
100
AcDbSpline
210
0.0
220
0.0
230
1.0
 70
    11
 71
     3
 72
    29
 73
    25
 74
     0
 42
0.0000000001
 43
0.0000000001
 12
1.0
 22
0.0
 32
0.0
 13
1.0
 23
0.0
 33
0.0
 40
0.0
 40
0.0
 40
0.0
 40
0.0
 40
1.0
 40
1.0
 40
1.0
 40
2.0
 40
2.0
 40
2.0
 40
3.0
 40
3.0
 40
3.0
 40
4.0
 40
4.0
 40
4.0
 40
5.0
 40
5.0
 40
5.0
 40
6.0
 40
6.0
 40
6.0
 40
7.0
 40
7.0
 40
7.0
 40
8.0
 40
8.0
 40
8.0
 40
8.0
 10
89.33511553756206
 20
-136.4640217757798
 30
0.0
 10
89.05020614093189
 20
-136.4640217757798
 30
0.0
 10
88.77907712624274
 20
-136.3265624659184
 30
0.0
 10
88.77907712624274
 20
-135.9775742932626
 30
0.0
 10
88.77907712624274
 20
-135.7216036987085
 30
0.0
 10
88.93066132759373
 20
-135.6265190633156
 30
0.0
 10
89.04366045950992
 20
-135.5651963636782
 30
0.0
 10
88.91033526423075
 20
-135.5059407213319
 30
0.0
 10
88.82868650123034
 20
-135.3915635512216
 30
0.0
 10
88.82868650123034
 20
-135.2306775920604
 30
0.0
 10
88.82868650123034
 20
-134.9557589723375
 30
0.0
 10
89.04124889267025
 20
-134.8203667197672
 30
0.0
 10
89.33511553756206
 20
-134.8203667197672
 30
0.0
 10
89.63828394026405
 20
-134.8203667197672
 30
0.0
 10
89.84154457389378
 20
-134.9643717110506
 30
0.0
 10
89.84154457389378
 20
-135.2306775920604
 30
0.0
 10
89.84154457389378
 20
-135.3915635512216
 30
0.0
 10
89.75817326315074
 20
-135.5059407213319
 30
0.0
 10
89.62450355832304
 20
-135.5651963636782
 30
0.0
 10
89.71958819371594
 20
-135.6158392673113
 30
0.0
 10
89.88908689159024
 20
-135.7109239027042
 30
0.0
 10
89.88908689159024
 20
-135.9734401786802
 30
0.0
 10
89.88908689159024
 20
-136.3479220579269
 30
0.0
 10
89.59074162256759
 20
-136.4640217757798
 30
0.0
 10
89.33511553756206
 20
-136.4640217757798
 30
0.0
  0
SPLINE
  5
B7
330
B0
100
AcDbEntity
  8
_U+30EC_U+30A4_U+30E4_U+30FC 1
370
     0
100
AcDbSpline
210
0.0
220
0.0
230
1.0
 70
    11
 71
     3
 72
    17
 73
    13
 74
     0
 42
0.0000000001
 43
0.0000000001
 12
1.0
 22
0.0
 32
0.0
 13
1.0
 23
0.0
 33
0.0
 40
0.0
 40
0.0
 40
0.0
 40
0.0
 40
1.0
 40
1.0
 40
1.0
 40
2.0
 40
2.0
 40
2.0
 40
3.0
 40
3.0
 40
3.0
 40
4.0
 40
4.0
 40
4.0
 40
4.0
 10
89.33511553756206
 20
-135.6730278523665
 30
0.0
 10
89.18146427891992
 20
-135.6730278523665
 30
0.0
 10
89.01885577201612
 20
-135.7598442585948
 30
0.0
 10
89.01885577201612
 20
-135.962760382676
 30
0.0
 10
89.01885577201612
 20
-136.1680880735969
 30
0.0
 10
89.15424802458644
 20
-136.2693738808632
 30
0.0
 10
89.33511553756206
 20
-136.2693738808632
 30
0.0
 10
89.5342420566095
 20
-136.2693738808632
 30
0.0
 10
89.65171981265652
 20
-136.1467284815883
 30
0.0
 10
89.65171981265652
 20
-135.9689615545494
 30
0.0
 10
89.65171981265652
 20
-135.7470974052993
 30
0.0
 10
89.47774249065141
 20
-135.6730278523665
 30
0.0
 10
89.33511553756206
 20
-135.6730278523665
 30
0.0
  0
SPLINE
  5
B8
330
B0
100
AcDbEntity
  8
_U+30EC_U+30A4_U+30E4_U+30FC 1
370
     0
100
AcDbSpline
210
0.0
220
0.0
230
1.0
 70
    11
 71
     3
 72
    17
 73
    13
 74
     0
 42
0.0000000001
 43
0.0000000001
 12
1.0
 22
0.0
 32
0.0
 13
1.0
 23
0.0
 33
0.0
 40
0.0
 40
0.0
 40
0.0
 40
0.0
 40
1.0
 40
1.0
 40
1.0
 40
2.0
 40
2.0
 40
2.0
 40
3.0
 40
3.0
 40
3.0
 40
4.0
 40
4.0
 40
4.0
 40
4.0
 10
89.33511553756206
 20
-135.0129475573926
 30
0.0
 10
89.15907115826579
 20
-135.0129475573926
 30
0.0
 10
89.06846514700372
 20
-135.1080321927855
 30
0.0
 10
89.06846514700372
 20
-135.2434244453558
 30
0.0
 10
89.06846514700372
 20
-135.3660698446307
 30
0.0
 10
89.1452907763248
 20
-135.4845811293233
 30
0.0
 10
89.33511553756206
 20
-135.4845811293233
 30
0.0
 10
89.52528480834785
 20
-135.4845811293233
 30
0.0
 10
89.60211043766893
 20
-135.3660698446307
 30
0.0
 10
89.60211043766893
 20
-135.2434244453558
 30
0.0
 10
89.60211043766893
 20
-135.1080321927855
 30
0.0
 10
89.5094373691157
 20
-135.0129475573926
 30
0.0
 10
89.33511553756206
 20
-135.0129475573926
 30
0.0
  0
HATCH
  5
B9
330
B0
100
AcDbEntity
  8
_U+30EC_U+30A4_U+30E4_U+30FC 1
 62
   179
420
  2234388
100
AcDbHatch
 10
0.0
 20
0.0
 30
0.0
210
0.0
220
0.0
230
1.0
  2
SOLID
 70
     1
 71
     0
 91
        3
 92
        1
 93
        1
 72
     4
 94
        3
 73
     0
 74
     1
 95
       29
 96
       25
 40
0.0
 40
0.0
 40
0.0
 40
0.0
 40
1.0
 40
1.0
 40
1.0
 40
2.0
 40
2.0
 40
2.0
 40
3.0
 40
3.0
 40
3.0
 40
4.0
 40
4.0
 40
4.0
 40
5.0
 40
5.0
 40
5.0
 40
6.0
 40
6.0
 40
6.0
 40
7.0
 40
7.0
 40
7.0
 40
8.0
 40
8.0
 40
8.0
 40
8.0
 10
89.33511553756206
 20
-136.4640217757798
 10
89.05020614093189
 20
-136.4640217757798
 10
88.77907712624274
 20
-136.3265624659184
 10
88.77907712624274
 20
-135.9775742932626
 10
88.77907712624274
 20
-135.7216036987085
 10
88.93066132759373
 20
-135.6265190633156
 10
89.04366045950992
 20
-135.5651963636782
 10
88.91033526423075
 20
-135.5059407213319
 10
88.82868650123034
 20
-135.3915635512216
 10
88.82868650123034
 20
-135.2306775920604
 10
88.82868650123034
 20
-134.9557589723375
 10
89.04124889267025
 20
-134.8203667197672
 10
89.33511553756206
 20
-134.8203667197672
 10
89.63828394026405
 20
-134.8203667197672
 10
89.84154457389378
 20
-134.9643717110506
 10
89.84154457389378
 20
-135.2306775920604
 10
89.84154457389378
 20
-135.3915635512216
 10
89.75817326315074
 20
-135.5059407213319
 10
89.62450355832304
 20
-135.5651963636782
 10
89.71958819371594
 20
-135.6158392673113
 10
89.88908689159024
 20
-135.7109239027042
 10
89.88908689159024
 20
-135.9734401786802
 10
89.88908689159024
 20
-136.3479220579269
 10
89.59074162256759
 20
-136.4640217757798
 10
89.33511553756206
 20
-136.4640217757798
 97
        0
 97
        0
 92
        1
 93
        1
 72
     4
 94
        3
 73
     0
 74
     1
 95
       17
 96
       13
 40
0.0
 40
0.0
 40
0.0
 40
0.0
 40
1.0
 40
1.0
 40
1.0
 40
2.0
 40
2.0
 40
2.0
 40
3.0
 40
3.0
 40
3.0
 40
4.0
 40
4.0
 40
4.0
 40
4.0
 10
89.33511553756206
 20
-135.6730278523665
 10
89.18146427891992
 20
-135.6730278523665
 10
89.01885577201612
 20
-135.7598442585948
 10
89.01885577201612
 20
-135.962760382676
 10
89.01885577201612
 20
-136.1680880735969
 10
89.15424802458644
 20
-136.2693738808632
 10
89.33511553756206
 20
-136.2693738808632
 10
89.5342420566095
 20
-136.2693738808632
 10
89.65171981265652
 20
-136.1467284815883
 10
89.65171981265652
 20
-135.9689615545494
 10
89.65171981265652
 20
-135.7470974052993
 10
89.47774249065141
 20
-135.6730278523665
 10
89.33511553756206
 20
-135.6730278523665
 97
        0
 97
        0
 92
        1
 93
        1
 72
     4
 94
        3
 73
     0
 74
     1
 95
       17
 96
       13
 40
0.0
 40
0.0
 40
0.0
 40
0.0
 40
1.0
 40
1.0
 40
1.0
 40
2.0
 40
2.0
 40
2.0
 40
3.0
 40
3.0
 40
3.0
 40
4.0
 40
4.0
 40
4.0
 40
4.0
 10
89.33511553756206
 20
-135.0129475573926
 10
89.15907115826579
 20
-135.0129475573926
 10
89.06846514700372
 20
-135.1080321927855
 10
89.06846514700372
 20
-135.2434244453558
 10
89.06846514700372
 20
-135.3660698446307
 10
89.1452907763248
 20
-135.4845811293233
 10
89.33511553756206
 20
-135.4845811293233
 10
89.52528480834785
 20
-135.4845811293233
 10
89.60211043766893
 20
-135.3660698446307
 10
89.60211043766893
 20
-135.2434244453558
 10
89.60211043766893
 20
-135.1080321927855
 10
89.5094373691157
 20
-135.0129475573926
 10
89.33511553756206
 20
-135.0129475573926
 97
        0
 97
        0
 75
     2
 76
     1
 98
        0
  0
ENDBLK
  5
B3
330
B0
100
AcDbEntity
  8
0
100
AcDbBlockEnd
  0
BLOCK
  5
C8
330
C6
100
AcDbEntity
  8
0
100
AcDbBlockBegin
  2
block 6
 70
     0
 10
0.0
 20
0.0
 30
0.0
  3
block 6
  1

  0
SPLINE
  5
CA
330
C6
100
AcDbEntity
  8
_U+30EC_U+30A4_U+30E4_U+30FC 1
370
     0
100
AcDbSpline
210
0.0
220
0.0
230
1.0
 70
    11
 71
     3
 72
    29
 73
    25
 74
     0
 42
0.0000000001
 43
0.0000000001
 12
1.0
 22
0.0
 32
0.0
 13
1.0
 23
0.0
 33
0.0
 40
0.0
 40
0.0
 40
0.0
 40
0.0
 40
1.0
 40
1.0
 40
1.0
 40
2.0
 40
2.0
 40
2.0
 40
3.0
 40
3.0
 40
3.0
 40
4.0
 40
4.0
 40
4.0
 40
5.0
 40
5.0
 40
5.0
 40
6.0
 40
6.0
 40
6.0
 40
7.0
 40
7.0
 40
7.0
 40
8.0
 40
8.0
 40
8.0
 40
8.0
 10
83.74424232932436
 20
-120.8138142601611
 30
0.0
 10
83.4593329326942
 20
-120.8138142601611
 30
0.0
 10
83.18803166323077
 20
-120.6761826955254
 30
0.0
 10
83.18803166323077
 20
-120.3271945228696
 30
0.0
 10
83.18803166323077
 20
-120.0712239283155
 30
0.0
 10
83.3394436098075
 20
-119.9759670381484
 30
0.0
 10
83.45261499649796
 20
-119.9146443385109
 30
0.0
 10
83.31911754644453
 20
-119.8553886961646
 30
0.0
 10
83.23781329299264
 20
-119.7411837808286
 30
0.0
 10
83.23781329299264
 20
-119.5804700764417
 30
0.0
 10
83.23781329299264
 20
-119.3053792019445
 30
0.0
 10
83.45020342965829
 20
-119.1699869493742
 30
0.0
 10
83.74424232932436
 20
-119.1699869493742
 30
0.0
 10
84.04723847725208
 20
-119.1699869493742
 30
0.0
 10
84.25067136565609
 20
-119.3138196858834
 30
0.0
 10
84.25067136565609
 20
-119.5804700764417
 30
0.0
 10
84.25067136565609
 20
-119.7411837808286
 30
0.0
 10
84.16695554536452
 20
-119.8553886961646
 30
0.0
 10
84.03363035008535
 20
-119.9146443385109
 30
0.0
 10
84.12854273070398
 20
-119.9654594969184
 30
0.0
 10
84.29804142857827
 20
-120.0607163870855
 30
0.0
 10
84.29804142857827
 20
-120.3230604082873
 30
0.0
 10
84.29804142857827
 20
-120.6973700327597
 30
0.0
 10
83.99969615955564
 20
-120.8138142601611
 30
0.0
 10
83.74424232932436
 20
-120.8138142601611
 30
0.0
  0
SPLINE
  5
CB
330
C6
100
AcDbEntity
  8
_U+30EC_U+30A4_U+30E4_U+30FC 1
370
     0
100
AcDbSpline
210
0.0
220
0.0
230
1.0
 70
    11
 71
     3
 72
    17
 73
    13
 74
     0
 42
0.0000000001
 43
0.0000000001
 12
1.0
 22
0.0
 32
0.0
 13
1.0
 23
0.0
 33
0.0
 40
0.0
 40
0.0
 40
0.0
 40
0.0
 40
1.0
 40
1.0
 40
1.0
 40
2.0
 40
2.0
 40
2.0
 40
3.0
 40
3.0
 40
3.0
 40
4.0
 40
4.0
 40
4.0
 40
4.0
 10
83.74424232932436
 20
-120.0226480819735
 30
0.0
 10
83.59041881590795
 20
-120.0226480819735
 30
0.0
 10
83.4276380542299
 20
-120.1092922334275
 30
0.0
 10
83.4276380542299
 20
-120.312380612283
 30
0.0
 10
83.4276380542299
 20
-120.5175360484296
 30
0.0
 10
83.56337481634874
 20
-120.6191663652445
 30
0.0
 10
83.74424232932436
 20
-120.6191663652445
 30
0.0
 10
83.94319659359753
 20
-120.6191663652445
 30
0.0
 10
84.06067434964456
 20
-120.4965209659696
 30
0.0
 10
84.06067434964456
 20
-120.3187540389307
 30
0.0
 10
84.06067434964456
 20
-120.0965453801321
 30
0.0
 10
83.88669702763944
 20
-120.0226480819735
 30
0.0
 10
83.74424232932436
 20
-120.0226480819735
 30
0.0
  0
SPLINE
  5
CC
330
C6
100
AcDbEntity
  8
_U+30EC_U+30A4_U+30E4_U+30FC 1
370
     0
100
AcDbSpline
210
0.0
220
0.0
230
1.0
 70
    11
 71
     3
 72
    17
 73
    13
 74
     0
 42
0.0000000001
 43
0.0000000001
 12
1.0
 22
0.0
 32
0.0
 13
1.0
 23
0.0
 33
0.0
 40
0.0
 40
0.0
 40
0.0
 40
0.0
 40
1.0
 40
1.0
 40
1.0
 40
2.0
 40
2.0
 40
2.0
 40
3.0
 40
3.0
 40
3.0
 40
4.0
 40
4.0
 40
4.0
 40
4.0
 10
83.74424232932436
 20
-119.3625677869996
 30
0.0
 10
83.56785344047957
 20
-119.3625677869996
 30
0.0
 10
83.47741968399176
 20
-119.4576524223925
 30
0.0
 10
83.47741968399176
 20
-119.5930446749629
 30
0.0
 10
83.47741968399176
 20
-119.715862329012
 30
0.0
 10
83.55424531331283
 20
-119.8343736137046
 30
0.0
 10
83.74424232932436
 20
-119.8343736137046
 30
0.0
 10
83.93406709056163
 20
-119.8343736137046
 30
0.0
 10
84.01106497465696
 20
-119.715862329012
 30
0.0
 10
84.01106497465696
 20
-119.5930446749629
 30
0.0
 10
84.01106497465696
 20
-119.4576524223925
 30
0.0
 10
83.91821965132948
 20
-119.3625677869996
 30
0.0
 10
83.74424232932436
 20
-119.3625677869996
 30
0.0
  0
HATCH
  5
CD
330
C6
100
AcDbEntity
  8
_U+30EC_U+30A4_U+30E4_U+30FC 1
 62
   179
420
  2234388
100
AcDbHatch
 10
0.0
 20
0.0
 30
0.0
210
0.0
220
0.0
230
1.0
  2
SOLID
 70
     1
 71
     0
 91
        3
 92
        1
 93
        1
 72
     4
 94
        3
 73
     0
 74
     1
 95
       29
 96
       25
 40
0.0
 40
0.0
 40
0.0
 40
0.0
 40
1.0
 40
1.0
 40
1.0
 40
2.0
 40
2.0
 40
2.0
 40
3.0
 40
3.0
 40
3.0
 40
4.0
 40
4.0
 40
4.0
 40
5.0
 40
5.0
 40
5.0
 40
6.0
 40
6.0
 40
6.0
 40
7.0
 40
7.0
 40
7.0
 40
8.0
 40
8.0
 40
8.0
 40
8.0
 10
83.74424232932436
 20
-120.8138142601611
 10
83.4593329326942
 20
-120.8138142601611
 10
83.18803166323077
 20
-120.6761826955254
 10
83.18803166323077
 20
-120.3271945228696
 10
83.18803166323077
 20
-120.0712239283155
 10
83.3394436098075
 20
-119.9759670381484
 10
83.45261499649796
 20
-119.9146443385109
 10
83.31911754644453
 20
-119.8553886961646
 10
83.23781329299264
 20
-119.7411837808286
 10
83.23781329299264
 20
-119.5804700764417
 10
83.23781329299264
 20
-119.3053792019445
 10
83.45020342965829
 20
-119.1699869493742
 10
83.74424232932436
 20
-119.1699869493742
 10
84.04723847725208
 20
-119.1699869493742
 10
84.25067136565609
 20
-119.3138196858834
 10
84.25067136565609
 20
-119.5804700764417
 10
84.25067136565609
 20
-119.7411837808286
 10
84.16695554536452
 20
-119.8553886961646
 10
84.03363035008535
 20
-119.9146443385109
 10
84.12854273070398
 20
-119.9654594969184
 10
84.29804142857827
 20
-120.0607163870855
 10
84.29804142857827
 20
-120.3230604082873
 10
84.29804142857827
 20
-120.6973700327597
 10
83.99969615955564
 20
-120.8138142601611
 10
83.74424232932436
 20
-120.8138142601611
 97
        0
 97
        0
 92
        1
 93
        1
 72
     4
 94
        3
 73
     0
 74
     1
 95
       17
 96
       13
 40
0.0
 40
0.0
 40
0.0
 40
0.0
 40
1.0
 40
1.0
 40
1.0
 40
2.0
 40
2.0
 40
2.0
 40
3.0
 40
3.0
 40
3.0
 40
4.0
 40
4.0
 40
4.0
 40
4.0
 10
83.74424232932436
 20
-120.0226480819735
 10
83.59041881590795
 20
-120.0226480819735
 10
83.4276380542299
 20
-120.1092922334275
 10
83.4276380542299
 20
-120.312380612283
 10
83.4276380542299
 20
-120.5175360484296
 10
83.56337481634874
 20
-120.6191663652445
 10
83.74424232932436
 20
-120.6191663652445
 10
83.94319659359753
 20
-120.6191663652445
 10
84.06067434964456
 20
-120.4965209659696
 10
84.06067434964456
 20
-120.3187540389307
 10
84.06067434964456
 20
-120.0965453801321
 10
83.88669702763944
 20
-120.0226480819735
 10
83.74424232932436
 20
-120.0226480819735
 97
        0
 97
        0
 92
        1
 93
        1
 72
     4
 94
        3
 73
     0
 74
     1
 95
       17
 96
       13
 40
0.0
 40
0.0
 40
0.0
 40
0.0
 40
1.0
 40
1.0
 40
1.0
 40
2.0
 40
2.0
 40
2.0
 40
3.0
 40
3.0
 40
3.0
 40
4.0
 40
4.0
 40
4.0
 40
4.0
 10
83.74424232932436
 20
-119.3625677869996
 10
83.56785344047957
 20
-119.3625677869996
 10
83.47741968399176
 20
-119.4576524223925
 10
83.47741968399176
 20
-119.5930446749629
 10
83.47741968399176
 20
-119.715862329012
 10
83.55424531331283
 20
-119.8343736137046
 10
83.74424232932436
 20
-119.8343736137046
 10
83.93406709056163
 20
-119.8343736137046
 10
84.01106497465696
 20
-119.715862329012
 10
84.01106497465696
 20
-119.5930446749629
 10
84.01106497465696
 20
-119.4576524223925
 10
83.91821965132948
 20
-119.3625677869996
 10
83.74424232932436
 20
-119.3625677869996
 97
        0
 97
        0
 75
     2
 76
     1
 98
        0
  0
ENDBLK
  5
C9
330
C6
100
AcDbEntity
  8
0
100
AcDbBlockEnd
  0
ENDSEC
  0
SECTION
  2
ENTITIES
  0
SPLINE
  5
41
330
1F
100
AcDbEntity
  8
_U+30EC_U+30A4_U+30E4_U+30FC 1
 62
     7
420
 16777215
370
     9
100
AcDbSpline
210
0.0
220
0.0
230
1.0
 70
    11
 71
     3
 72
    17
 73
    13
 74
     0
 42
0.0000000001
 43
0.0000000001
 12
1.0
 22
0.0
 32
0.0
 13
1.0
 23
0.0
 33
0.0
 40
0.0
 40
0.0
 40
0.0
 40
0.0
 40
1.0
 40
1.0
 40
1.0
 40
2.0
 40
2.0
 40
2.0
 40
3.0
 40
3.0
 40
3.0
 40
4.0
 40
4.0
 40
4.0
 40
4.0
 10
101.6792312948356
 20
-126.5092508017061
 30
0.0
 10
101.6792312948356
 20
-126.454111635053
 30
0.0
 10
101.6344637959777
 20
-126.4093441350644
 30
0.0
 10
101.5793246307177
 20
-126.4093441350644
 30
0.0
 10
101.5242207432347
 20
-126.4093441350644
 30
0.0
 10
101.4794179665999
 20
-126.454111635053
 30
0.0
 10
101.4794179665999
 20
-126.5092508017061
 30
0.0
 10
101.4794179665999
 20
-126.564354690581
 30
0.0
 10
101.5242207432347
 20
-126.6091574683477
 30
0.0
 10
101.5793246307177
 20
-126.6091574683477
 30
0.0
 10
101.6344637959777
 20
-126.6091574683477
 30
0.0
 10
101.6792312948356
 20
-126.564354690581
 30
0.0
 10
101.6792312948356
 20
-126.5092508017061
 30
0.0
  0
SPLINE
  5
42
330
1F
100
AcDbEntity
  8
_U+30EC_U+30A4_U+30E4_U+30FC 1
 62
     7
420
 16777215
370
     9
100
AcDbSpline
210
0.0
220
0.0
230
1.0
 70
    11
 71
     3
 72
    17
 73
    13
 74
     0
 42
0.0000000001
 43
0.0000000001
 12
1.0
 22
0.0
 32
0.0
 13
1.0
 23
0.0
 33
0.0
 40
0.0
 40
0.0
 40
0.0
 40
0.0
 40
1.0
 40
1.0
 40
1.0
 40
2.0
 40
2.0
 40
2.0
 40
3.0
 40
3.0
 40
3.0
 40
4.0
 40
4.0
 40
4.0
 40
4.0
 10
101.6792312948356
 20
-132.0095149669974
 30
0.0
 10
101.6792312948356
 20
-131.954375800345
 30
0.0
 10
101.6344637959777
 20
-131.9096083003558
 30
0.0
 10
101.5793246307177
 20
-131.9096083003558
 30
0.0
 10
101.5242207432347
 20
-131.9096083003558
 30
0.0
 10
101.4794179665999
 20
-131.954375800345
 30
0.0
 10
101.4794179665999
 20
-132.0095149669974
 30
0.0
 10
101.4794179665999
 20
-132.0646188558729
 30
0.0
 10
101.5242207432347
 20
-132.109421633639
 30
0.0
 10
101.5793246307177
 20
-132.109421633639
 30
0.0
 10
101.6344637959777
 20
-132.109421633639
 30
0.0
 10
101.6792312948356
 20
-132.0646188558729
 30
0.0
 10
101.6792312948356
 20
-132.0095149669974
 30
0.0
  0
POLYLINE
  5
43
330
1F
100
AcDbEntity
  8
_U+30EC_U+30A4_U+30E4_U+30FC 1
 62
     7
420
 16777215
370
     9
100
AcDb2dPolyline
 66
     1
 10
0.0
 20
0.0
 30
0.0
  0
VERTEX
  5
44
330
43
100
AcDbEntity
  8
_U+30EC_U+30A4_U+30E4_U+30FC 1
 62
     7
420
 16777215
370
     9
100
AcDbVertex
100
AcDb2dVertex
 10
101.5793246307177
 20
-126.5092508017061
 30
0.0
  0
VERTEX
  5
45
330
43
100
AcDbEntity
  8
_U+30EC_U+30A4_U+30E4_U+30FC 1
 62
     7
420
 16777215
370
     9
100
AcDbVertex
100
AcDb2dVertex
 10
101.5793246307177
 20
-121.2513449696872
 30
0.0
  0
SEQEND
  5
46
330
43
100
AcDbEntity
  8
_U+30EC_U+30A4_U+30E4_U+30FC 1
 62
     7
420
 16777215
370
     9
  0
POLYLINE
  5
47
330
1F
100
AcDbEntity
  8
_U+30EC_U+30A4_U+30E4_U+30FC 1
 62
     7
420
 16777215
370
     9
100
AcDb2dPolyline
 66
     1
 10
0.0
 20
0.0
 30
0.0
  0
VERTEX
  5
48
330
47
100
AcDbEntity
  8
_U+30EC_U+30A4_U+30E4_U+30FC 1
 62
     7
420
 16777215
370
     9
100
AcDbVertex
100
AcDb2dVertex
 10
101.5793246307177
 20
-126.5092508017061
 30
0.0
  0
VERTEX
  5
49
330
47
100
AcDbEntity
  8
_U+30EC_U+30A4_U+30E4_U+30FC 1
 62
     7
420
 16777215
370
     9
100
AcDbVertex
100
AcDb2dVertex
 10
101.5793246307177
 20
-132.0095149669974
 30
0.0
  0
SEQEND
  5
4A
330
47
100
AcDbEntity
  8
_U+30EC_U+30A4_U+30E4_U+30FC 1
 62
     7
420
 16777215
370
     9
  0
POLYLINE
  5
4B
330
1F
100
AcDbEntity
  8
_U+30EC_U+30A4_U+30E4_U+30FC 1
 62
     7
420
 16777215
370
     9
100
AcDb2dPolyline
 66
     1
 10
0.0
 20
0.0
 30
0.0
  0
VERTEX
  5
4C
330
4B
100
AcDbEntity
  8
_U+30EC_U+30A4_U+30E4_U+30FC 1
 62
     7
420
 16777215
370
     9
100
AcDbVertex
100
AcDb2dVertex
 10
100.5836799338965
 20
-126.5092508017061
 30
0.0
  0
VERTEX
  5
4D
330
4B
100
AcDbEntity
  8
_U+30EC_U+30A4_U+30E4_U+30FC 1
 62
     7
420
 16777215
370
     9
100
AcDbVertex
100
AcDb2dVertex
 10
102.5794496052024
 20
-126.5092508017061
 30
0.0
  0
SEQEND
  5
4E
330
4B
100
AcDbEntity
  8
_U+30EC_U+30A4_U+30E4_U+30FC 1
 62
     7
420
 16777215
370
     9
  0
POLYLINE
  5
4F
330
1F
100
AcDbEntity
  8
_U+30EC_U+30A4_U+30E4_U+30FC 1
 62
     7
420
 16777215
370
     9
100
AcDb2dPolyline
 66
     1
 10
0.0
 20
0.0
 30
0.0
  0
VERTEX
  5
50
330
4F
100
AcDbEntity
  8
_U+30EC_U+30A4_U+30E4_U+30FC 1
 62
     7
420
 16777215
370
     9
100
AcDbVertex
100
AcDb2dVertex
 10
100.5836799338965
 20
-132.0095149669974
 30
0.0
  0
VERTEX
  5
51
330
4F
100
AcDbEntity
  8
_U+30EC_U+30A4_U+30E4_U+30FC 1
 62
     7
420
 16777215
370
     9
100
AcDbVertex
100
AcDb2dVertex
 10
102.5794496052024
 20
-132.0095149669974
 30
0.0
  0
SEQEND
  5
52
330
4F
100
AcDbEntity
  8
_U+30EC_U+30A4_U+30E4_U+30FC 1
 62
     7
420
 16777215
370
     9
  0
INSERT
  5
54
330
1F
100
AcDbEntity
  8
_U+30EC_U+30A4_U+30E4_U+30FC 1
100
AcDbBlockReference
  2
block 2
 10
0.0
 20
0.0
 30
0.0
  0
SPLINE
  5
63
330
1F
100
AcDbEntity
  8
_U+30EC_U+30A4_U+30E4_U+30FC 1
 62
   179
420
  2234388
370
     9
100
AcDbSpline
210
0.0
220
0.0
230
1.0
 70
    11
 71
     3
 72
    17
 73
    13
 74
     0
 42
0.0000000001
 43
0.0000000001
 12
1.0
 22
0.0
 32
0.0
 13
1.0
 23
0.0
 33
0.0
 40
0.0
 40
0.0
 40
0.0
 40
0.0
 40
1.0
 40
1.0
 40
1.0
 40
2.0
 40
2.0
 40
2.0
 40
3.0
 40
3.0
 40
3.0
 40
4.0
 40
4.0
 40
4.0
 40
4.0
 10
101.6792312948356
 20
-133.0037838556377
 30
0.0
 10
101.6792312948356
 20
-132.9486446889853
 30
0.0
 10
101.6344637959777
 20
-132.9038771889961
 30
0.0
 10
101.5793246307177
 20
-132.9038771889961
 30
0.0
 10
101.5242207432347
 20
-132.9038771889961
 30
0.0
 10
101.4794179665999
 20
-132.9486446889853
 30
0.0
 10
101.4794179665999
 20
-133.0037838556377
 30
0.0
 10
101.4794179665999
 20
-133.0588877445133
 30
0.0
 10
101.5242207432347
 20
-133.1036905222794
 30
0.0
 10
101.5793246307177
 20
-133.1036905222794
 30
0.0
 10
101.6344637959777
 20
-133.1036905222794
 30
0.0
 10
101.6792312948356
 20
-133.0588877445133
 30
0.0
 10
101.6792312948356
 20
-133.0037838556377
 30
0.0
  0
POLYLINE
  5
64
330
1F
100
AcDbEntity
  8
_U+30EC_U+30A4_U+30E4_U+30FC 1
 62
   179
420
  2234388
370
     9
100
AcDb2dPolyline
 66
     1
 10
0.0
 20
0.0
 30
0.0
  0
VERTEX
  5
65
330
64
100
AcDbEntity
  8
_U+30EC_U+30A4_U+30E4_U+30FC 1
 62
   179
420
  2234388
370
     9
100
AcDbVertex
100
AcDb2dVertex
 10
101.5793246307177
 20
-131.3563116338274
 30
0.0
  0
VERTEX
  5
66
330
64
100
AcDbEntity
  8
_U+30EC_U+30A4_U+30E4_U+30FC 1
 62
   179
420
  2234388
370
     9
100
AcDbVertex
100
AcDb2dVertex
 10
101.5793246307177
 20
-133.0037838556377
 30
0.0
  0
SEQEND
  5
67
330
64
100
AcDbEntity
  8
_U+30EC_U+30A4_U+30E4_U+30FC 1
 62
   179
420
  2234388
370
     9
  0
POLYLINE
  5
68
330
1F
100
AcDbEntity
  8
_U+30EC_U+30A4_U+30E4_U+30FC 1
 62
   179
420
  2234388
370
     9
100
AcDb2dPolyline
 66
     1
 10
0.0
 20
0.0
 30
0.0
  0
VERTEX
  5
69
330
68
100
AcDbEntity
  8
_U+30EC_U+30A4_U+30E4_U+30FC 1
 62
   179
420
  2234388
370
     9
100
AcDbVertex
100
AcDb2dVertex
 10
100.5836799338965
 20
-133.0037838556377
 30
0.0
  0
VERTEX
  5
6A
330
68
100
AcDbEntity
  8
_U+30EC_U+30A4_U+30E4_U+30FC 1
 62
   179
420
  2234388
370
     9
100
AcDbVertex
100
AcDb2dVertex
 10
102.5794496052024
 20
-133.0037838556377
 30
0.0
  0
SEQEND
  5
6B
330
68
100
AcDbEntity
  8
_U+30EC_U+30A4_U+30E4_U+30FC 1
 62
   179
420
  2234388
370
     9
  0
INSERT
  5
6D
330
1F
100
AcDbEntity
  8
_U+30EC_U+30A4_U+30E4_U+30FC 1
100
AcDbBlockReference
  2
block 3
 10
0.0
 20
0.0
 30
0.0
  0
INSERT
  5
73
330
1F
100
AcDbEntity
  8
_U+30EC_U+30A4_U+30E4_U+30FC 1
100
AcDbBlockReference
  2
block 4
 10
0.0
 20
0.0
 30
0.0
  0
SPLINE
  5
78
330
1F
100
AcDbEntity
  8
_U+30EC_U+30A4_U+30E4_U+30FC 1
370
     0
100
AcDbSpline
210
0.0
220
0.0
230
1.0
 70
    11
 71
     3
 72
    53
 73
    49
 74
     0
 42
0.0000000001
 43
0.0000000001
 12
1.0
 22
0.0
 32
0.0
 13
1.0
 23
0.0
 33
0.0
 40
0.0
 40
0.0
 40
0.0
 40
0.0
 40
1.0
 40
1.0
 40
1.0
 40
2.0
 40
2.0
 40
2.0
 40
3.0
 40
3.0
 40
3.0
 40
4.0
 40
4.0
 40
4.0
 40
5.0
 40
5.0
 40
5.0
 40
6.0
 40
6.0
 40
6.0
 40
7.0
 40
7.0
 40
7.0
 40
8.0
 40
8.0
 40
8.0
 40
9.0
 40
9.0
 40
9.0
 40
10.0
 40
10.0
 40
10.0
 40
11.0
 40
11.0
 40
11.0
 40
12.0
 40
12.0
 40
12.0
 40
13.0
 40
13.0
 40
13.0
 40
14.0
 40
14.0
 40
14.0
 40
15.0
 40
15.0
 40
15.0
 40
16.0
 40
16.0
 40
16.0
 40
16.0
 10
97.20131724241003
 20
-132.5090483002062
 30
0.0
 10
97.20131724241003
 20
-132.5090483002062
 30
0.0
 10
87.56745026596822
 20
-132.5090483002062
 30
0.0
 10
87.56745026596822
 20
-132.5090483002062
 30
0.0
 10
87.3889799927436
 20
-132.1996974669498
 30
0.0
 10
87.05895639005209
 20
-132.0095149669974
 30
0.0
 10
86.70134556584217
 20
-132.0095149669974
 30
0.0
 10
86.70134556584217
 20
-132.0095149669974
 30
0.0
 10
84.20156229628363
 20
-132.0095149669974
 30
0.0
 10
84.20156229628363
 20
-132.0095149669974
 30
0.0
 10
84.20156229628363
 20
-132.0095149669974
 30
0.0
 10
84.20156229628363
 20
-126.5090744128172
 30
0.0
 10
84.20156229628363
 20
-126.5090744128172
 30
0.0
 10
84.20156229628363
 20
-126.5090744128172
 30
0.0
 10
87.20154916419203
 20
-126.5090744128172
 30
0.0
 10
87.20154916419203
 20
-126.5090744128172
 30
0.0
 10
87.47787999047557
 20
-126.5090744128172
 30
0.0
 10
87.70111776255808
 20
-126.2854838573174
 30
0.0
 10
87.70111776255808
 20
-126.0091883018309
 30
0.0
 10
87.70111776255808
 20
-125.749790801896
 30
0.0
 10
87.50268026762065
 20
-125.533432190839
 30
0.0
 10
87.24427055199101
 20
-125.5110308019556
 30
0.0
 10
84.88644720100046
 20
-125.308818579784
 30
0.0
 10
82.51623706150208
 20
-125.308818579784
 30
0.0
 10
80.15841156609966
 20
-125.5110308019556
 30
0.0
 10
79.88349185089122
 20
-125.5348080241719
 30
0.0
 10
79.67955102276086
 20
-125.7769899685557
 30
0.0
 10
79.7029754666077
 20
-126.052262468487
 30
0.0
 10
79.72569435491697
 20
-126.3106369128668
 30
0.0
 10
79.94205296050832
 20
-126.5090744128172
 30
0.0
 10
80.20183850943619
 20
-126.5090744128172
 30
0.0
 10
80.20183850943619
 20
-126.5090744128172
 30
0.0
 10
83.20182537734459
 20
-126.5090744128172
 30
0.0
 10
83.20182537734459
 20
-126.5090744128172
 30
0.0
 10
83.20182537734459
 20
-126.5090744128172
 30
0.0
 10
83.20182537734459
 20
-132.0095149669974
 30
0.0
 10
83.20182537734459
 20
-132.0095149669974
 30
0.0
 10
83.20182537734459
 20
-132.0095149669974
 30
0.0
 10
80.70137183002537
 20
-132.0095149669974
 30
0.0
 10
80.70137183002537
 20
-132.0095149669974
 30
0.0
 10
80.14945101077271
 20
-132.0095149669974
 30
0.0
 10
79.70159963330946
 20
-132.4570488557748
 30
0.0
 10
79.70159963330946
 20
-133.0092871889699
 30
0.0
 10
79.70159963330946
 20
-133.0092871889699
 30
0.0
 10
97.70152084075988
 20
-133.0092871889699
 30
0.0
 10
97.70152084075988
 20
-133.0092871889699
 30
0.0
 10
97.70152084075988
 20
-132.7329916334835
 30
0.0
 10
97.4776127909167
 20
-132.5090483002062
 30
0.0
 10
97.20131724241003
 20
-132.5090483002062
 30
0.0
  0
HATCH
  5
79
330
1F
100
AcDbEntity
  8
_U+30EC_U+30A4_U+30E4_U+30FC 1
 62
   253
420
 11711154
100
AcDbHatch
 10
0.0
 20
0.0
 30
0.0
210
0.0
220
0.0
230
1.0
  2
SOLID
 70
     1
 71
     0
 91
        1
 92
        1
 93
        1
 72
     4
 94
        3
 73
     0
 74
     1
 95
       53
 96
       49
 40
0.0
 40
0.0
 40
0.0
 40
0.0
 40
1.0
 40
1.0
 40
1.0
 40
2.0
 40
2.0
 40
2.0
 40
3.0
 40
3.0
 40
3.0
 40
4.0
 40
4.0
 40
4.0
 40
5.0
 40
5.0
 40
5.0
 40
6.0
 40
6.0
 40
6.0
 40
7.0
 40
7.0
 40
7.0
 40
8.0
 40
8.0
 40
8.0
 40
9.0
 40
9.0
 40
9.0
 40
10.0
 40
10.0
 40
10.0
 40
11.0
 40
11.0
 40
11.0
 40
12.0
 40
12.0
 40
12.0
 40
13.0
 40
13.0
 40
13.0
 40
14.0
 40
14.0
 40
14.0
 40
15.0
 40
15.0
 40
15.0
 40
16.0
 40
16.0
 40
16.0
 40
16.0
 10
97.20131724241003
 20
-132.5090483002062
 10
97.20131724241003
 20
-132.5090483002062
 10
87.56745026596822
 20
-132.5090483002062
 10
87.56745026596822
 20
-132.5090483002062
 10
87.3889799927436
 20
-132.1996974669498
 10
87.05895639005209
 20
-132.0095149669974
 10
86.70134556584217
 20
-132.0095149669974
 10
86.70134556584217
 20
-132.0095149669974
 10
84.20156229628363
 20
-132.0095149669974
 10
84.20156229628363
 20
-132.0095149669974
 10
84.20156229628363
 20
-132.0095149669974
 10
84.20156229628363
 20
-126.5090744128172
 10
84.20156229628363
 20
-126.5090744128172
 10
84.20156229628363
 20
-126.5090744128172
 10
87.20154916419203
 20
-126.5090744128172
 10
87.20154916419203
 20
-126.5090744128172
 10
87.47787999047557
 20
-126.5090744128172
 10
87.70111776255808
 20
-126.2854838573174
 10
87.70111776255808
 20
-126.0091883018309
 10
87.70111776255808
 20
-125.749790801896
 10
87.50268026762065
 20
-125.533432190839
 10
87.24427055199101
 20
-125.5110308019556
 10
84.88644720100046
 20
-125.308818579784
 10
82.51623706150208
 20
-125.308818579784
 10
80.15841156609966
 20
-125.5110308019556
 10
79.88349185089122
 20
-125.5348080241719
 10
79.67955102276086
 20
-125.7769899685557
 10
79.7029754666077
 20
-126.052262468487
 10
79.72569435491697
 20
-126.3106369128668
 10
79.94205296050832
 20
-126.5090744128172
 10
80.20183850943619
 20
-126.5090744128172
 10
80.20183850943619
 20
-126.5090744128172
 10
83.20182537734459
 20
-126.5090744128172
 10
83.20182537734459
 20
-126.5090744128172
 10
83.20182537734459
 20
-126.5090744128172
 10
83.20182537734459
 20
-132.0095149669974
 10
83.20182537734459
 20
-132.0095149669974
 10
83.20182537734459
 20
-132.0095149669974
 10
80.70137183002537
 20
-132.0095149669974
 10
80.70137183002537
 20
-132.0095149669974
 10
80.14945101077271
 20
-132.0095149669974
 10
79.70159963330946
 20
-132.4570488557748
 10
79.70159963330946
 20
-133.0092871889699
 10
79.70159963330946
 20
-133.0092871889699
 10
97.70152084075988
 20
-133.0092871889699
 10
97.70152084075988
 20
-133.0092871889699
 10
97.70152084075988
 20
-132.7329916334835
 10
97.4776127909167
 20
-132.5090483002062
 10
97.20131724241003
 20
-132.5090483002062
 97
        0
 97
        0
 75
     2
 76
     1
 98
        0
  0
POLYLINE
  5
7A
330
1F
100
AcDbEntity
  8
_U+30EC_U+30A4_U+30E4_U+30FC 1
 62
   179
420
  2234388
370
    25
100
AcDb2dPolyline
 66
     1
 10
0.0
 20
0.0
 30
0.0
  0
VERTEX
  5
7B
330
7A
100
AcDbEntity
  8
_U+30EC_U+30A4_U+30E4_U+30FC 1
 62
   179
420
  2234388
370
    25
100
AcDbVertex
100
AcDb2dVertex
 10
80.70137183002537
 20
-132.0095149669974
 30
0.0
  0
VERTEX
  5
7C
330
7A
100
AcDbEntity
  8
_U+30EC_U+30A4_U+30E4_U+30FC 1
 62
   179
420
  2234388
370
    25
100
AcDbVertex
100
AcDb2dVertex
 10
83.20182537734459
 20
-132.0095149669974
 30
0.0
  0
SEQEND
  5
7D
330
7A
100
AcDbEntity
  8
_U+30EC_U+30A4_U+30E4_U+30FC 1
 62
   179
420
  2234388
370
    25
  0
POLYLINE
  5
7E
330
1F
100
AcDbEntity
  8
_U+30EC_U+30A4_U+30E4_U+30FC 1
 62
   179
420
  2234388
370
    25
100
AcDb2dPolyline
 66
     1
 10
0.0
 20
0.0
 30
0.0
  0
VERTEX
  5
7F
330
7E
100
AcDbEntity
  8
_U+30EC_U+30A4_U+30E4_U+30FC 1
 62
   179
420
  2234388
370
    25
100
AcDbVertex
100
AcDb2dVertex
 10
79.70159963330946
 20
-133.0092871889699
 30
0.0
  0
VERTEX
  5
80
330
7E
100
AcDbEntity
  8
_U+30EC_U+30A4_U+30E4_U+30FC 1
 62
   179
420
  2234388
370
    25
100
AcDbVertex
100
AcDb2dVertex
 10
97.70152084075988
 20
-133.0092871889699
 30
0.0
  0
SEQEND
  5
81
330
7E
100
AcDbEntity
  8
_U+30EC_U+30A4_U+30E4_U+30FC 1
 62
   179
420
  2234388
370
    25
  0
POLYLINE
  5
82
330
1F
100
AcDbEntity
  8
_U+30EC_U+30A4_U+30E4_U+30FC 1
 62
   179
420
  2234388
370
    25
100
AcDb2dPolyline
 66
     1
 10
0.0
 20
0.0
 30
0.0
  0
VERTEX
  5
83
330
82
100
AcDbEntity
  8
_U+30EC_U+30A4_U+30E4_U+30FC 1
 62
   179
420
  2234388
370
    25
100
AcDbVertex
100
AcDb2dVertex
 10
87.56745026596822
 20
-132.5090483002062
 30
0.0
  0
VERTEX
  5
84
330
82
100
AcDbEntity
  8
_U+30EC_U+30A4_U+30E4_U+30FC 1
 62
   179
420
  2234388
370
    25
100
AcDbVertex
100
AcDb2dVertex
 10
97.20131724241003
 20
-132.5090483002062
 30
0.0
  0
SEQEND
  5
85
330
82
100
AcDbEntity
  8
_U+30EC_U+30A4_U+30E4_U+30FC 1
 62
   179
420
  2234388
370
    25
  0
POLYLINE
  5
86
330
1F
100
AcDbEntity
  8
_U+30EC_U+30A4_U+30E4_U+30FC 1
 62
   179
420
  2234388
370
    25
100
AcDb2dPolyline
 66
     1
 10
0.0
 20
0.0
 30
0.0
  0
VERTEX
  5
87
330
86
100
AcDbEntity
  8
_U+30EC_U+30A4_U+30E4_U+30FC 1
 62
   179
420
  2234388
370
    25
100
AcDbVertex
100
AcDb2dVertex
 10
80.20183850943619
 20
-126.5090744128172
 30
0.0
  0
VERTEX
  5
88
330
86
100
AcDbEntity
  8
_U+30EC_U+30A4_U+30E4_U+30FC 1
 62
   179
420
  2234388
370
    25
100
AcDbVertex
100
AcDb2dVertex
 10
83.20182537734459
 20
-126.5090744128172
 30
0.0
  0
SEQEND
  5
89
330
86
100
AcDbEntity
  8
_U+30EC_U+30A4_U+30E4_U+30FC 1
 62
   179
420
  2234388
370
    25
  0
POLYLINE
  5
8A
330
1F
100
AcDbEntity
  8
_U+30EC_U+30A4_U+30E4_U+30FC 1
 62
   179
420
  2234388
370
    25
100
AcDb2dPolyline
 66
     1
 10
0.0
 20
0.0
 30
0.0
  0
VERTEX
  5
8B
330
8A
100
AcDbEntity
  8
_U+30EC_U+30A4_U+30E4_U+30FC 1
 62
   179
420
  2234388
370
    25
100
AcDbVertex
100
AcDb2dVertex
 10
83.20182537734459
 20
-126.5090744128172
 30
0.0
  0
VERTEX
  5
8C
330
8A
100
AcDbEntity
  8
_U+30EC_U+30A4_U+30E4_U+30FC 1
 62
   179
420
  2234388
370
    25
100
AcDbVertex
100
AcDb2dVertex
 10
83.20182537734459
 20
-132.0095149669974
 30
0.0
  0
SEQEND
  5
8D
330
8A
100
AcDbEntity
  8
_U+30EC_U+30A4_U+30E4_U+30FC 1
 62
   179
420
  2234388
370
    25
  0
POLYLINE
  5
8E
330
1F
100
AcDbEntity
  8
_U+30EC_U+30A4_U+30E4_U+30FC 1
 62
   179
420
  2234388
370
    25
100
AcDb2dPolyline
 66
     1
 10
0.0
 20
0.0
 30
0.0
  0
VERTEX
  5
8F
330
8E
100
AcDbEntity
  8
_U+30EC_U+30A4_U+30E4_U+30FC 1
 62
   179
420
  2234388
370
    25
100
AcDbVertex
100
AcDb2dVertex
 10
84.20156229628363
 20
-126.5090744128172
 30
0.0
  0
VERTEX
  5
90
330
8E
100
AcDbEntity
  8
_U+30EC_U+30A4_U+30E4_U+30FC 1
 62
   179
420
  2234388
370
    25
100
AcDbVertex
100
AcDb2dVertex
 10
84.20156229628363
 20
-132.0095149669974
 30
0.0
  0
SEQEND
  5
91
330
8E
100
AcDbEntity
  8
_U+30EC_U+30A4_U+30E4_U+30FC 1
 62
   179
420
  2234388
370
    25
  0
POLYLINE
  5
92
330
1F
100
AcDbEntity
  8
_U+30EC_U+30A4_U+30E4_U+30FC 1
 62
   179
420
  2234388
370
    25
100
AcDb2dPolyline
 66
     1
 10
0.0
 20
0.0
 30
0.0
  0
VERTEX
  5
93
330
92
100
AcDbEntity
  8
_U+30EC_U+30A4_U+30E4_U+30FC 1
 62
   179
420
  2234388
370
    25
100
AcDbVertex
100
AcDb2dVertex
 10
84.20156229628363
 20
-126.5090744128172
 30
0.0
  0
VERTEX
  5
94
330
92
100
AcDbEntity
  8
_U+30EC_U+30A4_U+30E4_U+30FC 1
 62
   179
420
  2234388
370
    25
100
AcDbVertex
100
AcDb2dVertex
 10
87.20154916419203
 20
-126.5090744128172
 30
0.0
  0
SEQEND
  5
95
330
92
100
AcDbEntity
  8
_U+30EC_U+30A4_U+30E4_U+30FC 1
 62
   179
420
  2234388
370
    25
  0
POLYLINE
  5
96
330
1F
100
AcDbEntity
  8
_U+30EC_U+30A4_U+30E4_U+30FC 1
 62
   179
420
  2234388
370
    25
100
AcDb2dPolyline
 66
     1
 10
0.0
 20
0.0
 30
0.0
  0
VERTEX
  5
97
330
96
100
AcDbEntity
  8
_U+30EC_U+30A4_U+30E4_U+30FC 1
 62
   179
420
  2234388
370
    25
100
AcDbVertex
100
AcDb2dVertex
 10
84.20156229628363
 20
-132.0095149669974
 30
0.0
  0
VERTEX
  5
98
330
96
100
AcDbEntity
  8
_U+30EC_U+30A4_U+30E4_U+30FC 1
 62
   179
420
  2234388
370
    25
100
AcDbVertex
100
AcDb2dVertex
 10
86.70134556584217
 20
-132.0095149669974
 30
0.0
  0
SEQEND
  5
99
330
96
100
AcDbEntity
  8
_U+30EC_U+30A4_U+30E4_U+30FC 1
 62
   179
420
  2234388
370
    25
  0
SPLINE
  5
9A
330
1F
100
AcDbEntity
  8
_U+30EC_U+30A4_U+30E4_U+30FC 1
 62
   179
420
  2234388
370
    25
100
AcDbSpline
210
0.0
220
0.0
230
1.0
 70
     8
 71
     3
 72
     8
 73
     4
 74
     0
 42
0.0000000001
 43
0.0000000001
 12
1.0
 22
0.0
 32
0.0
 13
1.0
 23
0.0
 33
0.0
 40
0.0
 40
0.0
 40
0.0
 40
0.0
 40
1.0
 40
1.0
 40
1.0
 40
1.0
 10
97.70152084075988
 20
-133.0092871889699
 30
0.0
 10
97.70152084075988
 20
-132.7329916334835
 30
0.0
 10
97.4776127909167
 20
-132.5090483002062
 30
0.0
 10
97.20131724241003
 20
-132.5090483002062
 30
0.0
  0
SPLINE
  5
9B
330
1F
100
AcDbEntity
  8
_U+30EC_U+30A4_U+30E4_U+30FC 1
 62
   179
420
  2234388
370
     9
100
AcDbSpline
210
0.0
220
0.0
230
1.0
 70
    11
 71
     3
 72
    17
 73
    13
 74
     0
 42
0.0000000001
 43
0.0000000001
 12
1.0
 22
0.0
 32
0.0
 13
1.0
 23
0.0
 33
0.0
 40
0.0
 40
0.0
 40
0.0
 40
0.0
 40
1.0
 40
1.0
 40
1.0
 40
2.0
 40
2.0
 40
2.0
 40
3.0
 40
3.0
 40
3.0
 40
4.0
 40
4.0
 40
4.0
 40
4.0
 10
79.8015083133829
 20
-137.0093638546364
 30
0.0
 10
79.8015083133829
 20
-136.9539071879837
 30
0.0
 10
79.7567055356165
 20
-136.9091396879952
 30
0.0
 10
79.70159963330946
 20
-136.9091396879952
 30
0.0
 10
79.64646046804951
 20
-136.9091396879952
 30
0.0
 10
79.60169296919162
 20
-136.9539071879837
 30
0.0
 10
79.60169296919162
 20
-137.0093638546364
 30
0.0
 10
79.60169296919162
 20
-137.0645030212895
 30
0.0
 10
79.64646046804951
 20
-137.1093057990562
 30
0.0
 10
79.70159963330946
 20
-137.1093057990562
 30
0.0
 10
79.7567055356165
 20
-137.1093057990562
 30
0.0
 10
79.8015083133829
 20
-137.0645030212895
 30
0.0
 10
79.8015083133829
 20
-137.0093638546364
 30
0.0
  0
SPLINE
  5
9C
330
1F
100
AcDbEntity
  8
_U+30EC_U+30A4_U+30E4_U+30FC 1
 62
   179
420
  2234388
370
     9
100
AcDbSpline
210
0.0
220
0.0
230
1.0
 70
    11
 71
     3
 72
    17
 73
    13
 74
     0
 42
0.0000000001
 43
0.0000000001
 12
1.0
 22
0.0
 32
0.0
 13
1.0
 23
0.0
 33
0.0
 40
0.0
 40
0.0
 40
0.0
 40
0.0
 40
1.0
 40
1.0
 40
1.0
 40
2.0
 40
2.0
 40
2.0
 40
3.0
 40
3.0
 40
3.0
 40
4.0
 40
4.0
 40
4.0
 40
4.0
 10
97.80142750487771
 20
-137.0093638546364
 30
0.0
 10
97.80142750487771
 20
-136.9539071879837
 30
0.0
 10
97.75666000601983
 20
-136.9091396879952
 30
0.0
 10
97.70152084075988
 20
-136.9091396879952
 30
0.0
 10
97.64641942003273
 20
-136.9091396879952
 30
0.0
 10
97.60161664226601
 20
-136.9539071879837
 30
0.0
 10
97.60161664226601
 20
-137.0093638546364
 30
0.0
 10
97.60161664226601
 20
-137.0645030212895
 30
0.0
 10
97.64641942003273
 20
-137.1093057990562
 30
0.0
 10
97.70152084075988
 20
-137.1093057990562
 30
0.0
 10
97.75666000601983
 20
-137.1093057990562
 30
0.0
 10
97.80142750487771
 20
-137.0645030212895
 30
0.0
 10
97.80142750487771
 20
-137.0093638546364
 30
0.0
  0
SPLINE
  5
9D
330
1F
100
AcDbEntity
  8
_U+30EC_U+30A4_U+30E4_U+30FC 1
 62
   179
420
  2234388
370
    25
100
AcDbSpline
210
0.0
220
0.0
230
1.0
 70
     8
 71
     3
 72
     8
 73
     4
 74
     0
 42
0.0000000001
 43
0.0000000001
 12
1.0
 22
0.0
 32
0.0
 13
1.0
 23
0.0
 33
0.0
 40
0.0
 40
0.0
 40
0.0
 40
0.0
 40
1.0
 40
1.0
 40
1.0
 40
1.0
 10
87.56745026596822
 20
-132.5090483002062
 30
0.0
 10
87.3889799927436
 20
-132.1996974669498
 30
0.0
 10
87.05895639005209
 20
-132.0095149669974
 30
0.0
 10
86.70134556584217
 20
-132.0095149669974
 30
0.0
  0
SPLINE
  5
9E
330
1F
100
AcDbEntity
  8
_U+30EC_U+30A4_U+30E4_U+30FC 1
 62
   179
420
  2234388
370
    25
100
AcDbSpline
210
0.0
220
0.0
230
1.0
 70
     8
 71
     3
 72
    11
 73
     7
 74
     0
 42
0.0000000001
 43
0.0000000001
 12
1.0
 22
0.0
 32
0.0
 13
1.0
 23
0.0
 33
0.0
 40
0.0
 40
0.0
 40
0.0
 40
0.0
 40
1.0
 40
1.0
 40
1.0
 40
2.0
 40
2.0
 40
2.0
 40
2.0
 10
87.20154916419203
 20
-126.5090744128172
 30
0.0
 10
87.47787999047557
 20
-126.5090744128172
 30
0.0
 10
87.70111776255808
 20
-126.2854838573174
 30
0.0
 10
87.70111776255808
 20
-126.0091883018309
 30
0.0
 10
87.70111776255808
 20
-125.749790801896
 30
0.0
 10
87.50268026762065
 20
-125.533432190839
 30
0.0
 10
87.24427055199101
 20
-125.5110308019556
 30
0.0
  0
SPLINE
  5
9F
330
1F
100
AcDbEntity
  8
_U+30EC_U+30A4_U+30E4_U+30FC 1
 62
   179
420
  2234388
370
    25
100
AcDbSpline
210
0.0
220
0.0
230
1.0
 70
     8
 71
     3
 72
    11
 73
     7
 74
     0
 42
0.0000000001
 43
0.0000000001
 12
1.0
 22
0.0
 32
0.0
 13
1.0
 23
0.0
 33
0.0
 40
0.0
 40
0.0
 40
0.0
 40
0.0
 40
1.0
 40
1.0
 40
1.0
 40
2.0
 40
2.0
 40
2.0
 40
2.0
 10
80.15841156609966
 20
-125.5110308019556
 30
0.0
 10
79.88349185089122
 20
-125.5348080241719
 30
0.0
 10
79.67955102276086
 20
-125.7769899685557
 30
0.0
 10
79.7029754666077
 20
-126.052262468487
 30
0.0
 10
79.72569435491697
 20
-126.3106369128668
 30
0.0
 10
79.94205296050832
 20
-126.5090744128172
 30
0.0
 10
80.20183850943619
 20
-126.5090744128172
 30
0.0
  0
SPLINE
  5
A0
330
1F
100
AcDbEntity
  8
_U+30EC_U+30A4_U+30E4_U+30FC 1
 62
   179
420
  2234388
370
    25
100
AcDbSpline
210
0.0
220
0.0
230
1.0
 70
     8
 71
     3
 72
     8
 73
     4
 74
     0
 42
0.0000000001
 43
0.0000000001
 12
1.0
 22
0.0
 32
0.0
 13
1.0
 23
0.0
 33
0.0
 40
0.0
 40
0.0
 40
0.0
 40
0.0
 40
1.0
 40
1.0
 40
1.0
 40
1.0
 10
80.70137183002537
 20
-132.0095149669974
 30
0.0
 10
80.14945101077271
 20
-132.0095149669974
 30
0.0
 10
79.70159963330946
 20
-132.4570488557748
 30
0.0
 10
79.70159963330946
 20
-133.0092871889699
 30
0.0
  0
SPLINE
  5
A1
330
1F
100
AcDbEntity
  8
_U+30EC_U+30A4_U+30E4_U+30FC 1
 62
   179
420
  2234388
370
     9
100
AcDbSpline
210
0.0
220
0.0
230
1.0
 70
    11
 71
     3
 72
    17
 73
    13
 74
     0
 42
0.0000000001
 43
0.0000000001
 12
1.0
 22
0.0
 32
0.0
 13
1.0
 23
0.0
 33
0.0
 40
0.0
 40
0.0
 40
0.0
 40
0.0
 40
1.0
 40
1.0
 40
1.0
 40
2.0
 40
2.0
 40
2.0
 40
3.0
 40
3.0
 40
3.0
 40
4.0
 40
4.0
 40
4.0
 40
4.0
 10
87.8016947044366
 20
-121.3593302474379
 30
0.0
 10
87.8016947044366
 20
-121.304226358563
 30
0.0
 10
87.7569272055787
 20
-121.2594235807963
 30
0.0
 10
87.70111776255808
 20
-121.2594235807963
 30
0.0
 10
87.64597859729814
 20
-121.2594235807963
 30
0.0
 10
87.60121109844025
 20
-121.304226358563
 30
0.0
 10
87.60121109844025
 20
-121.3593302474379
 30
0.0
 10
87.60121109844025
 20
-121.414469414091
 30
0.0
 10
87.64597859729814
 20
-121.4592369140795
 30
0.0
 10
87.70111776255808
 20
-121.4592369140795
 30
0.0
 10
87.7569272055787
 20
-121.4592369140795
 30
0.0
 10
87.8016947044366
 20
-121.414469414091
 30
0.0
 10
87.8016947044366
 20
-121.3593302474379
 30
0.0
  0
SPLINE
  5
A2
330
1F
100
AcDbEntity
  8
_U+30EC_U+30A4_U+30E4_U+30FC 1
 62
   179
420
  2234388
370
     9
100
AcDbSpline
210
0.0
220
0.0
230
1.0
 70
    11
 71
     3
 72
    17
 73
    13
 74
     0
 42
0.0000000001
 43
0.0000000001
 12
1.0
 22
0.0
 32
0.0
 13
1.0
 23
0.0
 33
0.0
 40
0.0
 40
0.0
 40
0.0
 40
0.0
 40
1.0
 40
1.0
 40
1.0
 40
2.0
 40
2.0
 40
2.0
 40
3.0
 40
3.0
 40
3.0
 40
4.0
 40
4.0
 40
4.0
 40
4.0
 10
79.8015083133829
 20
-121.3593302474379
 30
0.0
 10
79.8015083133829
 20
-121.304226358563
 30
0.0
 10
79.7567055356165
 20
-121.2594235807963
 30
0.0
 10
79.70159963330946
 20
-121.2594235807963
 30
0.0
 10
79.64646046804951
 20
-121.2594235807963
 30
0.0
 10
79.60169296919162
 20
-121.304226358563
 30
0.0
 10
79.60169296919162
 20
-121.3593302474379
 30
0.0
 10
79.60169296919162
 20
-121.414469414091
 30
0.0
 10
79.64646046804951
 20
-121.4592369140795
 30
0.0
 10
79.70159963330946
 20
-121.4592369140795
 30
0.0
 10
79.7567055356165
 20
-121.4592369140795
 30
0.0
 10
79.8015083133829
 20
-121.414469414091
 30
0.0
 10
79.8015083133829
 20
-121.3593302474379
 30
0.0
  0
SPLINE
  5
A3
330
1F
100
AcDbEntity
  8
_U+30EC_U+30A4_U+30E4_U+30FC 1
 62
   179
420
  2234388
370
    25
100
AcDbSpline
210
0.0
220
0.0
230
1.0
 70
     8
 71
     3
 72
     8
 73
     4
 74
     0
 42
0.0000000001
 43
0.0000000001
 12
1.0
 22
0.0
 32
0.0
 13
1.0
 23
0.0
 33
0.0
 40
0.0
 40
0.0
 40
0.0
 40
0.0
 40
1.0
 40
1.0
 40
1.0
 40
1.0
 10
87.24427055199101
 20
-125.5110308019556
 30
0.0
 10
84.88644720100046
 20
-125.308818579784
 30
0.0
 10
82.51623706150208
 20
-125.308818579784
 30
0.0
 10
80.15841156609966
 20
-125.5110308019556
 30
0.0
  0
POLYLINE
  5
A4
330
1F
100
AcDbEntity
  8
_U+30EC_U+30A4_U+30E4_U+30FC 1
 62
   179
420
  2234388
370
     9
100
AcDb2dPolyline
 66
     1
 10
0.0
 20
0.0
 30
0.0
  0
VERTEX
  5
A5
330
A4
100
AcDbEntity
  8
_U+30EC_U+30A4_U+30E4_U+30FC 1
 62
   179
420
  2234388
370
     9
100
AcDbVertex
100
AcDb2dVertex
 10
79.70159963330946
 20
-137.0093638546364
 30
0.0
  0
VERTEX
  5
A6
330
A4
100
AcDbEntity
  8
_U+30EC_U+30A4_U+30E4_U+30FC 1
 62
   179
420
  2234388
370
     9
100
AcDbVertex
100
AcDb2dVertex
 10
97.70152084075988
 20
-137.0093638546364
 30
0.0
  0
SEQEND
  5
A7
330
A4
100
AcDbEntity
  8
_U+30EC_U+30A4_U+30E4_U+30FC 1
 62
   179
420
  2234388
370
     9
  0
POLYLINE
  5
A8
330
1F
100
AcDbEntity
  8
_U+30EC_U+30A4_U+30E4_U+30FC 1
 62
   179
420
  2234388
370
     9
100
AcDb2dPolyline
 66
     1
 10
0.0
 20
0.0
 30
0.0
  0
VERTEX
  5
A9
330
A8
100
AcDbEntity
  8
_U+30EC_U+30A4_U+30E4_U+30FC 1
 62
   179
420
  2234388
370
     9
100
AcDbVertex
100
AcDb2dVertex
 10
79.70159963330946
 20
-134.7490460774238
 30
0.0
  0
VERTEX
  5
AA
330
A8
100
AcDbEntity
  8
_U+30EC_U+30A4_U+30E4_U+30FC 1
 62
   179
420
  2234388
370
     9
100
AcDbVertex
100
AcDb2dVertex
 10
79.70159963330946
 20
-138.0091360766089
 30
0.0
  0
SEQEND
  5
AB
330
A8
100
AcDbEntity
  8
_U+30EC_U+30A4_U+30E4_U+30FC 1
 62
   179
420
  2234388
370
     9
  0
POLYLINE
  5
AC
330
1F
100
AcDbEntity
  8
_U+30EC_U+30A4_U+30E4_U+30FC 1
 62
   179
420
  2234388
370
     9
100
AcDb2dPolyline
 66
     1
 10
0.0
 20
0.0
 30
0.0
  0
VERTEX
  5
AD
330
AC
100
AcDbEntity
  8
_U+30EC_U+30A4_U+30E4_U+30FC 1
 62
   179
420
  2234388
370
     9
100
AcDbVertex
100
AcDb2dVertex
 10
97.70152084075988
 20
-135.5493577438902
 30
0.0
  0
VERTEX
  5
AE
330
AC
100
AcDbEntity
  8
_U+30EC_U+30A4_U+30E4_U+30FC 1
 62
   179
420
  2234388
370
     9
100
AcDbVertex
100
AcDb2dVertex
 10
97.70152084075988
 20
-138.0091360766089
 30
0.0
  0
SEQEND
  5
AF
330
AC
100
AcDbEntity
  8
_U+30EC_U+30A4_U+30E4_U+30FC 1
 62
   179
420
  2234388
370
     9
  0
INSERT
  5
B1
330
1F
100
AcDbEntity
  8
_U+30EC_U+30A4_U+30E4_U+30FC 1
100
AcDbBlockReference
  2
block 5
 10
0.0
 20
0.0
 30
0.0
  0
POLYLINE
  5
BA
330
1F
100
AcDbEntity
  8
_U+30EC_U+30A4_U+30E4_U+30FC 1
 62
   179
420
  2234388
370
     9
100
AcDb2dPolyline
 66
     1
 10
0.0
 20
0.0
 30
0.0
  0
VERTEX
  5
BB
330
BA
100
AcDbEntity
  8
_U+30EC_U+30A4_U+30E4_U+30FC 1
 62
   179
420
  2234388
370
     9
100
AcDbVertex
100
AcDb2dVertex
 10
79.70159963330946
 20
-121.3593302474379
 30
0.0
  0
VERTEX
  5
BC
330
BA
100
AcDbEntity
  8
_U+30EC_U+30A4_U+30E4_U+30FC 1
 62
   179
420
  2234388
370
     9
100
AcDbVertex
100
AcDb2dVertex
 10
87.70111776255808
 20
-121.3593302474379
 30
0.0
  0
SEQEND
  5
BD
330
BA
100
AcDbEntity
  8
_U+30EC_U+30A4_U+30E4_U+30FC 1
 62
   179
420
  2234388
370
     9
  0
POLYLINE
  5
BE
330
1F
100
AcDbEntity
  8
_U+30EC_U+30A4_U+30E4_U+30FC 1
 62
   179
420
  2234388
370
     9
100
AcDb2dPolyline
 66
     1
 10
0.0
 20
0.0
 30
0.0
  0
VERTEX
  5
BF
330
BE
100
AcDbEntity
  8
_U+30EC_U+30A4_U+30E4_U+30FC 1
 62
   179
420
  2234388
370
     9
100
AcDbVertex
100
AcDb2dVertex
 10
79.70159963330946
 20
-123.5194238580089
 30
0.0
  0
VERTEX
  5
C0
330
BE
100
AcDbEntity
  8
_U+30EC_U+30A4_U+30E4_U+30FC 1
 62
   179
420
  2234388
370
     9
100
AcDbVertex
100
AcDb2dVertex
 10
79.70159963330946
 20
-120.3592405254658
 30
0.0
  0
SEQEND
  5
C1
330
BE
100
AcDbEntity
  8
_U+30EC_U+30A4_U+30E4_U+30FC 1
 62
   179
420
  2234388
370
     9
  0
POLYLINE
  5
C2
330
1F
100
AcDbEntity
  8
_U+30EC_U+30A4_U+30E4_U+30FC 1
 62
   179
420
  2234388
370
     9
100
AcDb2dPolyline
 66
     1
 10
0.0
 20
0.0
 30
0.0
  0
VERTEX
  5
C3
330
C2
100
AcDbEntity
  8
_U+30EC_U+30A4_U+30E4_U+30FC 1
 62
   179
420
  2234388
370
     9
100
AcDbVertex
100
AcDb2dVertex
 10
87.70111776255808
 20
-123.5194238580089
 30
0.0
  0
VERTEX
  5
C4
330
C2
100
AcDbEntity
  8
_U+30EC_U+30A4_U+30E4_U+30FC 1
 62
   179
420
  2234388
370
     9
100
AcDbVertex
100
AcDb2dVertex
 10
87.70111776255808
 20
-120.3592405254658
 30
0.0
  0
SEQEND
  5
C5
330
C2
100
AcDbEntity
  8
_U+30EC_U+30A4_U+30E4_U+30FC 1
 62
   179
420
  2234388
370
     9
  0
INSERT
  5
C7
330
1F
100
AcDbEntity
  8
_U+30EC_U+30A4_U+30E4_U+30FC 1
100
AcDbBlockReference
  2
block 6
 10
0.0
 20
0.0
 30
0.0
  0
POLYLINE
  5
CE
330
1F
100
AcDbEntity
  8
_U+30EC_U+30A4_U+30E4_U+30FC 1
  6
AI-Linetype-1
 62
   251
420
  5855577
370
    25
100
AcDb2dPolyline
 66
     1
 10
0.0
 20
0.0
 30
0.0
  0
VERTEX
  5
CF
330
CE
100
AcDbEntity
  8
_U+30EC_U+30A4_U+30E4_U+30FC 1
  6
AI-Linetype-1
 62
   251
420
  5855577
370
    25
100
AcDbVertex
100
AcDb2dVertex
 10
88.30193358056333
 20
-126.5907071905745
 30
0.0
  0
VERTEX
  5
D0
330
CE
100
AcDbEntity
  8
_U+30EC_U+30A4_U+30E4_U+30FC 1
  6
AI-Linetype-1
 62
   251
420
  5855577
370
    25
100
AcDbVertex
100
AcDb2dVertex
 10
88.30193358056333
 20
-124.7589791354769
 30
0.0
  0
VERTEX
  5
D1
330
CE
100
AcDbEntity
  8
_U+30EC_U+30A4_U+30E4_U+30FC 1
  6
AI-Linetype-1
 62
   251
420
  5855577
370
    25
100
AcDbVertex
100
AcDb2dVertex
 10
79.10078381530421
 20
-124.7589791354769
 30
0.0
  0
VERTEX
  5
D2
330
CE
100
AcDbEntity
  8
_U+30EC_U+30A4_U+30E4_U+30FC 1
  6
AI-Linetype-1
 62
   251
420
  5855577
370
    25
100
AcDbVertex
100
AcDb2dVertex
 10
79.10078381530421
 20
-126.752314690534
 30
0.0
  0
SEQEND
  5
D4
330
CE
100
AcDbEntity
  8
_U+30EC_U+30A4_U+30E4_U+30FC 1
  6
AI-Linetype-1
 62
   251
420
  5855577
370
    25
  0
POLYLINE
  5
D5
330
1F
100
AcDbEntity
  8
_U+30EC_U+30A4_U+30E4_U+30FC 1
 62
   179
420
  2234388
370
     9
100
AcDb2dPolyline
 66
     1
 10
0.0
 20
0.0
 30
0.0
  0
VERTEX
  5
D6
330
D5
100
AcDbEntity
  8
_U+30EC_U+30A4_U+30E4_U+30FC 1
 62
   179
420
  2234388
370
     9
100
AcDbVertex
100
AcDb2dVertex
 10
85.15310977200762
 20
-129.7395310786765
 30
0.0
  0
VERTEX
  5
D7
330
D5
100
AcDbEntity
  8
_U+30EC_U+30A4_U+30E4_U+30FC 1
 62
   179
420
  2234388
370
     9
100
AcDbVertex
100
AcDb2dVertex
 10
81.31425264772281
 20
-129.7395310786765
 30
0.0
  0
SEQEND
  5
D8
330
D5
100
AcDbEntity
  8
_U+30EC_U+30A4_U+30E4_U+30FC 1
 62
   179
420
  2234388
370
     9
  0
ENDSEC
  0
SECTION
  2
OBJECTS
  0
DICTIONARY
  5
C
330
0
100
AcDbDictionary
281
     1
  3
ACAD_GROUP
350
D
  3
ACAD_LAYOUT
350
1A
  3
ACAD_MATERIAL
350
3B
  3
ACAD_MLEADERSTYLE
350
DA
  3
ACAD_MLINESTYLE
350
17
  3
ACAD_PLOTSETTINGS
350
19
  3
ACAD_PLOTSTYLENAME
350
E
  3
ACAD_TABLESTYLE
350
D9
  3
ACAD_VISUALSTYLE
350
2A
  0
SUN
  5
3F
330
29
100
AcDbSun
 90
        1
290
     0
 63
     7
421
 16777215
 40
1.0
291
     1
 91
  2455826
 92
 54000000
292
     0
 70
     2
 71
   256
280
     1
  0
DICTIONARY
  5
D
102
{ACAD_REACTORS
330
C
102
}
330
C
100
AcDbDictionary
281
     1
  0
DICTIONARY
  5
1A
102
{ACAD_REACTORS
330
C
102
}
330
C
100
AcDbDictionary
281
     1
  3
Layout1
350
1E
  3
Layout2
350
26
  3
Model
350
22
  0
DICTIONARY
  5
3B
102
{ACAD_REACTORS
330
C
102
}
330
C
100
AcDbDictionary
281
     1
  3
ByBlock
350
3D
  3
ByLayer
350
3C
  3
Global
350
3E
  0
DICTIONARY
  5
DA
102
{ACAD_REACTORS
330
C
102
}
330
C
100
AcDbDictionary
281
     1
  0
DICTIONARY
  5
17
102
{ACAD_REACTORS
330
C
102
}
330
C
100
AcDbDictionary
281
     1
  3
Standard
350
18
  0
DICTIONARY
  5
19
102
{ACAD_REACTORS
330
C
102
}
330
C
100
AcDbDictionary
281
     1
  0
ACDBDICTIONARYWDFLT
  5
E
102
{ACAD_REACTORS
330
C
102
}
330
C
100
AcDbDictionary
281
     1
  3
Normal
350
F
100
AcDbDictionaryWithDefault
340
F
  0
DICTIONARY
  5
D9
102
{ACAD_REACTORS
330
C
102
}
330
C
100
AcDbDictionary
281
     1
  0
DICTIONARY
  5
2A
102
{ACAD_REACTORS
330
C
102
}
330
C
100
AcDbDictionary
281
     1
  3
2dWireframe
350
2F
  3
3D Hidden
350
31
  3
3dWireframe
350
30
  3
Basic
350
32
  3
Brighten
350
36
  3
ColorChange
350
3A
  3
Conceptual
350
34
  3
Dim
350
35
  3
Facepattern
350
39
  3
Flat
350
2B
  3
FlatWithEdges
350
2C
  3
Gouraud
350
2D
  3
GouraudWithEdges
350
2E
  3
Linepattern
350
38
  3
Realistic
350
33
  3
Thicken
350
37
  0
LAYOUT
  5
1E
102
{ACAD_REACTORS
330
1A
102
}
330
1A
100
AcDbPlotSettings
  1

  2
none_device
  4

  6

 40
0.0
 41
0.0
 42
0.0
 43
0.0
 44
0.0
 45
0.0
 46
0.0
 47
0.0
 48
0.0
 49
0.0
140
0.0
141
0.0
142
1.0
143
1.0
 70
   688
 72
     0
 73
     0
 74
     5
  7

 75
    16
 76
     0
 77
     2
 78
   300
147
1.0
148
0.0
149
0.0
100
AcDbLayout
  1
Layout1
 70
     1
 71
     1
 10
0.0
 20
0.0
 11
12.0
 21
9.0
 12
0.0
 22
0.0
 32
0.0
 14
1.000000000000000E+20
 24
1.000000000000000E+20
 34
1.000000000000000E+20
 15
-1.000000000000000E+20
 25
-1.000000000000000E+20
 35
-1.000000000000000E+20
146
0.0
 13
0.0
 23
0.0
 33
0.0
 16
1.0
 26
0.0
 36
0.0
 17
0.0
 27
1.0
 37
0.0
 76
     0
330
1B
  0
LAYOUT
  5
26
102
{ACAD_REACTORS
330
1A
102
}
330
1A
100
AcDbPlotSettings
  1

  2
none_device
  4

  6

 40
0.0
 41
0.0
 42
0.0
 43
0.0
 44
0.0
 45
0.0
 46
0.0
 47
0.0
 48
0.0
 49
0.0
140
0.0
141
0.0
142
1.0
143
1.0
 70
   688
 72
     0
 73
     0
 74
     5
  7

 75
    16
 76
     0
 77
     2
 78
   300
147
1.0
148
0.0
149
0.0
100
AcDbLayout
  1
Layout2
 70
     1
 71
     2
 10
0.0
 20
0.0
 11
0.0
 21
0.0
 12
0.0
 22
0.0
 32
0.0
 14
0.0
 24
0.0
 34
0.0
 15
0.0
 25
0.0
 35
0.0
146
0.0
 13
0.0
 23
0.0
 33
0.0
 16
1.0
 26
0.0
 36
0.0
 17
0.0
 27
1.0
 37
0.0
 76
     0
330
23
  0
LAYOUT
  5
22
102
{ACAD_REACTORS
330
1A
102
}
330
1A
100
AcDbPlotSettings
  1

  2
none_device
  4

  6

 40
0.0
 41
0.0
 42
0.0
 43
0.0
 44
0.0
 45
0.0
 46
0.0
 47
0.0
 48
0.0
 49
0.0
140
0.0
141
0.0
142
1.0
143
1.0
 70
  1712
 72
     0
 73
     0
 74
     0
  7

 75
     0
 76
     0
 77
     2
 78
   300
147
1.0
148
0.0
149
0.0
100
AcDbLayout
  1
Model
 70
     1
 71
     0
 10
0.0
 20
0.0
 11
12.0
 21
9.0
 12
0.0
 22
0.0
 32
0.0
 14
1.000000000000000E+20
 24
1.000000000000000E+20
 34
1.000000000000000E+20
 15
-1.000000000000000E+20
 25
-1.000000000000000E+20
 35
-1.000000000000000E+20
146
0.0
 13
0.0
 23
0.0
 33
0.0
 16
1.0
 26
0.0
 36
0.0
 17
0.0
 27
1.0
 37
0.0
 76
     0
330
1F
331
29
  0
MATERIAL
  5
3D
102
{ACAD_REACTORS
330
3B
102
}
330
3B
100
AcDbMaterial
  1
ByBlock
 72
     1
 94
      127
  0
MATERIAL
  5
3C
102
{ACAD_REACTORS
330
3B
102
}
330
3B
100
AcDbMaterial
  1
ByLayer
 72
     1
 94
      127
  0
MATERIAL
  5
3E
102
{ACAD_REACTORS
330
3B
102
}
330
3B
100
AcDbMaterial
  1
Global
 72
     1
 94
      127
  0
MLINESTYLE
  5
18
102
{ACAD_REACTORS
330
17
102
}
330
17
100
AcDbMlineStyle
  2
Standard
 70
     0
  3

 62
   256
 51
90.0
 52
90.0
 71
     2
 49
0.5
 62
   256
  6
BYLAYER
 49
-0.5
 62
   256
  6
BYLAYER
  0
ACDBPLACEHOLDER
  5
F
102
{ACAD_REACTORS
330
E
102
}
330
E
  0
VISUALSTYLE
  5
2F
102
{ACAD_REACTORS
330
2A
102
}
330
2A
100
AcDbVisualStyle
  2
2dWireframe
 70
     4
177
     2
291
     0
 71
     0
176
     1
 72
     2
176
     1
 73
     0
176
     1
 90
        0
176
     1
 40
-0.6
176
     1
 41
-30.0
176
     1
 62
     5
 63
     7
421
 16777215
176
     1
 74
     1
176
     1
 91
        4
176
     1
 64
     7
176
     1
 65
   257
176
     1
 75
     1
176
     1
175
     1
176
     1
 42
1.0
176
     1
 92
        0
176
     1
 66
   257
176
     1
 43
1.0
176
     1
 76
     1
176
     1
 77
     6
176
     1
 78
     2
176
     1
 67
     7
176
     1
 79
     5
176
     1
170
     0
176
     1
171
     0
176
     1
290
     0
176
     1
 93
        1
176
     1
 44
0.0
176
     1
173
     0
176
     1
  0
VISUALSTYLE
  5
31
102
{ACAD_REACTORS
330
2A
102
}
330
2A
100
AcDbVisualStyle
  2
3D Hidden
 70
     6
177
     2
291
     0
 71
     1
176
     1
 72
     2
176
     1
 73
     2
176
     1
 90
        0
176
     1
 40
-0.6
176
     1
 41
-30.0
176
     1
 62
     5
 63
     7
421
 16777215
176
     1
 74
     2
176
     1
 91
        2
176
     1
 64
     7
176
     1
 65
   257
176
     1
 75
     2
176
     1
175
     1
176
     1
 42
40.0
176
     1
 92
        0
176
     1
 66
   257
176
     1
 43
1.0
176
     1
 76
     1
176
     1
 77
     6
176
     1
 78
     2
176
     1
 67
     7
176
     1
 79
     3
176
     1
170
     0
176
     1
171
     0
176
     1
290
     0
176
     1
 93
        1
176
     1
 44
0.0
176
     1
173
     0
176
     1
  0
VISUALSTYLE
  5
30
102
{ACAD_REACTORS
330
2A
102
}
330
2A
100
AcDbVisualStyle
  2
3dWireframe
 70
     5
177
     2
291
     0
 71
     0
176
     1
 72
     2
176
     1
 73
     0
176
     1
 90
        0
176
     1
 40
-0.6
176
     1
 41
-30.0
176
     1
 62
     5
 63
     7
421
 16777215
176
     1
 74
     1
176
     1
 91
        4
176
     1
 64
     7
176
     1
 65
   257
176
     1
 75
     1
176
     1
175
     1
176
     1
 42
1.0
176
     1
 92
        0
176
     1
 66
   257
176
     1
 43
1.0
176
     1
 76
     1
176
     1
 77
     6
176
     1
 78
     2
176
     1
 67
     7
176
     1
 79
     5
176
     1
170
     0
176
     1
171
     0
176
     1
290
     0
176
     1
 93
        1
176
     1
 44
0.0
176
     1
173
     0
176
     1
  0
VISUALSTYLE
  5
32
102
{ACAD_REACTORS
330
2A
102
}
330
2A
100
AcDbVisualStyle
  2
Basic
 70
     7
177
     2
291
     1
 71
     1
176
     1
 72
     0
176
     1
 73
     1
176
     1
 90
        0
176
     1
 40
-0.6
176
     1
 41
-30.0
176
     1
 62
     5
 63
     7
421
 16777215
176
     1
 74
     0
176
     1
 91
        4
176
     1
 64
     7
176
     1
 65
   257
176
     1
 75
     1
176
     1
175
     1
176
     1
 42
1.0
176
     1
 92
        8
176
     1
 66
     7
176
     1
 43
1.0
176
     1
 76
     1
176
     1
 77
     6
176
     1
 78
     2
176
     1
 67
     7
176
     1
 79
     5
176
     1
170
     0
176
     1
171
     0
176
     1
290
     0
176
     1
 93
        1
176
     1
 44
0.0
176
     1
173
     0
176
     1
  0
VISUALSTYLE
  5
36
102
{ACAD_REACTORS
330
2A
102
}
330
2A
100
AcDbVisualStyle
  2
Brighten
 70
    12
177
     2
291
     1
 71
     2
176
     1
 72
     2
176
     1
 73
     0
176
     1
 90
        0
176
     1
 40
-0.6
176
     1
 41
-30.0
176
     1
 62
     5
 63
     7
421
 16777215
176
     1
 74
     1
176
     1
 91
        4
176
     1
 64
     7
176
     1
 65
   257
176
     1
 75
     1
176
     1
175
     1
176
     1
 42
1.0
176
     1
 92
        8
176
     1
 66
     7
176
     1
 43
1.0
176
     1
 76
     1
176
     1
 77
     6
176
     1
 78
     2
176
     1
 67
     7
176
     1
 79
     5
176
     1
170
     0
176
     1
171
     0
176
     1
290
     0
176
     1
 93
        1
176
     1
 44
50.0
176
     1
173
     0
176
     1
  0
VISUALSTYLE
  5
3A
102
{ACAD_REACTORS
330
2A
102
}
330
2A
100
AcDbVisualStyle
  2
ColorChange
 70
    16
177
     2
291
     1
 71
     2
176
     1
 72
     2
176
     1
 73
     3
176
     1
 90
        0
176
     1
 40
-0.6
176
     1
 41
-30.0
176
     1
 62
     5
 63
     8
421
  8421504
176
     1
 74
     1
176
     1
 91
        4
176
     1
 64
     7
176
     1
 65
   257
176
     1
 75
     1
176
     1
175
     1
176
     1
 42
1.0
176
     1
 92
        8
176
     1
 66
     8
424
  8421504
176
     1
 43
1.0
176
     1
 76
     1
176
     1
 77
     6
176
     1
 78
     2
176
     1
 67
     7
176
     1
 79
     5
176
     1
170
     0
176
     1
171
     0
176
     1
290
     0
176
     1
 93
        1
176
     1
 44
0.0
176
     1
173
     0
176
     1
  0
VISUALSTYLE
  5
34
102
{ACAD_REACTORS
330
2A
102
}
330
2A
100
AcDbVisualStyle
  2
Conceptual
 70
     9
177
     2
291
     0
 71
     3
176
     1
 72
     2
176
     1
 73
     0
176
     1
 90
        0
176
     1
 40
-0.6
176
     1
 41
-30.0
176
     1
 62
     5
 63
     7
421
 16777215
176
     1
 74
     2
176
     1
 91
        2
176
     1
 64
     7
176
     1
 65
   257
176
     1
 75
     1
176
     1
175
     1
176
     1
 42
40.0
176
     1
 92
        8
176
     1
 66
     7
176
     1
 43
1.0
176
     1
 76
     1
176
     1
 77
     6
176
     1
 78
     2
176
     1
 67
     7
176
     1
 79
     3
176
     1
170
     0
176
     1
171
     0
176
     1
290
     0
176
     1
 93
        1
176
     1
 44
0.0
176
     1
173
     0
176
     1
  0
VISUALSTYLE
  5
35
102
{ACAD_REACTORS
330
2A
102
}
330
2A
100
AcDbVisualStyle
  2
Dim
 70
    11
177
     2
291
     1
 71
     2
176
     1
 72
     2
176
     1
 73
     0
176
     1
 90
        0
176
     1
 40
-0.6
176
     1
 41
-30.0
176
     1
 62
     5
 63
     7
421
 16777215
176
     1
 74
     1
176
     1
 91
        4
176
     1
 64
     7
176
     1
 65
   257
176
     1
 75
     1
176
     1
175
     1
176
     1
 42
1.0
176
     1
 92
        8
176
     1
 66
     7
176
     1
 43
1.0
176
     1
 76
     1
176
     1
 77
     6
176
     1
 78
     2
176
     1
 67
     7
176
     1
 79
     5
176
     1
170
     0
176
     1
171
     0
176
     1
290
     0
176
     1
 93
        1
176
     1
 44
-50.0
176
     1
173
     0
176
     1
  0
VISUALSTYLE
  5
39
102
{ACAD_REACTORS
330
2A
102
}
330
2A
100
AcDbVisualStyle
  2
Facepattern
 70
    15
177
     2
291
     1
 71
     2
176
     1
 72
     2
176
     1
 73
     0
176
     1
 90
        0
176
     1
 40
-0.6
176
     1
 41
-30.0
176
     1
 62
     5
 63
     7
421
 16777215
176
     1
 74
     1
176
     1
 91
        4
176
     1
 64
     7
176
     1
 65
   257
176
     1
 75
     1
176
     1
175
     1
176
     1
 42
1.0
176
     1
 92
        8
176
     1
 66
     7
176
     1
 43
1.0
176
     1
 76
     1
176
     1
 77
     6
176
     1
 78
     2
176
     1
 67
     7
176
     1
 79
     5
176
     1
170
     0
176
     1
171
     0
176
     1
290
     0
176
     1
 93
        1
176
     1
 44
0.0
176
     1
173
     0
176
     1
  0
VISUALSTYLE
  5
2B
102
{ACAD_REACTORS
330
2A
102
}
330
2A
100
AcDbVisualStyle
  2
Flat
 70
     0
177
     2
291
     1
 71
     2
176
     1
 72
     1
176
     1
 73
     1
176
     1
 90
        2
176
     1
 40
-0.6
176
     1
 41
30.0
176
     1
 62
     5
 63
     7
421
 16777215
176
     1
 74
     0
176
     1
 91
        4
176
     1
 64
     7
176
     1
 65
   257
176
     1
 75
     1
176
     1
175
     1
176
     1
 42
1.0
176
     1
 92
        8
176
     1
 66
     7
176
     1
 43
1.0
176
     1
 76
     1
176
     1
 77
     6
176
     1
 78
     2
176
     1
 67
     7
176
     1
 79
     5
176
     1
170
     0
176
     1
171
     0
176
     1
290
     0
176
     1
 93
       13
176
     1
 44
0.0
176
     1
173
     0
176
     1
  0
VISUALSTYLE
  5
2C
102
{ACAD_REACTORS
330
2A
102
}
330
2A
100
AcDbVisualStyle
  2
FlatWithEdges
 70
     1
177
     2
291
     1
 71
     2
176
     1
 72
     1
176
     1
 73
     1
176
     1
 90
        2
176
     1
 40
-0.6
176
     1
 41
30.0
176
     1
 62
     5
 63
     7
421
 16777215
176
     1
 74
     1
176
     1
 91
        4
176
     1
 64
     7
176
     1
 65
   257
176
     1
 75
     1
176
     1
175
     1
176
     1
 42
1.0
176
     1
 92
        0
176
     1
 66
   257
176
     1
 43
1.0
176
     1
 76
     1
176
     1
 77
     6
176
     1
 78
     2
176
     1
 67
     7
176
     1
 79
     5
176
     1
170
     0
176
     1
171
     0
176
     1
290
     0
176
     1
 93
       13
176
     1
 44
0.0
176
     1
173
     0
176
     1
  0
VISUALSTYLE
  5
2D
102
{ACAD_REACTORS
330
2A
102
}
330
2A
100
AcDbVisualStyle
  2
Gouraud
 70
     2
177
     2
291
     1
 71
     2
176
     1
 72
     2
176
     1
 73
     1
176
     1
 90
        2
176
     1
 40
-0.6
176
     1
 41
30.0
176
     1
 62
     5
 63
     7
421
 16777215
176
     1
 74
     0
176
     1
 91
        4
176
     1
 64
     7
176
     1
 65
   257
176
     1
 75
     1
176
     1
175
     1
176
     1
 42
1.0
176
     1
 92
        0
176
     1
 66
     7
176
     1
 43
1.0
176
     1
 76
     1
176
     1
 77
     6
176
     1
 78
     2
176
     1
 67
     7
176
     1
 79
     5
176
     1
170
     0
176
     1
171
     0
176
     1
290
     0
176
     1
 93
       13
176
     1
 44
0.0
176
     1
173
     0
176
     1
  0
VISUALSTYLE
  5
2E
102
{ACAD_REACTORS
330
2A
102
}
330
2A
100
AcDbVisualStyle
  2
GouraudWithEdges
 70
     3
177
     2
291
     1
 71
     2
176
     1
 72
     2
176
     1
 73
     1
176
     1
 90
        2
176
     1
 40
-0.6
176
     1
 41
30.0
176
     1
 62
     5
 63
     7
421
 16777215
176
     1
 74
     1
176
     1
 91
        4
176
     1
 64
     7
176
     1
 65
   257
176
     1
 75
     1
176
     1
175
     1
176
     1
 42
1.0
176
     1
 92
        0
176
     1
 66
   257
176
     1
 43
1.0
176
     1
 76
     1
176
     1
 77
     6
176
     1
 78
     2
176
     1
 67
     7
176
     1
 79
     5
176
     1
170
     0
176
     1
171
     0
176
     1
290
     0
176
     1
 93
       13
176
     1
 44
0.0
176
     1
173
     0
176
     1
  0
VISUALSTYLE
  5
38
102
{ACAD_REACTORS
330
2A
102
}
330
2A
100
AcDbVisualStyle
  2
Linepattern
 70
    14
177
     2
291
     1
 71
     2
176
     1
 72
     2
176
     1
 73
     0
176
     1
 90
        0
176
     1
 40
-0.6
176
     1
 41
-30.0
176
     1
 62
     5
 63
     7
421
 16777215
176
     1
 74
     1
176
     1
 91
        4
176
     1
 64
     7
176
     1
 65
   257
176
     1
 75
     7
176
     1
175
     7
176
     1
 42
1.0
176
     1
 92
        8
176
     1
 66
     7
176
     1
 43
1.0
176
     1
 76
     1
176
     1
 77
     6
176
     1
 78
     2
176
     1
 67
     7
176
     1
 79
     5
176
     1
170
     0
176
     1
171
     0
176
     1
290
     0
176
     1
 93
        1
176
     1
 44
0.0
176
     1
173
     0
176
     1
  0
VISUALSTYLE
  5
33
102
{ACAD_REACTORS
330
2A
102
}
330
2A
100
AcDbVisualStyle
  2
Realistic
 70
     8
177
     2
291
     0
 71
     2
176
     1
 72
     2
176
     1
 73
     0
176
     1
 90
        0
176
     1
 40
-0.6
176
     1
 41
-30.0
176
     1
 62
     5
 63
     7
421
 16777215
176
     1
 74
     1
176
     1
 91
        0
176
     1
 64
     7
176
     1
 65
   257
176
     1
 75
     1
176
     1
175
     1
176
     1
 42
1.0
176
     1
 92
        8
176
     1
 66
     8
424
  7895160
176
     1
 43
1.0
176
     1
 76
     1
176
     1
 77
     6
176
     1
 78
     2
176
     1
 67
     7
176
     1
 79
     5
176
     1
170
     0
176
     1
171
     0
176
     1
290
     0
176
     1
 93
       13
176
     1
 44
0.0
176
     1
173
     0
176
     1
  0
VISUALSTYLE
  5
37
102
{ACAD_REACTORS
330
2A
102
}
330
2A
100
AcDbVisualStyle
  2
Thicken
 70
    13
177
     2
291
     1
 71
     2
176
     1
 72
     2
176
     1
 73
     0
176
     1
 90
        0
176
     1
 40
-0.6
176
     1
 41
-30.0
176
     1
 62
     5
 63
     7
421
 16777215
176
     1
 74
     1
176
     1
 91
        4
176
     1
 64
     7
176
     1
 65
   257
176
     1
 75
     1
176
     1
175
     1
176
     1
 42
1.0
176
     1
 92
       12
176
     1
 66
     7
176
     1
 43
1.0
176
     1
 76
     1
176
     1
 77
     6
176
     1
 78
     2
176
     1
 67
     7
176
     1
 79
     5
176
     1
170
     0
176
     1
171
     0
176
     1
290
     0
176
     1
 93
        1
176
     1
 44
0.0
176
     1
173
     0
176
     1
  0
ENDSEC
  0
EOF
