  0
SECTION
  2
HEADER
  9
$ACADVER
  1
AC1024
  9
$ACADMAINTVER
 70
     6
  9
$DWGCODEPAGE
  3
UNDEFINED
  9
$INSBASE
 10
0.0
 20
0.0
 30
0.0
  9
$EXTMIN
 10
1.000000000000000E+20
 20
1.000000000000000E+20
 30
1.000000000000000E+20
  9
$EXTMAX
 10
-1.000000000000000E+20
 20
-1.000000000000000E+20
 30
-1.000000000000000E+20
  9
$LIMMIN
 10
0.0
 20
0.0
  9
$LIMMAX
 10
12.0
 20
9.0
  9
$ORTHOMODE
 70
     0
  9
$REGENMODE
 70
     1
  9
$FILLMODE
 70
     1
  9
$QTEXTMODE
 70
     0
  9
$MIRRTEXT
 70
     1
  9
$LTSCALE
 40
1.0
  9
$ATTMODE
 70
     1
  9
$TEXTSIZE
 40
0.2
  9
$TRACEWID
 40
0.05
  9
$TEXTSTYLE
  7
Standard
  9
$CLAYER
  8
0
  9
$CELTYPE
  6
ByLayer
  9
$CECOLOR
 62
   256
  9
$CELTSCALE
 40
1.0
  9
$DISPSILH
 70
     0
  9
$DIMSCALE
 40
1.0
  9
$DIMASZ
 40
0.18
  9
$DIMEXO
 40
0.0625
  9
$DIMDLI
 40
0.38
  9
$DIMRND
 40
0.0
  9
$DIMDLE
 40
0.0
  9
$DIMEXE
 40
0.18
  9
$DIMTP
 40
0.0
  9
$DIMTM
 40
0.0
  9
$DIMTXT
 40
0.18
  9
$DIMCEN
 40
0.09
  9
$DIMTSZ
 40
0.0
  9
$DIMTOL
 70
     0
  9
$DIMLIM
 70
     0
  9
$DIMTIH
 70
     1
  9
$DIMTOH
 70
     1
  9
$DIMSE1
 70
     0
  9
$DIMSE2
 70
     0
  9
$DIMTAD
 70
     0
  9
$DIMZIN
 70
     0
  9
$DIMBLK
  1

  9
$DIMASO
 70
     1
  9
$DIMSHO
 70
     1
  9
$DIMPOST
  1

  9
$DIMAPOST
  1

  9
$DIMALT
 70
     0
  9
$DIMALTD
 70
     2
  9
$DIMALTF
 40
25.4
  9
$DIMLFAC
 40
1.0
  9
$DIMTOFL
 70
     0
  9
$DIMTVP
 40
0.0
  9
$DIMTIX
 70
     0
  9
$DIMSOXD
 70
     0
  9
$DIMSAH
 70
     0
  9
$DIMBLK1
  1

  9
$DIMBLK2
  1

  9
$DIMSTYLE
  2
Standard
  9
$DIMCLRD
 70
     0
  9
$DIMCLRE
 70
     0
  9
$DIMCLRT
 70
     0
  9
$DIMTFAC
 40
1.0
  9
$DIMGAP
 40
0.09
  9
$DIMJUST
 70
     0
  9
$DIMSD1
 70
     0
  9
$DIMSD2
 70
     0
  9
$DIMTOLJ
 70
     1
  9
$DIMTZIN
 70
     0
  9
$DIMALTZ
 70
     0
  9
$DIMALTTZ
 70
     0
  9
$DIMUPT
 70
     0
  9
$DIMDEC
 70
     4
  9
$DIMTDEC
 70
     4
  9
$DIMALTU
 70
     2
  9
$DIMALTTD
 70
     2
  9
$DIMTXSTY
  7
Standard
  9
$DIMAUNIT
 70
     0
  9
$DIMADEC
 70
     0
  9
$DIMALTRND
 40
0.0
  9
$DIMAZIN
 70
     0
  9
$DIMDSEP
 70
    46
  9
$DIMATFIT
 70
     3
  9
$DIMFRAC
 70
     0
  9
$DIMLDRBLK
  1

  9
$DIMLUNIT
 70
     2
  9
$DIMLWD
 70
    -2
  9
$DIMLWE
 70
    -2
  9
$DIMTMOVE
 70
     0
  9
$DIMFXL
 40
1.0
  9
$DIMFXLON
 70
     0
  9
$DIMJOGANG
 40
0.7853981633974483
  9
$DIMTFILL
 70
     0
  9
$DIMTFILLCLR
 70
     0
  9
$DIMARCSYM
 70
     0
  9
$DIMLTYPE
  6

  9
$DIMLTEX1
  6

  9
$DIMLTEX2
  6

  9
$DIMTXTDIRECTION
 70
     0
  9
$LUNITS
 70
     2
  9
$LUPREC
 70
     4
  9
$SKETCHINC
 40
0.1
  9
$FILLETRAD
 40
0.5
  9
$AUNITS
 70
     0
  9
$AUPREC
 70
     0
  9
$MENU
  1
.
  9
$ELEVATION
 40
0.0
  9
$PELEVATION
 40
0.0
  9
$THICKNESS
 40
0.0
  9
$LIMCHECK
 70
     0
  9
$CHAMFERA
 40
0.5
  9
$CHAMFERB
 40
0.5
  9
$CHAMFERC
 40
1.0
  9
$CHAMFERD
 40
0.0
  9
$SKPOLY
 70
     0
  9
$TDCREATE
 40
2457917.618298611
  9
$TDUCREATE
 40
2457917.243298611
  9
$TDUPDATE
 40
2457917.618298611
  9
$TDUUPDATE
 40
2457917.243298611
  9
$TDINDWG
 40
0.0000000116
  9
$TDUSRTIMER
 40
0.0000000116
  9
$USRTIMER
 70
     1
  9
$ANGBASE
 50
0.0
  9
$ANGDIR
 70
     0
  9
$PDMODE
 70
     0
  9
$PDSIZE
 40
0.0
  9
$PLINEWID
 40
0.0
  9
$SPLFRAME
 70
     0
  9
$SPLINETYPE
 70
     6
  9
$SPLINESEGS
 70
     8
  9
$HANDSEED
  5
DD
  9
$SURFTAB1
 70
     6
  9
$SURFTAB2
 70
     6
  9
$SURFTYPE
 70
     6
  9
$SURFU
 70
     6
  9
$SURFV
 70
     6
  9
$UCSBASE
  2

  9
$UCSNAME
  2

  9
$UCSORG
 10
0.0
 20
0.0
 30
0.0
  9
$UCSXDIR
 10
1.0
 20
0.0
 30
0.0
  9
$UCSYDIR
 10
0.0
 20
1.0
 30
0.0
  9
$UCSORTHOREF
  2

  9
$UCSORTHOVIEW
 70
     0
  9
$UCSORGTOP
 10
0.0
 20
0.0
 30
0.0
  9
$UCSORGBOTTOM
 10
0.0
 20
0.0
 30
0.0
  9
$UCSORGLEFT
 10
0.0
 20
0.0
 30
0.0
  9
$UCSORGRIGHT
 10
0.0
 20
0.0
 30
0.0
  9
$UCSORGFRONT
 10
0.0
 20
0.0
 30
0.0
  9
$UCSORGBACK
 10
0.0
 20
0.0
 30
0.0
  9
$PUCSBASE
  2

  9
$PUCSNAME
  2

  9
$PUCSORG
 10
0.0
 20
0.0
 30
0.0
  9
$PUCSXDIR
 10
1.0
 20
0.0
 30
0.0
  9
$PUCSYDIR
 10
0.0
 20
1.0
 30
0.0
  9
$PUCSORTHOREF
  2

  9
$PUCSORTHOVIEW
 70
     0
  9
$PUCSORGTOP
 10
0.0
 20
0.0
 30
0.0
  9
$PUCSORGBOTTOM
 10
0.0
 20
0.0
 30
0.0
  9
$PUCSORGLEFT
 10
0.0
 20
0.0
 30
0.0
  9
$PUCSORGRIGHT
 10
0.0
 20
0.0
 30
0.0
  9
$PUCSORGFRONT
 10
0.0
 20
0.0
 30
0.0
  9
$PUCSORGBACK
 10
0.0
 20
0.0
 30
0.0
  9
$USERI1
 70
     0
  9
$USERI2
 70
     0
  9
$USERI3
 70
     0
  9
$USERI4
 70
     0
  9
$USERI5
 70
     0
  9
$USERR1
 40
0.0
  9
$USERR2
 40
0.0
  9
$USERR3
 40
0.0
  9
$USERR4
 40
0.0
  9
$USERR5
 40
0.0
  9
$WORLDVIEW
 70
     1
  9
$SHADEDGE
 70
     3
  9
$SHADEDIF
 70
    70
  9
$TILEMODE
 70
     1
  9
$MAXACTVP
 70
    64
  9
$PINSBASE
 10
0.0
 20
0.0
 30
0.0
  9
$PLIMCHECK
 70
     0
  9
$PEXTMIN
 10
1.000000000000000E+20
 20
1.000000000000000E+20
 30
1.000000000000000E+20
  9
$PEXTMAX
 10
-1.000000000000000E+20
 20
-1.000000000000000E+20
 30
-1.000000000000000E+20
  9
$PLIMMIN
 10
0.0
 20
0.0
  9
$PLIMMAX
 10
12.0
 20
9.0
  9
$UNITMODE
 70
     0
  9
$VISRETAIN
 70
     1
  9
$PLINEGEN
 70
     0
  9
$PSLTSCALE
 70
     1
  9
$TREEDEPTH
 70
  3020
  9
$CMLSTYLE
  2
Standard
  9
$CMLJUST
 70
     0
  9
$CMLSCALE
 40
1.0
  9
$PROXYGRAPHICS
 70
     1
  9
$MEASUREMENT
 70
     0
  9
$CELWEIGHT
370
    -1
  9
$ENDCAPS
280
     0
  9
$JOINSTYLE
280
     0
  9
$LWDISPLAY
290
     1
  9
$INSUNITS
 70
     1
  9
$HYPERLINKBASE
  1

  9
$STYLESHEET
  1

  9
$XEDIT
290
     1
  9
$CEPSNTYPE
380
     0
  9
$PSTYLEMODE
290
     1
  9
$FINGERPRINTGUID
  2
{9AA5A7A9-9E40-AD50-5A3A-3F754E3FDDF1}
  9
$VERSIONGUID
  2
{FAEB1C32-E019-11D5-929B-00C0DF256EC4}
  9
$EXTNAMES
290
     1
  9
$PSVPSCALE
 40
0.0
  9
$OLESTARTUP
290
     0
  9
$SORTENTS
280
   127
  9
$INDEXCTL
280
     0
  9
$HIDETEXT
280
     1
  9
$XCLIPFRAME
280
     2
  9
$HALOGAP
280
     0
  9
$OBSCOLOR
 70
   257
  9
$OBSLTYPE
280
     0
  9
$INTERSECTIONDISPLAY
280
     0
  9
$INTERSECTIONCOLOR
 70
   257
  9
$DIMASSOC
280
     2
  9
$PROJECTNAME
  1

  9
$CAMERADISPLAY
290
     0
  9
$LENSLENGTH
 40
50.0
  9
$CAMERAHEIGHT
 40
0.0
  9
$STEPSPERSEC
 40
2.0
  9
$STEPSIZE
 40
6.0
  9
$3DDWFPREC
 40
2.0
  9
$PSOLWIDTH
 40
0.25
  9
$PSOLHEIGHT
 40
4.0
  9
$LOFTANG1
 40
1.570796326794897
  9
$LOFTANG2
 40
1.570796326794897
  9
$LOFTMAG1
 40
0.0
  9
$LOFTMAG2
 40
0.0
  9
$LOFTPARAM
 70
     7
  9
$LOFTNORMALS
280
     1
  9
$LATITUDE
 40
37.795
  9
$LONGITUDE
 40
-122.394
  9
$NORTHDIRECTION
 40
0.0
  9
$TIMEZONE
 70
 -8000
  9
$LIGHTGLYPHDISPLAY
280
     1
  9
$TILEMODELIGHTSYNCH
280
     1
  9
$CMATERIAL
347
3C
  9
$SOLIDHIST
280
     1
  9
$SHOWHIST
280
     1
  9
$DWFFRAME
280
     2
  9
$DGNFRAME
280
     2
  9
$REALWORLDSCALE
290
     1
  9
$INTERFERECOLOR
 62
   256
  9
$CSHADOW
280
     0
  9
$SHADOWPLANELOCATION
 40
0.0
  0
ENDSEC
  0
SECTION
  2
CLASSES
  0
CLASS
  1
ACDBDICTIONARYWDFLT
  2
AcDbDictionaryWithDefault
  3
ObjectDBX Classes
 90
        0
 91
        4
280
     0
281
     0
  0
CLASS
  1
VISUALSTYLE
  2
AcDbVisualStyle
  3
ObjectDBX Classes
 90
     4095
 91
        4
280
     0
281
     0
  0
CLASS
  1
MATERIAL
  2
AcDbMaterial
  3
ObjectDBX Classes
 90
     1153
 91
        4
280
     0
281
     0
  0
CLASS
  1
SUN
  2
AcDbSun
  3
SCENEOE
 90
     1024
 91
        4
280
     0
281
     0
  0
ENDSEC
  0
SECTION
  2
TABLES
  0
TABLE
  2
VPORT
  5
8
330
0
100
AcDbSymbolTable
 70
     1
  0
VPORT
  5
29
330
8
100
AcDbSymbolTableRecord
100
AcDbViewportTableRecord
  2
*Active
 70
     0
 10
0.0
 20
0.0
 11
1.0
 21
1.0
 12
0.0
 22
0.0
 13
0.0
 23
0.0
 14
0.5
 24
0.5
 15
0.5
 25
0.5
 16
0.0
 26
0.0
 36
1.0
 17
91.00082462281999
 27
-128.4993055234307
 37
0.0
 40
256.9986110468615
 41
0.7081814508812795
 42
50.0
 43
0.0
 44
0.0
 50
0.0
 51
0.0
 71
     0
 72
   100
 73
     1
 74
     3
 75
     0
 76
     0
 77
     0
 78
     0
281
     0
 65
     1
110
0.0
120
0.0
130
0.0
111
1.0
121
0.0
131
0.0
112
0.0
122
1.0
132
0.0
 79
     0
146
0.0
 60
     3
 61
     5
292
     1
282
     1
141
0.0
142
0.0
 63
   250
361
3F
  0
ENDTAB
  0
TABLE
  2
LTYPE
  5
5
330
0
100
AcDbSymbolTable
 70
     2
  0
LTYPE
  5
14
330
5
100
AcDbSymbolTableRecord
100
AcDbLinetypeTableRecord
  2
ByBlock
 70
     0
  3

 72
    65
 73
     0
 40
0.0
  0
LTYPE
  5
15
330
5
100
AcDbSymbolTableRecord
100
AcDbLinetypeTableRecord
  2
ByLayer
 70
     0
  3

 72
    65
 73
     0
 40
0.0
  0
LTYPE
  5
16
330
5
100
AcDbSymbolTableRecord
100
AcDbLinetypeTableRecord
  2
Continuous
 70
     0
  3
Solid line
 72
    65
 73
     0
 40
0.0
  0
LTYPE
  5
BE
330
5
100
AcDbSymbolTableRecord
100
AcDbLinetypeTableRecord
  2
AI-Linetype-1
 70
     0
  3
Adobe Illustrator Linetype No. 1
 72
    65
 73
     2
 40
1.411111110758333
 49
0.7055555553791667
 74
     0
 49
-0.7055555553791667
 74
     0
  0
ENDTAB
  0
TABLE
  2
LAYER
  5
2
330
0
100
AcDbSymbolTable
 70
     2
  0
LAYER
  5
10
330
2
100
AcDbSymbolTableRecord
100
AcDbLayerTableRecord
  2
0
 70
     0
 62
     7
  6
Continuous
370
    -3
390
F
347
3E
  0
LAYER
  5
40
330
2
100
AcDbSymbolTableRecord
100
AcDbLayerTableRecord
  2
_U+30EC_U+30A4_U+30E4_U+30FC 1
 70
     0
 62
     7
  6
Continuous
370
    -3
390
F
347
3E
  0
ENDTAB
  0
TABLE
  2
STYLE
  5
3
330
0
100
AcDbSymbolTable
 70
     1
  0
STYLE
  5
11
330
3
100
AcDbSymbolTableRecord
100
AcDbTextStyleTableRecord
  2
Standard
 70
     0
 40
0.0
 41
1.0
 50
0.0
 71
     0
 42
0.2
  3
txt
  4

  0
ENDTAB
  0
TABLE
  2
VIEW
  5
6
330
0
100
AcDbSymbolTable
 70
     0
  0
ENDTAB
  0
TABLE
  2
UCS
  5
7
330
0
100
AcDbSymbolTable
 70
     0
  0
ENDTAB
  0
TABLE
  2
APPID
  5
9
330
0
100
AcDbSymbolTable
 70
     1
  0
APPID
  5
12
330
9
100
AcDbSymbolTableRecord
100
AcDbRegAppTableRecord
  2
ACAD
 70
     0
  0
ENDTAB
  0
TABLE
  2
DIMSTYLE
  5
A
330
0
100
AcDbSymbolTable
 70
     1
100
AcDbDimStyleTable
  0
DIMSTYLE
105
27
330
A
100
AcDbSymbolTableRecord
100
AcDbDimStyleTableRecord
  2
Standard
 70
     0
178
     0
340
11
  0
ENDTAB
  0
TABLE
  2
BLOCK_RECORD
  5
1
330
0
100
AcDbSymbolTable
 70
     6
  0
BLOCK_RECORD
  5
1F
330
1
100
AcDbSymbolTableRecord
100
AcDbBlockTableRecord
  2
*Model_Space
340
22
 70
     0
280
     1
281
     0
  0
BLOCK_RECORD
  5
1B
330
1
100
AcDbSymbolTableRecord
100
AcDbBlockTableRecord
  2
*Paper_Space
340
1E
 70
     0
280
     1
281
     0
  0
BLOCK_RECORD
  5
23
330
1
100
AcDbSymbolTableRecord
100
AcDbBlockTableRecord
  2
*Paper_Space0
340
26
 70
     0
280
     1
281
     0
  0
BLOCK_RECORD
  5
7B
330
1
100
AcDbSymbolTableRecord
100
AcDbBlockTableRecord
  2
block 2
340
0
102
{BLKREFS
331
7C
102
}
 70
     0
280
     1
281
     0
  0
BLOCK_RECORD
  5
95
330
1
100
AcDbSymbolTableRecord
100
AcDbBlockTableRecord
  2
block 3
340
0
102
{BLKREFS
331
96
102
}
 70
     0
280
     1
281
     0
  0
BLOCK_RECORD
  5
B1
330
1
100
AcDbSymbolTableRecord
100
AcDbBlockTableRecord
  2
block 4
340
0
102
{BLKREFS
331
B2
102
}
 70
     0
280
     1
281
     0
  0
BLOCK_RECORD
  5
C2
330
1
100
AcDbSymbolTableRecord
100
AcDbBlockTableRecord
  2
block 5
340
0
102
{BLKREFS
331
C3
102
}
 70
     0
280
     1
281
     0
  0
BLOCK_RECORD
  5
D5
330
1
100
AcDbSymbolTableRecord
100
AcDbBlockTableRecord
  2
block 6
340
0
102
{BLKREFS
331
D6
102
}
 70
     0
280
     1
281
     0
  0
ENDTAB
  0
ENDSEC
  0
SECTION
  2
BLOCKS
  0
BLOCK
  5
20
330
1F
100
AcDbEntity
  8
0
100
AcDbBlockBegin
  2
*Model_Space
 70
     0
 10
0.0
 20
0.0
 30
0.0
  3
*Model_Space
  1

  0
ENDBLK
  5
21
330
1F
100
AcDbEntity
  8
0
100
AcDbBlockEnd
  0
BLOCK
  5
1C
330
1B
100
AcDbEntity
 67
     1
  8
0
100
AcDbBlockBegin
  2
*Paper_Space
 70
     0
 10
0.0
 20
0.0
 30
0.0
  3
*Paper_Space
  1

  0
ENDBLK
  5
1D
330
1B
100
AcDbEntity
 67
     1
  8
0
100
AcDbBlockEnd
  0
BLOCK
  5
24
330
23
100
AcDbEntity
  8
0
100
AcDbBlockBegin
  2
*Paper_Space0
 70
     0
 10
0.0
 20
0.0
 30
0.0
  3
*Paper_Space0
  1

  0
ENDBLK
  5
25
330
23
100
AcDbEntity
  8
0
100
AcDbBlockEnd
  0
BLOCK
  5
7D
330
7B
100
AcDbEntity
  8
0
100
AcDbBlockBegin
  2
block 2
 70
     0
 10
0.0
 20
0.0
 30
0.0
  3
block 2
  1

  0
SPLINE
  5
7F
330
7B
100
AcDbEntity
  8
_U+30EC_U+30A4_U+30E4_U+30FC 1
370
     0
100
AcDbSpline
210
0.0
220
0.0
230
1.0
 70
    11
 71
     3
 72
    26
 73
    22
 74
     0
 42
0.0000000001
 43
0.0000000001
 12
1.0
 22
0.0
 32
0.0
 13
1.0
 23
0.0
 33
0.0
 40
0.0
 40
0.0
 40
0.0
 40
0.0
 40
1.0
 40
1.0
 40
1.0
 40
2.0
 40
2.0
 40
2.0
 40
3.0
 40
3.0
 40
3.0
 40
4.0
 40
4.0
 40
4.0
 40
5.0
 40
5.0
 40
5.0
 40
6.0
 40
6.0
 40
6.0
 40
7.0
 40
7.0
 40
7.0
 40
7.0
 10
87.92055933131847
 20
-135.6409884643537
 30
0.0
 10
87.92055933131847
 20
-135.6409884643537
 30
0.0
 10
87.92055933131847
 20
-134.5368353613311
 30
0.0
 10
87.92055933131847
 20
-134.5368353613311
 30
0.0
 10
87.92055933131847
 20
-134.5368353613311
 30
0.0
 10
87.56812606317742
 20
-134.5368353613311
 30
0.0
 10
87.56812606317742
 20
-134.5368353613311
 30
0.0
 10
87.56812606317742
 20
-134.5368353613311
 30
0.0
 10
87.56812606317742
 20
-134.3886962554653
 30
0.0
 10
87.56812606317742
 20
-134.3886962554653
 30
0.0
 10
87.92297089815816
 20
-134.3738823448788
 30
0.0
 10
87.97258027314575
 20
-134.2109293284264
 30
0.0
 10
88.00427515161005
 20
-134.0965521583161
 30
0.0
 10
88.00427515161005
 20
-134.0965521583161
 30
0.0
 10
88.16033797709187
 20
-134.0965521583161
 30
0.0
 10
88.16033797709187
 20
-134.0965521583161
 30
0.0
 10
88.16033797709187
 20
-134.0965521583161
 30
0.0
 10
88.16033797709187
 20
-135.6409884643537
 30
0.0
 10
88.16033797709187
 20
-135.6409884643537
 30
0.0
 10
88.16033797709187
 20
-135.6409884643537
 30
0.0
 10
87.92055933131847
 20
-135.6409884643537
 30
0.0
 10
87.92055933131847
 20
-135.6409884643537
 30
0.0
  0
HATCH
  5
80
330
7B
100
AcDbEntity
  8
_U+30EC_U+30A4_U+30E4_U+30FC 1
 62
     7
420
 16777215
100
AcDbHatch
 10
0.0
 20
0.0
 30
0.0
210
0.0
220
0.0
230
1.0
  2
SOLID
 70
     1
 71
     0
 91
        1
 92
        1
 93
        1
 72
     4
 94
        3
 73
     0
 74
     1
 95
       26
 96
       22
 40
0.0
 40
0.0
 40
0.0
 40
0.0
 40
1.0
 40
1.0
 40
1.0
 40
2.0
 40
2.0
 40
2.0
 40
3.0
 40
3.0
 40
3.0
 40
4.0
 40
4.0
 40
4.0
 40
5.0
 40
5.0
 40
5.0
 40
6.0
 40
6.0
 40
6.0
 40
7.0
 40
7.0
 40
7.0
 40
7.0
 10
87.92055933131847
 20
-135.6409884643537
 10
87.92055933131847
 20
-135.6409884643537
 10
87.92055933131847
 20
-134.5368353613311
 10
87.92055933131847
 20
-134.5368353613311
 10
87.92055933131847
 20
-134.5368353613311
 10
87.56812606317742
 20
-134.5368353613311
 10
87.56812606317742
 20
-134.5368353613311
 10
87.56812606317742
 20
-134.5368353613311
 10
87.56812606317742
 20
-134.3886962554653
 10
87.56812606317742
 20
-134.3886962554653
 10
87.92297089815816
 20
-134.3738823448788
 10
87.97258027314575
 20
-134.2109293284264
 10
88.00427515161005
 20
-134.0965521583161
 10
88.00427515161005
 20
-134.0965521583161
 10
88.16033797709187
 20
-134.0965521583161
 10
88.16033797709187
 20
-134.0965521583161
 10
88.16033797709187
 20
-134.0965521583161
 10
88.16033797709187
 20
-135.6409884643537
 10
88.16033797709187
 20
-135.6409884643537
 10
88.16033797709187
 20
-135.6409884643537
 10
87.92055933131847
 20
-135.6409884643537
 10
87.92055933131847
 20
-135.6409884643537
 97
        0
 97
        0
 75
     2
 76
     1
 98
        0
  0
SPLINE
  5
81
330
7B
100
AcDbEntity
  8
_U+30EC_U+30A4_U+30E4_U+30FC 1
370
     0
100
AcDbSpline
210
0.0
220
0.0
230
1.0
 70
    11
 71
     3
 72
    29
 73
    25
 74
     0
 42
0.0000000001
 43
0.0000000001
 12
1.0
 22
0.0
 32
0.0
 13
1.0
 23
0.0
 33
0.0
 40
0.0
 40
0.0
 40
0.0
 40
0.0
 40
1.0
 40
1.0
 40
1.0
 40
2.0
 40
2.0
 40
2.0
 40
3.0
 40
3.0
 40
3.0
 40
4.0
 40
4.0
 40
4.0
 40
5.0
 40
5.0
 40
5.0
 40
6.0
 40
6.0
 40
6.0
 40
7.0
 40
7.0
 40
7.0
 40
8.0
 40
8.0
 40
8.0
 40
8.0
 10
89.23038463481046
 20
-135.6916313679868
 30
0.0
 10
88.94547523818031
 20
-135.6916313679868
 30
0.0
 10
88.67434622349114
 20
-135.5541720581253
 30
0.0
 10
88.67434622349114
 20
-135.2051838854696
 30
0.0
 10
88.67434622349114
 20
-134.9492132909155
 30
0.0
 10
88.82593042484213
 20
-134.8541286555226
 30
0.0
 10
88.93892955675832
 20
-134.7928059558851
 30
0.0
 10
88.80560436147915
 20
-134.7335503135388
 30
0.0
 10
88.72395559847874
 20
-134.6191731434286
 30
0.0
 10
88.72395559847874
 20
-134.4582871842674
 30
0.0
 10
88.72395559847874
 20
-134.1833685645445
 30
0.0
 10
88.93651798991866
 20
-134.0479763119741
 30
0.0
 10
89.23038463481046
 20
-134.0479763119741
 30
0.0
 10
89.53355303751245
 20
-134.0479763119741
 30
0.0
 10
89.73681367114219
 20
-134.1919813032576
 30
0.0
 10
89.73681367114219
 20
-134.4582871842674
 30
0.0
 10
89.73681367114219
 20
-134.6191731434286
 30
0.0
 10
89.65344236039914
 20
-134.7335503135388
 30
0.0
 10
89.51977265557144
 20
-134.7928059558851
 30
0.0
 10
89.61485729096435
 20
-134.8434488595183
 30
0.0
 10
89.78435598883864
 20
-134.9385334949112
 30
0.0
 10
89.78435598883864
 20
-135.2010497708872
 30
0.0
 10
89.78435598883864
 20
-135.5755316501339
 30
0.0
 10
89.48601071981601
 20
-135.6916313679868
 30
0.0
 10
89.23038463481046
 20
-135.6916313679868
 30
0.0
  0
SPLINE
  5
82
330
7B
100
AcDbEntity
  8
_U+30EC_U+30A4_U+30E4_U+30FC 1
370
     0
100
AcDbSpline
210
0.0
220
0.0
230
1.0
 70
    11
 71
     3
 72
    17
 73
    13
 74
     0
 42
0.0000000001
 43
0.0000000001
 12
1.0
 22
0.0
 32
0.0
 13
1.0
 23
0.0
 33
0.0
 40
0.0
 40
0.0
 40
0.0
 40
0.0
 40
1.0
 40
1.0
 40
1.0
 40
2.0
 40
2.0
 40
2.0
 40
3.0
 40
3.0
 40
3.0
 40
4.0
 40
4.0
 40
4.0
 40
4.0
 10
89.23038463481046
 20
-134.9006374445734
 30
0.0
 10
89.07673337616832
 20
-134.9006374445734
 30
0.0
 10
88.91412486926453
 20
-134.9874538508018
 30
0.0
 10
88.91412486926453
 20
-135.190369974883
 30
0.0
 10
88.91412486926453
 20
-135.3956976658039
 30
0.0
 10
89.04951712183485
 20
-135.4969834730702
 30
0.0
 10
89.23038463481046
 20
-135.4969834730702
 30
0.0
 10
89.4295111538579
 20
-135.4969834730702
 30
0.0
 10
89.54698890990493
 20
-135.3743380737953
 30
0.0
 10
89.54698890990493
 20
-135.1965711467564
 30
0.0
 10
89.54698890990493
 20
-134.9747069975063
 30
0.0
 10
89.37301158789981
 20
-134.9006374445734
 30
0.0
 10
89.23038463481046
 20
-134.9006374445734
 30
0.0
  0
SPLINE
  5
83
330
7B
100
AcDbEntity
  8
_U+30EC_U+30A4_U+30E4_U+30FC 1
370
     0
100
AcDbSpline
210
0.0
220
0.0
230
1.0
 70
    11
 71
     3
 72
    17
 73
    13
 74
     0
 42
0.0000000001
 43
0.0000000001
 12
1.0
 22
0.0
 32
0.0
 13
1.0
 23
0.0
 33
0.0
 40
0.0
 40
0.0
 40
0.0
 40
0.0
 40
1.0
 40
1.0
 40
1.0
 40
2.0
 40
2.0
 40
2.0
 40
3.0
 40
3.0
 40
3.0
 40
4.0
 40
4.0
 40
4.0
 40
4.0
 10
89.23038463481046
 20
-134.2405571495996
 30
0.0
 10
89.05434025551419
 20
-134.2405571495996
 30
0.0
 10
88.96373424425212
 20
-134.3356417849925
 30
0.0
 10
88.96373424425212
 20
-134.4710340375628
 30
0.0
 10
88.96373424425212
 20
-134.5936794368377
 30
0.0
 10
89.0405598735732
 20
-134.7121907215303
 30
0.0
 10
89.23038463481046
 20
-134.7121907215303
 30
0.0
 10
89.42055390559625
 20
-134.7121907215303
 30
0.0
 10
89.49737953491733
 20
-134.5936794368377
 30
0.0
 10
89.49737953491733
 20
-134.4710340375628
 30
0.0
 10
89.49737953491733
 20
-134.3356417849925
 30
0.0
 10
89.4047064663641
 20
-134.2405571495996
 30
0.0
 10
89.23038463481046
 20
-134.2405571495996
 30
0.0
  0
HATCH
  5
84
330
7B
100
AcDbEntity
  8
_U+30EC_U+30A4_U+30E4_U+30FC 1
 62
     7
420
 16777215
100
AcDbHatch
 10
0.0
 20
0.0
 30
0.0
210
0.0
220
0.0
230
1.0
  2
SOLID
 70
     1
 71
     0
 91
        3
 92
        1
 93
        1
 72
     4
 94
        3
 73
     0
 74
     1
 95
       29
 96
       25
 40
0.0
 40
0.0
 40
0.0
 40
0.0
 40
1.0
 40
1.0
 40
1.0
 40
2.0
 40
2.0
 40
2.0
 40
3.0
 40
3.0
 40
3.0
 40
4.0
 40
4.0
 40
4.0
 40
5.0
 40
5.0
 40
5.0
 40
6.0
 40
6.0
 40
6.0
 40
7.0
 40
7.0
 40
7.0
 40
8.0
 40
8.0
 40
8.0
 40
8.0
 10
89.23038463481046
 20
-135.6916313679868
 10
88.94547523818031
 20
-135.6916313679868
 10
88.67434622349114
 20
-135.5541720581253
 10
88.67434622349114
 20
-135.2051838854696
 10
88.67434622349114
 20
-134.9492132909155
 10
88.82593042484213
 20
-134.8541286555226
 10
88.93892955675832
 20
-134.7928059558851
 10
88.80560436147915
 20
-134.7335503135388
 10
88.72395559847874
 20
-134.6191731434286
 10
88.72395559847874
 20
-134.4582871842674
 10
88.72395559847874
 20
-134.1833685645445
 10
88.93651798991866
 20
-134.0479763119741
 10
89.23038463481046
 20
-134.0479763119741
 10
89.53355303751245
 20
-134.0479763119741
 10
89.73681367114219
 20
-134.1919813032576
 10
89.73681367114219
 20
-134.4582871842674
 10
89.73681367114219
 20
-134.6191731434286
 10
89.65344236039914
 20
-134.7335503135388
 10
89.51977265557144
 20
-134.7928059558851
 10
89.61485729096435
 20
-134.8434488595183
 10
89.78435598883864
 20
-134.9385334949112
 10
89.78435598883864
 20
-135.2010497708872
 10
89.78435598883864
 20
-135.5755316501339
 10
89.48601071981601
 20
-135.6916313679868
 10
89.23038463481046
 20
-135.6916313679868
 97
        0
 97
        0
 92
        1
 93
        1
 72
     4
 94
        3
 73
     0
 74
     1
 95
       17
 96
       13
 40
0.0
 40
0.0
 40
0.0
 40
0.0
 40
1.0
 40
1.0
 40
1.0
 40
2.0
 40
2.0
 40
2.0
 40
3.0
 40
3.0
 40
3.0
 40
4.0
 40
4.0
 40
4.0
 40
4.0
 10
89.23038463481046
 20
-134.9006374445734
 10
89.07673337616832
 20
-134.9006374445734
 10
88.91412486926453
 20
-134.9874538508018
 10
88.91412486926453
 20
-135.190369974883
 10
88.91412486926453
 20
-135.3956976658039
 10
89.04951712183485
 20
-135.4969834730702
 10
89.23038463481046
 20
-135.4969834730702
 10
89.4295111538579
 20
-135.4969834730702
 10
89.54698890990493
 20
-135.3743380737953
 10
89.54698890990493
 20
-135.1965711467564
 10
89.54698890990493
 20
-134.9747069975063
 10
89.37301158789981
 20
-134.9006374445734
 10
89.23038463481046
 20
-134.9006374445734
 97
        0
 97
        0
 92
        1
 93
        1
 72
     4
 94
        3
 73
     0
 74
     1
 95
       17
 96
       13
 40
0.0
 40
0.0
 40
0.0
 40
0.0
 40
1.0
 40
1.0
 40
1.0
 40
2.0
 40
2.0
 40
2.0
 40
3.0
 40
3.0
 40
3.0
 40
4.0
 40
4.0
 40
4.0
 40
4.0
 10
89.23038463481046
 20
-134.2405571495996
 10
89.05434025551419
 20
-134.2405571495996
 10
88.96373424425212
 20
-134.3356417849925
 10
88.96373424425212
 20
-134.4710340375628
 10
88.96373424425212
 20
-134.5936794368377
 10
89.0405598735732
 20
-134.7121907215303
 10
89.23038463481046
 20
-134.7121907215303
 10
89.42055390559625
 20
-134.7121907215303
 10
89.49737953491733
 20
-134.5936794368377
 10
89.49737953491733
 20
-134.4710340375628
 10
89.49737953491733
 20
-134.3356417849925
 10
89.4047064663641
 20
-134.2405571495996
 10
89.23038463481046
 20
-134.2405571495996
 97
        0
 97
        0
 75
     2
 76
     1
 98
        0
  0
ENDBLK
  5
7E
330
7B
100
AcDbEntity
  8
0
100
AcDbBlockEnd
  0
BLOCK
  5
97
330
95
100
AcDbEntity
  8
0
100
AcDbBlockBegin
  2
block 3
 70
     0
 10
0.0
 20
0.0
 30
0.0
  3
block 3
  1

  0
SPLINE
  5
99
330
95
100
AcDbEntity
  8
_U+30EC_U+30A4_U+30E4_U+30FC 1
370
     0
100
AcDbSpline
210
0.0
220
0.0
230
1.0
 70
    11
 71
     3
 72
    62
 73
    58
 74
     0
 42
0.0000000001
 43
0.0000000001
 12
1.0
 22
0.0
 32
0.0
 13
1.0
 23
0.0
 33
0.0
 40
0.0
 40
0.0
 40
0.0
 40
0.0
 40
1.0
 40
1.0
 40
1.0
 40
2.0
 40
2.0
 40
2.0
 40
3.0
 40
3.0
 40
3.0
 40
4.0
 40
4.0
 40
4.0
 40
5.0
 40
5.0
 40
5.0
 40
6.0
 40
6.0
 40
6.0
 40
7.0
 40
7.0
 40
7.0
 40
8.0
 40
8.0
 40
8.0
 40
9.0
 40
9.0
 40
9.0
 40
10.0
 40
10.0
 40
10.0
 40
11.0
 40
11.0
 40
11.0
 40
12.0
 40
12.0
 40
12.0
 40
13.0
 40
13.0
 40
13.0
 40
14.0
 40
14.0
 40
14.0
 40
15.0
 40
15.0
 40
15.0
 40
16.0
 40
16.0
 40
16.0
 40
17.0
 40
17.0
 40
17.0
 40
18.0
 40
18.0
 40
18.0
 40
19.0
 40
19.0
 40
19.0
 40
19.0
 10
100.4772433559571
 20
-125.5206759668837
 30
0.0
 10
100.4772433559571
 20
-125.6223062836986
 30
0.0
 10
100.4562282734971
 20
-125.8551947385015
 30
0.0
 10
100.2701931172936
 20
-125.9885199337807
 30
0.0
 10
100.1578830044744
 20
-126.0677571299414
 30
0.0
 10
100.0586642544992
 20
-126.0722357540722
 30
0.0
 10
99.97391490556208
 20
-126.0767143782031
 30
0.0
 10
99.97391490556208
 20
-126.0767143782031
 30
0.0
 10
99.97391490556208
 20
-125.841758866109
 30
0.0
 10
99.97391490556208
 20
-125.841758866109
 30
0.0
 10
100.047984458495
 20
-125.8393472992693
 30
0.0
 10
100.2825954610405
 20
-125.827978484168
 30
0.0
 10
100.2825954610405
 20
-125.5251545910146
 30
0.0
 10
100.2825954610405
 20
-125.3780490137944
 30
0.0
 10
100.2130045322384
 20
-125.2154405068906
 30
0.0
 10
99.98459470156635
 20
-125.2154405068906
 30
0.0
 10
99.8681504741649
 20
-125.2154405068906
 30
0.0
 10
99.81957462782289
 20
-125.2560926336165
 30
0.0
 10
99.7878797493586
 20
-125.289854569372
 30
0.0
 10
99.71381019642571
 20
-125.3690917655327
 30
0.0
 10
99.7010633431303
 20
-125.4934597125502
 30
0.0
 10
99.7010633431303
 20
-125.552370845348
 30
0.0
 10
99.7010633431303
 20
-125.572696908711
 30
0.0
 10
99.70313040042144
 20
-125.6109374685973
 30
0.0
 10
99.70726451500374
 20
-125.6405652897704
 30
0.0
 10
99.70726451500374
 20
-125.6405652897704
 30
0.0
 10
99.51261662008713
 20
-125.6405652897704
 30
0.0
 10
99.51261662008713
 20
-125.6405652897704
 30
0.0
 10
99.5191623015091
 20
-125.5999131630445
 30
0.0
 10
99.52122935880026
 20
-125.5544379026392
 30
0.0
 10
99.52122935880026
 20
-125.5478922212172
 30
0.0
 10
99.52122935880026
 20
-125.4776122733181
 30
0.0
 10
99.4998697667917
 20
-125.2650498818782
 30
0.0
 10
99.26319170695504
 20
-125.2650498818782
 30
0.0
 10
99.08542477991615
 20
-125.2650498818782
 30
0.0
 10
99.03030325215215
 20
-125.4052652681279
 30
0.0
 10
99.03030325215215
 20
-125.5227430241749
 30
0.0
 10
99.03030325215215
 20
-125.8055853635139
 30
0.0
 10
99.26319170695504
 20
-125.8145426117755
 30
0.0
 10
99.33484969304824
 20
-125.8190212359064
 30
0.0
 10
99.33484969304824
 20
-125.8190212359064
 30
0.0
 10
99.33484969304824
 20
-126.0360622514771
 30
0.0
 10
99.33484969304824
 20
-126.0360622514771
 30
0.0
 10
99.2101372364822
 20
-126.0271050032155
 30
0.0
 10
98.83358829994438
 20
-125.9978216915908
 30
0.0
 10
98.83358829994438
 20
-125.5093071517824
 30
0.0
 10
98.83358829994438
 20
-125.269528506009
 30
0.0
 10
98.96071232335011
 20
-125.0118353637123
 30
0.0
 10
99.25664602553306
 20
-125.0118353637123
 30
0.0
 10
99.44302569128509
 20
-125.0118353637123
 30
0.0
 10
99.52536347338255
 20
-125.1138101900757
 30
0.0
 10
99.58668617302
 20
-125.2199191310214
 30
0.0
 10
99.61424693690199
 20
-125.1544623168017
 30
0.0
 10
99.69451766170832
 20
-124.9598144218851
 30
0.0
 10
99.97184784827093
 20
-124.9598144218851
 30
0.0
 10
100.3101562249225
 20
-124.9598144218851
 30
0.0
 10
100.4772433559571
 20
-125.2243977551522
 30
0.0
 10
100.4772433559571
 20
-125.5206759668837
 30
0.0
  0
HATCH
  5
9A
330
95
100
AcDbEntity
  8
_U+30EC_U+30A4_U+30E4_U+30FC 1
 62
     7
420
 16777215
100
AcDbHatch
 10
0.0
 20
0.0
 30
0.0
210
0.0
220
0.0
230
1.0
  2
SOLID
 70
     1
 71
     0
 91
        1
 92
        1
 93
        1
 72
     4
 94
        3
 73
     0
 74
     1
 95
       62
 96
       58
 40
0.0
 40
0.0
 40
0.0
 40
0.0
 40
1.0
 40
1.0
 40
1.0
 40
2.0
 40
2.0
 40
2.0
 40
3.0
 40
3.0
 40
3.0
 40
4.0
 40
4.0
 40
4.0
 40
5.0
 40
5.0
 40
5.0
 40
6.0
 40
6.0
 40
6.0
 40
7.0
 40
7.0
 40
7.0
 40
8.0
 40
8.0
 40
8.0
 40
9.0
 40
9.0
 40
9.0
 40
10.0
 40
10.0
 40
10.0
 40
11.0
 40
11.0
 40
11.0
 40
12.0
 40
12.0
 40
12.0
 40
13.0
 40
13.0
 40
13.0
 40
14.0
 40
14.0
 40
14.0
 40
15.0
 40
15.0
 40
15.0
 40
16.0
 40
16.0
 40
16.0
 40
17.0
 40
17.0
 40
17.0
 40
18.0
 40
18.0
 40
18.0
 40
19.0
 40
19.0
 40
19.0
 40
19.0
 10
100.4772433559571
 20
-125.5206759668837
 10
100.4772433559571
 20
-125.6223062836986
 10
100.4562282734971
 20
-125.8551947385015
 10
100.2701931172936
 20
-125.9885199337807
 10
100.1578830044744
 20
-126.0677571299414
 10
100.0586642544992
 20
-126.0722357540722
 10
99.97391490556208
 20
-126.0767143782031
 10
99.97391490556208
 20
-126.0767143782031
 10
99.97391490556208
 20
-125.841758866109
 10
99.97391490556208
 20
-125.841758866109
 10
100.047984458495
 20
-125.8393472992693
 10
100.2825954610405
 20
-125.827978484168
 10
100.2825954610405
 20
-125.5251545910146
 10
100.2825954610405
 20
-125.3780490137944
 10
100.2130045322384
 20
-125.2154405068906
 10
99.98459470156635
 20
-125.2154405068906
 10
99.8681504741649
 20
-125.2154405068906
 10
99.81957462782289
 20
-125.2560926336165
 10
99.7878797493586
 20
-125.289854569372
 10
99.71381019642571
 20
-125.3690917655327
 10
99.7010633431303
 20
-125.4934597125502
 10
99.7010633431303
 20
-125.552370845348
 10
99.7010633431303
 20
-125.572696908711
 10
99.70313040042144
 20
-125.6109374685973
 10
99.70726451500374
 20
-125.6405652897704
 10
99.70726451500374
 20
-125.6405652897704
 10
99.51261662008713
 20
-125.6405652897704
 10
99.51261662008713
 20
-125.6405652897704
 10
99.5191623015091
 20
-125.5999131630445
 10
99.52122935880026
 20
-125.5544379026392
 10
99.52122935880026
 20
-125.5478922212172
 10
99.52122935880026
 20
-125.4776122733181
 10
99.4998697667917
 20
-125.2650498818782
 10
99.26319170695504
 20
-125.2650498818782
 10
99.08542477991615
 20
-125.2650498818782
 10
99.03030325215215
 20
-125.4052652681279
 10
99.03030325215215
 20
-125.5227430241749
 10
99.03030325215215
 20
-125.8055853635139
 10
99.26319170695504
 20
-125.8145426117755
 10
99.33484969304824
 20
-125.8190212359064
 10
99.33484969304824
 20
-125.8190212359064
 10
99.33484969304824
 20
-126.0360622514771
 10
99.33484969304824
 20
-126.0360622514771
 10
99.2101372364822
 20
-126.0271050032155
 10
98.83358829994438
 20
-125.9978216915908
 10
98.83358829994438
 20
-125.5093071517824
 10
98.83358829994438
 20
-125.269528506009
 10
98.96071232335011
 20
-125.0118353637123
 10
99.25664602553306
 20
-125.0118353637123
 10
99.44302569128509
 20
-125.0118353637123
 10
99.52536347338255
 20
-125.1138101900757
 10
99.58668617302
 20
-125.2199191310214
 10
99.61424693690199
 20
-125.1544623168017
 10
99.69451766170832
 20
-124.9598144218851
 10
99.97184784827093
 20
-124.9598144218851
 10
100.3101562249225
 20
-124.9598144218851
 10
100.4772433559571
 20
-125.2243977551522
 10
100.4772433559571
 20
-125.5206759668837
 97
        0
 97
        0
 75
     2
 76
     1
 98
        0
  0
POLYLINE
  5
9B
330
95
100
AcDbEntity
  8
_U+30EC_U+30A4_U+30E4_U+30FC 1
370
     0
100
AcDb2dPolyline
 66
     1
 10
0.0
 20
0.0
 30
0.0
  0
VERTEX
  5
9C
330
9B
100
AcDbEntity
  8
_U+30EC_U+30A4_U+30E4_U+30FC 1
370
     0
100
AcDbVertex
100
AcDb2dVertex
 10
100.4266004523239
 20
-124.724169890694
 30
0.0
  0
VERTEX
  5
9D
330
9B
100
AcDbEntity
  8
_U+30EC_U+30A4_U+30E4_U+30FC 1
370
     0
100
AcDbVertex
100
AcDb2dVertex
 10
100.1747639723522
 20
-124.724169890694
 30
0.0
  0
VERTEX
  5
9E
330
9B
100
AcDbEntity
  8
_U+30EC_U+30A4_U+30E4_U+30FC 1
370
     0
100
AcDbVertex
100
AcDb2dVertex
 10
100.1747639723522
 20
-124.4551079332959
 30
0.0
  0
VERTEX
  5
9F
330
9B
100
AcDbEntity
  8
_U+30EC_U+30A4_U+30E4_U+30FC 1
370
     0
100
AcDbVertex
100
AcDb2dVertex
 10
100.4266004523239
 20
-124.4551079332959
 30
0.0
  0
VERTEX
  5
A0
330
9B
100
AcDbEntity
  8
_U+30EC_U+30A4_U+30E4_U+30FC 1
370
     0
100
AcDbVertex
100
AcDb2dVertex
 10
100.4266004523239
 20
-124.724169890694
 30
0.0
  0
SEQEND
  5
A1
330
9B
100
AcDbEntity
  8
_U+30EC_U+30A4_U+30E4_U+30FC 1
370
     0
  0
HATCH
  5
A2
330
95
100
AcDbEntity
  8
_U+30EC_U+30A4_U+30E4_U+30FC 1
 62
     7
420
 16777215
100
AcDbHatch
 10
0.0
 20
0.0
 30
0.0
210
0.0
220
0.0
230
1.0
  2
SOLID
 70
     1
 71
     0
 91
        1
 92
        1
 93
        4
 72
     1
 10
100.4266004523239
 20
-124.724169890694
 11
100.1747639723522
 21
-124.724169890694
 72
     1
 10
100.1747639723522
 20
-124.724169890694
 11
100.1747639723522
 21
-124.4551079332959
 72
     1
 10
100.1747639723522
 20
-124.4551079332959
 11
100.4266004523239
 21
-124.4551079332959
 72
     1
 10
100.4266004523239
 20
-124.4551079332959
 11
100.4266004523239
 21
-124.724169890694
 97
        0
 75
     2
 76
     1
 98
        0
  0
SPLINE
  5
A3
330
95
100
AcDbEntity
  8
_U+30EC_U+30A4_U+30E4_U+30FC 1
370
     0
100
AcDbSpline
210
0.0
220
0.0
230
1.0
 70
    11
 71
     3
 72
    53
 73
    49
 74
     0
 42
0.0000000001
 43
0.0000000001
 12
1.0
 22
0.0
 32
0.0
 13
1.0
 23
0.0
 33
0.0
 40
0.0
 40
0.0
 40
0.0
 40
0.0
 40
1.0
 40
1.0
 40
1.0
 40
2.0
 40
2.0
 40
2.0
 40
3.0
 40
3.0
 40
3.0
 40
4.0
 40
4.0
 40
4.0
 40
5.0
 40
5.0
 40
5.0
 40
6.0
 40
6.0
 40
6.0
 40
7.0
 40
7.0
 40
7.0
 40
8.0
 40
8.0
 40
8.0
 40
9.0
 40
9.0
 40
9.0
 40
10.0
 40
10.0
 40
10.0
 40
11.0
 40
11.0
 40
11.0
 40
12.0
 40
12.0
 40
12.0
 40
13.0
 40
13.0
 40
13.0
 40
14.0
 40
14.0
 40
14.0
 40
15.0
 40
15.0
 40
15.0
 40
16.0
 40
16.0
 40
16.0
 40
16.0
 10
100.4772433559571
 20
-123.6882296782793
 30
0.0
 10
100.4772433559571
 20
-123.7719454985709
 30
0.0
 10
100.4603623880794
 20
-123.8801214968077
 30
0.0
 10
100.3969726311508
 20
-123.9889865141416
 30
0.0
 10
100.2870740851713
 20
-124.1743326512481
 30
0.0
 10
100.1558159471833
 20
-124.1967257719022
 30
0.0
 10
100.047984458495
 20
-124.2170518352652
 30
0.0
 10
100.047984458495
 20
-124.2170518352652
 30
0.0
 10
100.047984458495
 20
-123.9796847563315
 30
0.0
 10
100.047984458495
 20
-123.9796847563315
 30
0.0
 10
100.2467664679939
 20
-123.9211181330822
 30
0.0
 10
100.276394289167
 20
-123.7853813709634
 30
0.0
 10
100.276394289167
 20
-123.6858181114397
 30
0.0
 10
100.276394289167
 20
-123.5366454769283
 30
0.0
 10
100.1768310296433
 20
-123.373692460476
 30
0.0
 10
99.94428708438893
 20
-123.373692460476
 30
0.0
 10
99.68831648983488
 20
-123.373692460476
 30
0.0
 10
99.61838105148429
 20
-123.565928788553
 30
0.0
 10
99.61838105148429
 20
-123.6947753597013
 30
0.0
 10
99.61838105148429
 20
-123.7288818050053
 30
0.0
 10
99.61838105148429
 20
-123.8801214968077
 30
0.0
 10
99.74757213218116
 20
-123.9752061322007
 30
0.0
 10
99.74757213218116
 20
-123.9752061322007
 30
0.0
 10
99.7286241070123
 20
-124.1629638361468
 30
0.0
 10
99.7286241070123
 20
-124.1629638361468
 30
0.0
 10
99.7286241070123
 20
-124.1629638361468
 30
0.0
 10
98.88216414628641
 20
-124.0341172649984
 30
0.0
 10
98.88216414628641
 20
-124.0341172649984
 30
0.0
 10
98.88216414628641
 20
-124.0341172649984
 30
0.0
 10
98.88216414628641
 20
-123.2021267053106
 30
0.0
 10
98.88216414628641
 20
-123.2021267053106
 30
0.0
 10
98.88216414628641
 20
-123.2021267053106
 30
0.0
 10
99.07681204120303
 20
-123.2021267053106
 30
0.0
 10
99.07681204120303
 20
-123.2021267053106
 30
0.0
 10
99.07681204120303
 20
-123.2021267053106
 30
0.0
 10
99.07681204120303
 20
-123.8597954334448
 30
0.0
 10
99.07681204120303
 20
-123.8597954334448
 30
0.0
 10
99.07681204120303
 20
-123.8597954334448
 30
0.0
 10
99.4998697667917
 20
-123.9300753813439
 30
0.0
 10
99.4998697667917
 20
-123.9300753813439
 30
0.0
 10
99.46610783103625
 20
-123.8646185671241
 30
0.0
 10
99.42580021385884
 20
-123.7764241227017
 30
0.0
 10
99.42580021385884
 20
-123.6496446088445
 30
0.0
 10
99.42580021385884
 20
-123.3785155941554
 30
0.0
 10
99.61217987961085
 20
-123.1253010759895
 30
0.0
 10
99.92533905922006
 20
-123.1253010759895
 30
0.0
 10
100.2426323534116
 20
-123.1253010759895
 30
0.0
 10
100.4772433559571
 20
-123.3647352122144
 30
0.0
 10
100.4772433559571
 20
-123.6882296782793
 30
0.0
  0
HATCH
  5
A4
330
95
100
AcDbEntity
  8
_U+30EC_U+30A4_U+30E4_U+30FC 1
 62
     7
420
 16777215
100
AcDbHatch
 10
0.0
 20
0.0
 30
0.0
210
0.0
220
0.0
230
1.0
  2
SOLID
 70
     1
 71
     0
 91
        1
 92
        1
 93
        1
 72
     4
 94
        3
 73
     0
 74
     1
 95
       53
 96
       49
 40
0.0
 40
0.0
 40
0.0
 40
0.0
 40
1.0
 40
1.0
 40
1.0
 40
2.0
 40
2.0
 40
2.0
 40
3.0
 40
3.0
 40
3.0
 40
4.0
 40
4.0
 40
4.0
 40
5.0
 40
5.0
 40
5.0
 40
6.0
 40
6.0
 40
6.0
 40
7.0
 40
7.0
 40
7.0
 40
8.0
 40
8.0
 40
8.0
 40
9.0
 40
9.0
 40
9.0
 40
10.0
 40
10.0
 40
10.0
 40
11.0
 40
11.0
 40
11.0
 40
12.0
 40
12.0
 40
12.0
 40
13.0
 40
13.0
 40
13.0
 40
14.0
 40
14.0
 40
14.0
 40
15.0
 40
15.0
 40
15.0
 40
16.0
 40
16.0
 40
16.0
 40
16.0
 10
100.4772433559571
 20
-123.6882296782793
 10
100.4772433559571
 20
-123.7719454985709
 10
100.4603623880794
 20
-123.8801214968077
 10
100.3969726311508
 20
-123.9889865141416
 10
100.2870740851713
 20
-124.1743326512481
 10
100.1558159471833
 20
-124.1967257719022
 10
100.047984458495
 20
-124.2170518352652
 10
100.047984458495
 20
-124.2170518352652
 10
100.047984458495
 20
-123.9796847563315
 10
100.047984458495
 20
-123.9796847563315
 10
100.2467664679939
 20
-123.9211181330822
 10
100.276394289167
 20
-123.7853813709634
 10
100.276394289167
 20
-123.6858181114397
 10
100.276394289167
 20
-123.5366454769283
 10
100.1768310296433
 20
-123.373692460476
 10
99.94428708438893
 20
-123.373692460476
 10
99.68831648983488
 20
-123.373692460476
 10
99.61838105148429
 20
-123.565928788553
 10
99.61838105148429
 20
-123.6947753597013
 10
99.61838105148429
 20
-123.7288818050053
 10
99.61838105148429
 20
-123.8801214968077
 10
99.74757213218116
 20
-123.9752061322007
 10
99.74757213218116
 20
-123.9752061322007
 10
99.7286241070123
 20
-124.1629638361468
 10
99.7286241070123
 20
-124.1629638361468
 10
99.7286241070123
 20
-124.1629638361468
 10
98.88216414628641
 20
-124.0341172649984
 10
98.88216414628641
 20
-124.0341172649984
 10
98.88216414628641
 20
-124.0341172649984
 10
98.88216414628641
 20
-123.2021267053106
 10
98.88216414628641
 20
-123.2021267053106
 10
98.88216414628641
 20
-123.2021267053106
 10
99.07681204120303
 20
-123.2021267053106
 10
99.07681204120303
 20
-123.2021267053106
 10
99.07681204120303
 20
-123.2021267053106
 10
99.07681204120303
 20
-123.8597954334448
 10
99.07681204120303
 20
-123.8597954334448
 10
99.07681204120303
 20
-123.8597954334448
 10
99.4998697667917
 20
-123.9300753813439
 10
99.4998697667917
 20
-123.9300753813439
 10
99.46610783103625
 20
-123.8646185671241
 10
99.42580021385884
 20
-123.7764241227017
 10
99.42580021385884
 20
-123.6496446088445
 10
99.42580021385884
 20
-123.3785155941554
 10
99.61217987961085
 20
-123.1253010759895
 10
99.92533905922006
 20
-123.1253010759895
 10
100.2426323534116
 20
-123.1253010759895
 10
100.4772433559571
 20
-123.3647352122144
 10
100.4772433559571
 20
-123.6882296782793
 97
        0
 97
        0
 75
     2
 76
     1
 98
        0
  0
ENDBLK
  5
98
330
95
100
AcDbEntity
  8
0
100
AcDbBlockEnd
  0
BLOCK
  5
B3
330
B1
100
AcDbEntity
  8
0
100
AcDbBlockBegin
  2
block 4
 70
     0
 10
0.0
 20
0.0
 30
0.0
  3
block 4
  1

  0
SPLINE
  5
B5
330
B1
100
AcDbEntity
  8
_U+30EC_U+30A4_U+30E4_U+30FC 1
370
     0
100
AcDbSpline
210
0.0
220
0.0
230
1.0
 70
    11
 71
     3
 72
    29
 73
    25
 74
     0
 42
0.0000000001
 43
0.0000000001
 12
1.0
 22
0.0
 32
0.0
 13
1.0
 23
0.0
 33
0.0
 40
0.0
 40
0.0
 40
0.0
 40
0.0
 40
1.0
 40
1.0
 40
1.0
 40
2.0
 40
2.0
 40
2.0
 40
3.0
 40
3.0
 40
3.0
 40
4.0
 40
4.0
 40
4.0
 40
5.0
 40
5.0
 40
5.0
 40
6.0
 40
6.0
 40
6.0
 40
7.0
 40
7.0
 40
7.0
 40
8.0
 40
8.0
 40
8.0
 40
8.0
 10
83.63951142657277
 20
-122.0416462911042
 30
0.0
 10
83.3546020299426
 20
-122.0416462911042
 30
0.0
 10
83.08330076047918
 20
-121.9040147264684
 30
0.0
 10
83.08330076047918
 20
-121.5550265538126
 30
0.0
 10
83.08330076047918
 20
-121.2990559592586
 30
0.0
 10
83.2347127070559
 20
-121.2037990690914
 30
0.0
 10
83.34788409374637
 20
-121.142476369454
 30
0.0
 10
83.21438664369293
 20
-121.0832207271077
 30
0.0
 10
83.13308239024104
 20
-120.9690158117716
 30
0.0
 10
83.13308239024104
 20
-120.8083021073847
 30
0.0
 10
83.13308239024104
 20
-120.5332112328875
 30
0.0
 10
83.34547252690669
 20
-120.3978189803172
 30
0.0
 10
83.63951142657277
 20
-120.3978189803172
 30
0.0
 10
83.94250757450048
 20
-120.3978189803172
 30
0.0
 10
84.14594046290449
 20
-120.5416517168264
 30
0.0
 10
84.14594046290449
 20
-120.8083021073847
 30
0.0
 10
84.14594046290449
 20
-120.9690158117716
 30
0.0
 10
84.06222464261292
 20
-121.0832207271077
 30
0.0
 10
83.92889944733375
 20
-121.142476369454
 30
0.0
 10
84.02381182795239
 20
-121.1932915278614
 30
0.0
 10
84.19331052582667
 20
-121.2885484180286
 30
0.0
 10
84.19331052582667
 20
-121.5508924392303
 30
0.0
 10
84.19331052582667
 20
-121.9252020637027
 30
0.0
 10
83.89496525680404
 20
-122.0416462911042
 30
0.0
 10
83.63951142657277
 20
-122.0416462911042
 30
0.0
  0
SPLINE
  5
B6
330
B1
100
AcDbEntity
  8
_U+30EC_U+30A4_U+30E4_U+30FC 1
370
     0
100
AcDbSpline
210
0.0
220
0.0
230
1.0
 70
    11
 71
     3
 72
    17
 73
    13
 74
     0
 42
0.0000000001
 43
0.0000000001
 12
1.0
 22
0.0
 32
0.0
 13
1.0
 23
0.0
 33
0.0
 40
0.0
 40
0.0
 40
0.0
 40
0.0
 40
1.0
 40
1.0
 40
1.0
 40
2.0
 40
2.0
 40
2.0
 40
3.0
 40
3.0
 40
3.0
 40
4.0
 40
4.0
 40
4.0
 40
4.0
 10
83.63951142657277
 20
-121.2504801129165
 30
0.0
 10
83.48568791315635
 20
-121.2504801129165
 30
0.0
 10
83.3229071514783
 20
-121.3371242643706
 30
0.0
 10
83.3229071514783
 20
-121.5402126432261
 30
0.0
 10
83.3229071514783
 20
-121.7453680793727
 30
0.0
 10
83.45864391359714
 20
-121.8469983961876
 30
0.0
 10
83.63951142657277
 20
-121.8469983961876
 30
0.0
 10
83.83846569084594
 20
-121.8469983961876
 30
0.0
 10
83.95594344689296
 20
-121.7243529969127
 30
0.0
 10
83.95594344689296
 20
-121.5465860698738
 30
0.0
 10
83.95594344689296
 20
-121.3243774110752
 30
0.0
 10
83.78196612488784
 20
-121.2504801129165
 30
0.0
 10
83.63951142657277
 20
-121.2504801129165
 30
0.0
  0
SPLINE
  5
B7
330
B1
100
AcDbEntity
  8
_U+30EC_U+30A4_U+30E4_U+30FC 1
370
     0
100
AcDbSpline
210
0.0
220
0.0
230
1.0
 70
    11
 71
     3
 72
    17
 73
    13
 74
     0
 42
0.0000000001
 43
0.0000000001
 12
1.0
 22
0.0
 32
0.0
 13
1.0
 23
0.0
 33
0.0
 40
0.0
 40
0.0
 40
0.0
 40
0.0
 40
1.0
 40
1.0
 40
1.0
 40
2.0
 40
2.0
 40
2.0
 40
3.0
 40
3.0
 40
3.0
 40
4.0
 40
4.0
 40
4.0
 40
4.0
 10
83.63951142657277
 20
-120.5903998179427
 30
0.0
 10
83.46312253772797
 20
-120.5903998179427
 30
0.0
 10
83.37268878124017
 20
-120.6854844533356
 30
0.0
 10
83.37268878124017
 20
-120.8208767059059
 30
0.0
 10
83.37268878124017
 20
-120.9436943599551
 30
0.0
 10
83.44951441056124
 20
-121.0622056446476
 30
0.0
 10
83.63951142657277
 20
-121.0622056446476
 30
0.0
 10
83.82933618781003
 20
-121.0622056446476
 30
0.0
 10
83.90633407190536
 20
-120.9436943599551
 30
0.0
 10
83.90633407190536
 20
-120.8208767059059
 30
0.0
 10
83.90633407190536
 20
-120.6854844533356
 30
0.0
 10
83.81348874857788
 20
-120.5903998179427
 30
0.0
 10
83.63951142657277
 20
-120.5903998179427
 30
0.0
  0
HATCH
  5
B8
330
B1
100
AcDbEntity
  8
_U+30EC_U+30A4_U+30E4_U+30FC 1
 62
     7
420
 16777215
100
AcDbHatch
 10
0.0
 20
0.0
 30
0.0
210
0.0
220
0.0
230
1.0
  2
SOLID
 70
     1
 71
     0
 91
        3
 92
        1
 93
        1
 72
     4
 94
        3
 73
     0
 74
     1
 95
       29
 96
       25
 40
0.0
 40
0.0
 40
0.0
 40
0.0
 40
1.0
 40
1.0
 40
1.0
 40
2.0
 40
2.0
 40
2.0
 40
3.0
 40
3.0
 40
3.0
 40
4.0
 40
4.0
 40
4.0
 40
5.0
 40
5.0
 40
5.0
 40
6.0
 40
6.0
 40
6.0
 40
7.0
 40
7.0
 40
7.0
 40
8.0
 40
8.0
 40
8.0
 40
8.0
 10
83.63951142657277
 20
-122.0416462911042
 10
83.3546020299426
 20
-122.0416462911042
 10
83.08330076047918
 20
-121.9040147264684
 10
83.08330076047918
 20
-121.5550265538126
 10
83.08330076047918
 20
-121.2990559592586
 10
83.2347127070559
 20
-121.2037990690914
 10
83.34788409374637
 20
-121.142476369454
 10
83.21438664369293
 20
-121.0832207271077
 10
83.13308239024104
 20
-120.9690158117716
 10
83.13308239024104
 20
-120.8083021073847
 10
83.13308239024104
 20
-120.5332112328875
 10
83.34547252690669
 20
-120.3978189803172
 10
83.63951142657277
 20
-120.3978189803172
 10
83.94250757450048
 20
-120.3978189803172
 10
84.14594046290449
 20
-120.5416517168264
 10
84.14594046290449
 20
-120.8083021073847
 10
84.14594046290449
 20
-120.9690158117716
 10
84.06222464261292
 20
-121.0832207271077
 10
83.92889944733375
 20
-121.142476369454
 10
84.02381182795239
 20
-121.1932915278614
 10
84.19331052582667
 20
-121.2885484180286
 10
84.19331052582667
 20
-121.5508924392303
 10
84.19331052582667
 20
-121.9252020637027
 10
83.89496525680404
 20
-122.0416462911042
 10
83.63951142657277
 20
-122.0416462911042
 97
        0
 97
        0
 92
        1
 93
        1
 72
     4
 94
        3
 73
     0
 74
     1
 95
       17
 96
       13
 40
0.0
 40
0.0
 40
0.0
 40
0.0
 40
1.0
 40
1.0
 40
1.0
 40
2.0
 40
2.0
 40
2.0
 40
3.0
 40
3.0
 40
3.0
 40
4.0
 40
4.0
 40
4.0
 40
4.0
 10
83.63951142657277
 20
-121.2504801129165
 10
83.48568791315635
 20
-121.2504801129165
 10
83.3229071514783
 20
-121.3371242643706
 10
83.3229071514783
 20
-121.5402126432261
 10
83.3229071514783
 20
-121.7453680793727
 10
83.45864391359714
 20
-121.8469983961876
 10
83.63951142657277
 20
-121.8469983961876
 10
83.83846569084594
 20
-121.8469983961876
 10
83.95594344689296
 20
-121.7243529969127
 10
83.95594344689296
 20
-121.5465860698738
 10
83.95594344689296
 20
-121.3243774110752
 10
83.78196612488784
 20
-121.2504801129165
 10
83.63951142657277
 20
-121.2504801129165
 97
        0
 97
        0
 92
        1
 93
        1
 72
     4
 94
        3
 73
     0
 74
     1
 95
       17
 96
       13
 40
0.0
 40
0.0
 40
0.0
 40
0.0
 40
1.0
 40
1.0
 40
1.0
 40
2.0
 40
2.0
 40
2.0
 40
3.0
 40
3.0
 40
3.0
 40
4.0
 40
4.0
 40
4.0
 40
4.0
 10
83.63951142657277
 20
-120.5903998179427
 10
83.46312253772797
 20
-120.5903998179427
 10
83.37268878124017
 20
-120.6854844533356
 10
83.37268878124017
 20
-120.8208767059059
 10
83.37268878124017
 20
-120.9436943599551
 10
83.44951441056124
 20
-121.0622056446476
 10
83.63951142657277
 20
-121.0622056446476
 10
83.82933618781003
 20
-121.0622056446476
 10
83.90633407190536
 20
-120.9436943599551
 10
83.90633407190536
 20
-120.8208767059059
 10
83.90633407190536
 20
-120.6854844533356
 10
83.81348874857788
 20
-120.5903998179427
 10
83.63951142657277
 20
-120.5903998179427
 97
        0
 97
        0
 75
     2
 76
     1
 98
        0
  0
ENDBLK
  5
B4
330
B1
100
AcDbEntity
  8
0
100
AcDbBlockEnd
  0
BLOCK
  5
C4
330
C2
100
AcDbEntity
  8
0
100
AcDbBlockBegin
  2
block 5
 70
     0
 10
0.0
 20
0.0
 30
0.0
  3
block 5
  1

  0
SPLINE
  5
C6
330
C2
100
AcDbEntity
  8
_U+30EC_U+30A4_U+30E4_U+30FC 1
370
     0
100
AcDbSpline
210
0.0
220
0.0
230
1.0
 70
    11
 71
     3
 72
    26
 73
    22
 74
     0
 42
0.0000000001
 43
0.0000000001
 12
1.0
 22
0.0
 32
0.0
 13
1.0
 23
0.0
 33
0.0
 40
0.0
 40
0.0
 40
0.0
 40
0.0
 40
1.0
 40
1.0
 40
1.0
 40
2.0
 40
2.0
 40
2.0
 40
3.0
 40
3.0
 40
3.0
 40
4.0
 40
4.0
 40
4.0
 40
5.0
 40
5.0
 40
5.0
 40
6.0
 40
6.0
 40
6.0
 40
7.0
 40
7.0
 40
7.0
 40
7.0
 10
81.92075328898162
 20
-129.8573621637162
 30
0.0
 10
81.92075328898162
 20
-129.8573621637162
 30
0.0
 10
81.92075328898162
 20
-128.7528645511451
 30
0.0
 10
81.92075328898162
 20
-128.7528645511451
 30
0.0
 10
81.92075328898162
 20
-128.7528645511451
 30
0.0
 10
81.59071314149469
 20
-128.7528645511451
 30
0.0
 10
81.59071314149469
 20
-128.7528645511451
 30
0.0
 10
81.59071314149469
 20
-128.7528645511451
 30
0.0
 10
81.59071314149469
 20
-128.6047254452794
 30
0.0
 10
81.59071314149469
 20
-128.6047254452794
 30
0.0
 10
81.92282034627277
 20
-128.5900837894671
 30
0.0
 10
81.96932913532365
 20
-128.4271307730147
 30
0.0
 10
81.9989569564968
 20
-128.3129258576787
 30
0.0
 10
81.9989569564968
 20
-128.3129258576787
 30
0.0
 10
82.14502900507138
 20
-128.3129258576787
 30
0.0
 10
82.14502900507138
 20
-128.3129258576787
 30
0.0
 10
82.14502900507138
 20
-128.3129258576787
 30
0.0
 10
82.14502900507138
 20
-129.8573621637162
 30
0.0
 10
82.14502900507138
 20
-129.8573621637162
 30
0.0
 10
82.14502900507138
 20
-129.8573621637162
 30
0.0
 10
81.92075328898162
 20
-129.8573621637162
 30
0.0
 10
81.92075328898162
 20
-129.8573621637162
 30
0.0
  0
HATCH
  5
C7
330
C2
100
AcDbEntity
  8
_U+30EC_U+30A4_U+30E4_U+30FC 1
 62
   179
420
  2234388
100
AcDbHatch
 10
0.0
 20
0.0
 30
0.0
210
0.0
220
0.0
230
1.0
  2
SOLID
 70
     1
 71
     0
 91
        1
 92
        1
 93
        1
 72
     4
 94
        3
 73
     0
 74
     1
 95
       26
 96
       22
 40
0.0
 40
0.0
 40
0.0
 40
0.0
 40
1.0
 40
1.0
 40
1.0
 40
2.0
 40
2.0
 40
2.0
 40
3.0
 40
3.0
 40
3.0
 40
4.0
 40
4.0
 40
4.0
 40
5.0
 40
5.0
 40
5.0
 40
6.0
 40
6.0
 40
6.0
 40
7.0
 40
7.0
 40
7.0
 40
7.0
 10
81.92075328898162
 20
-129.8573621637162
 10
81.92075328898162
 20
-129.8573621637162
 10
81.92075328898162
 20
-128.7528645511451
 10
81.92075328898162
 20
-128.7528645511451
 10
81.92075328898162
 20
-128.7528645511451
 10
81.59071314149469
 20
-128.7528645511451
 10
81.59071314149469
 20
-128.7528645511451
 10
81.59071314149469
 20
-128.7528645511451
 10
81.59071314149469
 20
-128.6047254452794
 10
81.59071314149469
 20
-128.6047254452794
 10
81.92282034627277
 20
-128.5900837894671
 10
81.96932913532365
 20
-128.4271307730147
 10
81.9989569564968
 20
-128.3129258576787
 10
81.9989569564968
 20
-128.3129258576787
 10
82.14502900507138
 20
-128.3129258576787
 10
82.14502900507138
 20
-128.3129258576787
 10
82.14502900507138
 20
-128.3129258576787
 10
82.14502900507138
 20
-129.8573621637162
 10
82.14502900507138
 20
-129.8573621637162
 10
82.14502900507138
 20
-129.8573621637162
 10
81.92075328898162
 20
-129.8573621637162
 10
81.92075328898162
 20
-129.8573621637162
 97
        0
 97
        0
 75
     2
 76
     1
 98
        0
  0
ENDBLK
  5
C5
330
C2
100
AcDbEntity
  8
0
100
AcDbBlockEnd
  0
BLOCK
  5
D7
330
D5
100
AcDbEntity
  8
0
100
AcDbBlockBegin
  2
block 6
 70
     0
 10
0.0
 20
0.0
 30
0.0
  3
block 6
  1

  0
SPLINE
  5
D9
330
D5
100
AcDbEntity
  8
_U+30EC_U+30A4_U+30E4_U+30FC 1
370
     0
100
AcDbSpline
210
0.0
220
0.0
230
1.0
 70
    11
 71
     3
 72
    26
 73
    22
 74
     0
 42
0.0000000001
 43
0.0000000001
 12
1.0
 22
0.0
 32
0.0
 13
1.0
 23
0.0
 33
0.0
 40
0.0
 40
0.0
 40
0.0
 40
0.0
 40
1.0
 40
1.0
 40
1.0
 40
2.0
 40
2.0
 40
2.0
 40
3.0
 40
3.0
 40
3.0
 40
4.0
 40
4.0
 40
4.0
 40
5.0
 40
5.0
 40
5.0
 40
6.0
 40
6.0
 40
6.0
 40
7.0
 40
7.0
 40
7.0
 40
7.0
 10
100.4266004523239
 20
-131.7552652665404
 30
0.0
 10
100.4266004523239
 20
-131.7552652665404
 30
0.0
 10
99.32244734930134
 20
-131.7552652665404
 30
0.0
 10
99.32244734930134
 20
-131.7552652665404
 30
0.0
 10
99.32244734930134
 20
-131.7552652665404
 30
0.0
 10
99.32244734930134
 20
-132.1076985346814
 30
0.0
 10
99.32244734930134
 20
-132.1076985346814
 30
0.0
 10
99.32244734930134
 20
-132.1076985346814
 30
0.0
 10
99.17430824343559
 20
-132.1076985346814
 30
0.0
 10
99.17430824343559
 20
-132.1076985346814
 30
0.0
 10
99.15949433284902
 20
-131.7528536997007
 30
0.0
 10
98.9965413163967
 20
-131.7032443247131
 30
0.0
 10
98.88216414628641
 20
-131.6715494462488
 30
0.0
 10
98.88216414628641
 20
-131.6715494462488
 30
0.0
 10
98.88216414628641
 20
-131.515486620767
 30
0.0
 10
98.88216414628641
 20
-131.515486620767
 30
0.0
 10
98.88216414628641
 20
-131.515486620767
 30
0.0
 10
100.4266004523239
 20
-131.515486620767
 30
0.0
 10
100.4266004523239
 20
-131.515486620767
 30
0.0
 10
100.4266004523239
 20
-131.515486620767
 30
0.0
 10
100.4266004523239
 20
-131.7552652665404
 30
0.0
 10
100.4266004523239
 20
-131.7552652665404
 30
0.0
  0
HATCH
  5
DA
330
D5
100
AcDbEntity
  8
_U+30EC_U+30A4_U+30E4_U+30FC 1
 62
   179
420
  2234388
100
AcDbHatch
 10
0.0
 20
0.0
 30
0.0
210
0.0
220
0.0
230
1.0
  2
SOLID
 70
     1
 71
     0
 91
        1
 92
        1
 93
        1
 72
     4
 94
        3
 73
     0
 74
     1
 95
       26
 96
       22
 40
0.0
 40
0.0
 40
0.0
 40
0.0
 40
1.0
 40
1.0
 40
1.0
 40
2.0
 40
2.0
 40
2.0
 40
3.0
 40
3.0
 40
3.0
 40
4.0
 40
4.0
 40
4.0
 40
5.0
 40
5.0
 40
5.0
 40
6.0
 40
6.0
 40
6.0
 40
7.0
 40
7.0
 40
7.0
 40
7.0
 10
100.4266004523239
 20
-131.7552652665404
 10
100.4266004523239
 20
-131.7552652665404
 10
99.32244734930134
 20
-131.7552652665404
 10
99.32244734930134
 20
-131.7552652665404
 10
99.32244734930134
 20
-131.7552652665404
 10
99.32244734930134
 20
-132.1076985346814
 10
99.32244734930134
 20
-132.1076985346814
 10
99.32244734930134
 20
-132.1076985346814
 10
99.17430824343559
 20
-132.1076985346814
 10
99.17430824343559
 20
-132.1076985346814
 10
99.15949433284902
 20
-131.7528536997007
 10
98.9965413163967
 20
-131.7032443247131
 10
98.88216414628641
 20
-131.6715494462488
 10
98.88216414628641
 20
-131.6715494462488
 10
98.88216414628641
 20
-131.515486620767
 10
98.88216414628641
 20
-131.515486620767
 10
98.88216414628641
 20
-131.515486620767
 10
100.4266004523239
 20
-131.515486620767
 10
100.4266004523239
 20
-131.515486620767
 10
100.4266004523239
 20
-131.515486620767
 10
100.4266004523239
 20
-131.7552652665404
 10
100.4266004523239
 20
-131.7552652665404
 97
        0
 97
        0
 75
     2
 76
     1
 98
        0
  0
ENDBLK
  5
D8
330
D5
100
AcDbEntity
  8
0
100
AcDbBlockEnd
  0
ENDSEC
  0
SECTION
  2
ENTITIES
  0
SPLINE
  5
41
330
1F
100
AcDbEntity
  8
_U+30EC_U+30A4_U+30E4_U+30FC 1
370
     0
100
AcDbSpline
210
0.0
220
0.0
230
1.0
 70
    11
 71
     3
 72
    53
 73
    49
 74
     0
 42
0.0000000001
 43
0.0000000001
 12
1.0
 22
0.0
 32
0.0
 13
1.0
 23
0.0
 33
0.0
 40
0.0
 40
0.0
 40
0.0
 40
0.0
 40
1.0
 40
1.0
 40
1.0
 40
2.0
 40
2.0
 40
2.0
 40
3.0
 40
3.0
 40
3.0
 40
4.0
 40
4.0
 40
4.0
 40
5.0
 40
5.0
 40
5.0
 40
6.0
 40
6.0
 40
6.0
 40
7.0
 40
7.0
 40
7.0
 40
8.0
 40
8.0
 40
8.0
 40
9.0
 40
9.0
 40
9.0
 40
10.0
 40
10.0
 40
10.0
 40
11.0
 40
11.0
 40
11.0
 40
12.0
 40
12.0
 40
12.0
 40
13.0
 40
13.0
 40
13.0
 40
14.0
 40
14.0
 40
14.0
 40
15.0
 40
15.0
 40
15.0
 40
16.0
 40
16.0
 40
16.0
 40
16.0
 10
97.09693030062871
 20
-131.7369941337325
 30
0.0
 10
97.09693030062871
 20
-131.7369941337325
 30
0.0
 10
87.46271054641814
 20
-131.7369941337325
 30
0.0
 10
87.46271054641814
 20
-131.7369941337325
 30
0.0
 10
87.28424027319352
 20
-131.4276433004767
 30
0.0
 10
86.954216670502
 20
-131.2374608005236
 30
0.0
 10
86.59695862406086
 20
-131.2374608005236
 30
0.0
 10
86.59695862406086
 20
-131.2374608005236
 30
0.0
 10
84.09685785451042
 20
-131.2374608005236
 30
0.0
 10
84.09685785451042
 20
-131.2374608005236
 30
0.0
 10
84.09685785451042
 20
-131.2374608005236
 30
0.0
 10
84.09685785451042
 20
-127.7372349680656
 30
0.0
 10
84.09685785451042
 20
-127.7372349680656
 30
0.0
 10
84.09685785451042
 20
-127.7372349680656
 30
0.0
 10
87.09684472241882
 20
-127.7372349680656
 30
0.0
 10
87.09684472241882
 20
-127.7372349680656
 30
0.0
 10
87.37314027092549
 20
-127.7372349680656
 30
0.0
 10
87.59673082077677
 20
-127.5133269125662
 30
0.0
 10
87.59673082077677
 20
-127.2370313570797
 30
0.0
 10
87.59673082077677
 20
-126.9779513571444
 30
0.0
 10
87.39829332583933
 20
-126.7615927460874
 30
0.0
 10
87.13956611021779
 20
-126.7388738572041
 30
0.0
 10
84.78205811480727
 20
-126.5369791350324
 30
0.0
 10
82.41149734195199
 20
-126.5369791350324
 30
0.0
 10
80.05402462431834
 20
-126.7388738572041
 30
0.0
 10
79.77875213134114
 20
-126.7629685794203
 30
0.0
 10
79.57481130321077
 20
-127.0048330238045
 30
0.0
 10
79.59858852482638
 20
-127.2804230237354
 30
0.0
 10
79.62098991314376
 20
-127.5387974681152
 30
0.0
 10
79.83731324095822
 20
-127.7372349680656
 30
0.0
 10
80.0970987898861
 20
-127.7372349680656
 30
0.0
 10
80.0970987898861
 20
-127.7372349680656
 30
0.0
 10
83.09708565779451
 20
-127.7372349680656
 30
0.0
 10
83.09708565779451
 20
-127.7372349680656
 30
0.0
 10
83.09708565779451
 20
-127.7372349680656
 30
0.0
 10
83.09708565779451
 20
-131.2374608005236
 30
0.0
 10
83.09708565779451
 20
-131.2374608005236
 30
0.0
 10
83.09708565779451
 20
-131.2374608005236
 30
0.0
 10
80.59663211047528
 20
-131.2374608005236
 30
0.0
 10
80.59663211047528
 20
-131.2374608005236
 30
0.0
 10
80.04471129122261
 20
-131.2374608005236
 30
0.0
 10
79.59685991375937
 20
-131.6853474670789
 30
0.0
 10
79.59685991375937
 20
-132.2372330224962
 30
0.0
 10
79.59685991375937
 20
-132.2372330224962
 30
0.0
 10
97.59678112120979
 20
-132.2372330224962
 30
0.0
 10
97.59678112120979
 20
-132.2372330224962
 30
0.0
 10
97.59678112120979
 20
-131.9609374670098
 30
0.0
 10
97.3728730713666
 20
-131.7369941337325
 30
0.0
 10
97.09693030062871
 20
-131.7369941337325
 30
0.0
  0
HATCH
  5
42
330
1F
100
AcDbEntity
  8
_U+30EC_U+30A4_U+30E4_U+30FC 1
 62
   253
420
 11711154
100
AcDbHatch
 10
0.0
 20
0.0
 30
0.0
210
0.0
220
0.0
230
1.0
  2
SOLID
 70
     1
 71
     0
 91
        1
 92
        1
 93
        1
 72
     4
 94
        3
 73
     0
 74
     1
 95
       53
 96
       49
 40
0.0
 40
0.0
 40
0.0
 40
0.0
 40
1.0
 40
1.0
 40
1.0
 40
2.0
 40
2.0
 40
2.0
 40
3.0
 40
3.0
 40
3.0
 40
4.0
 40
4.0
 40
4.0
 40
5.0
 40
5.0
 40
5.0
 40
6.0
 40
6.0
 40
6.0
 40
7.0
 40
7.0
 40
7.0
 40
8.0
 40
8.0
 40
8.0
 40
9.0
 40
9.0
 40
9.0
 40
10.0
 40
10.0
 40
10.0
 40
11.0
 40
11.0
 40
11.0
 40
12.0
 40
12.0
 40
12.0
 40
13.0
 40
13.0
 40
13.0
 40
14.0
 40
14.0
 40
14.0
 40
15.0
 40
15.0
 40
15.0
 40
16.0
 40
16.0
 40
16.0
 40
16.0
 10
97.09693030062871
 20
-131.7369941337325
 10
97.09693030062871
 20
-131.7369941337325
 10
87.46271054641814
 20
-131.7369941337325
 10
87.46271054641814
 20
-131.7369941337325
 10
87.28424027319352
 20
-131.4276433004767
 10
86.954216670502
 20
-131.2374608005236
 10
86.59695862406086
 20
-131.2374608005236
 10
86.59695862406086
 20
-131.2374608005236
 10
84.09685785451042
 20
-131.2374608005236
 10
84.09685785451042
 20
-131.2374608005236
 10
84.09685785451042
 20
-131.2374608005236
 10
84.09685785451042
 20
-127.7372349680656
 10
84.09685785451042
 20
-127.7372349680656
 10
84.09685785451042
 20
-127.7372349680656
 10
87.09684472241882
 20
-127.7372349680656
 10
87.09684472241882
 20
-127.7372349680656
 10
87.37314027092549
 20
-127.7372349680656
 10
87.59673082077677
 20
-127.5133269125662
 10
87.59673082077677
 20
-127.2370313570797
 10
87.59673082077677
 20
-126.9779513571444
 10
87.39829332583933
 20
-126.7615927460874
 10
87.13956611021779
 20
-126.7388738572041
 10
84.78205811480727
 20
-126.5369791350324
 10
82.41149734195199
 20
-126.5369791350324
 10
80.05402462431834
 20
-126.7388738572041
 10
79.77875213134114
 20
-126.7629685794203
 10
79.57481130321077
 20
-127.0048330238045
 10
79.59858852482638
 20
-127.2804230237354
 10
79.62098991314376
 20
-127.5387974681152
 10
79.83731324095822
 20
-127.7372349680656
 10
80.0970987898861
 20
-127.7372349680656
 10
80.0970987898861
 20
-127.7372349680656
 10
83.09708565779451
 20
-127.7372349680656
 10
83.09708565779451
 20
-127.7372349680656
 10
83.09708565779451
 20
-127.7372349680656
 10
83.09708565779451
 20
-131.2374608005236
 10
83.09708565779451
 20
-131.2374608005236
 10
83.09708565779451
 20
-131.2374608005236
 10
80.59663211047528
 20
-131.2374608005236
 10
80.59663211047528
 20
-131.2374608005236
 10
80.04471129122261
 20
-131.2374608005236
 10
79.59685991375937
 20
-131.6853474670789
 10
79.59685991375937
 20
-132.2372330224962
 10
79.59685991375937
 20
-132.2372330224962
 10
97.59678112120979
 20
-132.2372330224962
 10
97.59678112120979
 20
-132.2372330224962
 10
97.59678112120979
 20
-131.9609374670098
 10
97.3728730713666
 20
-131.7369941337325
 10
97.09693030062871
 20
-131.7369941337325
 97
        0
 97
        0
 75
     2
 76
     1
 98
        0
  0
POLYLINE
  5
43
330
1F
100
AcDbEntity
  8
_U+30EC_U+30A4_U+30E4_U+30FC 1
 62
     7
420
 16777215
370
    25
100
AcDb2dPolyline
 66
     1
 10
0.0
 20
0.0
 30
0.0
  0
VERTEX
  5
44
330
43
100
AcDbEntity
  8
_U+30EC_U+30A4_U+30E4_U+30FC 1
 62
     7
420
 16777215
370
    25
100
AcDbVertex
100
AcDb2dVertex
 10
80.59663211047528
 20
-131.2374608005236
 30
0.0
  0
VERTEX
  5
45
330
43
100
AcDbEntity
  8
_U+30EC_U+30A4_U+30E4_U+30FC 1
 62
     7
420
 16777215
370
    25
100
AcDbVertex
100
AcDb2dVertex
 10
83.09708565779451
 20
-131.2374608005236
 30
0.0
  0
SEQEND
  5
46
330
43
100
AcDbEntity
  8
_U+30EC_U+30A4_U+30E4_U+30FC 1
 62
     7
420
 16777215
370
    25
  0
POLYLINE
  5
47
330
1F
100
AcDbEntity
  8
_U+30EC_U+30A4_U+30E4_U+30FC 1
 62
     7
420
 16777215
370
    25
100
AcDb2dPolyline
 66
     1
 10
0.0
 20
0.0
 30
0.0
  0
VERTEX
  5
48
330
47
100
AcDbEntity
  8
_U+30EC_U+30A4_U+30E4_U+30FC 1
 62
     7
420
 16777215
370
    25
100
AcDbVertex
100
AcDb2dVertex
 10
79.59685991375937
 20
-132.2372330224962
 30
0.0
  0
VERTEX
  5
49
330
47
100
AcDbEntity
  8
_U+30EC_U+30A4_U+30E4_U+30FC 1
 62
     7
420
 16777215
370
    25
100
AcDbVertex
100
AcDb2dVertex
 10
97.59678112120979
 20
-132.2372330224962
 30
0.0
  0
SEQEND
  5
4A
330
47
100
AcDbEntity
  8
_U+30EC_U+30A4_U+30E4_U+30FC 1
 62
     7
420
 16777215
370
    25
  0
POLYLINE
  5
4B
330
1F
100
AcDbEntity
  8
_U+30EC_U+30A4_U+30E4_U+30FC 1
 62
     7
420
 16777215
370
    25
100
AcDb2dPolyline
 66
     1
 10
0.0
 20
0.0
 30
0.0
  0
VERTEX
  5
4C
330
4B
100
AcDbEntity
  8
_U+30EC_U+30A4_U+30E4_U+30FC 1
 62
     7
420
 16777215
370
    25
100
AcDbVertex
100
AcDb2dVertex
 10
87.46271054641814
 20
-131.7369941337325
 30
0.0
  0
VERTEX
  5
4D
330
4B
100
AcDbEntity
  8
_U+30EC_U+30A4_U+30E4_U+30FC 1
 62
     7
420
 16777215
370
    25
100
AcDbVertex
100
AcDb2dVertex
 10
97.09693030062871
 20
-131.7369941337325
 30
0.0
  0
SEQEND
  5
4E
330
4B
100
AcDbEntity
  8
_U+30EC_U+30A4_U+30E4_U+30FC 1
 62
     7
420
 16777215
370
    25
  0
POLYLINE
  5
4F
330
1F
100
AcDbEntity
  8
_U+30EC_U+30A4_U+30E4_U+30FC 1
 62
     7
420
 16777215
370
    25
100
AcDb2dPolyline
 66
     1
 10
0.0
 20
0.0
 30
0.0
  0
VERTEX
  5
50
330
4F
100
AcDbEntity
  8
_U+30EC_U+30A4_U+30E4_U+30FC 1
 62
     7
420
 16777215
370
    25
100
AcDbVertex
100
AcDb2dVertex
 10
80.0970987898861
 20
-127.7372349680656
 30
0.0
  0
VERTEX
  5
51
330
4F
100
AcDbEntity
  8
_U+30EC_U+30A4_U+30E4_U+30FC 1
 62
     7
420
 16777215
370
    25
100
AcDbVertex
100
AcDb2dVertex
 10
83.09708565779451
 20
-127.7372349680656
 30
0.0
  0
SEQEND
  5
52
330
4F
100
AcDbEntity
  8
_U+30EC_U+30A4_U+30E4_U+30FC 1
 62
     7
420
 16777215
370
    25
  0
POLYLINE
  5
53
330
1F
100
AcDbEntity
  8
_U+30EC_U+30A4_U+30E4_U+30FC 1
 62
     7
420
 16777215
370
    25
100
AcDb2dPolyline
 66
     1
 10
0.0
 20
0.0
 30
0.0
  0
VERTEX
  5
54
330
53
100
AcDbEntity
  8
_U+30EC_U+30A4_U+30E4_U+30FC 1
 62
     7
420
 16777215
370
    25
100
AcDbVertex
100
AcDb2dVertex
 10
83.09708565779451
 20
-127.7372349680656
 30
0.0
  0
VERTEX
  5
55
330
53
100
AcDbEntity
  8
_U+30EC_U+30A4_U+30E4_U+30FC 1
 62
     7
420
 16777215
370
    25
100
AcDbVertex
100
AcDb2dVertex
 10
83.09708565779451
 20
-131.2374608005236
 30
0.0
  0
SEQEND
  5
56
330
53
100
AcDbEntity
  8
_U+30EC_U+30A4_U+30E4_U+30FC 1
 62
     7
420
 16777215
370
    25
  0
POLYLINE
  5
57
330
1F
100
AcDbEntity
  8
_U+30EC_U+30A4_U+30E4_U+30FC 1
 62
     7
420
 16777215
370
    25
100
AcDb2dPolyline
 66
     1
 10
0.0
 20
0.0
 30
0.0
  0
VERTEX
  5
58
330
57
100
AcDbEntity
  8
_U+30EC_U+30A4_U+30E4_U+30FC 1
 62
     7
420
 16777215
370
    25
100
AcDbVertex
100
AcDb2dVertex
 10
84.09685785451042
 20
-127.7372349680656
 30
0.0
  0
VERTEX
  5
59
330
57
100
AcDbEntity
  8
_U+30EC_U+30A4_U+30E4_U+30FC 1
 62
     7
420
 16777215
370
    25
100
AcDbVertex
100
AcDb2dVertex
 10
84.09685785451042
 20
-131.2374608005236
 30
0.0
  0
SEQEND
  5
5A
330
57
100
AcDbEntity
  8
_U+30EC_U+30A4_U+30E4_U+30FC 1
 62
     7
420
 16777215
370
    25
  0
POLYLINE
  5
5B
330
1F
100
AcDbEntity
  8
_U+30EC_U+30A4_U+30E4_U+30FC 1
 62
     7
420
 16777215
370
    25
100
AcDb2dPolyline
 66
     1
 10
0.0
 20
0.0
 30
0.0
  0
VERTEX
  5
5C
330
5B
100
AcDbEntity
  8
_U+30EC_U+30A4_U+30E4_U+30FC 1
 62
     7
420
 16777215
370
    25
100
AcDbVertex
100
AcDb2dVertex
 10
84.09685785451042
 20
-127.7372349680656
 30
0.0
  0
VERTEX
  5
5D
330
5B
100
AcDbEntity
  8
_U+30EC_U+30A4_U+30E4_U+30FC 1
 62
     7
420
 16777215
370
    25
100
AcDbVertex
100
AcDb2dVertex
 10
87.09684472241882
 20
-127.7372349680656
 30
0.0
  0
SEQEND
  5
5E
330
5B
100
AcDbEntity
  8
_U+30EC_U+30A4_U+30E4_U+30FC 1
 62
     7
420
 16777215
370
    25
  0
POLYLINE
  5
5F
330
1F
100
AcDbEntity
  8
_U+30EC_U+30A4_U+30E4_U+30FC 1
 62
     7
420
 16777215
370
    25
100
AcDb2dPolyline
 66
     1
 10
0.0
 20
0.0
 30
0.0
  0
VERTEX
  5
60
330
5F
100
AcDbEntity
  8
_U+30EC_U+30A4_U+30E4_U+30FC 1
 62
     7
420
 16777215
370
    25
100
AcDbVertex
100
AcDb2dVertex
 10
84.09685785451042
 20
-131.2374608005236
 30
0.0
  0
VERTEX
  5
61
330
5F
100
AcDbEntity
  8
_U+30EC_U+30A4_U+30E4_U+30FC 1
 62
     7
420
 16777215
370
    25
100
AcDbVertex
100
AcDb2dVertex
 10
86.59695862406086
 20
-131.2374608005236
 30
0.0
  0
SEQEND
  5
62
330
5F
100
AcDbEntity
  8
_U+30EC_U+30A4_U+30E4_U+30FC 1
 62
     7
420
 16777215
370
    25
  0
SPLINE
  5
63
330
1F
100
AcDbEntity
  8
_U+30EC_U+30A4_U+30E4_U+30FC 1
 62
     7
420
 16777215
370
    25
100
AcDbSpline
210
0.0
220
0.0
230
1.0
 70
     8
 71
     3
 72
     8
 73
     4
 74
     0
 42
0.0000000001
 43
0.0000000001
 12
1.0
 22
0.0
 32
0.0
 13
1.0
 23
0.0
 33
0.0
 40
0.0
 40
0.0
 40
0.0
 40
0.0
 40
1.0
 40
1.0
 40
1.0
 40
1.0
 10
97.59678112120979
 20
-132.2372330224962
 30
0.0
 10
97.59678112120979
 20
-131.9609374670098
 30
0.0
 10
97.3728730713666
 20
-131.7369941337325
 30
0.0
 10
97.09693030062871
 20
-131.7369941337325
 30
0.0
  0
SPLINE
  5
64
330
1F
100
AcDbEntity
  8
_U+30EC_U+30A4_U+30E4_U+30FC 1
 62
     7
420
 16777215
370
     9
100
AcDbSpline
210
0.0
220
0.0
230
1.0
 70
    11
 71
     3
 72
    17
 73
    13
 74
     0
 42
0.0000000001
 43
0.0000000001
 12
1.0
 22
0.0
 32
0.0
 13
1.0
 23
0.0
 33
0.0
 40
0.0
 40
0.0
 40
0.0
 40
0.0
 40
1.0
 40
1.0
 40
1.0
 40
2.0
 40
2.0
 40
2.0
 40
3.0
 40
3.0
 40
3.0
 40
4.0
 40
4.0
 40
4.0
 40
4.0
 10
101.5744915752855
 20
-127.7372349680656
 30
0.0
 10
101.5744915752855
 20
-127.6821310791907
 30
0.0
 10
101.5297240764276
 20
-127.637328301424
 30
0.0
 10
101.4745849111677
 20
-127.637328301424
 30
0.0
 10
101.4194810236846
 20
-127.637328301424
 30
0.0
 10
101.3746782470498
 20
-127.6821310791907
 30
0.0
 10
101.3746782470498
 20
-127.7372349680656
 30
0.0
 10
101.3746782470498
 20
-127.7923741347187
 30
0.0
 10
101.4194810236846
 20
-127.8371416347072
 30
0.0
 10
101.4745849111677
 20
-127.8371416347072
 30
0.0
 10
101.5297240764276
 20
-127.8371416347072
 30
0.0
 10
101.5744915752855
 20
-127.7923741347187
 30
0.0
 10
101.5744915752855
 20
-127.7372349680656
 30
0.0
  0
SPLINE
  5
65
330
1F
100
AcDbEntity
  8
_U+30EC_U+30A4_U+30E4_U+30FC 1
 62
     7
420
 16777215
370
     9
100
AcDbSpline
210
0.0
220
0.0
230
1.0
 70
    11
 71
     3
 72
    17
 73
    13
 74
     0
 42
0.0000000001
 43
0.0000000001
 12
1.0
 22
0.0
 32
0.0
 13
1.0
 23
0.0
 33
0.0
 40
0.0
 40
0.0
 40
0.0
 40
0.0
 40
1.0
 40
1.0
 40
1.0
 40
2.0
 40
2.0
 40
2.0
 40
3.0
 40
3.0
 40
3.0
 40
4.0
 40
4.0
 40
4.0
 40
4.0
 10
101.5744915752855
 20
-131.2374608005236
 30
0.0
 10
101.5744915752855
 20
-131.1823569116488
 30
0.0
 10
101.5297240764276
 20
-131.137554133882
 30
0.0
 10
101.4745849111677
 20
-131.137554133882
 30
0.0
 10
101.4194810236846
 20
-131.137554133882
 30
0.0
 10
101.3746782470498
 20
-131.1823569116488
 30
0.0
 10
101.3746782470498
 20
-131.2374608005236
 30
0.0
 10
101.3746782470498
 20
-131.2925999671767
 30
0.0
 10
101.4194810236846
 20
-131.3373674671659
 30
0.0
 10
101.4745849111677
 20
-131.3373674671659
 30
0.0
 10
101.5297240764276
 20
-131.3373674671659
 30
0.0
 10
101.5744915752855
 20
-131.2925999671767
 30
0.0
 10
101.5744915752855
 20
-131.2374608005236
 30
0.0
  0
SPLINE
  5
66
330
1F
100
AcDbEntity
  8
_U+30EC_U+30A4_U+30E4_U+30FC 1
 62
     7
420
 16777215
370
     9
100
AcDbSpline
210
0.0
220
0.0
230
1.0
 70
    11
 71
     3
 72
    17
 73
    13
 74
     0
 42
0.0000000001
 43
0.0000000001
 12
1.0
 22
0.0
 32
0.0
 13
1.0
 23
0.0
 33
0.0
 40
0.0
 40
0.0
 40
0.0
 40
0.0
 40
1.0
 40
1.0
 40
1.0
 40
2.0
 40
2.0
 40
2.0
 40
3.0
 40
3.0
 40
3.0
 40
4.0
 40
4.0
 40
4.0
 40
4.0
 10
79.6967665778772
 20
-136.2376624659404
 30
0.0
 10
79.6967665778772
 20
-136.18185302151
 30
0.0
 10
79.65199907901932
 20
-136.1370855215214
 30
0.0
 10
79.59685991375937
 20
-136.1370855215214
 30
0.0
 10
79.5417560262763
 20
-136.1370855215214
 30
0.0
 10
79.49695324964154
 20
-136.18185302151
 30
0.0
 10
79.49695324964154
 20
-136.2376624659404
 30
0.0
 10
79.49695324964154
 20
-136.2928016325935
 30
0.0
 10
79.5417560262763
 20
-136.3376044103603
 30
0.0
 10
79.59685991375937
 20
-136.3376044103603
 30
0.0
 10
79.65199907901932
 20
-136.3376044103603
 30
0.0
 10
79.6967665778772
 20
-136.2928016325935
 30
0.0
 10
79.6967665778772
 20
-136.2376624659404
 30
0.0
  0
SPLINE
  5
67
330
1F
100
AcDbEntity
  8
_U+30EC_U+30A4_U+30E4_U+30FC 1
 62
     7
420
 16777215
370
     9
100
AcDbSpline
210
0.0
220
0.0
230
1.0
 70
    11
 71
     3
 72
    17
 73
    13
 74
     0
 42
0.0000000001
 43
0.0000000001
 12
1.0
 22
0.0
 32
0.0
 13
1.0
 23
0.0
 33
0.0
 40
0.0
 40
0.0
 40
0.0
 40
0.0
 40
1.0
 40
1.0
 40
1.0
 40
2.0
 40
2.0
 40
2.0
 40
3.0
 40
3.0
 40
3.0
 40
4.0
 40
4.0
 40
4.0
 40
4.0
 10
97.69668778532763
 20
-136.2376624659404
 30
0.0
 10
97.69668778532763
 20
-136.18185302151
 30
0.0
 10
97.65192028646973
 20
-136.1370855215214
 30
0.0
 10
97.59678112120979
 20
-136.1370855215214
 30
0.0
 10
97.54167723372672
 20
-136.1370855215214
 30
0.0
 10
97.49687445709195
 20
-136.18185302151
 30
0.0
 10
97.49687445709195
 20
-136.2376624659404
 30
0.0
 10
97.49687445709195
 20
-136.2928016325935
 30
0.0
 10
97.54167723372672
 20
-136.3376044103603
 30
0.0
 10
97.59678112120979
 20
-136.3376044103603
 30
0.0
 10
97.65192028646973
 20
-136.3376044103603
 30
0.0
 10
97.69668778532763
 20
-136.2928016325935
 30
0.0
 10
97.69668778532763
 20
-136.2376624659404
 30
0.0
  0
SPLINE
  5
68
330
1F
100
AcDbEntity
  8
_U+30EC_U+30A4_U+30E4_U+30FC 1
 62
     7
420
 16777215
370
    25
100
AcDbSpline
210
0.0
220
0.0
230
1.0
 70
     8
 71
     3
 72
     8
 73
     4
 74
     0
 42
0.0000000001
 43
0.0000000001
 12
1.0
 22
0.0
 32
0.0
 13
1.0
 23
0.0
 33
0.0
 40
0.0
 40
0.0
 40
0.0
 40
0.0
 40
1.0
 40
1.0
 40
1.0
 40
1.0
 10
87.46271054641814
 20
-131.7369941337325
 30
0.0
 10
87.28424027319352
 20
-131.4276433004767
 30
0.0
 10
86.954216670502
 20
-131.2374608005236
 30
0.0
 10
86.59695862406086
 20
-131.2374608005236
 30
0.0
  0
SPLINE
  5
69
330
1F
100
AcDbEntity
  8
_U+30EC_U+30A4_U+30E4_U+30FC 1
 62
     7
420
 16777215
370
    25
100
AcDbSpline
210
0.0
220
0.0
230
1.0
 70
     8
 71
     3
 72
    11
 73
     7
 74
     0
 42
0.0000000001
 43
0.0000000001
 12
1.0
 22
0.0
 32
0.0
 13
1.0
 23
0.0
 33
0.0
 40
0.0
 40
0.0
 40
0.0
 40
0.0
 40
1.0
 40
1.0
 40
1.0
 40
2.0
 40
2.0
 40
2.0
 40
2.0
 10
87.09684472241882
 20
-127.7372349680656
 30
0.0
 10
87.37314027092549
 20
-127.7372349680656
 30
0.0
 10
87.59673082077677
 20
-127.5133269125662
 30
0.0
 10
87.59673082077677
 20
-127.2370313570797
 30
0.0
 10
87.59673082077677
 20
-126.9779513571444
 30
0.0
 10
87.39829332583933
 20
-126.7615927460874
 30
0.0
 10
87.13956611021779
 20
-126.7388738572041
 30
0.0
  0
SPLINE
  5
6A
330
1F
100
AcDbEntity
  8
_U+30EC_U+30A4_U+30E4_U+30FC 1
 62
     7
420
 16777215
370
    25
100
AcDbSpline
210
0.0
220
0.0
230
1.0
 70
     8
 71
     3
 72
    11
 73
     7
 74
     0
 42
0.0000000001
 43
0.0000000001
 12
1.0
 22
0.0
 32
0.0
 13
1.0
 23
0.0
 33
0.0
 40
0.0
 40
0.0
 40
0.0
 40
0.0
 40
1.0
 40
1.0
 40
1.0
 40
2.0
 40
2.0
 40
2.0
 40
2.0
 10
80.05402462431834
 20
-126.7388738572041
 30
0.0
 10
79.77875213134114
 20
-126.7629685794203
 30
0.0
 10
79.57481130321077
 20
-127.0048330238045
 30
0.0
 10
79.59858852482638
 20
-127.2804230237354
 30
0.0
 10
79.62098991314376
 20
-127.5387974681152
 30
0.0
 10
79.83731324095822
 20
-127.7372349680656
 30
0.0
 10
80.0970987898861
 20
-127.7372349680656
 30
0.0
  0
SPLINE
  5
6B
330
1F
100
AcDbEntity
  8
_U+30EC_U+30A4_U+30E4_U+30FC 1
 62
     7
420
 16777215
370
    25
100
AcDbSpline
210
0.0
220
0.0
230
1.0
 70
     8
 71
     3
 72
     8
 73
     4
 74
     0
 42
0.0000000001
 43
0.0000000001
 12
1.0
 22
0.0
 32
0.0
 13
1.0
 23
0.0
 33
0.0
 40
0.0
 40
0.0
 40
0.0
 40
0.0
 40
1.0
 40
1.0
 40
1.0
 40
1.0
 10
80.59663211047528
 20
-131.2374608005236
 30
0.0
 10
80.04471129122261
 20
-131.2374608005236
 30
0.0
 10
79.59685991375937
 20
-131.6853474670789
 30
0.0
 10
79.59685991375937
 20
-132.2372330224962
 30
0.0
  0
SPLINE
  5
6C
330
1F
100
AcDbEntity
  8
_U+30EC_U+30A4_U+30E4_U+30FC 1
 62
     7
420
 16777215
370
     9
100
AcDbSpline
210
0.0
220
0.0
230
1.0
 70
    11
 71
     3
 72
    17
 73
    13
 74
     0
 42
0.0000000001
 43
0.0000000001
 12
1.0
 22
0.0
 32
0.0
 13
1.0
 23
0.0
 33
0.0
 40
0.0
 40
0.0
 40
0.0
 40
0.0
 40
1.0
 40
1.0
 40
1.0
 40
2.0
 40
2.0
 40
2.0
 40
3.0
 40
3.0
 40
3.0
 40
4.0
 40
4.0
 40
4.0
 40
4.0
 10
87.6969549848865
 20
-122.5875260804641
 30
0.0
 10
87.6969549848865
 20
-122.5323869138114
 30
0.0
 10
87.65218748602862
 20
-122.4876194138225
 30
0.0
 10
87.59673082077677
 20
-122.4876194138225
 30
0.0
 10
87.54159165551683
 20
-122.4876194138225
 30
0.0
 10
87.49682415665893
 20
-122.5323869138114
 30
0.0
 10
87.49682415665893
 20
-122.5875260804641
 30
0.0
 10
87.49682415665893
 20
-122.6426299693394
 30
0.0
 10
87.54159165551683
 20
-122.6874327471061
 30
0.0
 10
87.59673082077677
 20
-122.6874327471061
 30
0.0
 10
87.65218748602862
 20
-122.6874327471061
 30
0.0
 10
87.6969549848865
 20
-122.6426299693394
 30
0.0
 10
87.6969549848865
 20
-122.5875260804641
 30
0.0
  0
SPLINE
  5
6D
330
1F
100
AcDbEntity
  8
_U+30EC_U+30A4_U+30E4_U+30FC 1
 62
     7
420
 16777215
370
     9
100
AcDbSpline
210
0.0
220
0.0
230
1.0
 70
    11
 71
     3
 72
    17
 73
    13
 74
     0
 42
0.0000000001
 43
0.0000000001
 12
1.0
 22
0.0
 32
0.0
 13
1.0
 23
0.0
 33
0.0
 40
0.0
 40
0.0
 40
0.0
 40
0.0
 40
1.0
 40
1.0
 40
1.0
 40
2.0
 40
2.0
 40
2.0
 40
3.0
 40
3.0
 40
3.0
 40
4.0
 40
4.0
 40
4.0
 40
4.0
 10
79.6967665778772
 20
-122.5875260804641
 30
0.0
 10
79.6967665778772
 20
-122.5323869138114
 30
0.0
 10
79.65199907901932
 20
-122.4876194138225
 30
0.0
 10
79.59685991375937
 20
-122.4876194138225
 30
0.0
 10
79.5417560262763
 20
-122.4876194138225
 30
0.0
 10
79.49695324964154
 20
-122.5323869138114
 30
0.0
 10
79.49695324964154
 20
-122.5875260804641
 30
0.0
 10
79.49695324964154
 20
-122.6426299693394
 30
0.0
 10
79.5417560262763
 20
-122.6874327471061
 30
0.0
 10
79.59685991375937
 20
-122.6874327471061
 30
0.0
 10
79.65199907901932
 20
-122.6874327471061
 30
0.0
 10
79.6967665778772
 20
-122.6426299693394
 30
0.0
 10
79.6967665778772
 20
-122.5875260804641
 30
0.0
  0
SPLINE
  5
6E
330
1F
100
AcDbEntity
  8
_U+30EC_U+30A4_U+30E4_U+30FC 1
 62
     7
420
 16777215
370
    25
100
AcDbSpline
210
0.0
220
0.0
230
1.0
 70
     8
 71
     3
 72
     8
 73
     4
 74
     0
 42
0.0000000001
 43
0.0000000001
 12
1.0
 22
0.0
 32
0.0
 13
1.0
 23
0.0
 33
0.0
 40
0.0
 40
0.0
 40
0.0
 40
0.0
 40
1.0
 40
1.0
 40
1.0
 40
1.0
 10
87.13956611021779
 20
-126.7388738572041
 30
0.0
 10
84.78205811480727
 20
-126.5369791350324
 30
0.0
 10
82.41149734195199
 20
-126.5369791350324
 30
0.0
 10
80.05402462431834
 20
-126.7388738572041
 30
0.0
  0
POLYLINE
  5
6F
330
1F
100
AcDbEntity
  8
_U+30EC_U+30A4_U+30E4_U+30FC 1
 62
     7
420
 16777215
370
     9
100
AcDb2dPolyline
 66
     1
 10
0.0
 20
0.0
 30
0.0
  0
VERTEX
  5
70
330
6F
100
AcDbEntity
  8
_U+30EC_U+30A4_U+30E4_U+30FC 1
 62
     7
420
 16777215
370
     9
100
AcDbVertex
100
AcDb2dVertex
 10
79.59685991375937
 20
-136.2376624659404
 30
0.0
  0
VERTEX
  5
71
330
6F
100
AcDbEntity
  8
_U+30EC_U+30A4_U+30E4_U+30FC 1
 62
     7
420
 16777215
370
     9
100
AcDbVertex
100
AcDb2dVertex
 10
97.59678112120979
 20
-136.2376624659404
 30
0.0
  0
SEQEND
  5
72
330
6F
100
AcDbEntity
  8
_U+30EC_U+30A4_U+30E4_U+30FC 1
 62
     7
420
 16777215
370
     9
  0
POLYLINE
  5
73
330
1F
100
AcDbEntity
  8
_U+30EC_U+30A4_U+30E4_U+30FC 1
 62
     7
420
 16777215
370
     9
100
AcDb2dPolyline
 66
     1
 10
0.0
 20
0.0
 30
0.0
  0
VERTEX
  5
74
330
73
100
AcDbEntity
  8
_U+30EC_U+30A4_U+30E4_U+30FC 1
 62
     7
420
 16777215
370
     9
100
AcDbVertex
100
AcDb2dVertex
 10
79.59685991375937
 20
-133.9769919109501
 30
0.0
  0
VERTEX
  5
75
330
73
100
AcDbEntity
  8
_U+30EC_U+30A4_U+30E4_U+30FC 1
 62
     7
420
 16777215
370
     9
100
AcDbVertex
100
AcDb2dVertex
 10
79.59685991375937
 20
-137.237434687913
 30
0.0
  0
SEQEND
  5
76
330
73
100
AcDbEntity
  8
_U+30EC_U+30A4_U+30E4_U+30FC 1
 62
     7
420
 16777215
370
     9
  0
POLYLINE
  5
77
330
1F
100
AcDbEntity
  8
_U+30EC_U+30A4_U+30E4_U+30FC 1
 62
     7
420
 16777215
370
     9
100
AcDb2dPolyline
 66
     1
 10
0.0
 20
0.0
 30
0.0
  0
VERTEX
  5
78
330
77
100
AcDbEntity
  8
_U+30EC_U+30A4_U+30E4_U+30FC 1
 62
     7
420
 16777215
370
     9
100
AcDbVertex
100
AcDb2dVertex
 10
97.59678112120979
 20
-134.7776563551943
 30
0.0
  0
VERTEX
  5
79
330
77
100
AcDbEntity
  8
_U+30EC_U+30A4_U+30E4_U+30FC 1
 62
     7
420
 16777215
370
     9
100
AcDbVertex
100
AcDb2dVertex
 10
97.59678112120979
 20
-137.237434687913
 30
0.0
  0
SEQEND
  5
7A
330
77
100
AcDbEntity
  8
_U+30EC_U+30A4_U+30E4_U+30FC 1
 62
     7
420
 16777215
370
     9
  0
INSERT
  5
7C
330
1F
100
AcDbEntity
  8
_U+30EC_U+30A4_U+30E4_U+30FC 1
100
AcDbBlockReference
  2
block 2
 10
0.0
 20
0.0
 30
0.0
  0
POLYLINE
  5
85
330
1F
100
AcDbEntity
  8
_U+30EC_U+30A4_U+30E4_U+30FC 1
 62
     7
420
 16777215
370
     9
100
AcDb2dPolyline
 66
     1
 10
0.0
 20
0.0
 30
0.0
  0
VERTEX
  5
86
330
85
100
AcDbEntity
  8
_U+30EC_U+30A4_U+30E4_U+30FC 1
 62
     7
420
 16777215
370
     9
100
AcDbVertex
100
AcDb2dVertex
 10
101.4745849111677
 20
-127.7372349680656
 30
0.0
  0
VERTEX
  5
87
330
85
100
AcDbEntity
  8
_U+30EC_U+30A4_U+30E4_U+30FC 1
 62
     7
420
 16777215
370
     9
100
AcDbVertex
100
AcDb2dVertex
 10
101.4745849111677
 20
-122.4793291360467
 30
0.0
  0
SEQEND
  5
88
330
85
100
AcDbEntity
  8
_U+30EC_U+30A4_U+30E4_U+30FC 1
 62
     7
420
 16777215
370
     9
  0
POLYLINE
  5
89
330
1F
100
AcDbEntity
  8
_U+30EC_U+30A4_U+30E4_U+30FC 1
 62
     7
420
 16777215
370
     9
100
AcDb2dPolyline
 66
     1
 10
0.0
 20
0.0
 30
0.0
  0
VERTEX
  5
8A
330
89
100
AcDbEntity
  8
_U+30EC_U+30A4_U+30E4_U+30FC 1
 62
     7
420
 16777215
370
     9
100
AcDbVertex
100
AcDb2dVertex
 10
101.4745849111677
 20
-127.7372349680656
 30
0.0
  0
VERTEX
  5
8B
330
89
100
AcDbEntity
  8
_U+30EC_U+30A4_U+30E4_U+30FC 1
 62
     7
420
 16777215
370
     9
100
AcDbVertex
100
AcDb2dVertex
 10
101.4745849111677
 20
-131.2374608005236
 30
0.0
  0
SEQEND
  5
8C
330
89
100
AcDbEntity
  8
_U+30EC_U+30A4_U+30E4_U+30FC 1
 62
     7
420
 16777215
370
     9
  0
POLYLINE
  5
8D
330
1F
100
AcDbEntity
  8
_U+30EC_U+30A4_U+30E4_U+30FC 1
 62
     7
420
 16777215
370
     9
100
AcDb2dPolyline
 66
     1
 10
0.0
 20
0.0
 30
0.0
  0
VERTEX
  5
8E
330
8D
100
AcDbEntity
  8
_U+30EC_U+30A4_U+30E4_U+30FC 1
 62
     7
420
 16777215
370
     9
100
AcDbVertex
100
AcDb2dVertex
 10
100.4789754921233
 20
-127.7372349680656
 30
0.0
  0
VERTEX
  5
8F
330
8D
100
AcDbEntity
  8
_U+30EC_U+30A4_U+30E4_U+30FC 1
 62
     7
420
 16777215
370
     9
100
AcDbVertex
100
AcDb2dVertex
 10
102.4747098856523
 20
-127.7372349680656
 30
0.0
  0
SEQEND
  5
90
330
8D
100
AcDbEntity
  8
_U+30EC_U+30A4_U+30E4_U+30FC 1
 62
     7
420
 16777215
370
     9
  0
POLYLINE
  5
91
330
1F
100
AcDbEntity
  8
_U+30EC_U+30A4_U+30E4_U+30FC 1
 62
     7
420
 16777215
370
     9
100
AcDb2dPolyline
 66
     1
 10
0.0
 20
0.0
 30
0.0
  0
VERTEX
  5
92
330
91
100
AcDbEntity
  8
_U+30EC_U+30A4_U+30E4_U+30FC 1
 62
     7
420
 16777215
370
     9
100
AcDbVertex
100
AcDb2dVertex
 10
100.4789754921233
 20
-131.2374608005236
 30
0.0
  0
VERTEX
  5
93
330
91
100
AcDbEntity
  8
_U+30EC_U+30A4_U+30E4_U+30FC 1
 62
     7
420
 16777215
370
     9
100
AcDbVertex
100
AcDb2dVertex
 10
102.4747098856523
 20
-131.2374608005236
 30
0.0
  0
SEQEND
  5
94
330
91
100
AcDbEntity
  8
_U+30EC_U+30A4_U+30E4_U+30FC 1
 62
     7
420
 16777215
370
     9
  0
INSERT
  5
96
330
1F
100
AcDbEntity
  8
_U+30EC_U+30A4_U+30E4_U+30FC 1
100
AcDbBlockReference
  2
block 3
 10
0.0
 20
0.0
 30
0.0
  0
POLYLINE
  5
A5
330
1F
100
AcDbEntity
  8
_U+30EC_U+30A4_U+30E4_U+30FC 1
 62
     7
420
 16777215
370
     9
100
AcDb2dPolyline
 66
     1
 10
0.0
 20
0.0
 30
0.0
  0
VERTEX
  5
A6
330
A5
100
AcDbEntity
  8
_U+30EC_U+30A4_U+30E4_U+30FC 1
 62
     7
420
 16777215
370
     9
100
AcDbVertex
100
AcDb2dVertex
 10
79.59685991375937
 20
-122.5875260804641
 30
0.0
  0
VERTEX
  5
A7
330
A5
100
AcDbEntity
  8
_U+30EC_U+30A4_U+30E4_U+30FC 1
 62
     7
420
 16777215
370
     9
100
AcDbVertex
100
AcDb2dVertex
 10
87.59673082077677
 20
-122.5875260804641
 30
0.0
  0
SEQEND
  5
A8
330
A5
100
AcDbEntity
  8
_U+30EC_U+30A4_U+30E4_U+30FC 1
 62
     7
420
 16777215
370
     9
  0
POLYLINE
  5
A9
330
1F
100
AcDbEntity
  8
_U+30EC_U+30A4_U+30E4_U+30FC 1
 62
     7
420
 16777215
370
     9
100
AcDb2dPolyline
 66
     1
 10
0.0
 20
0.0
 30
0.0
  0
VERTEX
  5
AA
330
A9
100
AcDbEntity
  8
_U+30EC_U+30A4_U+30E4_U+30FC 1
 62
     7
420
 16777215
370
     9
100
AcDbVertex
100
AcDb2dVertex
 10
79.59685991375937
 20
-124.7475844132576
 30
0.0
  0
VERTEX
  5
AB
330
A9
100
AcDbEntity
  8
_U+30EC_U+30A4_U+30E4_U+30FC 1
 62
     7
420
 16777215
370
     9
100
AcDbVertex
100
AcDb2dVertex
 10
79.59685991375937
 20
-121.5870835807142
 30
0.0
  0
SEQEND
  5
AC
330
A9
100
AcDbEntity
  8
_U+30EC_U+30A4_U+30E4_U+30FC 1
 62
     7
420
 16777215
370
     9
  0
POLYLINE
  5
AD
330
1F
100
AcDbEntity
  8
_U+30EC_U+30A4_U+30E4_U+30FC 1
 62
     7
420
 16777215
370
     9
100
AcDb2dPolyline
 66
     1
 10
0.0
 20
0.0
 30
0.0
  0
VERTEX
  5
AE
330
AD
100
AcDbEntity
  8
_U+30EC_U+30A4_U+30E4_U+30FC 1
 62
     7
420
 16777215
370
     9
100
AcDbVertex
100
AcDb2dVertex
 10
87.59673082077677
 20
-124.7475844132576
 30
0.0
  0
VERTEX
  5
AF
330
AD
100
AcDbEntity
  8
_U+30EC_U+30A4_U+30E4_U+30FC 1
 62
     7
420
 16777215
370
     9
100
AcDbVertex
100
AcDb2dVertex
 10
87.59673082077677
 20
-121.5870835807142
 30
0.0
  0
SEQEND
  5
B0
330
AD
100
AcDbEntity
  8
_U+30EC_U+30A4_U+30E4_U+30FC 1
 62
     7
420
 16777215
370
     9
  0
INSERT
  5
B2
330
1F
100
AcDbEntity
  8
_U+30EC_U+30A4_U+30E4_U+30FC 1
100
AcDbBlockReference
  2
block 4
 10
0.0
 20
0.0
 30
0.0
  0
POLYLINE
  5
B9
330
1F
100
AcDbEntity
  8
_U+30EC_U+30A4_U+30E4_U+30FC 1
  6
AI-Linetype-1
 62
   251
420
  5855577
370
    25
100
AcDb2dPolyline
 66
     1
 10
0.0
 20
0.0
 30
0.0
  0
VERTEX
  5
BA
330
B9
100
AcDbEntity
  8
_U+30EC_U+30A4_U+30E4_U+30FC 1
  6
AI-Linetype-1
 62
   251
420
  5855577
370
    25
100
AcDbVertex
100
AcDb2dVertex
 10
79.05806242750523
 20
-127.9480902457908
 30
0.0
  0
VERTEX
  5
BB
330
B9
100
AcDbEntity
  8
_U+30EC_U+30A4_U+30E4_U+30FC 1
  6
AI-Linetype-1
 62
   251
420
  5855577
370
    25
100
AcDbVertex
100
AcDb2dVertex
 10
79.05806242750523
 20
-126.0133158018299
 30
0.0
  0
VERTEX
  5
BC
330
B9
100
AcDbEntity
  8
_U+30EC_U+30A4_U+30E4_U+30FC 1
  6
AI-Linetype-1
 62
   251
420
  5855577
370
    25
100
AcDbVertex
100
AcDb2dVertex
 10
88.18618719462738
 20
-126.0133158018299
 30
0.0
  0
VERTEX
  5
BD
330
B9
100
AcDbEntity
  8
_U+30EC_U+30A4_U+30E4_U+30FC 1
  6
AI-Linetype-1
 62
   251
420
  5855577
370
    25
100
AcDbVertex
100
AcDb2dVertex
 10
88.18618719462738
 20
-127.9976908013338
 30
0.0
  0
SEQEND
  5
BF
330
B9
100
AcDbEntity
  8
_U+30EC_U+30A4_U+30E4_U+30FC 1
  6
AI-Linetype-1
 62
   251
420
  5855577
370
    25
  0
SPLINE
  5
C0
330
1F
100
AcDbEntity
  8
_U+30EC_U+30A4_U+30E4_U+30FC 1
 62
   179
420
  2234388
370
     9
100
AcDbSpline
210
0.0
220
0.0
230
1.0
 70
    11
 71
     3
 72
    17
 73
    13
 74
     0
 42
0.0000000001
 43
0.0000000001
 12
1.0
 22
0.0
 32
0.0
 13
1.0
 23
0.0
 33
0.0
 40
0.0
 40
0.0
 40
0.0
 40
0.0
 40
1.0
 40
1.0
 40
1.0
 40
2.0
 40
2.0
 40
2.0
 40
3.0
 40
3.0
 40
3.0
 40
4.0
 40
4.0
 40
4.0
 40
4.0
 10
83.1961103774904
 20
-130.0930144119209
 30
0.0
 10
83.1961103774904
 20
-130.0378752452685
 30
0.0
 10
83.1513428786325
 20
-129.9931077452793
 30
0.0
 10
83.09606260226505
 20
-129.9931077452793
 30
0.0
 10
83.0409234370051
 20
-129.9931077452793
 30
0.0
 10
82.99612066037034
 20
-130.0378752452685
 30
0.0
 10
82.99612066037034
 20
-130.0930144119209
 30
0.0
 10
82.99612066037034
 20
-130.1481183007965
 30
0.0
 10
83.0409234370051
 20
-130.1929210785632
 30
0.0
 10
83.09606260226505
 20
-130.1929210785632
 30
0.0
 10
83.1513428786325
 20
-130.1929210785632
 30
0.0
 10
83.1961103774904
 20
-130.1481183007965
 30
0.0
 10
83.1961103774904
 20
-130.0930144119209
 30
0.0
  0
SPLINE
  5
C1
330
1F
100
AcDbEntity
  8
_U+30EC_U+30A4_U+30E4_U+30FC 1
 62
   179
420
  2234388
370
     9
100
AcDbSpline
210
0.0
220
0.0
230
1.0
 70
    11
 71
     3
 72
    17
 73
    13
 74
     0
 42
0.0000000001
 43
0.0000000001
 12
1.0
 22
0.0
 32
0.0
 13
1.0
 23
0.0
 33
0.0
 40
0.0
 40
0.0
 40
0.0
 40
0.0
 40
1.0
 40
1.0
 40
1.0
 40
2.0
 40
2.0
 40
2.0
 40
3.0
 40
3.0
 40
3.0
 40
4.0
 40
4.0
 40
4.0
 40
4.0
 10
84.19588257420631
 20
-130.0930144119209
 30
0.0
 10
84.19588257420631
 20
-130.0378752452685
 30
0.0
 10
84.15111507534841
 20
-129.9931077452793
 30
0.0
 10
84.09579952120409
 20
-129.9931077452793
 30
0.0
 10
84.04069563372101
 20
-129.9931077452793
 30
0.0
 10
83.99589285708625
 20
-130.0378752452685
 30
0.0
 10
83.99589285708625
 20
-130.0930144119209
 30
0.0
 10
83.99589285708625
 20
-130.1481183007965
 30
0.0
 10
84.04069563372101
 20
-130.1929210785632
 30
0.0
 10
84.09579952120409
 20
-130.1929210785632
 30
0.0
 10
84.15111507534841
 20
-130.1929210785632
 30
0.0
 10
84.19588257420631
 20
-130.1481183007965
 30
0.0
 10
84.19588257420631
 20
-130.0930144119209
 30
0.0
  0
INSERT
  5
C3
330
1F
100
AcDbEntity
  8
_U+30EC_U+30A4_U+30E4_U+30FC 1
100
AcDbBlockReference
  2
block 5
 10
0.0
 20
0.0
 30
0.0
  0
POLYLINE
  5
C8
330
1F
100
AcDbEntity
  8
_U+30EC_U+30A4_U+30E4_U+30FC 1
 62
   179
420
  2234388
370
     9
100
AcDb2dPolyline
 66
     1
 10
0.0
 20
0.0
 30
0.0
  0
VERTEX
  5
C9
330
C8
100
AcDbEntity
  8
_U+30EC_U+30A4_U+30E4_U+30FC 1
 62
   179
420
  2234388
370
     9
100
AcDbVertex
100
AcDb2dVertex
 10
84.95724755478227
 20
-130.0930144119209
 30
0.0
  0
VERTEX
  5
CA
330
C8
100
AcDbEntity
  8
_U+30EC_U+30A4_U+30E4_U+30FC 1
 62
   179
420
  2234388
370
     9
100
AcDbVertex
100
AcDb2dVertex
 10
81.11821404161306
 20
-130.0930144119209
 30
0.0
  0
SEQEND
  5
CB
330
C8
100
AcDbEntity
  8
_U+30EC_U+30A4_U+30E4_U+30FC 1
 62
   179
420
  2234388
370
     9
  0
SPLINE
  5
CC
330
1F
100
AcDbEntity
  8
_U+30EC_U+30A4_U+30E4_U+30FC 1
 62
   179
420
  2234388
370
     9
100
AcDbSpline
210
0.0
220
0.0
230
1.0
 70
    11
 71
     3
 72
    17
 73
    13
 74
     0
 42
0.0000000001
 43
0.0000000001
 12
1.0
 22
0.0
 32
0.0
 13
1.0
 23
0.0
 33
0.0
 40
0.0
 40
0.0
 40
0.0
 40
0.0
 40
1.0
 40
1.0
 40
1.0
 40
2.0
 40
2.0
 40
2.0
 40
3.0
 40
3.0
 40
3.0
 40
4.0
 40
4.0
 40
4.0
 40
4.0
 10
101.5744915752855
 20
-132.231729689164
 30
0.0
 10
101.5744915752855
 20
-132.1765905225116
 30
0.0
 10
101.5297240764276
 20
-132.1318230225224
 30
0.0
 10
101.4745849111677
 20
-132.1318230225224
 30
0.0
 10
101.4194810236846
 20
-132.1318230225224
 30
0.0
 10
101.3746782470498
 20
-132.1765905225116
 30
0.0
 10
101.3746782470498
 20
-132.231729689164
 30
0.0
 10
101.3746782470498
 20
-132.2868335780396
 30
0.0
 10
101.4194810236846
 20
-132.3316363558063
 30
0.0
 10
101.4745849111677
 20
-132.3316363558063
 30
0.0
 10
101.5297240764276
 20
-132.3316363558063
 30
0.0
 10
101.5744915752855
 20
-132.2868335780396
 30
0.0
 10
101.5744915752855
 20
-132.231729689164
 30
0.0
  0
POLYLINE
  5
CD
330
1F
100
AcDbEntity
  8
_U+30EC_U+30A4_U+30E4_U+30FC 1
 62
   179
420
  2234388
370
     9
100
AcDb2dPolyline
 66
     1
 10
0.0
 20
0.0
 30
0.0
  0
VERTEX
  5
CE
330
CD
100
AcDbEntity
  8
_U+30EC_U+30A4_U+30E4_U+30FC 1
 62
   179
420
  2234388
370
     9
100
AcDbVertex
100
AcDb2dVertex
 10
101.4745849111677
 20
-130.5842927451318
 30
0.0
  0
VERTEX
  5
CF
330
CD
100
AcDbEntity
  8
_U+30EC_U+30A4_U+30E4_U+30FC 1
 62
   179
420
  2234388
370
     9
100
AcDbVertex
100
AcDb2dVertex
 10
101.4745849111677
 20
-132.231729689164
 30
0.0
  0
SEQEND
  5
D0
330
CD
100
AcDbEntity
  8
_U+30EC_U+30A4_U+30E4_U+30FC 1
 62
   179
420
  2234388
370
     9
  0
POLYLINE
  5
D1
330
1F
100
AcDbEntity
  8
_U+30EC_U+30A4_U+30E4_U+30FC 1
 62
   179
420
  2234388
370
     9
100
AcDb2dPolyline
 66
     1
 10
0.0
 20
0.0
 30
0.0
  0
VERTEX
  5
D2
330
D1
100
AcDbEntity
  8
_U+30EC_U+30A4_U+30E4_U+30FC 1
 62
   179
420
  2234388
370
     9
100
AcDbVertex
100
AcDb2dVertex
 10
100.4789754921233
 20
-132.231729689164
 30
0.0
  0
VERTEX
  5
D3
330
D1
100
AcDbEntity
  8
_U+30EC_U+30A4_U+30E4_U+30FC 1
 62
   179
420
  2234388
370
     9
100
AcDbVertex
100
AcDb2dVertex
 10
102.4747098856523
 20
-132.231729689164
 30
0.0
  0
SEQEND
  5
D4
330
D1
100
AcDbEntity
  8
_U+30EC_U+30A4_U+30E4_U+30FC 1
 62
   179
420
  2234388
370
     9
  0
INSERT
  5
D6
330
1F
100
AcDbEntity
  8
_U+30EC_U+30A4_U+30E4_U+30FC 1
100
AcDbBlockReference
  2
block 6
 10
0.0
 20
0.0
 30
0.0
  0
ENDSEC
  0
SECTION
  2
OBJECTS
  0
DICTIONARY
  5
C
330
0
100
AcDbDictionary
281
     1
  3
ACAD_GROUP
350
D
  3
ACAD_LAYOUT
350
1A
  3
ACAD_MATERIAL
350
3B
  3
ACAD_MLEADERSTYLE
350
DC
  3
ACAD_MLINESTYLE
350
17
  3
ACAD_PLOTSETTINGS
350
19
  3
ACAD_PLOTSTYLENAME
350
E
  3
ACAD_TABLESTYLE
350
DB
  3
ACAD_VISUALSTYLE
350
2A
  0
SUN
  5
3F
330
29
100
AcDbSun
 90
        1
290
     0
 63
     7
421
 16777215
 40
1.0
291
     1
 91
  2455826
 92
 54000000
292
     0
 70
     2
 71
   256
280
     1
  0
DICTIONARY
  5
D
102
{ACAD_REACTORS
330
C
102
}
330
C
100
AcDbDictionary
281
     1
  0
DICTIONARY
  5
1A
102
{ACAD_REACTORS
330
C
102
}
330
C
100
AcDbDictionary
281
     1
  3
Layout1
350
1E
  3
Layout2
350
26
  3
Model
350
22
  0
DICTIONARY
  5
3B
102
{ACAD_REACTORS
330
C
102
}
330
C
100
AcDbDictionary
281
     1
  3
ByBlock
350
3D
  3
ByLayer
350
3C
  3
Global
350
3E
  0
DICTIONARY
  5
DC
102
{ACAD_REACTORS
330
C
102
}
330
C
100
AcDbDictionary
281
     1
  0
DICTIONARY
  5
17
102
{ACAD_REACTORS
330
C
102
}
330
C
100
AcDbDictionary
281
     1
  3
Standard
350
18
  0
DICTIONARY
  5
19
102
{ACAD_REACTORS
330
C
102
}
330
C
100
AcDbDictionary
281
     1
  0
ACDBDICTIONARYWDFLT
  5
E
102
{ACAD_REACTORS
330
C
102
}
330
C
100
AcDbDictionary
281
     1
  3
Normal
350
F
100
AcDbDictionaryWithDefault
340
F
  0
DICTIONARY
  5
DB
102
{ACAD_REACTORS
330
C
102
}
330
C
100
AcDbDictionary
281
     1
  0
DICTIONARY
  5
2A
102
{ACAD_REACTORS
330
C
102
}
330
C
100
AcDbDictionary
281
     1
  3
2dWireframe
350
2F
  3
3D Hidden
350
31
  3
3dWireframe
350
30
  3
Basic
350
32
  3
Brighten
350
36
  3
ColorChange
350
3A
  3
Conceptual
350
34
  3
Dim
350
35
  3
Facepattern
350
39
  3
Flat
350
2B
  3
FlatWithEdges
350
2C
  3
Gouraud
350
2D
  3
GouraudWithEdges
350
2E
  3
Linepattern
350
38
  3
Realistic
350
33
  3
Thicken
350
37
  0
LAYOUT
  5
1E
102
{ACAD_REACTORS
330
1A
102
}
330
1A
100
AcDbPlotSettings
  1

  2
none_device
  4

  6

 40
0.0
 41
0.0
 42
0.0
 43
0.0
 44
0.0
 45
0.0
 46
0.0
 47
0.0
 48
0.0
 49
0.0
140
0.0
141
0.0
142
1.0
143
1.0
 70
   688
 72
     0
 73
     0
 74
     5
  7

 75
    16
 76
     0
 77
     2
 78
   300
147
1.0
148
0.0
149
0.0
100
AcDbLayout
  1
Layout1
 70
     1
 71
     1
 10
0.0
 20
0.0
 11
12.0
 21
9.0
 12
0.0
 22
0.0
 32
0.0
 14
1.000000000000000E+20
 24
1.000000000000000E+20
 34
1.000000000000000E+20
 15
-1.000000000000000E+20
 25
-1.000000000000000E+20
 35
-1.000000000000000E+20
146
0.0
 13
0.0
 23
0.0
 33
0.0
 16
1.0
 26
0.0
 36
0.0
 17
0.0
 27
1.0
 37
0.0
 76
     0
330
1B
  0
LAYOUT
  5
26
102
{ACAD_REACTORS
330
1A
102
}
330
1A
100
AcDbPlotSettings
  1

  2
none_device
  4

  6

 40
0.0
 41
0.0
 42
0.0
 43
0.0
 44
0.0
 45
0.0
 46
0.0
 47
0.0
 48
0.0
 49
0.0
140
0.0
141
0.0
142
1.0
143
1.0
 70
   688
 72
     0
 73
     0
 74
     5
  7

 75
    16
 76
     0
 77
     2
 78
   300
147
1.0
148
0.0
149
0.0
100
AcDbLayout
  1
Layout2
 70
     1
 71
     2
 10
0.0
 20
0.0
 11
0.0
 21
0.0
 12
0.0
 22
0.0
 32
0.0
 14
0.0
 24
0.0
 34
0.0
 15
0.0
 25
0.0
 35
0.0
146
0.0
 13
0.0
 23
0.0
 33
0.0
 16
1.0
 26
0.0
 36
0.0
 17
0.0
 27
1.0
 37
0.0
 76
     0
330
23
  0
LAYOUT
  5
22
102
{ACAD_REACTORS
330
1A
102
}
330
1A
100
AcDbPlotSettings
  1

  2
none_device
  4

  6

 40
0.0
 41
0.0
 42
0.0
 43
0.0
 44
0.0
 45
0.0
 46
0.0
 47
0.0
 48
0.0
 49
0.0
140
0.0
141
0.0
142
1.0
143
1.0
 70
  1712
 72
     0
 73
     0
 74
     0
  7

 75
     0
 76
     0
 77
     2
 78
   300
147
1.0
148
0.0
149
0.0
100
AcDbLayout
  1
Model
 70
     1
 71
     0
 10
0.0
 20
0.0
 11
12.0
 21
9.0
 12
0.0
 22
0.0
 32
0.0
 14
1.000000000000000E+20
 24
1.000000000000000E+20
 34
1.000000000000000E+20
 15
-1.000000000000000E+20
 25
-1.000000000000000E+20
 35
-1.000000000000000E+20
146
0.0
 13
0.0
 23
0.0
 33
0.0
 16
1.0
 26
0.0
 36
0.0
 17
0.0
 27
1.0
 37
0.0
 76
     0
330
1F
331
29
  0
MATERIAL
  5
3D
102
{ACAD_REACTORS
330
3B
102
}
330
3B
100
AcDbMaterial
  1
ByBlock
 72
     1
 94
      127
  0
MATERIAL
  5
3C
102
{ACAD_REACTORS
330
3B
102
}
330
3B
100
AcDbMaterial
  1
ByLayer
 72
     1
 94
      127
  0
MATERIAL
  5
3E
102
{ACAD_REACTORS
330
3B
102
}
330
3B
100
AcDbMaterial
  1
Global
 72
     1
 94
      127
  0
MLINESTYLE
  5
18
102
{ACAD_REACTORS
330
17
102
}
330
17
100
AcDbMlineStyle
  2
Standard
 70
     0
  3

 62
   256
 51
90.0
 52
90.0
 71
     2
 49
0.5
 62
   256
  6
BYLAYER
 49
-0.5
 62
   256
  6
BYLAYER
  0
ACDBPLACEHOLDER
  5
F
102
{ACAD_REACTORS
330
E
102
}
330
E
  0
VISUALSTYLE
  5
2F
102
{ACAD_REACTORS
330
2A
102
}
330
2A
100
AcDbVisualStyle
  2
2dWireframe
 70
     4
177
     2
291
     0
 71
     0
176
     1
 72
     2
176
     1
 73
     0
176
     1
 90
        0
176
     1
 40
-0.6
176
     1
 41
-30.0
176
     1
 62
     5
 63
     7
421
 16777215
176
     1
 74
     1
176
     1
 91
        4
176
     1
 64
     7
176
     1
 65
   257
176
     1
 75
     1
176
     1
175
     1
176
     1
 42
1.0
176
     1
 92
        0
176
     1
 66
   257
176
     1
 43
1.0
176
     1
 76
     1
176
     1
 77
     6
176
     1
 78
     2
176
     1
 67
     7
176
     1
 79
     5
176
     1
170
     0
176
     1
171
     0
176
     1
290
     0
176
     1
 93
        1
176
     1
 44
0.0
176
     1
173
     0
176
     1
  0
VISUALSTYLE
  5
31
102
{ACAD_REACTORS
330
2A
102
}
330
2A
100
AcDbVisualStyle
  2
3D Hidden
 70
     6
177
     2
291
     0
 71
     1
176
     1
 72
     2
176
     1
 73
     2
176
     1
 90
        0
176
     1
 40
-0.6
176
     1
 41
-30.0
176
     1
 62
     5
 63
     7
421
 16777215
176
     1
 74
     2
176
     1
 91
        2
176
     1
 64
     7
176
     1
 65
   257
176
     1
 75
     2
176
     1
175
     1
176
     1
 42
40.0
176
     1
 92
        0
176
     1
 66
   257
176
     1
 43
1.0
176
     1
 76
     1
176
     1
 77
     6
176
     1
 78
     2
176
     1
 67
     7
176
     1
 79
     3
176
     1
170
     0
176
     1
171
     0
176
     1
290
     0
176
     1
 93
        1
176
     1
 44
0.0
176
     1
173
     0
176
     1
  0
VISUALSTYLE
  5
30
102
{ACAD_REACTORS
330
2A
102
}
330
2A
100
AcDbVisualStyle
  2
3dWireframe
 70
     5
177
     2
291
     0
 71
     0
176
     1
 72
     2
176
     1
 73
     0
176
     1
 90
        0
176
     1
 40
-0.6
176
     1
 41
-30.0
176
     1
 62
     5
 63
     7
421
 16777215
176
     1
 74
     1
176
     1
 91
        4
176
     1
 64
     7
176
     1
 65
   257
176
     1
 75
     1
176
     1
175
     1
176
     1
 42
1.0
176
     1
 92
        0
176
     1
 66
   257
176
     1
 43
1.0
176
     1
 76
     1
176
     1
 77
     6
176
     1
 78
     2
176
     1
 67
     7
176
     1
 79
     5
176
     1
170
     0
176
     1
171
     0
176
     1
290
     0
176
     1
 93
        1
176
     1
 44
0.0
176
     1
173
     0
176
     1
  0
VISUALSTYLE
  5
32
102
{ACAD_REACTORS
330
2A
102
}
330
2A
100
AcDbVisualStyle
  2
Basic
 70
     7
177
     2
291
     1
 71
     1
176
     1
 72
     0
176
     1
 73
     1
176
     1
 90
        0
176
     1
 40
-0.6
176
     1
 41
-30.0
176
     1
 62
     5
 63
     7
421
 16777215
176
     1
 74
     0
176
     1
 91
        4
176
     1
 64
     7
176
     1
 65
   257
176
     1
 75
     1
176
     1
175
     1
176
     1
 42
1.0
176
     1
 92
        8
176
     1
 66
     7
176
     1
 43
1.0
176
     1
 76
     1
176
     1
 77
     6
176
     1
 78
     2
176
     1
 67
     7
176
     1
 79
     5
176
     1
170
     0
176
     1
171
     0
176
     1
290
     0
176
     1
 93
        1
176
     1
 44
0.0
176
     1
173
     0
176
     1
  0
VISUALSTYLE
  5
36
102
{ACAD_REACTORS
330
2A
102
}
330
2A
100
AcDbVisualStyle
  2
Brighten
 70
    12
177
     2
291
     1
 71
     2
176
     1
 72
     2
176
     1
 73
     0
176
     1
 90
        0
176
     1
 40
-0.6
176
     1
 41
-30.0
176
     1
 62
     5
 63
     7
421
 16777215
176
     1
 74
     1
176
     1
 91
        4
176
     1
 64
     7
176
     1
 65
   257
176
     1
 75
     1
176
     1
175
     1
176
     1
 42
1.0
176
     1
 92
        8
176
     1
 66
     7
176
     1
 43
1.0
176
     1
 76
     1
176
     1
 77
     6
176
     1
 78
     2
176
     1
 67
     7
176
     1
 79
     5
176
     1
170
     0
176
     1
171
     0
176
     1
290
     0
176
     1
 93
        1
176
     1
 44
50.0
176
     1
173
     0
176
     1
  0
VISUALSTYLE
  5
3A
102
{ACAD_REACTORS
330
2A
102
}
330
2A
100
AcDbVisualStyle
  2
ColorChange
 70
    16
177
     2
291
     1
 71
     2
176
     1
 72
     2
176
     1
 73
     3
176
     1
 90
        0
176
     1
 40
-0.6
176
     1
 41
-30.0
176
     1
 62
     5
 63
     8
421
  8421504
176
     1
 74
     1
176
     1
 91
        4
176
     1
 64
     7
176
     1
 65
   257
176
     1
 75
     1
176
     1
175
     1
176
     1
 42
1.0
176
     1
 92
        8
176
     1
 66
     8
424
  8421504
176
     1
 43
1.0
176
     1
 76
     1
176
     1
 77
     6
176
     1
 78
     2
176
     1
 67
     7
176
     1
 79
     5
176
     1
170
     0
176
     1
171
     0
176
     1
290
     0
176
     1
 93
        1
176
     1
 44
0.0
176
     1
173
     0
176
     1
  0
VISUALSTYLE
  5
34
102
{ACAD_REACTORS
330
2A
102
}
330
2A
100
AcDbVisualStyle
  2
Conceptual
 70
     9
177
     2
291
     0
 71
     3
176
     1
 72
     2
176
     1
 73
     0
176
     1
 90
        0
176
     1
 40
-0.6
176
     1
 41
-30.0
176
     1
 62
     5
 63
     7
421
 16777215
176
     1
 74
     2
176
     1
 91
        2
176
     1
 64
     7
176
     1
 65
   257
176
     1
 75
     1
176
     1
175
     1
176
     1
 42
40.0
176
     1
 92
        8
176
     1
 66
     7
176
     1
 43
1.0
176
     1
 76
     1
176
     1
 77
     6
176
     1
 78
     2
176
     1
 67
     7
176
     1
 79
     3
176
     1
170
     0
176
     1
171
     0
176
     1
290
     0
176
     1
 93
        1
176
     1
 44
0.0
176
     1
173
     0
176
     1
  0
VISUALSTYLE
  5
35
102
{ACAD_REACTORS
330
2A
102
}
330
2A
100
AcDbVisualStyle
  2
Dim
 70
    11
177
     2
291
     1
 71
     2
176
     1
 72
     2
176
     1
 73
     0
176
     1
 90
        0
176
     1
 40
-0.6
176
     1
 41
-30.0
176
     1
 62
     5
 63
     7
421
 16777215
176
     1
 74
     1
176
     1
 91
        4
176
     1
 64
     7
176
     1
 65
   257
176
     1
 75
     1
176
     1
175
     1
176
     1
 42
1.0
176
     1
 92
        8
176
     1
 66
     7
176
     1
 43
1.0
176
     1
 76
     1
176
     1
 77
     6
176
     1
 78
     2
176
     1
 67
     7
176
     1
 79
     5
176
     1
170
     0
176
     1
171
     0
176
     1
290
     0
176
     1
 93
        1
176
     1
 44
-50.0
176
     1
173
     0
176
     1
  0
VISUALSTYLE
  5
39
102
{ACAD_REACTORS
330
2A
102
}
330
2A
100
AcDbVisualStyle
  2
Facepattern
 70
    15
177
     2
291
     1
 71
     2
176
     1
 72
     2
176
     1
 73
     0
176
     1
 90
        0
176
     1
 40
-0.6
176
     1
 41
-30.0
176
     1
 62
     5
 63
     7
421
 16777215
176
     1
 74
     1
176
     1
 91
        4
176
     1
 64
     7
176
     1
 65
   257
176
     1
 75
     1
176
     1
175
     1
176
     1
 42
1.0
176
     1
 92
        8
176
     1
 66
     7
176
     1
 43
1.0
176
     1
 76
     1
176
     1
 77
     6
176
     1
 78
     2
176
     1
 67
     7
176
     1
 79
     5
176
     1
170
     0
176
     1
171
     0
176
     1
290
     0
176
     1
 93
        1
176
     1
 44
0.0
176
     1
173
     0
176
     1
  0
VISUALSTYLE
  5
2B
102
{ACAD_REACTORS
330
2A
102
}
330
2A
100
AcDbVisualStyle
  2
Flat
 70
     0
177
     2
291
     1
 71
     2
176
     1
 72
     1
176
     1
 73
     1
176
     1
 90
        2
176
     1
 40
-0.6
176
     1
 41
30.0
176
     1
 62
     5
 63
     7
421
 16777215
176
     1
 74
     0
176
     1
 91
        4
176
     1
 64
     7
176
     1
 65
   257
176
     1
 75
     1
176
     1
175
     1
176
     1
 42
1.0
176
     1
 92
        8
176
     1
 66
     7
176
     1
 43
1.0
176
     1
 76
     1
176
     1
 77
     6
176
     1
 78
     2
176
     1
 67
     7
176
     1
 79
     5
176
     1
170
     0
176
     1
171
     0
176
     1
290
     0
176
     1
 93
       13
176
     1
 44
0.0
176
     1
173
     0
176
     1
  0
VISUALSTYLE
  5
2C
102
{ACAD_REACTORS
330
2A
102
}
330
2A
100
AcDbVisualStyle
  2
FlatWithEdges
 70
     1
177
     2
291
     1
 71
     2
176
     1
 72
     1
176
     1
 73
     1
176
     1
 90
        2
176
     1
 40
-0.6
176
     1
 41
30.0
176
     1
 62
     5
 63
     7
421
 16777215
176
     1
 74
     1
176
     1
 91
        4
176
     1
 64
     7
176
     1
 65
   257
176
     1
 75
     1
176
     1
175
     1
176
     1
 42
1.0
176
     1
 92
        0
176
     1
 66
   257
176
     1
 43
1.0
176
     1
 76
     1
176
     1
 77
     6
176
     1
 78
     2
176
     1
 67
     7
176
     1
 79
     5
176
     1
170
     0
176
     1
171
     0
176
     1
290
     0
176
     1
 93
       13
176
     1
 44
0.0
176
     1
173
     0
176
     1
  0
VISUALSTYLE
  5
2D
102
{ACAD_REACTORS
330
2A
102
}
330
2A
100
AcDbVisualStyle
  2
Gouraud
 70
     2
177
     2
291
     1
 71
     2
176
     1
 72
     2
176
     1
 73
     1
176
     1
 90
        2
176
     1
 40
-0.6
176
     1
 41
30.0
176
     1
 62
     5
 63
     7
421
 16777215
176
     1
 74
     0
176
     1
 91
        4
176
     1
 64
     7
176
     1
 65
   257
176
     1
 75
     1
176
     1
175
     1
176
     1
 42
1.0
176
     1
 92
        0
176
     1
 66
     7
176
     1
 43
1.0
176
     1
 76
     1
176
     1
 77
     6
176
     1
 78
     2
176
     1
 67
     7
176
     1
 79
     5
176
     1
170
     0
176
     1
171
     0
176
     1
290
     0
176
     1
 93
       13
176
     1
 44
0.0
176
     1
173
     0
176
     1
  0
VISUALSTYLE
  5
2E
102
{ACAD_REACTORS
330
2A
102
}
330
2A
100
AcDbVisualStyle
  2
GouraudWithEdges
 70
     3
177
     2
291
     1
 71
     2
176
     1
 72
     2
176
     1
 73
     1
176
     1
 90
        2
176
     1
 40
-0.6
176
     1
 41
30.0
176
     1
 62
     5
 63
     7
421
 16777215
176
     1
 74
     1
176
     1
 91
        4
176
     1
 64
     7
176
     1
 65
   257
176
     1
 75
     1
176
     1
175
     1
176
     1
 42
1.0
176
     1
 92
        0
176
     1
 66
   257
176
     1
 43
1.0
176
     1
 76
     1
176
     1
 77
     6
176
     1
 78
     2
176
     1
 67
     7
176
     1
 79
     5
176
     1
170
     0
176
     1
171
     0
176
     1
290
     0
176
     1
 93
       13
176
     1
 44
0.0
176
     1
173
     0
176
     1
  0
VISUALSTYLE
  5
38
102
{ACAD_REACTORS
330
2A
102
}
330
2A
100
AcDbVisualStyle
  2
Linepattern
 70
    14
177
     2
291
     1
 71
     2
176
     1
 72
     2
176
     1
 73
     0
176
     1
 90
        0
176
     1
 40
-0.6
176
     1
 41
-30.0
176
     1
 62
     5
 63
     7
421
 16777215
176
     1
 74
     1
176
     1
 91
        4
176
     1
 64
     7
176
     1
 65
   257
176
     1
 75
     7
176
     1
175
     7
176
     1
 42
1.0
176
     1
 92
        8
176
     1
 66
     7
176
     1
 43
1.0
176
     1
 76
     1
176
     1
 77
     6
176
     1
 78
     2
176
     1
 67
     7
176
     1
 79
     5
176
     1
170
     0
176
     1
171
     0
176
     1
290
     0
176
     1
 93
        1
176
     1
 44
0.0
176
     1
173
     0
176
     1
  0
VISUALSTYLE
  5
33
102
{ACAD_REACTORS
330
2A
102
}
330
2A
100
AcDbVisualStyle
  2
Realistic
 70
     8
177
     2
291
     0
 71
     2
176
     1
 72
     2
176
     1
 73
     0
176
     1
 90
        0
176
     1
 40
-0.6
176
     1
 41
-30.0
176
     1
 62
     5
 63
     7
421
 16777215
176
     1
 74
     1
176
     1
 91
        0
176
     1
 64
     7
176
     1
 65
   257
176
     1
 75
     1
176
     1
175
     1
176
     1
 42
1.0
176
     1
 92
        8
176
     1
 66
     8
424
  7895160
176
     1
 43
1.0
176
     1
 76
     1
176
     1
 77
     6
176
     1
 78
     2
176
     1
 67
     7
176
     1
 79
     5
176
     1
170
     0
176
     1
171
     0
176
     1
290
     0
176
     1
 93
       13
176
     1
 44
0.0
176
     1
173
     0
176
     1
  0
VISUALSTYLE
  5
37
102
{ACAD_REACTORS
330
2A
102
}
330
2A
100
AcDbVisualStyle
  2
Thicken
 70
    13
177
     2
291
     1
 71
     2
176
     1
 72
     2
176
     1
 73
     0
176
     1
 90
        0
176
     1
 40
-0.6
176
     1
 41
-30.0
176
     1
 62
     5
 63
     7
421
 16777215
176
     1
 74
     1
176
     1
 91
        4
176
     1
 64
     7
176
     1
 65
   257
176
     1
 75
     1
176
     1
175
     1
176
     1
 42
1.0
176
     1
 92
       12
176
     1
 66
     7
176
     1
 43
1.0
176
     1
 76
     1
176
     1
 77
     6
176
     1
 78
     2
176
     1
 67
     7
176
     1
 79
     5
176
     1
170
     0
176
     1
171
     0
176
     1
290
     0
176
     1
 93
        1
176
     1
 44
0.0
176
     1
173
     0
176
     1
  0
ENDSEC
  0
EOF
