  0
SECTION
  2
HEADER
  9
$ACADVER
  1
AC1024
  9
$ACADMAINTVER
 70
     6
  9
$DWGCODEPAGE
  3
UNDEFINED
  9
$INSBASE
 10
0.0
 20
0.0
 30
0.0
  9
$EXTMIN
 10
1.000000000000000E+20
 20
1.000000000000000E+20
 30
1.000000000000000E+20
  9
$EXTMAX
 10
-1.000000000000000E+20
 20
-1.000000000000000E+20
 30
-1.000000000000000E+20
  9
$LIMMIN
 10
0.0
 20
0.0
  9
$LIMMAX
 10
12.0
 20
9.0
  9
$ORTHOMODE
 70
     0
  9
$REGENMODE
 70
     1
  9
$FILLMODE
 70
     1
  9
$QTEXTMODE
 70
     0
  9
$MIRRTEXT
 70
     1
  9
$LTSCALE
 40
1.0
  9
$ATTMODE
 70
     1
  9
$TEXTSIZE
 40
0.2
  9
$TRACEWID
 40
0.05
  9
$TEXTSTYLE
  7
Standard
  9
$CLAYER
  8
0
  9
$CELTYPE
  6
ByLayer
  9
$CECOLOR
 62
   256
  9
$CELTSCALE
 40
1.0
  9
$DISPSILH
 70
     0
  9
$DIMSCALE
 40
1.0
  9
$DIMASZ
 40
0.18
  9
$DIMEXO
 40
0.0625
  9
$DIMDLI
 40
0.38
  9
$DIMRND
 40
0.0
  9
$DIMDLE
 40
0.0
  9
$DIMEXE
 40
0.18
  9
$DIMTP
 40
0.0
  9
$DIMTM
 40
0.0
  9
$DIMTXT
 40
0.18
  9
$DIMCEN
 40
0.09
  9
$DIMTSZ
 40
0.0
  9
$DIMTOL
 70
     0
  9
$DIMLIM
 70
     0
  9
$DIMTIH
 70
     1
  9
$DIMTOH
 70
     1
  9
$DIMSE1
 70
     0
  9
$DIMSE2
 70
     0
  9
$DIMTAD
 70
     0
  9
$DIMZIN
 70
     0
  9
$DIMBLK
  1

  9
$DIMASO
 70
     1
  9
$DIMSHO
 70
     1
  9
$DIMPOST
  1

  9
$DIMAPOST
  1

  9
$DIMALT
 70
     0
  9
$DIMALTD
 70
     2
  9
$DIMALTF
 40
25.4
  9
$DIMLFAC
 40
1.0
  9
$DIMTOFL
 70
     0
  9
$DIMTVP
 40
0.0
  9
$DIMTIX
 70
     0
  9
$DIMSOXD
 70
     0
  9
$DIMSAH
 70
     0
  9
$DIMBLK1
  1

  9
$DIMBLK2
  1

  9
$DIMSTYLE
  2
Standard
  9
$DIMCLRD
 70
     0
  9
$DIMCLRE
 70
     0
  9
$DIMCLRT
 70
     0
  9
$DIMTFAC
 40
1.0
  9
$DIMGAP
 40
0.09
  9
$DIMJUST
 70
     0
  9
$DIMSD1
 70
     0
  9
$DIMSD2
 70
     0
  9
$DIMTOLJ
 70
     1
  9
$DIMTZIN
 70
     0
  9
$DIMALTZ
 70
     0
  9
$DIMALTTZ
 70
     0
  9
$DIMUPT
 70
     0
  9
$DIMDEC
 70
     4
  9
$DIMTDEC
 70
     4
  9
$DIMALTU
 70
     2
  9
$DIMALTTD
 70
     2
  9
$DIMTXSTY
  7
Standard
  9
$DIMAUNIT
 70
     0
  9
$DIMADEC
 70
     0
  9
$DIMALTRND
 40
0.0
  9
$DIMAZIN
 70
     0
  9
$DIMDSEP
 70
    46
  9
$DIMATFIT
 70
     3
  9
$DIMFRAC
 70
     0
  9
$DIMLDRBLK
  1

  9
$DIMLUNIT
 70
     2
  9
$DIMLWD
 70
    -2
  9
$DIMLWE
 70
    -2
  9
$DIMTMOVE
 70
     0
  9
$DIMFXL
 40
1.0
  9
$DIMFXLON
 70
     0
  9
$DIMJOGANG
 40
0.7853981633974483
  9
$DIMTFILL
 70
     0
  9
$DIMTFILLCLR
 70
     0
  9
$DIMARCSYM
 70
     0
  9
$DIMLTYPE
  6

  9
$DIMLTEX1
  6

  9
$DIMLTEX2
  6

  9
$DIMTXTDIRECTION
 70
     0
  9
$LUNITS
 70
     2
  9
$LUPREC
 70
     4
  9
$SKETCHINC
 40
0.1
  9
$FILLETRAD
 40
0.5
  9
$AUNITS
 70
     0
  9
$AUPREC
 70
     0
  9
$MENU
  1
.
  9
$ELEVATION
 40
0.0
  9
$PELEVATION
 40
0.0
  9
$THICKNESS
 40
0.0
  9
$LIMCHECK
 70
     0
  9
$CHAMFERA
 40
0.5
  9
$CHAMFERB
 40
0.5
  9
$CHAMFERC
 40
1.0
  9
$CHAMFERD
 40
0.0
  9
$SKPOLY
 70
     0
  9
$TDCREATE
 40
2457917.618217593
  9
$TDUCREATE
 40
2457917.243217593
  9
$TDUPDATE
 40
2457917.618217593
  9
$TDUUPDATE
 40
2457917.243217593
  9
$TDINDWG
 40
0.0000000116
  9
$TDUSRTIMER
 40
0.0000000116
  9
$USRTIMER
 70
     1
  9
$ANGBASE
 50
0.0
  9
$ANGDIR
 70
     0
  9
$PDMODE
 70
     0
  9
$PDSIZE
 40
0.0
  9
$PLINEWID
 40
0.0
  9
$SPLFRAME
 70
     0
  9
$SPLINETYPE
 70
     6
  9
$SPLINESEGS
 70
     8
  9
$HANDSEED
  5
B4
  9
$SURFTAB1
 70
     6
  9
$SURFTAB2
 70
     6
  9
$SURFTYPE
 70
     6
  9
$SURFU
 70
     6
  9
$SURFV
 70
     6
  9
$UCSBASE
  2

  9
$UCSNAME
  2

  9
$UCSORG
 10
0.0
 20
0.0
 30
0.0
  9
$UCSXDIR
 10
1.0
 20
0.0
 30
0.0
  9
$UCSYDIR
 10
0.0
 20
1.0
 30
0.0
  9
$UCSORTHOREF
  2

  9
$UCSORTHOVIEW
 70
     0
  9
$UCSORGTOP
 10
0.0
 20
0.0
 30
0.0
  9
$UCSORGBOTTOM
 10
0.0
 20
0.0
 30
0.0
  9
$UCSORGLEFT
 10
0.0
 20
0.0
 30
0.0
  9
$UCSORGRIGHT
 10
0.0
 20
0.0
 30
0.0
  9
$UCSORGFRONT
 10
0.0
 20
0.0
 30
0.0
  9
$UCSORGBACK
 10
0.0
 20
0.0
 30
0.0
  9
$PUCSBASE
  2

  9
$PUCSNAME
  2

  9
$PUCSORG
 10
0.0
 20
0.0
 30
0.0
  9
$PUCSXDIR
 10
1.0
 20
0.0
 30
0.0
  9
$PUCSYDIR
 10
0.0
 20
1.0
 30
0.0
  9
$PUCSORTHOREF
  2

  9
$PUCSORTHOVIEW
 70
     0
  9
$PUCSORGTOP
 10
0.0
 20
0.0
 30
0.0
  9
$PUCSORGBOTTOM
 10
0.0
 20
0.0
 30
0.0
  9
$PUCSORGLEFT
 10
0.0
 20
0.0
 30
0.0
  9
$PUCSORGRIGHT
 10
0.0
 20
0.0
 30
0.0
  9
$PUCSORGFRONT
 10
0.0
 20
0.0
 30
0.0
  9
$PUCSORGBACK
 10
0.0
 20
0.0
 30
0.0
  9
$USERI1
 70
     0
  9
$USERI2
 70
     0
  9
$USERI3
 70
     0
  9
$USERI4
 70
     0
  9
$USERI5
 70
     0
  9
$USERR1
 40
0.0
  9
$USERR2
 40
0.0
  9
$USERR3
 40
0.0
  9
$USERR4
 40
0.0
  9
$USERR5
 40
0.0
  9
$WORLDVIEW
 70
     1
  9
$SHADEDGE
 70
     3
  9
$SHADEDIF
 70
    70
  9
$TILEMODE
 70
     1
  9
$MAXACTVP
 70
    64
  9
$PINSBASE
 10
0.0
 20
0.0
 30
0.0
  9
$PLIMCHECK
 70
     0
  9
$PEXTMIN
 10
1.000000000000000E+20
 20
1.000000000000000E+20
 30
1.000000000000000E+20
  9
$PEXTMAX
 10
-1.000000000000000E+20
 20
-1.000000000000000E+20
 30
-1.000000000000000E+20
  9
$PLIMMIN
 10
0.0
 20
0.0
  9
$PLIMMAX
 10
12.0
 20
9.0
  9
$UNITMODE
 70
     0
  9
$VISRETAIN
 70
     1
  9
$PLINEGEN
 70
     0
  9
$PSLTSCALE
 70
     1
  9
$TREEDEPTH
 70
  3020
  9
$CMLSTYLE
  2
Standard
  9
$CMLJUST
 70
     0
  9
$CMLSCALE
 40
1.0
  9
$PROXYGRAPHICS
 70
     1
  9
$MEASUREMENT
 70
     0
  9
$CELWEIGHT
370
    -1
  9
$ENDCAPS
280
     0
  9
$JOINSTYLE
280
     0
  9
$LWDISPLAY
290
     1
  9
$INSUNITS
 70
     1
  9
$HYPERLINKBASE
  1

  9
$STYLESHEET
  1

  9
$XEDIT
290
     1
  9
$CEPSNTYPE
380
     0
  9
$PSTYLEMODE
290
     1
  9
$FINGERPRINTGUID
  2
{9C2C3EB3-6B99-E361-F9EA-F04E8F090EF3}
  9
$VERSIONGUID
  2
{FAEB1C32-E019-11D5-929B-00C0DF256EC4}
  9
$EXTNAMES
290
     1
  9
$PSVPSCALE
 40
0.0
  9
$OLESTARTUP
290
     0
  9
$SORTENTS
280
   127
  9
$INDEXCTL
280
     0
  9
$HIDETEXT
280
     1
  9
$XCLIPFRAME
280
     2
  9
$HALOGAP
280
     0
  9
$OBSCOLOR
 70
   257
  9
$OBSLTYPE
280
     0
  9
$INTERSECTIONDISPLAY
280
     0
  9
$INTERSECTIONCOLOR
 70
   257
  9
$DIMASSOC
280
     2
  9
$PROJECTNAME
  1

  9
$CAMERADISPLAY
290
     0
  9
$LENSLENGTH
 40
50.0
  9
$CAMERAHEIGHT
 40
0.0
  9
$STEPSPERSEC
 40
2.0
  9
$STEPSIZE
 40
6.0
  9
$3DDWFPREC
 40
2.0
  9
$PSOLWIDTH
 40
0.25
  9
$PSOLHEIGHT
 40
4.0
  9
$LOFTANG1
 40
1.570796326794897
  9
$LOFTANG2
 40
1.570796326794897
  9
$LOFTMAG1
 40
0.0
  9
$LOFTMAG2
 40
0.0
  9
$LOFTPARAM
 70
     7
  9
$LOFTNORMALS
280
     1
  9
$LATITUDE
 40
37.795
  9
$LONGITUDE
 40
-122.394
  9
$NORTHDIRECTION
 40
0.0
  9
$TIMEZONE
 70
 -8000
  9
$LIGHTGLYPHDISPLAY
280
     1
  9
$TILEMODELIGHTSYNCH
280
     1
  9
$CMATERIAL
347
3C
  9
$SOLIDHIST
280
     1
  9
$SHOWHIST
280
     1
  9
$DWFFRAME
280
     2
  9
$DGNFRAME
280
     2
  9
$REALWORLDSCALE
290
     1
  9
$INTERFERECOLOR
 62
   256
  9
$CSHADOW
280
     0
  9
$SHADOWPLANELOCATION
 40
0.0
  0
ENDSEC
  0
SECTION
  2
CLASSES
  0
CLASS
  1
ACDBDICTIONARYWDFLT
  2
AcDbDictionaryWithDefault
  3
ObjectDBX Classes
 90
        0
 91
        4
280
     0
281
     0
  0
CLASS
  1
VISUALSTYLE
  2
AcDbVisualStyle
  3
ObjectDBX Classes
 90
     4095
 91
        4
280
     0
281
     0
  0
CLASS
  1
MATERIAL
  2
AcDbMaterial
  3
ObjectDBX Classes
 90
     1153
 91
        4
280
     0
281
     0
  0
CLASS
  1
SUN
  2
AcDbSun
  3
SCENEOE
 90
     1024
 91
        4
280
     0
281
     0
  0
ENDSEC
  0
SECTION
  2
TABLES
  0
TABLE
  2
VPORT
  5
8
330
0
100
AcDbSymbolTable
 70
     1
  0
VPORT
  5
29
330
8
100
AcDbSymbolTableRecord
100
AcDbViewportTableRecord
  2
*Active
 70
     0
 10
0.0
 20
0.0
 11
1.0
 21
1.0
 12
0.0
 22
0.0
 13
0.0
 23
0.0
 14
0.5
 24
0.5
 15
0.5
 25
0.5
 16
0.0
 26
0.0
 36
1.0
 17
91.00082462281999
 27
-128.4993055234307
 37
0.0
 40
256.9986110468615
 41
0.7081814508812795
 42
50.0
 43
0.0
 44
0.0
 50
0.0
 51
0.0
 71
     0
 72
   100
 73
     1
 74
     3
 75
     0
 76
     0
 77
     0
 78
     0
281
     0
 65
     1
110
0.0
120
0.0
130
0.0
111
1.0
121
0.0
131
0.0
112
0.0
122
1.0
132
0.0
 79
     0
146
0.0
 60
     3
 61
     5
292
     1
282
     1
141
0.0
142
0.0
 63
   250
361
3F
  0
ENDTAB
  0
TABLE
  2
LTYPE
  5
5
330
0
100
AcDbSymbolTable
 70
     1
  0
LTYPE
  5
14
330
5
100
AcDbSymbolTableRecord
100
AcDbLinetypeTableRecord
  2
ByBlock
 70
     0
  3

 72
    65
 73
     0
 40
0.0
  0
LTYPE
  5
15
330
5
100
AcDbSymbolTableRecord
100
AcDbLinetypeTableRecord
  2
ByLayer
 70
     0
  3

 72
    65
 73
     0
 40
0.0
  0
LTYPE
  5
16
330
5
100
AcDbSymbolTableRecord
100
AcDbLinetypeTableRecord
  2
Continuous
 70
     0
  3
Solid line
 72
    65
 73
     0
 40
0.0
  0
ENDTAB
  0
TABLE
  2
LAYER
  5
2
330
0
100
AcDbSymbolTable
 70
     2
  0
LAYER
  5
10
330
2
100
AcDbSymbolTableRecord
100
AcDbLayerTableRecord
  2
0
 70
     0
 62
     7
  6
Continuous
370
    -3
390
F
347
3E
  0
LAYER
  5
40
330
2
100
AcDbSymbolTableRecord
100
AcDbLayerTableRecord
  2
_U+30EC_U+30A4_U+30E4_U+30FC 1
 70
     0
 62
     7
  6
Continuous
370
    -3
390
F
347
3E
  0
ENDTAB
  0
TABLE
  2
STYLE
  5
3
330
0
100
AcDbSymbolTable
 70
     1
  0
STYLE
  5
11
330
3
100
AcDbSymbolTableRecord
100
AcDbTextStyleTableRecord
  2
Standard
 70
     0
 40
0.0
 41
1.0
 50
0.0
 71
     0
 42
0.2
  3
txt
  4

  0
ENDTAB
  0
TABLE
  2
VIEW
  5
6
330
0
100
AcDbSymbolTable
 70
     0
  0
ENDTAB
  0
TABLE
  2
UCS
  5
7
330
0
100
AcDbSymbolTable
 70
     0
  0
ENDTAB
  0
TABLE
  2
APPID
  5
9
330
0
100
AcDbSymbolTable
 70
     1
  0
APPID
  5
12
330
9
100
AcDbSymbolTableRecord
100
AcDbRegAppTableRecord
  2
ACAD
 70
     0
  0
ENDTAB
  0
TABLE
  2
DIMSTYLE
  5
A
330
0
100
AcDbSymbolTable
 70
     1
100
AcDbDimStyleTable
  0
DIMSTYLE
105
27
330
A
100
AcDbSymbolTableRecord
100
AcDbDimStyleTableRecord
  2
Standard
 70
     0
178
     0
340
11
  0
ENDTAB
  0
TABLE
  2
BLOCK_RECORD
  5
1
330
0
100
AcDbSymbolTable
 70
     5
  0
BLOCK_RECORD
  5
1F
330
1
100
AcDbSymbolTableRecord
100
AcDbBlockTableRecord
  2
*Model_Space
340
22
 70
     0
280
     1
281
     0
  0
BLOCK_RECORD
  5
1B
330
1
100
AcDbSymbolTableRecord
100
AcDbBlockTableRecord
  2
*Paper_Space
340
1E
 70
     0
280
     1
281
     0
  0
BLOCK_RECORD
  5
23
330
1
100
AcDbSymbolTableRecord
100
AcDbBlockTableRecord
  2
*Paper_Space0
340
26
 70
     0
280
     1
281
     0
  0
BLOCK_RECORD
  5
65
330
1
100
AcDbSymbolTableRecord
100
AcDbBlockTableRecord
  2
block 2
340
0
102
{BLKREFS
331
66
102
}
 70
     0
280
     1
281
     0
  0
BLOCK_RECORD
  5
6D
330
1
100
AcDbSymbolTableRecord
100
AcDbBlockTableRecord
  2
block 3
340
0
102
{BLKREFS
331
6E
102
}
 70
     0
280
     1
281
     0
  0
BLOCK_RECORD
  5
89
330
1
100
AcDbSymbolTableRecord
100
AcDbBlockTableRecord
  2
block 4
340
0
102
{BLKREFS
331
8A
102
}
 70
     0
280
     1
281
     0
  0
BLOCK_RECORD
  5
A1
330
1
100
AcDbSymbolTableRecord
100
AcDbBlockTableRecord
  2
block 5
340
0
102
{BLKREFS
331
A2
102
}
 70
     0
280
     1
281
     0
  0
ENDTAB
  0
ENDSEC
  0
SECTION
  2
BLOCKS
  0
BLOCK
  5
20
330
1F
100
AcDbEntity
  8
0
100
AcDbBlockBegin
  2
*Model_Space
 70
     0
 10
0.0
 20
0.0
 30
0.0
  3
*Model_Space
  1

  0
ENDBLK
  5
21
330
1F
100
AcDbEntity
  8
0
100
AcDbBlockEnd
  0
BLOCK
  5
1C
330
1B
100
AcDbEntity
 67
     1
  8
0
100
AcDbBlockBegin
  2
*Paper_Space
 70
     0
 10
0.0
 20
0.0
 30
0.0
  3
*Paper_Space
  1

  0
ENDBLK
  5
1D
330
1B
100
AcDbEntity
 67
     1
  8
0
100
AcDbBlockEnd
  0
BLOCK
  5
24
330
23
100
AcDbEntity
  8
0
100
AcDbBlockBegin
  2
*Paper_Space0
 70
     0
 10
0.0
 20
0.0
 30
0.0
  3
*Paper_Space0
  1

  0
ENDBLK
  5
25
330
23
100
AcDbEntity
  8
0
100
AcDbBlockEnd
  0
BLOCK
  5
67
330
65
100
AcDbEntity
  8
0
100
AcDbBlockBegin
  2
block 2
 70
     0
 10
0.0
 20
0.0
 30
0.0
  3
block 2
  1

  0
SPLINE
  5
69
330
65
100
AcDbEntity
  8
_U+30EC_U+30A4_U+30E4_U+30FC 1
370
     0
100
AcDbSpline
210
0.0
220
0.0
230
1.0
 70
    11
 71
     3
 72
    26
 73
    22
 74
     0
 42
0.0000000001
 43
0.0000000001
 12
1.0
 22
0.0
 32
0.0
 13
1.0
 23
0.0
 33
0.0
 40
0.0
 40
0.0
 40
0.0
 40
0.0
 40
1.0
 40
1.0
 40
1.0
 40
2.0
 40
2.0
 40
2.0
 40
3.0
 40
3.0
 40
3.0
 40
4.0
 40
4.0
 40
4.0
 40
5.0
 40
5.0
 40
5.0
 40
6.0
 40
6.0
 40
6.0
 40
7.0
 40
7.0
 40
7.0
 40
7.0
 10
117.6947970625902
 20
-144.8359483144855
 30
0.0
 10
117.6947970625902
 20
-144.8359483144855
 30
0.0
 10
116.5906439595676
 20
-144.8359483144855
 30
0.0
 10
116.5906439595676
 20
-144.8359483144855
 30
0.0
 10
116.5906439595676
 20
-144.8359483144855
 30
0.0
 10
116.5906439595676
 20
-145.1659884619724
 30
0.0
 10
116.5906439595676
 20
-145.1659884619724
 30
0.0
 10
116.5906439595676
 20
-145.1659884619724
 30
0.0
 10
116.4425048537019
 20
-145.1659884619724
 30
0.0
 10
116.4425048537019
 20
-145.1659884619724
 30
0.0
 10
116.4276909431153
 20
-144.8338812571943
 30
0.0
 10
116.264737926663
 20
-144.7873724681434
 30
0.0
 10
116.1503607565527
 20
-144.7577446469703
 30
0.0
 10
116.1503607565527
 20
-144.7577446469703
 30
0.0
 10
116.1503607565527
 20
-144.6116725983957
 30
0.0
 10
116.1503607565527
 20
-144.6116725983957
 30
0.0
 10
116.1503607565527
 20
-144.6116725983957
 30
0.0
 10
117.6947970625902
 20
-144.6116725983957
 30
0.0
 10
117.6947970625902
 20
-144.6116725983957
 30
0.0
 10
117.6947970625902
 20
-144.6116725983957
 30
0.0
 10
117.6947970625902
 20
-144.8359483144855
 30
0.0
 10
117.6947970625902
 20
-144.8359483144855
 30
0.0
  0
HATCH
  5
6A
330
65
100
AcDbEntity
  8
_U+30EC_U+30A4_U+30E4_U+30FC 1
 62
   179
420
  2234388
100
AcDbHatch
 10
0.0
 20
0.0
 30
0.0
210
0.0
220
0.0
230
1.0
  2
SOLID
 70
     1
 71
     0
 91
        1
 92
        1
 93
        1
 72
     4
 94
        3
 73
     0
 74
     1
 95
       26
 96
       22
 40
0.0
 40
0.0
 40
0.0
 40
0.0
 40
1.0
 40
1.0
 40
1.0
 40
2.0
 40
2.0
 40
2.0
 40
3.0
 40
3.0
 40
3.0
 40
4.0
 40
4.0
 40
4.0
 40
5.0
 40
5.0
 40
5.0
 40
6.0
 40
6.0
 40
6.0
 40
7.0
 40
7.0
 40
7.0
 40
7.0
 10
117.6947970625902
 20
-144.8359483144855
 10
117.6947970625902
 20
-144.8359483144855
 10
116.5906439595676
 20
-144.8359483144855
 10
116.5906439595676
 20
-144.8359483144855
 10
116.5906439595676
 20
-144.8359483144855
 10
116.5906439595676
 20
-145.1659884619724
 10
116.5906439595676
 20
-145.1659884619724
 10
116.5906439595676
 20
-145.1659884619724
 10
116.4425048537019
 20
-145.1659884619724
 10
116.4425048537019
 20
-145.1659884619724
 10
116.4276909431153
 20
-144.8338812571943
 10
116.264737926663
 20
-144.7873724681434
 10
116.1503607565527
 20
-144.7577446469703
 10
116.1503607565527
 20
-144.7577446469703
 10
116.1503607565527
 20
-144.6116725983957
 10
116.1503607565527
 20
-144.6116725983957
 10
116.1503607565527
 20
-144.6116725983957
 10
117.6947970625902
 20
-144.6116725983957
 10
117.6947970625902
 20
-144.6116725983957
 10
117.6947970625902
 20
-144.6116725983957
 10
117.6947970625902
 20
-144.8359483144855
 10
117.6947970625902
 20
-144.8359483144855
 97
        0
 97
        0
 75
     2
 76
     1
 98
        0
  0
SPLINE
  5
6B
330
65
100
AcDbEntity
  8
_U+30EC_U+30A4_U+30E4_U+30FC 1
370
     0
100
AcDbSpline
210
0.0
220
0.0
230
1.0
 70
    11
 71
     3
 72
    62
 73
    58
 74
     0
 42
0.0000000001
 43
0.0000000001
 12
1.0
 22
0.0
 32
0.0
 13
1.0
 23
0.0
 33
0.0
 40
0.0
 40
0.0
 40
0.0
 40
0.0
 40
1.0
 40
1.0
 40
1.0
 40
2.0
 40
2.0
 40
2.0
 40
3.0
 40
3.0
 40
3.0
 40
4.0
 40
4.0
 40
4.0
 40
5.0
 40
5.0
 40
5.0
 40
6.0
 40
6.0
 40
6.0
 40
7.0
 40
7.0
 40
7.0
 40
8.0
 40
8.0
 40
8.0
 40
9.0
 40
9.0
 40
9.0
 40
10.0
 40
10.0
 40
10.0
 40
11.0
 40
11.0
 40
11.0
 40
12.0
 40
12.0
 40
12.0
 40
13.0
 40
13.0
 40
13.0
 40
14.0
 40
14.0
 40
14.0
 40
15.0
 40
15.0
 40
15.0
 40
16.0
 40
16.0
 40
16.0
 40
17.0
 40
17.0
 40
17.0
 40
18.0
 40
18.0
 40
18.0
 40
19.0
 40
19.0
 40
19.0
 40
19.0
 10
117.7454399662234
 20
-143.6187960795467
 30
0.0
 10
117.7454399662234
 20
-143.7142252244881
 30
0.0
 10
117.7244248837633
 20
-143.9319552591559
 30
0.0
 10
117.5383897275598
 20
-144.0570122252705
 30
0.0
 10
117.4260796147407
 20
-144.1307372686548
 30
0.0
 10
117.3268608647655
 20
-144.1352158927857
 30
0.0
 10
117.2421115158284
 20
-144.1393500073679
 30
0.0
 10
117.2421115158284
 20
-144.1393500073679
 30
0.0
 10
117.2421115158284
 20
-143.9192084058605
 30
0.0
 10
117.2421115158284
 20
-143.9192084058605
 30
0.0
 10
117.3161810687612
 20
-143.9171413485693
 30
0.0
 10
117.5507920713067
 20
-143.9068060621136
 30
0.0
 10
117.5507920713067
 20
-143.6232747036775
 30
0.0
 10
117.5507920713067
 20
-143.485815393816
 30
0.0
 10
117.4812011425047
 20
-143.3331976638195
 30
0.0
 10
117.2527913118326
 20
-143.3331976638195
 30
0.0
 10
117.1363470844312
 20
-143.3331976638195
 30
0.0
 10
117.0877712380892
 20
-143.3714382237058
 30
0.0
 10
117.0560763596249
 20
-143.40313310217
 30
0.0
 10
116.982006806692
 20
-143.4772026551029
 30
0.0
 10
116.9692599533966
 20
-143.5936468825044
 30
0.0
 10
116.9692599533966
 20
-143.6484239007198
 30
0.0
 10
116.9692599533966
 20
-143.6677164354373
 30
0.0
 10
116.9713270106877
 20
-143.7035454284838
 30
0.0
 10
116.97546112527
 20
-143.7311061923658
 30
0.0
 10
116.97546112527
 20
-143.7311061923658
 30
0.0
 10
116.7808132303534
 20
-143.7311061923658
 30
0.0
 10
116.7808132303534
 20
-143.7311061923658
 30
0.0
 10
116.7873589117754
 20
-143.6928656324796
 30
0.0
 10
116.7894259690665
 20
-143.6508354675595
 30
0.0
 10
116.7894259690665
 20
-143.6442897861375
 30
0.0
 10
116.7894259690665
 20
-143.5788329719178
 30
0.0
 10
116.768066377058
 20
-143.3800509624189
 30
0.0
 10
116.5313883172213
 20
-143.3800509624189
 30
0.0
 10
116.3536213901824
 20
-143.3800509624189
 30
0.0
 10
116.2984998624184
 20
-143.5109645908584
 30
0.0
 10
116.2984998624184
 20
-143.6212076463864
 30
0.0
 10
116.2984998624184
 20
-143.885446470105
 30
0.0
 10
116.5313883172213
 20
-143.8940592088182
 30
0.0
 10
116.6030463033145
 20
-143.8981933234004
 30
0.0
 10
116.6030463033145
 20
-143.8981933234004
 30
0.0
 10
116.6030463033145
 20
-144.1014539570302
 30
0.0
 10
116.6030463033145
 20
-144.1014539570302
 30
0.0
 10
116.4783338467485
 20
-144.0928412183171
 30
0.0
 10
116.1017849102107
 20
-144.0652804544351
 30
0.0
 10
116.1017849102107
 20
-143.608460793091
 30
0.0
 10
116.1017849102107
 20
-143.3841850770012
 30
0.0
 10
116.2289089336164
 20
-143.1430283930337
 30
0.0
 10
116.5248426357993
 20
-143.1430283930337
 30
0.0
 10
116.7112223015514
 20
-143.1430283930337
 30
0.0
 10
116.7935600836488
 20
-143.2381130284266
 30
0.0
 10
116.8548827832863
 20
-143.3376762879503
 30
0.0
 10
116.8824435471683
 20
-143.2763535883129
 30
0.0
 10
116.9627142719746
 20
-143.0944525466917
 30
0.0
 10
117.2400444585372
 20
-143.0944525466917
 30
0.0
 10
117.5783528351888
 20
-143.0944525466917
 30
0.0
 10
117.7454399662234
 20
-143.3418104025326
 30
0.0
 10
117.7454399662234
 20
-143.6187960795467
 30
0.0
  0
HATCH
  5
6C
330
65
100
AcDbEntity
  8
_U+30EC_U+30A4_U+30E4_U+30FC 1
 62
   179
420
  2234388
100
AcDbHatch
 10
0.0
 20
0.0
 30
0.0
210
0.0
220
0.0
230
1.0
  2
SOLID
 70
     1
 71
     0
 91
        1
 92
        1
 93
        1
 72
     4
 94
        3
 73
     0
 74
     1
 95
       62
 96
       58
 40
0.0
 40
0.0
 40
0.0
 40
0.0
 40
1.0
 40
1.0
 40
1.0
 40
2.0
 40
2.0
 40
2.0
 40
3.0
 40
3.0
 40
3.0
 40
4.0
 40
4.0
 40
4.0
 40
5.0
 40
5.0
 40
5.0
 40
6.0
 40
6.0
 40
6.0
 40
7.0
 40
7.0
 40
7.0
 40
8.0
 40
8.0
 40
8.0
 40
9.0
 40
9.0
 40
9.0
 40
10.0
 40
10.0
 40
10.0
 40
11.0
 40
11.0
 40
11.0
 40
12.0
 40
12.0
 40
12.0
 40
13.0
 40
13.0
 40
13.0
 40
14.0
 40
14.0
 40
14.0
 40
15.0
 40
15.0
 40
15.0
 40
16.0
 40
16.0
 40
16.0
 40
17.0
 40
17.0
 40
17.0
 40
18.0
 40
18.0
 40
18.0
 40
19.0
 40
19.0
 40
19.0
 40
19.0
 10
117.7454399662234
 20
-143.6187960795467
 10
117.7454399662234
 20
-143.7142252244881
 10
117.7244248837633
 20
-143.9319552591559
 10
117.5383897275598
 20
-144.0570122252705
 10
117.4260796147407
 20
-144.1307372686548
 10
117.3268608647655
 20
-144.1352158927857
 10
117.2421115158284
 20
-144.1393500073679
 10
117.2421115158284
 20
-144.1393500073679
 10
117.2421115158284
 20
-143.9192084058605
 10
117.2421115158284
 20
-143.9192084058605
 10
117.3161810687612
 20
-143.9171413485693
 10
117.5507920713067
 20
-143.9068060621136
 10
117.5507920713067
 20
-143.6232747036775
 10
117.5507920713067
 20
-143.485815393816
 10
117.4812011425047
 20
-143.3331976638195
 10
117.2527913118326
 20
-143.3331976638195
 10
117.1363470844312
 20
-143.3331976638195
 10
117.0877712380892
 20
-143.3714382237058
 10
117.0560763596249
 20
-143.40313310217
 10
116.982006806692
 20
-143.4772026551029
 10
116.9692599533966
 20
-143.5936468825044
 10
116.9692599533966
 20
-143.6484239007198
 10
116.9692599533966
 20
-143.6677164354373
 10
116.9713270106877
 20
-143.7035454284838
 10
116.97546112527
 20
-143.7311061923658
 10
116.97546112527
 20
-143.7311061923658
 10
116.7808132303534
 20
-143.7311061923658
 10
116.7808132303534
 20
-143.7311061923658
 10
116.7873589117754
 20
-143.6928656324796
 10
116.7894259690665
 20
-143.6508354675595
 10
116.7894259690665
 20
-143.6442897861375
 10
116.7894259690665
 20
-143.5788329719178
 10
116.768066377058
 20
-143.3800509624189
 10
116.5313883172213
 20
-143.3800509624189
 10
116.3536213901824
 20
-143.3800509624189
 10
116.2984998624184
 20
-143.5109645908584
 10
116.2984998624184
 20
-143.6212076463864
 10
116.2984998624184
 20
-143.885446470105
 10
116.5313883172213
 20
-143.8940592088182
 10
116.6030463033145
 20
-143.8981933234004
 10
116.6030463033145
 20
-143.8981933234004
 10
116.6030463033145
 20
-144.1014539570302
 10
116.6030463033145
 20
-144.1014539570302
 10
116.4783338467485
 20
-144.0928412183171
 10
116.1017849102107
 20
-144.0652804544351
 10
116.1017849102107
 20
-143.608460793091
 10
116.1017849102107
 20
-143.3841850770012
 10
116.2289089336164
 20
-143.1430283930337
 10
116.5248426357993
 20
-143.1430283930337
 10
116.7112223015514
 20
-143.1430283930337
 10
116.7935600836488
 20
-143.2381130284266
 10
116.8548827832863
 20
-143.3376762879503
 10
116.8824435471683
 20
-143.2763535883129
 10
116.9627142719746
 20
-143.0944525466917
 10
117.2400444585372
 20
-143.0944525466917
 10
117.5783528351888
 20
-143.0944525466917
 10
117.7454399662234
 20
-143.3418104025326
 10
117.7454399662234
 20
-143.6187960795467
 97
        0
 97
        0
 75
     2
 76
     1
 98
        0
  0
ENDBLK
  5
68
330
65
100
AcDbEntity
  8
0
100
AcDbBlockEnd
  0
BLOCK
  5
6F
330
6D
100
AcDbEntity
  8
0
100
AcDbBlockBegin
  2
block 3
 70
     0
 10
0.0
 20
0.0
 30
0.0
  3
block 3
  1

  0
SPLINE
  5
71
330
6D
100
AcDbEntity
  8
_U+30EC_U+30A4_U+30E4_U+30FC 1
370
     0
100
AcDbSpline
210
0.0
220
0.0
230
1.0
 70
    11
 71
     3
 72
    26
 73
    22
 74
     0
 42
0.0000000001
 43
0.0000000001
 12
1.0
 22
0.0
 32
0.0
 13
1.0
 23
0.0
 33
0.0
 40
0.0
 40
0.0
 40
0.0
 40
0.0
 40
1.0
 40
1.0
 40
1.0
 40
2.0
 40
2.0
 40
2.0
 40
3.0
 40
3.0
 40
3.0
 40
4.0
 40
4.0
 40
4.0
 40
5.0
 40
5.0
 40
5.0
 40
6.0
 40
6.0
 40
6.0
 40
7.0
 40
7.0
 40
7.0
 40
7.0
 10
117.6947970625902
 20
-135.948980000735
 30
0.0
 10
117.6947970625902
 20
-135.948980000735
 30
0.0
 10
116.5906439595676
 20
-135.948980000735
 30
0.0
 10
116.5906439595676
 20
-135.948980000735
 30
0.0
 10
116.5906439595676
 20
-135.948980000735
 30
0.0
 10
116.5906439595676
 20
-136.2790201482219
 30
0.0
 10
116.5906439595676
 20
-136.2790201482219
 30
0.0
 10
116.5906439595676
 20
-136.2790201482219
 30
0.0
 10
116.4425048537019
 20
-136.2790201482219
 30
0.0
 10
116.4425048537019
 20
-136.2790201482219
 30
0.0
 10
116.4276909431153
 20
-135.9469129434438
 30
0.0
 10
116.264737926663
 20
-135.900404154393
 30
0.0
 10
116.1503607565527
 20
-135.8707763332198
 30
0.0
 10
116.1503607565527
 20
-135.8707763332198
 30
0.0
 10
116.1503607565527
 20
-135.7247042846452
 30
0.0
 10
116.1503607565527
 20
-135.7247042846452
 30
0.0
 10
116.1503607565527
 20
-135.7247042846452
 30
0.0
 10
117.6947970625902
 20
-135.7247042846452
 30
0.0
 10
117.6947970625902
 20
-135.7247042846452
 30
0.0
 10
117.6947970625902
 20
-135.7247042846452
 30
0.0
 10
117.6947970625902
 20
-135.948980000735
 30
0.0
 10
117.6947970625902
 20
-135.948980000735
 30
0.0
  0
HATCH
  5
72
330
6D
100
AcDbEntity
  8
_U+30EC_U+30A4_U+30E4_U+30FC 1
 62
   179
420
  2234388
100
AcDbHatch
 10
0.0
 20
0.0
 30
0.0
210
0.0
220
0.0
230
1.0
  2
SOLID
 70
     1
 71
     0
 91
        1
 92
        1
 93
        1
 72
     4
 94
        3
 73
     0
 74
     1
 95
       26
 96
       22
 40
0.0
 40
0.0
 40
0.0
 40
0.0
 40
1.0
 40
1.0
 40
1.0
 40
2.0
 40
2.0
 40
2.0
 40
3.0
 40
3.0
 40
3.0
 40
4.0
 40
4.0
 40
4.0
 40
5.0
 40
5.0
 40
5.0
 40
6.0
 40
6.0
 40
6.0
 40
7.0
 40
7.0
 40
7.0
 40
7.0
 10
117.6947970625902
 20
-135.948980000735
 10
117.6947970625902
 20
-135.948980000735
 10
116.5906439595676
 20
-135.948980000735
 10
116.5906439595676
 20
-135.948980000735
 10
116.5906439595676
 20
-135.948980000735
 10
116.5906439595676
 20
-136.2790201482219
 10
116.5906439595676
 20
-136.2790201482219
 10
116.5906439595676
 20
-136.2790201482219
 10
116.4425048537019
 20
-136.2790201482219
 10
116.4425048537019
 20
-136.2790201482219
 10
116.4276909431153
 20
-135.9469129434438
 10
116.264737926663
 20
-135.900404154393
 10
116.1503607565527
 20
-135.8707763332198
 10
116.1503607565527
 20
-135.8707763332198
 10
116.1503607565527
 20
-135.7247042846452
 10
116.1503607565527
 20
-135.7247042846452
 10
116.1503607565527
 20
-135.7247042846452
 10
117.6947970625902
 20
-135.7247042846452
 10
117.6947970625902
 20
-135.7247042846452
 10
117.6947970625902
 20
-135.7247042846452
 10
117.6947970625902
 20
-135.948980000735
 10
117.6947970625902
 20
-135.948980000735
 97
        0
 97
        0
 75
     2
 76
     1
 98
        0
  0
POLYLINE
  5
73
330
6D
100
AcDbEntity
  8
_U+30EC_U+30A4_U+30E4_U+30FC 1
370
     0
100
AcDb2dPolyline
 66
     1
 10
0.0
 20
0.0
 30
0.0
  0
VERTEX
  5
74
330
73
100
AcDbEntity
  8
_U+30EC_U+30A4_U+30E4_U+30FC 1
370
     0
100
AcDbVertex
100
AcDb2dVertex
 10
117.6947970625902
 20
-135.163498230098
 30
0.0
  0
VERTEX
  5
75
330
73
100
AcDbEntity
  8
_U+30EC_U+30A4_U+30E4_U+30FC 1
370
     0
100
AcDbVertex
100
AcDb2dVertex
 10
117.4429605826184
 20
-135.163498230098
 30
0.0
  0
VERTEX
  5
76
330
73
100
AcDbEntity
  8
_U+30EC_U+30A4_U+30E4_U+30FC 1
370
     0
100
AcDbVertex
100
AcDb2dVertex
 10
117.4429605826184
 20
-134.9116617501263
 30
0.0
  0
VERTEX
  5
77
330
73
100
AcDbEntity
  8
_U+30EC_U+30A4_U+30E4_U+30FC 1
370
     0
100
AcDbVertex
100
AcDb2dVertex
 10
117.6947970625902
 20
-134.9116617501263
 30
0.0
  0
VERTEX
  5
78
330
73
100
AcDbEntity
  8
_U+30EC_U+30A4_U+30E4_U+30FC 1
370
     0
100
AcDbVertex
100
AcDb2dVertex
 10
117.6947970625902
 20
-135.163498230098
 30
0.0
  0
SEQEND
  5
79
330
73
100
AcDbEntity
  8
_U+30EC_U+30A4_U+30E4_U+30FC 1
370
     0
  0
HATCH
  5
7A
330
6D
100
AcDbEntity
  8
_U+30EC_U+30A4_U+30E4_U+30FC 1
 62
   179
420
  2234388
100
AcDbHatch
 10
0.0
 20
0.0
 30
0.0
210
0.0
220
0.0
230
1.0
  2
SOLID
 70
     1
 71
     0
 91
        1
 92
        1
 93
        4
 72
     1
 10
117.6947970625902
 20
-135.163498230098
 11
117.4429605826184
 21
-135.163498230098
 72
     1
 10
117.4429605826184
 20
-135.163498230098
 11
117.4429605826184
 21
-134.9116617501263
 72
     1
 10
117.4429605826184
 20
-134.9116617501263
 11
117.6947970625902
 21
-134.9116617501263
 72
     1
 10
117.6947970625902
 20
-134.9116617501263
 11
117.6947970625902
 21
-135.163498230098
 97
        0
 75
     2
 76
     1
 98
        0
  0
SPLINE
  5
7B
330
6D
100
AcDbEntity
  8
_U+30EC_U+30A4_U+30E4_U+30FC 1
370
     0
100
AcDbSpline
210
0.0
220
0.0
230
1.0
 70
    11
 71
     3
 72
    44
 73
    40
 74
     0
 42
0.0000000001
 43
0.0000000001
 12
1.0
 22
0.0
 32
0.0
 13
1.0
 23
0.0
 33
0.0
 40
0.0
 40
0.0
 40
0.0
 40
0.0
 40
1.0
 40
1.0
 40
1.0
 40
2.0
 40
2.0
 40
2.0
 40
3.0
 40
3.0
 40
3.0
 40
4.0
 40
4.0
 40
4.0
 40
5.0
 40
5.0
 40
5.0
 40
6.0
 40
6.0
 40
6.0
 40
7.0
 40
7.0
 40
7.0
 40
8.0
 40
8.0
 40
8.0
 40
9.0
 40
9.0
 40
9.0
 40
10.0
 40
10.0
 40
10.0
 40
11.0
 40
11.0
 40
11.0
 40
12.0
 40
12.0
 40
12.0
 40
13.0
 40
13.0
 40
13.0
 40
13.0
 10
117.1129204351315
 20
-134.0824272668266
 30
0.0
 10
117.2717393370015
 20
-134.3001573014944
 30
0.0
 10
117.3458088899344
 20
-134.3931748795962
 30
0.0
 10
117.4894693716693
 20
-134.4420952354867
 30
0.0
 10
117.4894693716693
 20
-134.4420952354867
 30
0.0
 10
117.4894693716693
 20
-133.6635036558203
 30
0.0
 10
117.4894693716693
 20
-133.6635036558203
 30
0.0
 10
117.4894693716693
 20
-133.6635036558203
 30
0.0
 10
117.6947970625902
 20
-133.6635036558203
 30
0.0
 10
117.6947970625902
 20
-133.6635036558203
 30
0.0
 10
117.6947970625902
 20
-133.6635036558203
 30
0.0
 10
117.6947970625902
 20
-134.6915201486188
 30
0.0
 10
117.6947970625902
 20
-134.6915201486188
 30
0.0
 10
117.3371961512213
 20
-134.6598252701545
 30
0.0
 10
117.2589924837061
 20
-134.5943684559348
 30
0.0
 10
116.9606472146834
 20
-134.2092067806838
 30
0.0
 10
116.7618652051845
 20
-133.9532361861297
 30
0.0
 10
116.6939968241251
 20
-133.88777937191
 30
0.0
 10
116.5565375142637
 20
-133.88777937191
 30
0.0
 10
116.4380262295711
 20
-133.88777937191
 30
0.0
 10
116.3071126011316
 20
-133.9597818675517
 30
0.0
 10
116.3071126011316
 20
-134.1564968197595
 30
0.0
 10
116.3071126011316
 20
-134.4166015288959
 30
0.0
 10
116.5375894890948
 20
-134.425214267609
 30
0.0
 10
116.6540337164962
 20
-134.4293483821913
 30
0.0
 10
116.6540337164962
 20
-134.4293483821913
 30
0.0
 10
116.6540337164962
 20
-134.6536240982811
 30
0.0
 10
116.6540337164962
 20
-134.6536240982811
 30
0.0
 10
116.5269096930905
 20
-134.6450113595679
 30
0.0
 10
116.4149440898199
 20
-134.6343315635636
 30
0.0
 10
116.2964328051273
 20
-134.5540608387573
 30
0.0
 10
116.1355468459661
 20
-134.4441622927779
 30
0.0
 10
116.1017849102107
 20
-134.2577826270258
 30
0.0
 10
116.1017849102107
 20
-134.1416829091729
 30
0.0
 10
116.1017849102107
 20
-133.8643527226103
 30
0.0
 10
116.285753009123
 20
-133.6569579743983
 30
0.0
 10
116.5586045715548
 20
-133.6569579743983
 30
0.0
 10
116.7873589117754
 20
-133.6569579743983
 30
0.0
 10
116.8865776617506
 20
-133.7734022017997
 30
0.0
 10
117.1129204351315
 20
-134.0824272668266
 30
0.0
  0
HATCH
  5
7C
330
6D
100
AcDbEntity
  8
_U+30EC_U+30A4_U+30E4_U+30FC 1
 62
   179
420
  2234388
100
AcDbHatch
 10
0.0
 20
0.0
 30
0.0
210
0.0
220
0.0
230
1.0
  2
SOLID
 70
     1
 71
     0
 91
        1
 92
        1
 93
        1
 72
     4
 94
        3
 73
     0
 74
     1
 95
       44
 96
       40
 40
0.0
 40
0.0
 40
0.0
 40
0.0
 40
1.0
 40
1.0
 40
1.0
 40
2.0
 40
2.0
 40
2.0
 40
3.0
 40
3.0
 40
3.0
 40
4.0
 40
4.0
 40
4.0
 40
5.0
 40
5.0
 40
5.0
 40
6.0
 40
6.0
 40
6.0
 40
7.0
 40
7.0
 40
7.0
 40
8.0
 40
8.0
 40
8.0
 40
9.0
 40
9.0
 40
9.0
 40
10.0
 40
10.0
 40
10.0
 40
11.0
 40
11.0
 40
11.0
 40
12.0
 40
12.0
 40
12.0
 40
13.0
 40
13.0
 40
13.0
 40
13.0
 10
117.1129204351315
 20
-134.0824272668266
 10
117.2717393370015
 20
-134.3001573014944
 10
117.3458088899344
 20
-134.3931748795962
 10
117.4894693716693
 20
-134.4420952354867
 10
117.4894693716693
 20
-134.4420952354867
 10
117.4894693716693
 20
-133.6635036558203
 10
117.4894693716693
 20
-133.6635036558203
 10
117.4894693716693
 20
-133.6635036558203
 10
117.6947970625902
 20
-133.6635036558203
 10
117.6947970625902
 20
-133.6635036558203
 10
117.6947970625902
 20
-133.6635036558203
 10
117.6947970625902
 20
-134.6915201486188
 10
117.6947970625902
 20
-134.6915201486188
 10
117.3371961512213
 20
-134.6598252701545
 10
117.2589924837061
 20
-134.5943684559348
 10
116.9606472146834
 20
-134.2092067806838
 10
116.7618652051845
 20
-133.9532361861297
 10
116.6939968241251
 20
-133.88777937191
 10
116.5565375142637
 20
-133.88777937191
 10
116.4380262295711
 20
-133.88777937191
 10
116.3071126011316
 20
-133.9597818675517
 10
116.3071126011316
 20
-134.1564968197595
 10
116.3071126011316
 20
-134.4166015288959
 10
116.5375894890948
 20
-134.425214267609
 10
116.6540337164962
 20
-134.4293483821913
 10
116.6540337164962
 20
-134.4293483821913
 10
116.6540337164962
 20
-134.6536240982811
 10
116.6540337164962
 20
-134.6536240982811
 10
116.5269096930905
 20
-134.6450113595679
 10
116.4149440898199
 20
-134.6343315635636
 10
116.2964328051273
 20
-134.5540608387573
 10
116.1355468459661
 20
-134.4441622927779
 10
116.1017849102107
 20
-134.2577826270258
 10
116.1017849102107
 20
-134.1416829091729
 10
116.1017849102107
 20
-133.8643527226103
 10
116.285753009123
 20
-133.6569579743983
 10
116.5586045715548
 20
-133.6569579743983
 10
116.7873589117754
 20
-133.6569579743983
 10
116.8865776617506
 20
-133.7734022017997
 10
117.1129204351315
 20
-134.0824272668266
 97
        0
 97
        0
 75
     2
 76
     1
 98
        0
  0
ENDBLK
  5
70
330
6D
100
AcDbEntity
  8
0
100
AcDbBlockEnd
  0
BLOCK
  5
8B
330
89
100
AcDbEntity
  8
0
100
AcDbBlockBegin
  2
block 4
 70
     0
 10
0.0
 20
0.0
 30
0.0
  3
block 4
  1

  0
SPLINE
  5
8D
330
89
100
AcDbEntity
  8
_U+30EC_U+30A4_U+30E4_U+30FC 1
370
     0
100
AcDbSpline
210
0.0
220
0.0
230
1.0
 70
    11
 71
     3
 72
    44
 73
    40
 74
     0
 42
0.0000000001
 43
0.0000000001
 12
1.0
 22
0.0
 32
0.0
 13
1.0
 23
0.0
 33
0.0
 40
0.0
 40
0.0
 40
0.0
 40
0.0
 40
1.0
 40
1.0
 40
1.0
 40
2.0
 40
2.0
 40
2.0
 40
3.0
 40
3.0
 40
3.0
 40
4.0
 40
4.0
 40
4.0
 40
5.0
 40
5.0
 40
5.0
 40
6.0
 40
6.0
 40
6.0
 40
7.0
 40
7.0
 40
7.0
 40
8.0
 40
8.0
 40
8.0
 40
9.0
 40
9.0
 40
9.0
 40
10.0
 40
10.0
 40
10.0
 40
11.0
 40
11.0
 40
11.0
 40
12.0
 40
12.0
 40
12.0
 40
13.0
 40
13.0
 40
13.0
 40
13.0
 10
80.8966986559911
 20
-133.2621500317886
 30
0.0
 10
80.87361651623993
 20
-133.2177083000289
 30
0.0
 10
80.85225692423138
 20
-133.1649983391046
 30
0.0
 10
80.85018986694024
 20
-132.9341769415929
 30
0.0
 10
80.84605575235794
 20
-132.6909532003342
 30
0.0
 10
80.78680011001164
 20
-132.6210177619836
 30
0.0
 10
80.60903318297275
 20
-132.6210177619836
 30
0.0
 10
80.60903318297275
 20
-132.6210177619836
 30
0.0
 10
80.20078936797064
 20
-132.6210177619836
 30
0.0
 10
80.20078936797064
 20
-132.6210177619836
 30
0.0
 10
80.20078936797064
 20
-132.6210177619836
 30
0.0
 10
80.20078936797064
 20
-133.2621500317886
 30
0.0
 10
80.20078936797064
 20
-133.2621500317886
 30
0.0
 10
80.20078936797064
 20
-133.2621500317886
 30
0.0
 10
79.9658338558766
 20
-133.2621500317886
 30
0.0
 10
79.9658338558766
 20
-133.2621500317886
 30
0.0
 10
79.9658338558766
 20
-133.2621500317886
 30
0.0
 10
79.9658338558766
 20
-131.7177137257511
 30
0.0
 10
79.9658338558766
 20
-131.7177137257511
 30
0.0
 10
79.9658338558766
 20
-131.7177137257511
 30
0.0
 10
80.64072806143704
 20
-131.7177137257511
 30
0.0
 10
80.64072806143704
 20
-131.7177137257511
 30
0.0
 10
80.9476860691728
 20
-131.7177137257511
 30
0.0
 10
81.11477320020742
 20
-131.8892794809166
 30
0.0
 10
81.11477320020742
 20
-132.1452500754706
 30
0.0
 10
81.11477320020742
 20
-132.1958929791038
 30
0.0
 10
81.1061604614943
 20
-132.2785752707498
 30
0.0
 10
81.06171872973458
 20
-132.3588459955561
 30
0.0
 10
81.00246308738828
 20
-132.4625433696621
 30
0.0
 10
80.93700627316854
 20
-132.481491394831
 30
0.0
 10
80.87568357353108
 20
-132.4983723627087
 30
0.0
 10
81.01314288339255
 20
-132.5407470371773
 30
0.0
 10
81.08101126445197
 20
-132.5893228835193
 30
0.0
 10
81.08514537903427
 20
-132.9045491204197
 30
0.0
 10
81.08927949361657
 20
-133.1753336255603
 30
0.0
 10
81.12510848666317
 20
-133.2070285040246
 30
0.0
 10
81.19297686772259
 20
-133.2621500317886
 30
0.0
 10
81.19297686772259
 20
-133.2621500317886
 30
0.0
 10
80.8966986559911
 20
-133.2621500317886
 30
0.0
 10
80.8966986559911
 20
-133.2621500317886
 30
0.0
  0
SPLINE
  5
8E
330
89
100
AcDbEntity
  8
_U+30EC_U+30A4_U+30E4_U+30FC 1
370
     0
100
AcDbSpline
210
0.0
220
0.0
230
1.0
 70
    11
 71
     3
 72
    20
 73
    16
 74
     0
 42
0.0000000001
 43
0.0000000001
 12
1.0
 22
0.0
 32
0.0
 13
1.0
 23
0.0
 33
0.0
 40
0.0
 40
0.0
 40
0.0
 40
0.0
 40
1.0
 40
1.0
 40
1.0
 40
2.0
 40
2.0
 40
2.0
 40
3.0
 40
3.0
 40
3.0
 40
4.0
 40
4.0
 40
4.0
 40
5.0
 40
5.0
 40
5.0
 40
5.0
 10
80.64520668556787
 20
-131.9292425885455
 30
0.0
 10
80.64520668556787
 20
-131.9292425885455
 30
0.0
 10
80.20078936797064
 20
-131.9292425885455
 30
0.0
 10
80.20078936797064
 20
-131.9292425885455
 30
0.0
 10
80.20078936797064
 20
-131.9292425885455
 30
0.0
 10
80.20078936797064
 20
-132.4094888991893
 30
0.0
 10
80.20078936797064
 20
-132.4094888991893
 30
0.0
 10
80.20078936797064
 20
-132.4094888991893
 30
0.0
 10
80.64279511872819
 20
-132.4094888991893
 30
0.0
 10
80.64279511872819
 20
-132.4094888991893
 30
0.0
 10
80.74235837825191
 20
-132.4094888991893
 30
0.0
 10
80.87775063082223
 20
-132.3333522889653
 30
0.0
 10
80.87775063082223
 20
-132.1621310433484
 30
0.0
 10
80.87775063082223
 20
-132.0839273758332
 30
0.0
 10
80.84398869506678
 20
-131.9292425885455
 30
0.0
 10
80.64520668556787
 20
-131.9292425885455
 30
0.0
  0
HATCH
  5
8F
330
89
100
AcDbEntity
  8
_U+30EC_U+30A4_U+30E4_U+30FC 1
 62
   179
420
  2234388
100
AcDbHatch
 10
0.0
 20
0.0
 30
0.0
210
0.0
220
0.0
230
1.0
  2
SOLID
 70
     1
 71
     0
 91
        2
 92
        1
 93
        1
 72
     4
 94
        3
 73
     0
 74
     1
 95
       44
 96
       40
 40
0.0
 40
0.0
 40
0.0
 40
0.0
 40
1.0
 40
1.0
 40
1.0
 40
2.0
 40
2.0
 40
2.0
 40
3.0
 40
3.0
 40
3.0
 40
4.0
 40
4.0
 40
4.0
 40
5.0
 40
5.0
 40
5.0
 40
6.0
 40
6.0
 40
6.0
 40
7.0
 40
7.0
 40
7.0
 40
8.0
 40
8.0
 40
8.0
 40
9.0
 40
9.0
 40
9.0
 40
10.0
 40
10.0
 40
10.0
 40
11.0
 40
11.0
 40
11.0
 40
12.0
 40
12.0
 40
12.0
 40
13.0
 40
13.0
 40
13.0
 40
13.0
 10
80.8966986559911
 20
-133.2621500317886
 10
80.87361651623993
 20
-133.2177083000289
 10
80.85225692423138
 20
-133.1649983391046
 10
80.85018986694024
 20
-132.9341769415929
 10
80.84605575235794
 20
-132.6909532003342
 10
80.78680011001164
 20
-132.6210177619836
 10
80.60903318297275
 20
-132.6210177619836
 10
80.60903318297275
 20
-132.6210177619836
 10
80.20078936797064
 20
-132.6210177619836
 10
80.20078936797064
 20
-132.6210177619836
 10
80.20078936797064
 20
-132.6210177619836
 10
80.20078936797064
 20
-133.2621500317886
 10
80.20078936797064
 20
-133.2621500317886
 10
80.20078936797064
 20
-133.2621500317886
 10
79.9658338558766
 20
-133.2621500317886
 10
79.9658338558766
 20
-133.2621500317886
 10
79.9658338558766
 20
-133.2621500317886
 10
79.9658338558766
 20
-131.7177137257511
 10
79.9658338558766
 20
-131.7177137257511
 10
79.9658338558766
 20
-131.7177137257511
 10
80.64072806143704
 20
-131.7177137257511
 10
80.64072806143704
 20
-131.7177137257511
 10
80.9476860691728
 20
-131.7177137257511
 10
81.11477320020742
 20
-131.8892794809166
 10
81.11477320020742
 20
-132.1452500754706
 10
81.11477320020742
 20
-132.1958929791038
 10
81.1061604614943
 20
-132.2785752707498
 10
81.06171872973458
 20
-132.3588459955561
 10
81.00246308738828
 20
-132.4625433696621
 10
80.93700627316854
 20
-132.481491394831
 10
80.87568357353108
 20
-132.4983723627087
 10
81.01314288339255
 20
-132.5407470371773
 10
81.08101126445197
 20
-132.5893228835193
 10
81.08514537903427
 20
-132.9045491204197
 10
81.08927949361657
 20
-133.1753336255603
 10
81.12510848666317
 20
-133.2070285040246
 10
81.19297686772259
 20
-133.2621500317886
 10
81.19297686772259
 20
-133.2621500317886
 10
80.8966986559911
 20
-133.2621500317886
 10
80.8966986559911
 20
-133.2621500317886
 97
        0
 97
        0
 92
        1
 93
        1
 72
     4
 94
        3
 73
     0
 74
     1
 95
       20
 96
       16
 40
0.0
 40
0.0
 40
0.0
 40
0.0
 40
1.0
 40
1.0
 40
1.0
 40
2.0
 40
2.0
 40
2.0
 40
3.0
 40
3.0
 40
3.0
 40
4.0
 40
4.0
 40
4.0
 40
5.0
 40
5.0
 40
5.0
 40
5.0
 10
80.64520668556787
 20
-131.9292425885455
 10
80.64520668556787
 20
-131.9292425885455
 10
80.20078936797064
 20
-131.9292425885455
 10
80.20078936797064
 20
-131.9292425885455
 10
80.20078936797064
 20
-131.9292425885455
 10
80.20078936797064
 20
-132.4094888991893
 10
80.20078936797064
 20
-132.4094888991893
 10
80.20078936797064
 20
-132.4094888991893
 10
80.64279511872819
 20
-132.4094888991893
 10
80.64279511872819
 20
-132.4094888991893
 10
80.74235837825191
 20
-132.4094888991893
 10
80.87775063082223
 20
-132.3333522889653
 10
80.87775063082223
 20
-132.1621310433484
 10
80.87775063082223
 20
-132.0839273758332
 10
80.84398869506678
 20
-131.9292425885455
 10
80.64520668556787
 20
-131.9292425885455
 97
        0
 97
        0
 75
     2
 76
     1
 98
        0
  0
SPLINE
  5
90
330
89
100
AcDbEntity
  8
_U+30EC_U+30A4_U+30E4_U+30FC 1
370
     0
100
AcDbSpline
210
0.0
220
0.0
230
1.0
 70
    11
 71
     3
 72
    62
 73
    58
 74
     0
 42
0.0000000001
 43
0.0000000001
 12
1.0
 22
0.0
 32
0.0
 13
1.0
 23
0.0
 33
0.0
 40
0.0
 40
0.0
 40
0.0
 40
0.0
 40
1.0
 40
1.0
 40
1.0
 40
2.0
 40
2.0
 40
2.0
 40
3.0
 40
3.0
 40
3.0
 40
4.0
 40
4.0
 40
4.0
 40
5.0
 40
5.0
 40
5.0
 40
6.0
 40
6.0
 40
6.0
 40
7.0
 40
7.0
 40
7.0
 40
8.0
 40
8.0
 40
8.0
 40
9.0
 40
9.0
 40
9.0
 40
10.0
 40
10.0
 40
10.0
 40
11.0
 40
11.0
 40
11.0
 40
12.0
 40
12.0
 40
12.0
 40
13.0
 40
13.0
 40
13.0
 40
14.0
 40
14.0
 40
14.0
 40
15.0
 40
15.0
 40
15.0
 40
16.0
 40
16.0
 40
16.0
 40
17.0
 40
17.0
 40
17.0
 40
18.0
 40
18.0
 40
18.0
 40
19.0
 40
19.0
 40
19.0
 40
19.0
 10
81.82446287016889
 20
-133.3127929354218
 30
0.0
 10
81.72903372522747
 20
-133.3127929354218
 30
0.0
 10
81.51130369055967
 20
-133.2917778529618
 30
0.0
 10
81.38624672444512
 20
-133.1057426967583
 30
0.0
 10
81.31252168106076
 20
-132.9934325839392
 30
0.0
 10
81.30804305692993
 20
-132.894213833964
 30
0.0
 10
81.30390894234763
 20
-132.8094644850268
 30
0.0
 10
81.30390894234763
 20
-132.8094644850268
 30
0.0
 10
81.5240505438551
 20
-132.8094644850268
 30
0.0
 10
81.5240505438551
 20
-132.8094644850268
 30
0.0
 10
81.52611760114625
 20
-132.8835340379597
 30
0.0
 10
81.536452887602
 20
-133.1181450405052
 30
0.0
 10
81.81998424603806
 20
-133.1181450405052
 30
0.0
 10
81.95744355589953
 20
-133.1181450405052
 30
0.0
 10
82.1100612858961
 20
-133.0485541117031
 30
0.0
 10
82.1100612858961
 20
-132.8201442810311
 30
0.0
 10
82.1100612858961
 20
-132.7037000536296
 30
0.0
 10
82.07182072600983
 20
-132.6551242072876
 30
0.0
 10
82.04012584754553
 20
-132.6234293288233
 30
0.0
 10
81.96605629461266
 20
-132.5493597758905
 30
0.0
 10
81.84961206721121
 20
-132.536612922595
 30
0.0
 10
81.79483504899574
 20
-132.536612922595
 30
0.0
 10
81.77554251427834
 20
-132.536612922595
 30
0.0
 10
81.73971352123174
 20
-132.5386799798862
 30
0.0
 10
81.71215275734974
 20
-132.5428140944685
 30
0.0
 10
81.71215275734974
 20
-132.5428140944685
 30
0.0
 10
81.71215275734974
 20
-132.3481661995519
 30
0.0
 10
81.71215275734974
 20
-132.3481661995519
 30
0.0
 10
81.75039331723602
 20
-132.3547118809738
 30
0.0
 10
81.79242348215607
 20
-132.356778938265
 30
0.0
 10
81.79896916357804
 20
-132.356778938265
 30
0.0
 10
81.86442597779778
 20
-132.356778938265
 30
0.0
 10
82.0632079872967
 20
-132.3354193462564
 30
0.0
 10
82.0632079872967
 20
-132.0987412864198
 30
0.0
 10
82.0632079872967
 20
-131.9209743593809
 30
0.0
 10
81.9322943588572
 20
-131.8658528316169
 30
0.0
 10
81.82205130332922
 20
-131.8658528316169
 30
0.0
 10
81.55781247961055
 20
-131.8658528316169
 30
0.0
 10
81.54919974089742
 20
-132.0987412864198
 30
0.0
 10
81.54506562631512
 20
-132.170399272513
 30
0.0
 10
81.54506562631512
 20
-132.170399272513
 30
0.0
 10
81.34180499268538
 20
-132.170399272513
 30
0.0
 10
81.34180499268538
 20
-132.170399272513
 30
0.0
 10
81.35041773139851
 20
-132.0456868159469
 30
0.0
 10
81.37797849528052
 20
-131.6691378794091
 30
0.0
 10
81.83479815662464
 20
-131.6691378794091
 30
0.0
 10
82.05907387271441
 20
-131.6691378794091
 30
0.0
 10
82.3002305566819
 20
-131.7962619028148
 30
0.0
 10
82.3002305566819
 20
-132.0921956049978
 30
0.0
 10
82.3002305566819
 20
-132.2785752707498
 30
0.0
 10
82.20514592128899
 20
-132.3609130528473
 30
0.0
 10
82.10558266176527
 20
-132.4222357524847
 30
0.0
 10
82.16690536140273
 20
-132.4497965163667
 30
0.0
 10
82.34880640302391
 20
-132.530067241173
 30
0.0
 10
82.34880640302391
 20
-132.8073974277357
 30
0.0
 10
82.34880640302391
 20
-133.1457058043872
 30
0.0
 10
82.10144854718297
 20
-133.3127929354218
 30
0.0
 10
81.82446287016889
 20
-133.3127929354218
 30
0.0
  0
HATCH
  5
91
330
89
100
AcDbEntity
  8
_U+30EC_U+30A4_U+30E4_U+30FC 1
 62
   179
420
  2234388
100
AcDbHatch
 10
0.0
 20
0.0
 30
0.0
210
0.0
220
0.0
230
1.0
  2
SOLID
 70
     1
 71
     0
 91
        1
 92
        1
 93
        1
 72
     4
 94
        3
 73
     0
 74
     1
 95
       62
 96
       58
 40
0.0
 40
0.0
 40
0.0
 40
0.0
 40
1.0
 40
1.0
 40
1.0
 40
2.0
 40
2.0
 40
2.0
 40
3.0
 40
3.0
 40
3.0
 40
4.0
 40
4.0
 40
4.0
 40
5.0
 40
5.0
 40
5.0
 40
6.0
 40
6.0
 40
6.0
 40
7.0
 40
7.0
 40
7.0
 40
8.0
 40
8.0
 40
8.0
 40
9.0
 40
9.0
 40
9.0
 40
10.0
 40
10.0
 40
10.0
 40
11.0
 40
11.0
 40
11.0
 40
12.0
 40
12.0
 40
12.0
 40
13.0
 40
13.0
 40
13.0
 40
14.0
 40
14.0
 40
14.0
 40
15.0
 40
15.0
 40
15.0
 40
16.0
 40
16.0
 40
16.0
 40
17.0
 40
17.0
 40
17.0
 40
18.0
 40
18.0
 40
18.0
 40
19.0
 40
19.0
 40
19.0
 40
19.0
 10
81.82446287016889
 20
-133.3127929354218
 10
81.72903372522747
 20
-133.3127929354218
 10
81.51130369055967
 20
-133.2917778529618
 10
81.38624672444512
 20
-133.1057426967583
 10
81.31252168106076
 20
-132.9934325839392
 10
81.30804305692993
 20
-132.894213833964
 10
81.30390894234763
 20
-132.8094644850268
 10
81.30390894234763
 20
-132.8094644850268
 10
81.5240505438551
 20
-132.8094644850268
 10
81.5240505438551
 20
-132.8094644850268
 10
81.52611760114625
 20
-132.8835340379597
 10
81.536452887602
 20
-133.1181450405052
 10
81.81998424603806
 20
-133.1181450405052
 10
81.95744355589953
 20
-133.1181450405052
 10
82.1100612858961
 20
-133.0485541117031
 10
82.1100612858961
 20
-132.8201442810311
 10
82.1100612858961
 20
-132.7037000536296
 10
82.07182072600983
 20
-132.6551242072876
 10
82.04012584754553
 20
-132.6234293288233
 10
81.96605629461266
 20
-132.5493597758905
 10
81.84961206721121
 20
-132.536612922595
 10
81.79483504899574
 20
-132.536612922595
 10
81.77554251427834
 20
-132.536612922595
 10
81.73971352123174
 20
-132.5386799798862
 10
81.71215275734974
 20
-132.5428140944685
 10
81.71215275734974
 20
-132.5428140944685
 10
81.71215275734974
 20
-132.3481661995519
 10
81.71215275734974
 20
-132.3481661995519
 10
81.75039331723602
 20
-132.3547118809738
 10
81.79242348215607
 20
-132.356778938265
 10
81.79896916357804
 20
-132.356778938265
 10
81.86442597779778
 20
-132.356778938265
 10
82.0632079872967
 20
-132.3354193462564
 10
82.0632079872967
 20
-132.0987412864198
 10
82.0632079872967
 20
-131.9209743593809
 10
81.9322943588572
 20
-131.8658528316169
 10
81.82205130332922
 20
-131.8658528316169
 10
81.55781247961055
 20
-131.8658528316169
 10
81.54919974089742
 20
-132.0987412864198
 10
81.54506562631512
 20
-132.170399272513
 10
81.54506562631512
 20
-132.170399272513
 10
81.34180499268538
 20
-132.170399272513
 10
81.34180499268538
 20
-132.170399272513
 10
81.35041773139851
 20
-132.0456868159469
 10
81.37797849528052
 20
-131.6691378794091
 10
81.83479815662464
 20
-131.6691378794091
 10
82.05907387271441
 20
-131.6691378794091
 10
82.3002305566819
 20
-131.7962619028148
 10
82.3002305566819
 20
-132.0921956049978
 10
82.3002305566819
 20
-132.2785752707498
 10
82.20514592128899
 20
-132.3609130528473
 10
82.10558266176527
 20
-132.4222357524847
 10
82.16690536140273
 20
-132.4497965163667
 10
82.34880640302391
 20
-132.530067241173
 10
82.34880640302391
 20
-132.8073974277357
 10
82.34880640302391
 20
-133.1457058043872
 10
82.10144854718297
 20
-133.3127929354218
 10
81.82446287016889
 20
-133.3127929354218
 97
        0
 97
        0
 75
     2
 76
     1
 98
        0
  0
SPLINE
  5
92
330
89
100
AcDbEntity
  8
_U+30EC_U+30A4_U+30E4_U+30FC 1
370
     0
100
AcDbSpline
210
0.0
220
0.0
230
1.0
 70
    11
 71
     3
 72
    29
 73
    25
 74
     0
 42
0.0000000001
 43
0.0000000001
 12
1.0
 22
0.0
 32
0.0
 13
1.0
 23
0.0
 33
0.0
 40
0.0
 40
0.0
 40
0.0
 40
0.0
 40
1.0
 40
1.0
 40
1.0
 40
2.0
 40
2.0
 40
2.0
 40
3.0
 40
3.0
 40
3.0
 40
4.0
 40
4.0
 40
4.0
 40
5.0
 40
5.0
 40
5.0
 40
6.0
 40
6.0
 40
6.0
 40
7.0
 40
7.0
 40
7.0
 40
8.0
 40
8.0
 40
8.0
 40
8.0
 10
83.40748424564119
 20
-133.0843831047497
 30
0.0
 10
83.29930824740434
 20
-133.2938449102529
 30
0.0
 10
83.12601994449628
 20
-133.3127929354218
 30
0.0
 10
83.00957571709483
 20
-133.3127929354218
 30
0.0
 10
82.84868975793367
 20
-133.3127929354218
 30
0.0
 10
82.7070963334899
 20
-133.2662841463709
 30
0.0
 10
82.612011698097
 20
-133.0843831047497
 30
0.0
 10
82.50831432399099
 20
-132.8897352098331
 30
0.0
 10
82.4893662988221
 20
-132.6530571499965
 30
0.0
 10
82.4893662988221
 20
-132.4901041335442
 30
0.0
 10
82.4893662988221
 20
-132.3460991422607
 30
0.0
 10
82.50624726669983
 20
-132.0942626622889
 30
0.0
 10
82.612011698097
 20
-131.89548065279
 30
0.0
 10
82.71984318678533
 20
-131.6925645287088
 30
0.0
 10
82.88072914594649
 20
-131.6691378794091
 30
0.0
 10
83.00957571709483
 20
-131.6691378794091
 30
0.0
 10
83.16839461896485
 20
-131.6691378794091
 30
0.0
 10
83.31205510069977
 20
-131.7135796111688
 30
0.0
 10
83.40748424564119
 20
-131.89548065279
 30
0.0
 10
83.50670299561638
 20
-132.0880614904155
 30
0.0
 10
83.53012964491609
 20
-132.3164713210876
 30
0.0
 10
83.53012964491609
 20
-132.4901041335442
 30
0.0
 10
83.53012964491609
 20
-132.6613253791611
 30
0.0
 10
83.50877005290754
 20
-132.8918022671243
 30
0.0
 10
83.40748424564119
 20
-133.0843831047497
 30
0.0
  0
SPLINE
  5
93
330
89
100
AcDbEntity
  8
_U+30EC_U+30A4_U+30E4_U+30FC 1
370
     0
100
AcDbSpline
210
0.0
220
0.0
230
1.0
 70
    11
 71
     3
 72
    17
 73
    13
 74
     0
 42
0.0000000001
 43
0.0000000001
 12
1.0
 22
0.0
 32
0.0
 13
1.0
 23
0.0
 33
0.0
 40
0.0
 40
0.0
 40
0.0
 40
0.0
 40
1.0
 40
1.0
 40
1.0
 40
2.0
 40
2.0
 40
2.0
 40
3.0
 40
3.0
 40
3.0
 40
4.0
 40
4.0
 40
4.0
 40
4.0
 10
83.00957571709483
 20
-131.8617187170346
 30
0.0
 10
82.76015080396274
 20
-131.8617187170346
 30
0.0
 10
82.71329750536334
 20
-132.1452500754706
 30
0.0
 10
82.71329750536334
 20
-132.4901041335442
 30
0.0
 10
82.71329750536334
 20
-132.8094644850268
 30
0.0
 10
82.74947100795848
 20
-133.1181450405052
 30
0.0
 10
83.00957571709483
 20
-133.1181450405052
 30
0.0
 10
83.25727808248429
 20
-133.1181450405052
 30
0.0
 10
83.30585392882632
 20
-132.8370252489088
 30
0.0
 10
83.30585392882632
 20
-132.4901041335442
 30
0.0
 10
83.30585392882632
 20
-132.170399272513
 30
0.0
 10
83.26761336894005
 20
-131.8617187170346
 30
0.0
 10
83.00957571709483
 20
-131.8617187170346
 30
0.0
  0
HATCH
  5
94
330
89
100
AcDbEntity
  8
_U+30EC_U+30A4_U+30E4_U+30FC 1
 62
   179
420
  2234388
100
AcDbHatch
 10
0.0
 20
0.0
 30
0.0
210
0.0
220
0.0
230
1.0
  2
SOLID
 70
     1
 71
     0
 91
        2
 92
        1
 93
        1
 72
     4
 94
        3
 73
     0
 74
     1
 95
       29
 96
       25
 40
0.0
 40
0.0
 40
0.0
 40
0.0
 40
1.0
 40
1.0
 40
1.0
 40
2.0
 40
2.0
 40
2.0
 40
3.0
 40
3.0
 40
3.0
 40
4.0
 40
4.0
 40
4.0
 40
5.0
 40
5.0
 40
5.0
 40
6.0
 40
6.0
 40
6.0
 40
7.0
 40
7.0
 40
7.0
 40
8.0
 40
8.0
 40
8.0
 40
8.0
 10
83.40748424564119
 20
-133.0843831047497
 10
83.29930824740434
 20
-133.2938449102529
 10
83.12601994449628
 20
-133.3127929354218
 10
83.00957571709483
 20
-133.3127929354218
 10
82.84868975793367
 20
-133.3127929354218
 10
82.7070963334899
 20
-133.2662841463709
 10
82.612011698097
 20
-133.0843831047497
 10
82.50831432399099
 20
-132.8897352098331
 10
82.4893662988221
 20
-132.6530571499965
 10
82.4893662988221
 20
-132.4901041335442
 10
82.4893662988221
 20
-132.3460991422607
 10
82.50624726669983
 20
-132.0942626622889
 10
82.612011698097
 20
-131.89548065279
 10
82.71984318678533
 20
-131.6925645287088
 10
82.88072914594649
 20
-131.6691378794091
 10
83.00957571709483
 20
-131.6691378794091
 10
83.16839461896485
 20
-131.6691378794091
 10
83.31205510069977
 20
-131.7135796111688
 10
83.40748424564119
 20
-131.89548065279
 10
83.50670299561638
 20
-132.0880614904155
 10
83.53012964491609
 20
-132.3164713210876
 10
83.53012964491609
 20
-132.4901041335442
 10
83.53012964491609
 20
-132.6613253791611
 10
83.50877005290754
 20
-132.8918022671243
 10
83.40748424564119
 20
-133.0843831047497
 97
        0
 97
        0
 92
        1
 93
        1
 72
     4
 94
        3
 73
     0
 74
     1
 95
       17
 96
       13
 40
0.0
 40
0.0
 40
0.0
 40
0.0
 40
1.0
 40
1.0
 40
1.0
 40
2.0
 40
2.0
 40
2.0
 40
3.0
 40
3.0
 40
3.0
 40
4.0
 40
4.0
 40
4.0
 40
4.0
 10
83.00957571709483
 20
-131.8617187170346
 10
82.76015080396274
 20
-131.8617187170346
 10
82.71329750536334
 20
-132.1452500754706
 10
82.71329750536334
 20
-132.4901041335442
 10
82.71329750536334
 20
-132.8094644850268
 10
82.74947100795848
 20
-133.1181450405052
 10
83.00957571709483
 20
-133.1181450405052
 10
83.25727808248429
 20
-133.1181450405052
 10
83.30585392882632
 20
-132.8370252489088
 10
83.30585392882632
 20
-132.4901041335442
 10
83.30585392882632
 20
-132.170399272513
 10
83.26761336894005
 20
-131.8617187170346
 10
83.00957571709483
 20
-131.8617187170346
 97
        0
 97
        0
 75
     2
 76
     1
 98
        0
  0
ENDBLK
  5
8C
330
89
100
AcDbEntity
  8
0
100
AcDbBlockEnd
  0
BLOCK
  5
A3
330
A1
100
AcDbEntity
  8
0
100
AcDbBlockBegin
  2
block 5
 70
     0
 10
0.0
 20
0.0
 30
0.0
  3
block 5
  1

  0
SPLINE
  5
A5
330
A1
100
AcDbEntity
  8
_U+30EC_U+30A4_U+30E4_U+30FC 1
370
     0
100
AcDbSpline
210
0.0
220
0.0
230
1.0
 70
    11
 71
     3
 72
    26
 73
    22
 74
     0
 42
0.0000000001
 43
0.0000000001
 12
1.0
 22
0.0
 32
0.0
 13
1.0
 23
0.0
 33
0.0
 40
0.0
 40
0.0
 40
0.0
 40
0.0
 40
1.0
 40
1.0
 40
1.0
 40
2.0
 40
2.0
 40
2.0
 40
3.0
 40
3.0
 40
3.0
 40
4.0
 40
4.0
 40
4.0
 40
5.0
 40
5.0
 40
5.0
 40
6.0
 40
6.0
 40
6.0
 40
7.0
 40
7.0
 40
7.0
 40
7.0
 10
63.49931096502795
 20
-113.4780001886444
 30
0.0
 10
63.49931096502795
 20
-113.4780001886444
 30
0.0
 10
62.39515786200538
 20
-113.4780001886444
 30
0.0
 10
62.39515786200538
 20
-113.4780001886444
 30
0.0
 10
62.39515786200538
 20
-113.4780001886444
 30
0.0
 10
62.39515786200538
 20
-113.8080403361313
 30
0.0
 10
62.39515786200538
 20
-113.8080403361313
 30
0.0
 10
62.39515786200538
 20
-113.8080403361313
 30
0.0
 10
62.24701875613964
 20
-113.8080403361313
 30
0.0
 10
62.24701875613964
 20
-113.8080403361313
 30
0.0
 10
62.23220484555306
 20
-113.4759331313532
 30
0.0
 10
62.06925182910074
 20
-113.4294243423024
 30
0.0
 10
61.95487465899045
 20
-113.3997965211292
 30
0.0
 10
61.95487465899045
 20
-113.3997965211292
 30
0.0
 10
61.95487465899045
 20
-113.2537244725546
 30
0.0
 10
61.95487465899045
 20
-113.2537244725546
 30
0.0
 10
61.95487465899045
 20
-113.2537244725546
 30
0.0
 10
63.49931096502795
 20
-113.2537244725546
 30
0.0
 10
63.49931096502795
 20
-113.2537244725546
 30
0.0
 10
63.49931096502795
 20
-113.2537244725546
 30
0.0
 10
63.49931096502795
 20
-113.4780001886444
 30
0.0
 10
63.49931096502795
 20
-113.4780001886444
 30
0.0
  0
HATCH
  5
A6
330
A1
100
AcDbEntity
  8
_U+30EC_U+30A4_U+30E4_U+30FC 1
 62
   179
420
  2234388
100
AcDbHatch
 10
0.0
 20
0.0
 30
0.0
210
0.0
220
0.0
230
1.0
  2
SOLID
 70
     1
 71
     0
 91
        1
 92
        1
 93
        1
 72
     4
 94
        3
 73
     0
 74
     1
 95
       26
 96
       22
 40
0.0
 40
0.0
 40
0.0
 40
0.0
 40
1.0
 40
1.0
 40
1.0
 40
2.0
 40
2.0
 40
2.0
 40
3.0
 40
3.0
 40
3.0
 40
4.0
 40
4.0
 40
4.0
 40
5.0
 40
5.0
 40
5.0
 40
6.0
 40
6.0
 40
6.0
 40
7.0
 40
7.0
 40
7.0
 40
7.0
 10
63.49931096502795
 20
-113.4780001886444
 10
63.49931096502795
 20
-113.4780001886444
 10
62.39515786200538
 20
-113.4780001886444
 10
62.39515786200538
 20
-113.4780001886444
 10
62.39515786200538
 20
-113.4780001886444
 10
62.39515786200538
 20
-113.8080403361313
 10
62.39515786200538
 20
-113.8080403361313
 10
62.39515786200538
 20
-113.8080403361313
 10
62.24701875613964
 20
-113.8080403361313
 10
62.24701875613964
 20
-113.8080403361313
 10
62.23220484555306
 20
-113.4759331313532
 10
62.06925182910074
 20
-113.4294243423024
 10
61.95487465899045
 20
-113.3997965211292
 10
61.95487465899045
 20
-113.3997965211292
 10
61.95487465899045
 20
-113.2537244725546
 10
61.95487465899045
 20
-113.2537244725546
 10
61.95487465899045
 20
-113.2537244725546
 10
63.49931096502795
 20
-113.2537244725546
 10
63.49931096502795
 20
-113.2537244725546
 10
63.49931096502795
 20
-113.2537244725546
 10
63.49931096502795
 20
-113.4780001886444
 10
63.49931096502795
 20
-113.4780001886444
 97
        0
 97
        0
 75
     2
 76
     1
 98
        0
  0
SPLINE
  5
A7
330
A1
100
AcDbEntity
  8
_U+30EC_U+30A4_U+30E4_U+30FC 1
370
     0
100
AcDbSpline
210
0.0
220
0.0
230
1.0
 70
    11
 71
     3
 72
    53
 73
    49
 74
     0
 42
0.0000000001
 43
0.0000000001
 12
1.0
 22
0.0
 32
0.0
 13
1.0
 23
0.0
 33
0.0
 40
0.0
 40
0.0
 40
0.0
 40
0.0
 40
1.0
 40
1.0
 40
1.0
 40
2.0
 40
2.0
 40
2.0
 40
3.0
 40
3.0
 40
3.0
 40
4.0
 40
4.0
 40
4.0
 40
5.0
 40
5.0
 40
5.0
 40
6.0
 40
6.0
 40
6.0
 40
7.0
 40
7.0
 40
7.0
 40
8.0
 40
8.0
 40
8.0
 40
9.0
 40
9.0
 40
9.0
 40
10.0
 40
10.0
 40
10.0
 40
11.0
 40
11.0
 40
11.0
 40
12.0
 40
12.0
 40
12.0
 40
13.0
 40
13.0
 40
13.0
 40
14.0
 40
14.0
 40
14.0
 40
15.0
 40
15.0
 40
15.0
 40
16.0
 40
16.0
 40
16.0
 40
16.0
 10
63.54995386866113
 20
-112.2715277497099
 30
0.0
 10
63.54995386866113
 20
-112.3497314172251
 30
0.0
 10
63.5330729007834
 20
-112.4513617340399
 30
0.0
 10
63.4696831438548
 20
-112.5529920508548
 30
0.0
 10
63.35978459787533
 20
-112.7262803537629
 30
0.0
 10
63.22852645988731
 20
-112.7476399457714
 30
0.0
 10
63.12069497119899
 20
-112.7665879709403
 30
0.0
 10
63.12069497119899
 20
-112.7665879709403
 30
0.0
 10
63.12069497119899
 20
-112.5443793121417
 30
0.0
 10
63.12069497119899
 20
-112.5443793121417
 30
0.0
 10
63.31947698069791
 20
-112.4896022939262
 30
0.0
 10
63.34910480187106
 20
-112.3624782705205
 30
0.0
 10
63.34910480187106
 20
-112.2694606924187
 30
0.0
 10
63.34910480187106
 20
-112.1299343252661
 30
0.0
 10
63.24954154234734
 20
-111.9776611048181
 30
0.0
 10
63.01699759709297
 20
-111.9776611048181
 30
0.0
 10
62.76102700253891
 20
-111.9776611048181
 30
0.0
 10
62.69109156418834
 20
-112.1574950891481
 30
0.0
 10
62.69109156418834
 20
-112.2780734311319
 30
0.0
 10
62.69109156418834
 20
-112.3097683095962
 30
0.0
 10
62.69109156418834
 20
-112.4513617340399
 30
0.0
 10
62.82028264488521
 20
-112.5402451975594
 30
0.0
 10
62.82028264488521
 20
-112.5402451975594
 30
0.0
 10
62.80133461971634
 20
-112.7159450673071
 30
0.0
 10
62.80133461971634
 20
-112.7159450673071
 30
0.0
 10
62.80133461971634
 20
-112.7159450673071
 30
0.0
 10
61.95487465899045
 20
-112.5953667253234
 30
0.0
 10
61.95487465899045
 20
-112.5953667253234
 30
0.0
 10
61.95487465899045
 20
-112.5953667253234
 30
0.0
 10
61.95487465899045
 20
-111.8167751456569
 30
0.0
 10
61.95487465899045
 20
-111.8167751456569
 30
0.0
 10
61.95487465899045
 20
-111.8167751456569
 30
0.0
 10
62.14952255390707
 20
-111.8167751456569
 30
0.0
 10
62.14952255390707
 20
-111.8167751456569
 30
0.0
 10
62.14952255390707
 20
-111.8167751456569
 30
0.0
 10
62.14952255390707
 20
-112.4324137088711
 30
0.0
 10
62.14952255390707
 20
-112.4324137088711
 30
0.0
 10
62.14952255390707
 20
-112.4324137088711
 30
0.0
 10
62.57258027949575
 20
-112.4978705230908
 30
0.0
 10
62.57258027949575
 20
-112.4978705230908
 30
0.0
 10
62.5388183437403
 20
-112.4365478234534
 30
0.0
 10
62.49851072656288
 20
-112.3542100413559
 30
0.0
 10
62.49851072656288
 20
-112.2356987566633
 30
0.0
 10
62.49851072656288
 20
-111.9817952194004
 30
0.0
 10
62.68489039231489
 20
-111.7447726500152
 30
0.0
 10
62.9980495719241
 20
-111.7447726500152
 30
0.0
 10
63.31534286611561
 20
-111.7447726500152
 30
0.0
 10
63.54995386866113
 20
-111.969048366105
 30
0.0
 10
63.54995386866113
 20
-112.2715277497099
 30
0.0
  0
HATCH
  5
A8
330
A1
100
AcDbEntity
  8
_U+30EC_U+30A4_U+30E4_U+30FC 1
 62
   179
420
  2234388
100
AcDbHatch
 10
0.0
 20
0.0
 30
0.0
210
0.0
220
0.0
230
1.0
  2
SOLID
 70
     1
 71
     0
 91
        1
 92
        1
 93
        1
 72
     4
 94
        3
 73
     0
 74
     1
 95
       53
 96
       49
 40
0.0
 40
0.0
 40
0.0
 40
0.0
 40
1.0
 40
1.0
 40
1.0
 40
2.0
 40
2.0
 40
2.0
 40
3.0
 40
3.0
 40
3.0
 40
4.0
 40
4.0
 40
4.0
 40
5.0
 40
5.0
 40
5.0
 40
6.0
 40
6.0
 40
6.0
 40
7.0
 40
7.0
 40
7.0
 40
8.0
 40
8.0
 40
8.0
 40
9.0
 40
9.0
 40
9.0
 40
10.0
 40
10.0
 40
10.0
 40
11.0
 40
11.0
 40
11.0
 40
12.0
 40
12.0
 40
12.0
 40
13.0
 40
13.0
 40
13.0
 40
14.0
 40
14.0
 40
14.0
 40
15.0
 40
15.0
 40
15.0
 40
16.0
 40
16.0
 40
16.0
 40
16.0
 10
63.54995386866113
 20
-112.2715277497099
 10
63.54995386866113
 20
-112.3497314172251
 10
63.5330729007834
 20
-112.4513617340399
 10
63.4696831438548
 20
-112.5529920508548
 10
63.35978459787533
 20
-112.7262803537629
 10
63.22852645988731
 20
-112.7476399457714
 10
63.12069497119899
 20
-112.7665879709403
 10
63.12069497119899
 20
-112.7665879709403
 10
63.12069497119899
 20
-112.5443793121417
 10
63.12069497119899
 20
-112.5443793121417
 10
63.31947698069791
 20
-112.4896022939262
 10
63.34910480187106
 20
-112.3624782705205
 10
63.34910480187106
 20
-112.2694606924187
 10
63.34910480187106
 20
-112.1299343252661
 10
63.24954154234734
 20
-111.9776611048181
 10
63.01699759709297
 20
-111.9776611048181
 10
62.76102700253891
 20
-111.9776611048181
 10
62.69109156418834
 20
-112.1574950891481
 10
62.69109156418834
 20
-112.2780734311319
 10
62.69109156418834
 20
-112.3097683095962
 10
62.69109156418834
 20
-112.4513617340399
 10
62.82028264488521
 20
-112.5402451975594
 10
62.82028264488521
 20
-112.5402451975594
 10
62.80133461971634
 20
-112.7159450673071
 10
62.80133461971634
 20
-112.7159450673071
 10
62.80133461971634
 20
-112.7159450673071
 10
61.95487465899045
 20
-112.5953667253234
 10
61.95487465899045
 20
-112.5953667253234
 10
61.95487465899045
 20
-112.5953667253234
 10
61.95487465899045
 20
-111.8167751456569
 10
61.95487465899045
 20
-111.8167751456569
 10
61.95487465899045
 20
-111.8167751456569
 10
62.14952255390707
 20
-111.8167751456569
 10
62.14952255390707
 20
-111.8167751456569
 10
62.14952255390707
 20
-111.8167751456569
 10
62.14952255390707
 20
-112.4324137088711
 10
62.14952255390707
 20
-112.4324137088711
 10
62.14952255390707
 20
-112.4324137088711
 10
62.57258027949575
 20
-112.4978705230908
 10
62.57258027949575
 20
-112.4978705230908
 10
62.5388183437403
 20
-112.4365478234534
 10
62.49851072656288
 20
-112.3542100413559
 10
62.49851072656288
 20
-112.2356987566633
 10
62.49851072656288
 20
-111.9817952194004
 10
62.68489039231489
 20
-111.7447726500152
 10
62.9980495719241
 20
-111.7447726500152
 10
63.31534286611561
 20
-111.7447726500152
 10
63.54995386866113
 20
-111.969048366105
 10
63.54995386866113
 20
-112.2715277497099
 97
        0
 97
        0
 75
     2
 76
     1
 98
        0
  0
ENDBLK
  5
A4
330
A1
100
AcDbEntity
  8
0
100
AcDbBlockEnd
  0
ENDSEC
  0
SECTION
  2
ENTITIES
  0
SPLINE
  5
41
330
1F
100
AcDbEntity
  8
_U+30EC_U+30A4_U+30E4_U+30FC 1
 62
   253
420
 10855845
370
     9
100
AcDbSpline
210
0.0
220
0.0
230
1.0
 70
    11
 71
     3
 72
    86
 73
    82
 74
     0
 42
0.0000000001
 43
0.0000000001
 12
1.0
 22
0.0
 32
0.0
 13
1.0
 23
0.0
 33
0.0
 40
0.0
 40
0.0
 40
0.0
 40
0.0
 40
1.0
 40
1.0
 40
1.0
 40
2.0
 40
2.0
 40
2.0
 40
3.0
 40
3.0
 40
3.0
 40
4.0
 40
4.0
 40
4.0
 40
5.0
 40
5.0
 40
5.0
 40
6.0
 40
6.0
 40
6.0
 40
7.0
 40
7.0
 40
7.0
 40
8.0
 40
8.0
 40
8.0
 40
9.0
 40
9.0
 40
9.0
 40
10.0
 40
10.0
 40
10.0
 40
11.0
 40
11.0
 40
11.0
 40
12.0
 40
12.0
 40
12.0
 40
13.0
 40
13.0
 40
13.0
 40
14.0
 40
14.0
 40
14.0
 40
15.0
 40
15.0
 40
15.0
 40
16.0
 40
16.0
 40
16.0
 40
17.0
 40
17.0
 40
17.0
 40
18.0
 40
18.0
 40
18.0
 40
19.0
 40
19.0
 40
19.0
 40
20.0
 40
20.0
 40
20.0
 40
21.0
 40
21.0
 40
21.0
 40
22.0
 40
22.0
 40
22.0
 40
23.0
 40
23.0
 40
23.0
 40
24.0
 40
24.0
 40
24.0
 40
25.0
 40
25.0
 40
25.0
 40
26.0
 40
26.0
 40
26.0
 40
27.0
 40
27.0
 40
27.0
 40
27.0
 10
80.75132516208429
 20
-110.0112099724973
 30
0.0
 10
80.75132516208429
 20
-110.0112099724973
 30
0.0
 10
80.75132516208429
 20
-105.1632671959313
 30
0.0
 10
80.75132516208429
 20
-105.1632671959313
 30
0.0
 10
80.75132516208429
 20
-105.1632671959313
 30
0.0
 10
81.95708429798947
 20
-105.1632671959313
 30
0.0
 10
81.95708429798947
 20
-105.1632671959313
 30
0.0
 10
81.95708429798947
 20
-105.1632671959313
 30
0.0
 10
81.9202190211522
 20
-122.3246713583076
 30
0.0
 10
81.9202190211522
 20
-122.3246713583076
 30
0.0
 10
81.9202190211522
 20
-122.3246713583076
 30
0.0
 10
69.350466649329
 20
-121.594315525157
 30
0.0
 10
69.350466649329
 20
-121.594315525157
 30
0.0
 10
69.350466649329
 20
-121.594315525157
 30
0.0
 10
69.53270989273945
 20
-126.5641783016925
 30
0.0
 10
71.21426040539508
 20
-130.875404967281
 30
0.0
 10
71.21426040539508
 20
-130.875404967281
 30
0.0
 10
73.07805591340124
 20
-136.5025985769854
 30
0.0
 10
77.49878468950796
 20
-141.2533863535755
 30
0.0
 10
77.49878468950796
 20
-141.2533863535755
 30
0.0
 10
81.15370553526726
 20
-144.9065766304399
 30
0.0
 10
83.78489647358032
 20
-146.1495538523514
 30
0.0
 10
83.78489647358032
 20
-146.1495538523514
 30
0.0
 10
89.81312770867622
 20
-149.0351702405191
 30
0.0
 10
93.90503232650526
 20
-149.54779162928
 30
0.0
 10
93.90503232650526
 20
-149.54779162928
 30
0.0
 10
97.30327001758677
 20
-149.9133399625215
 30
0.0
 10
97.30327001758677
 20
-149.9133399625215
 30
0.0
 10
97.30327001758677
 20
-149.9133399625215
 30
0.0
 10
96.0974756039047
 20
-136.7217088547085
 30
0.0
 10
96.0974756039047
 20
-136.7217088547085
 30
0.0
 10
96.0974756039047
 20
-136.7217088547085
 30
0.0
 10
114.2221390303949
 20
-136.8312816324591
 30
0.0
 10
114.2221390303949
 20
-136.8312816324591
 30
0.0
 10
114.2221390303949
 20
-136.8312816324591
 30
0.0
 10
114.2944937507712
 20
-137.8544782988695
 30
0.0
 10
114.2944937507712
 20
-137.8544782988695
 30
0.0
 10
114.2944937507712
 20
-137.8544782988695
 30
0.0
 10
108.2655569601378
 20
-137.9275032988514
 30
0.0
 10
108.2655569601378
 20
-137.9275032988514
 30
0.0
 10
108.2655569601378
 20
-137.9275032988514
 30
0.0
 10
108.2290471951647
 20
-137.7083930211283
 30
0.0
 10
108.2290471951647
 20
-137.7083930211283
 30
0.0
 10
108.2290471951647
 20
-137.7083930211283
 30
0.0
 10
102.9311690406738
 20
-137.6718805211377
 30
0.0
 10
102.9311690406738
 20
-137.6718805211377
 30
0.0
 10
102.9311690406738
 20
-137.6718805211377
 30
0.0
 10
102.9311690406738
 20
-138.0005282988332
 30
0.0
 10
102.9311690406738
 20
-138.0005282988332
 30
0.0
 10
102.9311690406738
 20
-138.0005282988332
 30
0.0
 10
97.52308584531214
 20
-138.0377463543794
 30
0.0
 10
97.52308584531214
 20
-138.0377463543794
 30
0.0
 10
97.52308584531214
 20
-138.0377463543794
 30
0.0
 10
98.54628248587488
 20
-151.046074128905
 30
0.0
 10
98.54628248587488
 20
-151.046074128905
 30
0.0
 10
98.54628248587488
 20
-151.046074128905
 30
0.0
 10
95.47669256418665
 20
-151.5208071843418
 30
0.0
 10
88.60803885053171
 20
-149.5836338514933
 30
0.0
 10
88.60803885053171
 20
-149.5836338514933
 30
0.0
 10
81.44583875547688
 20
-146.9536402410393
 30
0.0
 10
76.95137942569565
 20
-142.6045605199041
 30
0.0
 10
76.95137942569565
 20
-142.6045605199041
 30
0.0
 10
71.10468763041274
 20
-136.2104632992804
 30
0.0
 10
69.56957516957672
 20
-129.9982583008337
 30
0.0
 10
69.56957516957672
 20
-129.9982583008337
 30
0.0
 10
67.81602271431356
 20
-122.8359169137353
 30
0.0
 10
67.8897532679881
 20
-120.095680247754
 30
0.0
 10
67.8897532679881
 20
-120.095680247754
 30
0.0
 10
80.71548294077647
 20
-121.0465221919605
 30
0.0
 10
80.71548294077647
 20
-121.0465221919605
 30
0.0
 10
80.71548294077647
 20
-121.0465221919605
 30
0.0
 10
80.71548294077647
 20
-115.3827808044877
 30
0.0
 10
80.71548294077647
 20
-115.3827808044877
 30
0.0
 10
80.71548294077647
 20
-115.3827808044877
 30
0.0
 10
81.04413071016975
 20
-115.3827808044877
 30
0.0
 10
81.04413071016975
 20
-115.3827808044877
 30
0.0
 10
81.04413071016975
 20
-115.3827808044877
 30
0.0
 10
81.0073027575261
 20
-110.1200771946921
 30
0.0
 10
81.0073027575261
 20
-110.1200771946921
 30
0.0
 10
81.0073027575261
 20
-110.1200771946921
 30
0.0
 10
80.75132516208429
 20
-110.0112099724973
 30
0.0
 10
80.75132516208429
 20
-110.0112099724973
 30
0.0
  0
HATCH
  5
42
330
1F
100
AcDbEntity
  8
_U+30EC_U+30A4_U+30E4_U+30FC 1
 62
   253
420
 10855845
100
AcDbHatch
 10
0.0
 20
0.0
 30
0.0
210
0.0
220
0.0
230
1.0
  2
SOLID
 70
     1
 71
     0
 91
        1
 92
        1
 93
        1
 72
     4
 94
        3
 73
     0
 74
     1
 95
       86
 96
       82
 40
0.0
 40
0.0
 40
0.0
 40
0.0
 40
1.0
 40
1.0
 40
1.0
 40
2.0
 40
2.0
 40
2.0
 40
3.0
 40
3.0
 40
3.0
 40
4.0
 40
4.0
 40
4.0
 40
5.0
 40
5.0
 40
5.0
 40
6.0
 40
6.0
 40
6.0
 40
7.0
 40
7.0
 40
7.0
 40
8.0
 40
8.0
 40
8.0
 40
9.0
 40
9.0
 40
9.0
 40
10.0
 40
10.0
 40
10.0
 40
11.0
 40
11.0
 40
11.0
 40
12.0
 40
12.0
 40
12.0
 40
13.0
 40
13.0
 40
13.0
 40
14.0
 40
14.0
 40
14.0
 40
15.0
 40
15.0
 40
15.0
 40
16.0
 40
16.0
 40
16.0
 40
17.0
 40
17.0
 40
17.0
 40
18.0
 40
18.0
 40
18.0
 40
19.0
 40
19.0
 40
19.0
 40
20.0
 40
20.0
 40
20.0
 40
21.0
 40
21.0
 40
21.0
 40
22.0
 40
22.0
 40
22.0
 40
23.0
 40
23.0
 40
23.0
 40
24.0
 40
24.0
 40
24.0
 40
25.0
 40
25.0
 40
25.0
 40
26.0
 40
26.0
 40
26.0
 40
27.0
 40
27.0
 40
27.0
 40
27.0
 10
80.75132516208429
 20
-110.0112099724973
 10
80.75132516208429
 20
-110.0112099724973
 10
80.75132516208429
 20
-105.1632671959313
 10
80.75132516208429
 20
-105.1632671959313
 10
80.75132516208429
 20
-105.1632671959313
 10
81.95708429798947
 20
-105.1632671959313
 10
81.95708429798947
 20
-105.1632671959313
 10
81.95708429798947
 20
-105.1632671959313
 10
81.9202190211522
 20
-122.3246713583076
 10
81.9202190211522
 20
-122.3246713583076
 10
81.9202190211522
 20
-122.3246713583076
 10
69.350466649329
 20
-121.594315525157
 10
69.350466649329
 20
-121.594315525157
 10
69.350466649329
 20
-121.594315525157
 10
69.53270989273945
 20
-126.5641783016925
 10
71.21426040539508
 20
-130.875404967281
 10
71.21426040539508
 20
-130.875404967281
 10
73.07805591340124
 20
-136.5025985769854
 10
77.49878468950796
 20
-141.2533863535755
 10
77.49878468950796
 20
-141.2533863535755
 10
81.15370553526726
 20
-144.9065766304399
 10
83.78489647358032
 20
-146.1495538523514
 10
83.78489647358032
 20
-146.1495538523514
 10
89.81312770867622
 20
-149.0351702405191
 10
93.90503232650526
 20
-149.54779162928
 10
93.90503232650526
 20
-149.54779162928
 10
97.30327001758677
 20
-149.9133399625215
 10
97.30327001758677
 20
-149.9133399625215
 10
97.30327001758677
 20
-149.9133399625215
 10
96.0974756039047
 20
-136.7217088547085
 10
96.0974756039047
 20
-136.7217088547085
 10
96.0974756039047
 20
-136.7217088547085
 10
114.2221390303949
 20
-136.8312816324591
 10
114.2221390303949
 20
-136.8312816324591
 10
114.2221390303949
 20
-136.8312816324591
 10
114.2944937507712
 20
-137.8544782988695
 10
114.2944937507712
 20
-137.8544782988695
 10
114.2944937507712
 20
-137.8544782988695
 10
108.2655569601378
 20
-137.9275032988514
 10
108.2655569601378
 20
-137.9275032988514
 10
108.2655569601378
 20
-137.9275032988514
 10
108.2290471951647
 20
-137.7083930211283
 10
108.2290471951647
 20
-137.7083930211283
 10
108.2290471951647
 20
-137.7083930211283
 10
102.9311690406738
 20
-137.6718805211377
 10
102.9311690406738
 20
-137.6718805211377
 10
102.9311690406738
 20
-137.6718805211377
 10
102.9311690406738
 20
-138.0005282988332
 10
102.9311690406738
 20
-138.0005282988332
 10
102.9311690406738
 20
-138.0005282988332
 10
97.52308584531214
 20
-138.0377463543794
 10
97.52308584531214
 20
-138.0377463543794
 10
97.52308584531214
 20
-138.0377463543794
 10
98.54628248587488
 20
-151.046074128905
 10
98.54628248587488
 20
-151.046074128905
 10
98.54628248587488
 20
-151.046074128905
 10
95.47669256418665
 20
-151.5208071843418
 10
88.60803885053171
 20
-149.5836338514933
 10
88.60803885053171
 20
-149.5836338514933
 10
81.44583875547688
 20
-146.9536402410393
 10
76.95137942569565
 20
-142.6045605199041
 10
76.95137942569565
 20
-142.6045605199041
 10
71.10468763041274
 20
-136.2104632992804
 10
69.56957516957672
 20
-129.9982583008337
 10
69.56957516957672
 20
-129.9982583008337
 10
67.81602271431356
 20
-122.8359169137353
 10
67.8897532679881
 20
-120.095680247754
 10
67.8897532679881
 20
-120.095680247754
 10
80.71548294077647
 20
-121.0465221919605
 10
80.71548294077647
 20
-121.0465221919605
 10
80.71548294077647
 20
-121.0465221919605
 10
80.71548294077647
 20
-115.3827808044877
 10
80.71548294077647
 20
-115.3827808044877
 10
80.71548294077647
 20
-115.3827808044877
 10
81.04413071016975
 20
-115.3827808044877
 10
81.04413071016975
 20
-115.3827808044877
 10
81.04413071016975
 20
-115.3827808044877
 10
81.0073027575261
 20
-110.1200771946921
 10
81.0073027575261
 20
-110.1200771946921
 10
81.0073027575261
 20
-110.1200771946921
 10
80.75132516208429
 20
-110.0112099724973
 10
80.75132516208429
 20
-110.0112099724973
 97
        0
 97
        0
 75
     2
 76
     1
 98
        0
  0
POLYLINE
  5
43
330
1F
100
AcDbEntity
  8
_U+30EC_U+30A4_U+30E4_U+30FC 1
 62
   179
420
  2234388
370
    25
100
AcDb2dPolyline
 66
     1
 10
0.0
 20
0.0
 30
0.0
  0
VERTEX
  5
44
330
43
100
AcDbEntity
  8
_U+30EC_U+30A4_U+30E4_U+30FC 1
 62
   179
420
  2234388
370
    25
100
AcDbVertex
100
AcDb2dVertex
 10
81.04413071016975
 20
-115.5488333044461
 30
0.0
  0
VERTEX
  5
45
330
43
100
AcDbEntity
  8
_U+30EC_U+30A4_U+30E4_U+30FC 1
 62
   179
420
  2234388
370
    25
100
AcDbVertex
100
AcDb2dVertex
 10
81.04413071016975
 20
-109.9560708058442
 30
0.0
  0
SEQEND
  5
46
330
43
100
AcDbEntity
  8
_U+30EC_U+30A4_U+30E4_U+30FC 1
 62
   179
420
  2234388
370
    25
  0
POLYLINE
  5
47
330
1F
100
AcDbEntity
  8
_U+30EC_U+30A4_U+30E4_U+30FC 1
 62
   179
420
  2234388
370
    25
100
AcDb2dPolyline
 66
     1
 10
0.0
 20
0.0
 30
0.0
  0
VERTEX
  5
48
330
47
100
AcDbEntity
  8
_U+30EC_U+30A4_U+30E4_U+30FC 1
 62
   179
420
  2234388
370
    25
100
AcDbVertex
100
AcDb2dVertex
 10
80.73580294025807
 20
-120.8997666364416
 30
0.0
  0
VERTEX
  5
49
330
47
100
AcDbEntity
  8
_U+30EC_U+30A4_U+30E4_U+30FC 1
 62
   179
420
  2234388
370
    25
100
AcDbVertex
100
AcDb2dVertex
 10
80.73580294025807
 20
-115.2360252489688
 30
0.0
  0
SEQEND
  5
4A
330
47
100
AcDbEntity
  8
_U+30EC_U+30A4_U+30E4_U+30FC 1
 62
   179
420
  2234388
370
    25
  0
SPLINE
  5
4B
330
1F
100
AcDbEntity
  8
_U+30EC_U+30A4_U+30E4_U+30FC 1
 62
   179
420
  2234388
370
    25
100
AcDbSpline
210
0.0
220
0.0
230
1.0
 70
     8
 71
     3
 72
    20
 73
    16
 74
     0
 42
0.0000000001
 43
0.0000000001
 12
1.0
 22
0.0
 32
0.0
 13
1.0
 23
0.0
 33
0.0
 40
0.0
 40
0.0
 40
0.0
 40
0.0
 40
1.0
 40
1.0
 40
1.0
 40
2.0
 40
2.0
 40
2.0
 40
3.0
 40
3.0
 40
3.0
 40
4.0
 40
4.0
 40
4.0
 40
5.0
 40
5.0
 40
5.0
 40
5.0
 10
103.0958457031392
 20
-137.9468002432912
 30
0.0
 10
103.0958457031392
 20
-137.9468002432912
 30
0.0
 10
97.51550112328341
 20
-137.9660971877304
 30
0.0
 10
97.51550112328341
 20
-137.9660971877304
 30
0.0
 10
97.51550112328341
 20
-137.9660971877304
 30
0.0
 10
98.56762554088593
 20
-151.1211805177753
 30
0.0
 10
98.56762554088593
 20
-151.1211805177753
 30
0.0
 10
98.56762554088593
 20
-151.1211805177753
 30
0.0
 10
69.91924849398914
 20
-152.1150966286379
 30
0.0
 10
67.90248854544097
 20
-120.0171519144403
 30
0.0
 10
67.90248854544097
 20
-120.0171519144403
 30
0.0
 10
80.73580294025807
 20
-121.0699466363993
 30
0.0
 10
80.73580294025807
 20
-121.0699466363993
 30
0.0
 10
80.73580294025807
 20
-121.0699466363993
 30
0.0
 10
80.73580294025807
 20
-120.8997666364416
 30
0.0
 10
80.73580294025807
 20
-120.8997666364416
 30
0.0
  0
POLYLINE
  5
4C
330
1F
100
AcDbEntity
  8
_U+30EC_U+30A4_U+30E4_U+30FC 1
 62
   179
420
  2234388
370
    25
100
AcDb2dPolyline
 66
     1
 10
0.0
 20
0.0
 30
0.0
  0
VERTEX
  5
4D
330
4C
100
AcDbEntity
  8
_U+30EC_U+30A4_U+30E4_U+30FC 1
 62
   179
420
  2234388
370
    25
100
AcDbVertex
100
AcDb2dVertex
 10
108.3785516794772
 20
-137.6787596878027
 30
0.0
  0
VERTEX
  5
4E
330
4C
100
AcDbEntity
  8
_U+30EC_U+30A4_U+30E4_U+30FC 1
 62
   179
420
  2234388
370
    25
100
AcDbVertex
100
AcDb2dVertex
 10
102.7851190443998
 20
-137.6980566322419
 30
0.0
  0
SEQEND
  5
4F
330
4C
100
AcDbEntity
  8
_U+30EC_U+30A4_U+30E4_U+30FC 1
 62
   179
420
  2234388
370
    25
  0
SPLINE
  5
50
330
1F
100
AcDbEntity
  8
_U+30EC_U+30A4_U+30E4_U+30FC 1
 62
   179
420
  2234388
370
    25
100
AcDbSpline
210
0.0
220
0.0
230
1.0
 70
     8
 71
     3
 72
    32
 73
    28
 74
     0
 42
0.0000000001
 43
0.0000000001
 12
1.0
 22
0.0
 32
0.0
 13
1.0
 23
0.0
 33
0.0
 40
0.0
 40
0.0
 40
0.0
 40
0.0
 40
1.0
 40
1.0
 40
1.0
 40
2.0
 40
2.0
 40
2.0
 40
3.0
 40
3.0
 40
3.0
 40
4.0
 40
4.0
 40
4.0
 40
5.0
 40
5.0
 40
5.0
 40
6.0
 40
6.0
 40
6.0
 40
7.0
 40
7.0
 40
7.0
 40
8.0
 40
8.0
 40
8.0
 40
9.0
 40
9.0
 40
9.0
 40
9.0
 10
80.73580294025807
 20
-110.266832750211
 30
0.0
 10
80.73580294025807
 20
-110.266832750211
 30
0.0
 10
80.73580294025807
 20
-105.1632671959313
 30
0.0
 10
80.73580294025807
 20
-105.1632671959313
 30
0.0
 10
80.73580294025807
 20
-105.1632671959313
 30
0.0
 10
82.0211860906059
 20
-105.1632671959313
 30
0.0
 10
82.0211860906059
 20
-105.1632671959313
 30
0.0
 10
82.0211860906059
 20
-105.1632671959313
 30
0.0
 10
81.90473207710286
 20
-122.3563508027443
 30
0.0
 10
81.90473207710286
 20
-122.3563508027443
 30
0.0
 10
81.90473207710286
 20
-122.3563508027443
 30
0.0
 10
69.3056638715626
 20
-121.5515941362787
 30
0.0
 10
69.3056638715626
 20
-121.5515941362787
 30
0.0
 10
69.3056638715626
 20
-121.5515941362787
 30
0.0
 10
69.51066128219085
 20
-147.4966005186813
 30
0.0
 10
97.28055112927748
 20
-149.951898573623
 30
0.0
 10
97.28055112927748
 20
-149.951898573623
 30
0.0
 10
96.16983032428101
 20
-136.7389244102599
 30
0.0
 10
96.16983032428101
 20
-136.7389244102599
 30
0.0
 10
96.16983032428101
 20
-136.7389244102599
 30
0.0
 10
114.2937881952336
 20
-136.7968152435788
 30
0.0
 10
114.2937881952336
 20
-136.7968152435788
 30
0.0
 10
114.2937881952336
 20
-136.7968152435788
 30
0.0
 10
114.3523493048507
 20
-137.9075007988567
 30
0.0
 10
114.3523493048507
 20
-137.9075007988567
 30
0.0
 10
114.3523493048507
 20
-137.9075007988567
 30
0.0
 10
108.1008802976723
 20
-137.9295494099623
 30
0.0
 10
108.1008802976723
 20
-137.9295494099623
 30
0.0
  0
POLYLINE
  5
51
330
1F
100
AcDbEntity
  8
_U+30EC_U+30A4_U+30E4_U+30FC 1
 62
   179
420
  2234388
370
     9
100
AcDb2dPolyline
 66
     1
 10
0.0
 20
0.0
 30
0.0
  0
VERTEX
  5
52
330
51
100
AcDbEntity
  8
_U+30EC_U+30A4_U+30E4_U+30FC 1
 62
   179
420
  2234388
370
     9
100
AcDbVertex
100
AcDb2dVertex
 10
118.403790312601
 20
-137.8675663544223
 30
0.0
  0
VERTEX
  5
53
330
51
100
AcDbEntity
  8
_U+30EC_U+30A4_U+30E4_U+30FC 1
 62
   179
420
  2234388
370
     9
100
AcDbVertex
100
AcDb2dVertex
 10
118.403790312601
 20
-136.7685577435855
 30
0.0
  0
SEQEND
  5
54
330
51
100
AcDbEntity
  8
_U+30EC_U+30A4_U+30E4_U+30FC 1
 62
   179
420
  2234388
370
     9
  0
POLYLINE
  5
55
330
1F
100
AcDbEntity
  8
_U+30EC_U+30A4_U+30E4_U+30FC 1
 62
   179
420
  2234388
370
     9
100
AcDb2dPolyline
 66
     1
 10
0.0
 20
0.0
 30
0.0
  0
VERTEX
  5
56
330
55
100
AcDbEntity
  8
_U+30EC_U+30A4_U+30E4_U+30FC 1
 62
   179
420
  2234388
370
     9
100
AcDbVertex
100
AcDb2dVertex
 10
118.403790312601
 20
-150.8889821845
 30
0.0
  0
VERTEX
  5
57
330
55
100
AcDbEntity
  8
_U+30EC_U+30A4_U+30E4_U+30FC 1
 62
   179
420
  2234388
370
     9
100
AcDbVertex
100
AcDb2dVertex
 10
118.403790312601
 20
-137.8675663544223
 30
0.0
  0
SEQEND
  5
58
330
55
100
AcDbEntity
  8
_U+30EC_U+30A4_U+30E4_U+30FC 1
 62
   179
420
  2234388
370
     9
  0
POLYLINE
  5
59
330
1F
100
AcDbEntity
  8
_U+30EC_U+30A4_U+30E4_U+30FC 1
 62
   179
420
  2234388
370
     9
100
AcDb2dPolyline
 66
     1
 10
0.0
 20
0.0
 30
0.0
  0
VERTEX
  5
5A
330
59
100
AcDbEntity
  8
_U+30EC_U+30A4_U+30E4_U+30FC 1
 62
   179
420
  2234388
370
     9
100
AcDbVertex
100
AcDb2dVertex
 10
119.6936516685828
 20
-150.9461674622634
 30
0.0
  0
VERTEX
  5
5B
330
59
100
AcDbEntity
  8
_U+30EC_U+30A4_U+30E4_U+30FC 1
 62
   179
420
  2234388
370
     9
100
AcDbVertex
100
AcDb2dVertex
 10
100.2302318873582
 20
-150.9461674622634
 30
0.0
  0
SEQEND
  5
5C
330
59
100
AcDbEntity
  8
_U+30EC_U+30A4_U+30E4_U+30FC 1
 62
   179
420
  2234388
370
     9
  0
POLYLINE
  5
5D
330
1F
100
AcDbEntity
  8
_U+30EC_U+30A4_U+30E4_U+30FC 1
 62
   179
420
  2234388
370
     9
100
AcDb2dPolyline
 66
     1
 10
0.0
 20
0.0
 30
0.0
  0
VERTEX
  5
5E
330
5D
100
AcDbEntity
  8
_U+30EC_U+30A4_U+30E4_U+30FC 1
 62
   179
420
  2234388
370
     9
100
AcDbVertex
100
AcDb2dVertex
 10
120.2531249699367
 20
-137.9660971877304
 30
0.0
  0
VERTEX
  5
5F
330
5D
100
AcDbEntity
  8
_U+30EC_U+30A4_U+30E4_U+30FC 1
 62
   179
420
  2234388
370
     9
100
AcDbVertex
100
AcDb2dVertex
 10
115.4809912205011
 20
-137.9660971877304
 30
0.0
  0
SEQEND
  5
60
330
5D
100
AcDbEntity
  8
_U+30EC_U+30A4_U+30E4_U+30FC 1
 62
   179
420
  2234388
370
     9
  0
POLYLINE
  5
61
330
1F
100
AcDbEntity
  8
_U+30EC_U+30A4_U+30E4_U+30FC 1
 62
   179
420
  2234388
370
     9
100
AcDb2dPolyline
 66
     1
 10
0.0
 20
0.0
 30
0.0
  0
VERTEX
  5
62
330
61
100
AcDbEntity
  8
_U+30EC_U+30A4_U+30E4_U+30FC 1
 62
   179
420
  2234388
370
     9
100
AcDbVertex
100
AcDb2dVertex
 10
120.2531249699367
 20
-136.855376354675
 30
0.0
  0
VERTEX
  5
63
330
61
100
AcDbEntity
  8
_U+30EC_U+30A4_U+30E4_U+30FC 1
 62
   179
420
  2234388
370
     9
100
AcDbVertex
100
AcDb2dVertex
 10
115.4809912205011
 20
-136.855376354675
 30
0.0
  0
SEQEND
  5
64
330
61
100
AcDbEntity
  8
_U+30EC_U+30A4_U+30E4_U+30FC 1
 62
   179
420
  2234388
370
     9
  0
INSERT
  5
66
330
1F
100
AcDbEntity
  8
_U+30EC_U+30A4_U+30E4_U+30FC 1
100
AcDbBlockReference
  2
block 2
 10
0.0
 20
0.0
 30
0.0
  0
INSERT
  5
6E
330
1F
100
AcDbEntity
  8
_U+30EC_U+30A4_U+30E4_U+30FC 1
100
AcDbBlockReference
  2
block 3
 10
0.0
 20
0.0
 30
0.0
  0
POLYLINE
  5
7D
330
1F
100
AcDbEntity
  8
_U+30EC_U+30A4_U+30E4_U+30FC 1
 62
   179
420
  2234388
370
     9
100
AcDb2dPolyline
 66
     1
 10
0.0
 20
0.0
 30
0.0
  0
VERTEX
  5
7E
330
7D
100
AcDbEntity
  8
_U+30EC_U+30A4_U+30E4_U+30FC 1
 62
   179
420
  2234388
370
     9
100
AcDbVertex
100
AcDb2dVertex
 10
76.67508387718898
 20
-142.0140810756078
 30
0.0
  0
VERTEX
  5
7F
330
7D
100
AcDbEntity
  8
_U+30EC_U+30A4_U+30E4_U+30FC 1
 62
   179
420
  2234388
370
     9
100
AcDbVertex
100
AcDb2dVertex
 10
77.536002744114
 20
-141.5159235757318
 30
0.0
  0
SEQEND
  5
80
330
7D
100
AcDbEntity
  8
_U+30EC_U+30A4_U+30E4_U+30FC 1
 62
   179
420
  2234388
370
     9
  0
POLYLINE
  5
81
330
1F
100
AcDbEntity
  8
_U+30EC_U+30A4_U+30E4_U+30FC 1
 62
   179
420
  2234388
370
     9
100
AcDb2dPolyline
 66
     1
 10
0.0
 20
0.0
 30
0.0
  0
VERTEX
  5
82
330
81
100
AcDbEntity
  8
_U+30EC_U+30A4_U+30E4_U+30FC 1
 62
   179
420
  2234388
370
     9
100
AcDbVertex
100
AcDb2dVertex
 10
76.67508387718898
 20
-142.0140810756078
 30
0.0
  0
VERTEX
  5
83
330
81
100
AcDbEntity
  8
_U+30EC_U+30A4_U+30E4_U+30FC 1
 62
   179
420
  2234388
370
     9
100
AcDbVertex
100
AcDb2dVertex
 10
99.87882995187876
 20
-118.8092760814087
 30
0.0
  0
SEQEND
  5
84
330
81
100
AcDbEntity
  8
_U+30EC_U+30A4_U+30E4_U+30FC 1
 62
   179
420
  2234388
370
     9
  0
POLYLINE
  5
85
330
1F
100
AcDbEntity
  8
_U+30EC_U+30A4_U+30E4_U+30FC 1
 62
   179
420
  2234388
370
     9
100
AcDb2dPolyline
 66
     1
 10
0.0
 20
0.0
 30
0.0
  0
VERTEX
  5
86
330
85
100
AcDbEntity
  8
_U+30EC_U+30A4_U+30E4_U+30FC 1
 62
   179
420
  2234388
370
     9
100
AcDbVertex
100
AcDb2dVertex
 10
76.67508387718898
 20
-142.0140810756078
 30
0.0
  0
VERTEX
  5
87
330
85
100
AcDbEntity
  8
_U+30EC_U+30A4_U+30E4_U+30FC 1
 62
   179
420
  2234388
370
     9
100
AcDbVertex
100
AcDb2dVertex
 10
77.17221830895046
 20
-141.1528094091565
 30
0.0
  0
SEQEND
  5
88
330
85
100
AcDbEntity
  8
_U+30EC_U+30A4_U+30E4_U+30FC 1
 62
   179
420
  2234388
370
     9
  0
INSERT
  5
8A
330
1F
100
AcDbEntity
  8
_U+30EC_U+30A4_U+30E4_U+30FC 1
100
AcDbBlockReference
  2
block 4
 10
0.0
 20
0.0
 30
0.0
  0
POLYLINE
  5
95
330
1F
100
AcDbEntity
  8
_U+30EC_U+30A4_U+30E4_U+30FC 1
 62
   179
420
  2234388
370
     9
100
AcDb2dPolyline
 66
     1
 10
0.0
 20
0.0
 30
0.0
  0
VERTEX
  5
96
330
95
100
AcDbEntity
  8
_U+30EC_U+30A4_U+30E4_U+30FC 1
 62
   179
420
  2234388
370
     9
100
AcDbVertex
100
AcDb2dVertex
 10
64.09118336489769
 20
-120.2355566366079
 30
0.0
  0
VERTEX
  5
97
330
95
100
AcDbEntity
  8
_U+30EC_U+30A4_U+30E4_U+30FC 1
 62
   179
420
  2234388
370
     9
100
AcDbVertex
100
AcDb2dVertex
 10
64.09118336489769
 20
-105.2356219181355
 30
0.0
  0
SEQEND
  5
98
330
95
100
AcDbEntity
  8
_U+30EC_U+30A4_U+30E4_U+30FC 1
 62
   179
420
  2234388
370
     9
  0
POLYLINE
  5
99
330
1F
100
AcDbEntity
  8
_U+30EC_U+30A4_U+30E4_U+30FC 1
 62
   179
420
  2234388
370
     9
100
AcDb2dPolyline
 66
     1
 10
0.0
 20
0.0
 30
0.0
  0
VERTEX
  5
9A
330
99
100
AcDbEntity
  8
_U+30EC_U+30A4_U+30E4_U+30FC 1
 62
   179
420
  2234388
370
     9
100
AcDbVertex
100
AcDb2dVertex
 10
66.26849247601658
 20
-120.1769955255113
 30
0.0
  0
VERTEX
  5
9B
330
99
100
AcDbEntity
  8
_U+30EC_U+30A4_U+30E4_U+30FC 1
 62
   179
420
  2234388
370
     9
100
AcDbVertex
100
AcDb2dVertex
 10
62.57120507034224
 20
-120.1769955255113
 30
0.0
  0
SEQEND
  5
9C
330
99
100
AcDbEntity
  8
_U+30EC_U+30A4_U+30E4_U+30FC 1
 62
   179
420
  2234388
370
     9
  0
POLYLINE
  5
9D
330
1F
100
AcDbEntity
  8
_U+30EC_U+30A4_U+30E4_U+30FC 1
 62
   179
420
  2234388
370
     9
100
AcDb2dPolyline
 66
     1
 10
0.0
 20
0.0
 30
0.0
  0
VERTEX
  5
9E
330
9D
100
AcDbEntity
  8
_U+30EC_U+30A4_U+30E4_U+30FC 1
 62
   179
420
  2234388
370
     9
100
AcDbVertex
100
AcDb2dVertex
 10
78.08548939676209
 20
-105.2073644181425
 30
0.0
  0
VERTEX
  5
9F
330
9D
100
AcDbEntity
  8
_U+30EC_U+30A4_U+30E4_U+30FC 1
 62
   179
420
  2234388
370
     9
100
AcDbVertex
100
AcDb2dVertex
 10
62.57120507034224
 20
-105.2073644181425
 30
0.0
  0
SEQEND
  5
A0
330
9D
100
AcDbEntity
  8
_U+30EC_U+30A4_U+30E4_U+30FC 1
 62
   179
420
  2234388
370
     9
  0
INSERT
  5
A2
330
1F
100
AcDbEntity
  8
_U+30EC_U+30A4_U+30E4_U+30FC 1
100
AcDbBlockReference
  2
block 5
 10
0.0
 20
0.0
 30
0.0
  0
SPLINE
  5
A9
330
1F
100
AcDbEntity
  8
_U+30EC_U+30A4_U+30E4_U+30FC 1
 62
   179
420
  2234388
370
     9
100
AcDbSpline
210
0.0
220
0.0
230
1.0
 70
    11
 71
     3
 72
    17
 73
    13
 74
     0
 42
0.0000000001
 43
0.0000000001
 12
1.0
 22
0.0
 32
0.0
 13
1.0
 23
0.0
 33
0.0
 40
0.0
 40
0.0
 40
0.0
 40
0.0
 40
1.0
 40
1.0
 40
1.0
 40
2.0
 40
2.0
 40
2.0
 40
3.0
 40
3.0
 40
3.0
 40
4.0
 40
4.0
 40
4.0
 40
4.0
 10
64.2134914173329
 20
-105.2356219181355
 30
0.0
 10
64.2134914173329
 20
-105.1804827514827
 30
0.0
 10
64.16833586292937
 20
-105.1357152514939
 30
0.0
 10
64.11287919767751
 20
-105.1357152514939
 30
0.0
 10
64.05844720620749
 20
-105.1357152514939
 30
0.0
 10
64.01367808909724
 20
-105.1804827514827
 30
0.0
 10
64.01367808909724
 20
-105.2356219181355
 30
0.0
 10
64.01367808909724
 20
-105.2907258070107
 30
0.0
 10
64.05844720620749
 20
-105.3355285847771
 30
0.0
 10
64.11287919767751
 20
-105.3355285847771
 30
0.0
 10
64.16833586292937
 20
-105.3355285847771
 30
0.0
 10
64.2134914173329
 20
-105.2907258070107
 30
0.0
 10
64.2134914173329
 20
-105.2356219181355
 30
0.0
  0
SPLINE
  5
AA
330
1F
100
AcDbEntity
  8
_U+30EC_U+30A4_U+30E4_U+30FC 1
 62
   179
420
  2234388
370
     9
100
AcDbSpline
210
0.0
220
0.0
230
1.0
 70
    11
 71
     3
 72
    17
 73
    13
 74
     0
 42
0.0000000001
 43
0.0000000001
 12
1.0
 22
0.0
 32
0.0
 13
1.0
 23
0.0
 33
0.0
 40
0.0
 40
0.0
 40
0.0
 40
0.0
 40
1.0
 40
1.0
 40
1.0
 40
2.0
 40
2.0
 40
2.0
 40
3.0
 40
3.0
 40
3.0
 40
4.0
 40
4.0
 40
4.0
 40
4.0
 10
64.2134914173329
 20
-120.2004199699498
 30
0.0
 10
64.2134914173329
 20
-120.1452808032971
 30
0.0
 10
64.16833586292937
 20
-120.1011835810859
 30
0.0
 10
64.11287919767751
 20
-120.1011835810859
 30
0.0
 10
64.05844720620749
 20
-120.1011835810859
 30
0.0
 10
64.01367808909724
 20
-120.1452808032971
 30
0.0
 10
64.01367808909724
 20
-120.2004199699498
 30
0.0
 10
64.01367808909724
 20
-120.2562294143803
 30
0.0
 10
64.05844720620749
 20
-120.3003266365914
 30
0.0
 10
64.11287919767751
 20
-120.3003266365914
 30
0.0
 10
64.16833586292937
 20
-120.3003266365914
 30
0.0
 10
64.2134914173329
 20
-120.2562294143803
 30
0.0
 10
64.2134914173329
 20
-120.2004199699498
 30
0.0
  0
SPLINE
  5
AB
330
1F
100
AcDbEntity
  8
_U+30EC_U+30A4_U+30E4_U+30FC 1
 62
   179
420
  2234388
370
     9
100
AcDbSpline
210
0.0
220
0.0
230
1.0
 70
    11
 71
     3
 72
    17
 73
    13
 74
     0
 42
0.0000000001
 43
0.0000000001
 12
1.0
 22
0.0
 32
0.0
 13
1.0
 23
0.0
 33
0.0
 40
0.0
 40
0.0
 40
0.0
 40
0.0
 40
1.0
 40
1.0
 40
1.0
 40
2.0
 40
2.0
 40
2.0
 40
3.0
 40
3.0
 40
3.0
 40
4.0
 40
4.0
 40
4.0
 40
4.0
 10
118.5278269761032
 20
-136.840242188012
 30
0.0
 10
118.5278269761032
 20
-136.7851030213595
 30
0.0
 10
118.4823539217078
 20
-136.7410057991483
 30
0.0
 10
118.4279203119854
 20
-136.7410057991483
 30
0.0
 10
118.3727811467254
 20
-136.7410057991483
 30
0.0
 10
118.3280166370845
 20
-136.7851030213595
 30
0.0
 10
118.3280166370845
 20
-136.840242188012
 30
0.0
 10
118.3280166370845
 20
-136.8953460768875
 30
0.0
 10
118.3727811467254
 20
-136.9401488546536
 30
0.0
 10
118.4279203119854
 20
-136.9401488546536
 30
0.0
 10
118.4823539217078
 20
-136.9401488546536
 30
0.0
 10
118.5278269761032
 20
-136.8953460768875
 30
0.0
 10
118.5278269761032
 20
-136.840242188012
 30
0.0
  0
SPLINE
  5
AC
330
1F
100
AcDbEntity
  8
_U+30EC_U+30A4_U+30E4_U+30FC 1
 62
   179
420
  2234388
370
     9
100
AcDbSpline
210
0.0
220
0.0
230
1.0
 70
    11
 71
     3
 72
    17
 73
    13
 74
     0
 42
0.0000000001
 43
0.0000000001
 12
1.0
 22
0.0
 32
0.0
 13
1.0
 23
0.0
 33
0.0
 40
0.0
 40
0.0
 40
0.0
 40
0.0
 40
1.0
 40
1.0
 40
1.0
 40
2.0
 40
2.0
 40
2.0
 40
3.0
 40
3.0
 40
3.0
 40
4.0
 40
4.0
 40
4.0
 40
4.0
 10
118.5278269761032
 20
-137.9908974655024
 30
0.0
 10
118.5278269761032
 20
-137.9357582988493
 30
0.0
 10
118.4823539217078
 20
-137.8916610766381
 30
0.0
 10
118.4279203119854
 20
-137.8916610766381
 30
0.0
 10
118.3727811467254
 20
-137.8916610766381
 30
0.0
 10
118.3280166370845
 20
-137.9357582988493
 30
0.0
 10
118.3280166370845
 20
-137.9908974655024
 30
0.0
 10
118.3280166370845
 20
-138.0467069099329
 30
0.0
 10
118.3727811467254
 20
-138.0914744099214
 30
0.0
 10
118.4279203119854
 20
-138.0914744099214
 30
0.0
 10
118.4823539217078
 20
-138.0914744099214
 30
0.0
 10
118.5278269761032
 20
-138.0467069099329
 30
0.0
 10
118.5278269761032
 20
-137.9908974655024
 30
0.0
  0
SPLINE
  5
AD
330
1F
100
AcDbEntity
  8
_U+30EC_U+30A4_U+30E4_U+30FC 1
 62
   179
420
  2234388
370
     9
100
AcDbSpline
210
0.0
220
0.0
230
1.0
 70
    11
 71
     3
 72
    17
 73
    13
 74
     0
 42
0.0000000001
 43
0.0000000001
 12
1.0
 22
0.0
 32
0.0
 13
1.0
 23
0.0
 33
0.0
 40
0.0
 40
0.0
 40
0.0
 40
0.0
 40
1.0
 40
1.0
 40
1.0
 40
2.0
 40
2.0
 40
2.0
 40
3.0
 40
3.0
 40
3.0
 40
4.0
 40
4.0
 40
4.0
 40
4.0
 10
118.5278269761032
 20
-150.9082791289399
 30
0.0
 10
118.5278269761032
 20
-150.8538455178423
 30
0.0
 10
118.4823539217078
 20
-150.8083724622982
 30
0.0
 10
118.4279203119854
 20
-150.8083724622982
 30
0.0
 10
118.3727811467254
 20
-150.8083724622982
 30
0.0
 10
118.3280166370845
 20
-150.8538455178423
 30
0.0
 10
118.3280166370845
 20
-150.9082791289399
 30
0.0
 10
118.3280166370845
 20
-150.9640885733703
 30
0.0
 10
118.3727811467254
 20
-151.0081857955815
 30
0.0
 10
118.4279203119854
 20
-151.0081857955815
 30
0.0
 10
118.4823539217078
 20
-151.0081857955815
 30
0.0
 10
118.5278269761032
 20
-150.9640885733703
 30
0.0
 10
118.5278269761032
 20
-150.9082791289399
 30
0.0
  0
POLYLINE
  5
AE
330
1F
100
AcDbEntity
  8
_U+30EC_U+30A4_U+30E4_U+30FC 1
 62
   179
420
  2234388
370
    25
100
AcDb2dPolyline
 66
     1
 10
0.0
 20
0.0
 30
0.0
  0
VERTEX
  5
AF
330
AE
100
AcDbEntity
  8
_U+30EC_U+30A4_U+30E4_U+30FC 1
 62
   179
420
  2234388
370
    25
100
AcDbVertex
100
AcDb2dVertex
 10
80.71548294077647
 20
-115.3097558045058
 30
0.0
  0
VERTEX
  5
B1
330
AE
100
AcDbEntity
  8
0
100
AcDbVertex
100
AcDb2dVertex
 10
80.71548294077647
 20
-115.3097558045058
 30
0.0
  0
SEQEND
  5
B0
330
AE
100
AcDbEntity
  8
_U+30EC_U+30A4_U+30E4_U+30FC 1
 62
   179
420
  2234388
370
    25
  0
ENDSEC
  0
SECTION
  2
OBJECTS
  0
DICTIONARY
  5
C
330
0
100
AcDbDictionary
281
     1
  3
ACAD_GROUP
350
D
  3
ACAD_LAYOUT
350
1A
  3
ACAD_MATERIAL
350
3B
  3
ACAD_MLEADERSTYLE
350
B3
  3
ACAD_MLINESTYLE
350
17
  3
ACAD_PLOTSETTINGS
350
19
  3
ACAD_PLOTSTYLENAME
350
E
  3
ACAD_TABLESTYLE
350
B2
  3
ACAD_VISUALSTYLE
350
2A
  0
SUN
  5
3F
330
29
100
AcDbSun
 90
        1
290
     0
 63
     7
421
 16777215
 40
1.0
291
     1
 91
  2455826
 92
 54000000
292
     0
 70
     2
 71
   256
280
     1
  0
DICTIONARY
  5
D
102
{ACAD_REACTORS
330
C
102
}
330
C
100
AcDbDictionary
281
     1
  0
DICTIONARY
  5
1A
102
{ACAD_REACTORS
330
C
102
}
330
C
100
AcDbDictionary
281
     1
  3
Layout1
350
1E
  3
Layout2
350
26
  3
Model
350
22
  0
DICTIONARY
  5
3B
102
{ACAD_REACTORS
330
C
102
}
330
C
100
AcDbDictionary
281
     1
  3
ByBlock
350
3D
  3
ByLayer
350
3C
  3
Global
350
3E
  0
DICTIONARY
  5
B3
102
{ACAD_REACTORS
330
C
102
}
330
C
100
AcDbDictionary
281
     1
  0
DICTIONARY
  5
17
102
{ACAD_REACTORS
330
C
102
}
330
C
100
AcDbDictionary
281
     1
  3
Standard
350
18
  0
DICTIONARY
  5
19
102
{ACAD_REACTORS
330
C
102
}
330
C
100
AcDbDictionary
281
     1
  0
ACDBDICTIONARYWDFLT
  5
E
102
{ACAD_REACTORS
330
C
102
}
330
C
100
AcDbDictionary
281
     1
  3
Normal
350
F
100
AcDbDictionaryWithDefault
340
F
  0
DICTIONARY
  5
B2
102
{ACAD_REACTORS
330
C
102
}
330
C
100
AcDbDictionary
281
     1
  0
DICTIONARY
  5
2A
102
{ACAD_REACTORS
330
C
102
}
330
C
100
AcDbDictionary
281
     1
  3
2dWireframe
350
2F
  3
3D Hidden
350
31
  3
3dWireframe
350
30
  3
Basic
350
32
  3
Brighten
350
36
  3
ColorChange
350
3A
  3
Conceptual
350
34
  3
Dim
350
35
  3
Facepattern
350
39
  3
Flat
350
2B
  3
FlatWithEdges
350
2C
  3
Gouraud
350
2D
  3
GouraudWithEdges
350
2E
  3
Linepattern
350
38
  3
Realistic
350
33
  3
Thicken
350
37
  0
LAYOUT
  5
1E
102
{ACAD_REACTORS
330
1A
102
}
330
1A
100
AcDbPlotSettings
  1

  2
none_device
  4

  6

 40
0.0
 41
0.0
 42
0.0
 43
0.0
 44
0.0
 45
0.0
 46
0.0
 47
0.0
 48
0.0
 49
0.0
140
0.0
141
0.0
142
1.0
143
1.0
 70
   688
 72
     0
 73
     0
 74
     5
  7

 75
    16
 76
     0
 77
     2
 78
   300
147
1.0
148
0.0
149
0.0
100
AcDbLayout
  1
Layout1
 70
     1
 71
     1
 10
0.0
 20
0.0
 11
12.0
 21
9.0
 12
0.0
 22
0.0
 32
0.0
 14
1.000000000000000E+20
 24
1.000000000000000E+20
 34
1.000000000000000E+20
 15
-1.000000000000000E+20
 25
-1.000000000000000E+20
 35
-1.000000000000000E+20
146
0.0
 13
0.0
 23
0.0
 33
0.0
 16
1.0
 26
0.0
 36
0.0
 17
0.0
 27
1.0
 37
0.0
 76
     0
330
1B
  0
LAYOUT
  5
26
102
{ACAD_REACTORS
330
1A
102
}
330
1A
100
AcDbPlotSettings
  1

  2
none_device
  4

  6

 40
0.0
 41
0.0
 42
0.0
 43
0.0
 44
0.0
 45
0.0
 46
0.0
 47
0.0
 48
0.0
 49
0.0
140
0.0
141
0.0
142
1.0
143
1.0
 70
   688
 72
     0
 73
     0
 74
     5
  7

 75
    16
 76
     0
 77
     2
 78
   300
147
1.0
148
0.0
149
0.0
100
AcDbLayout
  1
Layout2
 70
     1
 71
     2
 10
0.0
 20
0.0
 11
0.0
 21
0.0
 12
0.0
 22
0.0
 32
0.0
 14
0.0
 24
0.0
 34
0.0
 15
0.0
 25
0.0
 35
0.0
146
0.0
 13
0.0
 23
0.0
 33
0.0
 16
1.0
 26
0.0
 36
0.0
 17
0.0
 27
1.0
 37
0.0
 76
     0
330
23
  0
LAYOUT
  5
22
102
{ACAD_REACTORS
330
1A
102
}
330
1A
100
AcDbPlotSettings
  1

  2
none_device
  4

  6

 40
0.0
 41
0.0
 42
0.0
 43
0.0
 44
0.0
 45
0.0
 46
0.0
 47
0.0
 48
0.0
 49
0.0
140
0.0
141
0.0
142
1.0
143
1.0
 70
  1712
 72
     0
 73
     0
 74
     0
  7

 75
     0
 76
     0
 77
     2
 78
   300
147
1.0
148
0.0
149
0.0
100
AcDbLayout
  1
Model
 70
     1
 71
     0
 10
0.0
 20
0.0
 11
12.0
 21
9.0
 12
0.0
 22
0.0
 32
0.0
 14
1.000000000000000E+20
 24
1.000000000000000E+20
 34
1.000000000000000E+20
 15
-1.000000000000000E+20
 25
-1.000000000000000E+20
 35
-1.000000000000000E+20
146
0.0
 13
0.0
 23
0.0
 33
0.0
 16
1.0
 26
0.0
 36
0.0
 17
0.0
 27
1.0
 37
0.0
 76
     0
330
1F
331
29
  0
MATERIAL
  5
3D
102
{ACAD_REACTORS
330
3B
102
}
330
3B
100
AcDbMaterial
  1
ByBlock
 72
     1
 94
      127
  0
MATERIAL
  5
3C
102
{ACAD_REACTORS
330
3B
102
}
330
3B
100
AcDbMaterial
  1
ByLayer
 72
     1
 94
      127
  0
MATERIAL
  5
3E
102
{ACAD_REACTORS
330
3B
102
}
330
3B
100
AcDbMaterial
  1
Global
 72
     1
 94
      127
  0
MLINESTYLE
  5
18
102
{ACAD_REACTORS
330
17
102
}
330
17
100
AcDbMlineStyle
  2
Standard
 70
     0
  3

 62
   256
 51
90.0
 52
90.0
 71
     2
 49
0.5
 62
   256
  6
BYLAYER
 49
-0.5
 62
   256
  6
BYLAYER
  0
ACDBPLACEHOLDER
  5
F
102
{ACAD_REACTORS
330
E
102
}
330
E
  0
VISUALSTYLE
  5
2F
102
{ACAD_REACTORS
330
2A
102
}
330
2A
100
AcDbVisualStyle
  2
2dWireframe
 70
     4
177
     2
291
     0
 71
     0
176
     1
 72
     2
176
     1
 73
     0
176
     1
 90
        0
176
     1
 40
-0.6
176
     1
 41
-30.0
176
     1
 62
     5
 63
     7
421
 16777215
176
     1
 74
     1
176
     1
 91
        4
176
     1
 64
     7
176
     1
 65
   257
176
     1
 75
     1
176
     1
175
     1
176
     1
 42
1.0
176
     1
 92
        0
176
     1
 66
   257
176
     1
 43
1.0
176
     1
 76
     1
176
     1
 77
     6
176
     1
 78
     2
176
     1
 67
     7
176
     1
 79
     5
176
     1
170
     0
176
     1
171
     0
176
     1
290
     0
176
     1
 93
        1
176
     1
 44
0.0
176
     1
173
     0
176
     1
  0
VISUALSTYLE
  5
31
102
{ACAD_REACTORS
330
2A
102
}
330
2A
100
AcDbVisualStyle
  2
3D Hidden
 70
     6
177
     2
291
     0
 71
     1
176
     1
 72
     2
176
     1
 73
     2
176
     1
 90
        0
176
     1
 40
-0.6
176
     1
 41
-30.0
176
     1
 62
     5
 63
     7
421
 16777215
176
     1
 74
     2
176
     1
 91
        2
176
     1
 64
     7
176
     1
 65
   257
176
     1
 75
     2
176
     1
175
     1
176
     1
 42
40.0
176
     1
 92
        0
176
     1
 66
   257
176
     1
 43
1.0
176
     1
 76
     1
176
     1
 77
     6
176
     1
 78
     2
176
     1
 67
     7
176
     1
 79
     3
176
     1
170
     0
176
     1
171
     0
176
     1
290
     0
176
     1
 93
        1
176
     1
 44
0.0
176
     1
173
     0
176
     1
  0
VISUALSTYLE
  5
30
102
{ACAD_REACTORS
330
2A
102
}
330
2A
100
AcDbVisualStyle
  2
3dWireframe
 70
     5
177
     2
291
     0
 71
     0
176
     1
 72
     2
176
     1
 73
     0
176
     1
 90
        0
176
     1
 40
-0.6
176
     1
 41
-30.0
176
     1
 62
     5
 63
     7
421
 16777215
176
     1
 74
     1
176
     1
 91
        4
176
     1
 64
     7
176
     1
 65
   257
176
     1
 75
     1
176
     1
175
     1
176
     1
 42
1.0
176
     1
 92
        0
176
     1
 66
   257
176
     1
 43
1.0
176
     1
 76
     1
176
     1
 77
     6
176
     1
 78
     2
176
     1
 67
     7
176
     1
 79
     5
176
     1
170
     0
176
     1
171
     0
176
     1
290
     0
176
     1
 93
        1
176
     1
 44
0.0
176
     1
173
     0
176
     1
  0
VISUALSTYLE
  5
32
102
{ACAD_REACTORS
330
2A
102
}
330
2A
100
AcDbVisualStyle
  2
Basic
 70
     7
177
     2
291
     1
 71
     1
176
     1
 72
     0
176
     1
 73
     1
176
     1
 90
        0
176
     1
 40
-0.6
176
     1
 41
-30.0
176
     1
 62
     5
 63
     7
421
 16777215
176
     1
 74
     0
176
     1
 91
        4
176
     1
 64
     7
176
     1
 65
   257
176
     1
 75
     1
176
     1
175
     1
176
     1
 42
1.0
176
     1
 92
        8
176
     1
 66
     7
176
     1
 43
1.0
176
     1
 76
     1
176
     1
 77
     6
176
     1
 78
     2
176
     1
 67
     7
176
     1
 79
     5
176
     1
170
     0
176
     1
171
     0
176
     1
290
     0
176
     1
 93
        1
176
     1
 44
0.0
176
     1
173
     0
176
     1
  0
VISUALSTYLE
  5
36
102
{ACAD_REACTORS
330
2A
102
}
330
2A
100
AcDbVisualStyle
  2
Brighten
 70
    12
177
     2
291
     1
 71
     2
176
     1
 72
     2
176
     1
 73
     0
176
     1
 90
        0
176
     1
 40
-0.6
176
     1
 41
-30.0
176
     1
 62
     5
 63
     7
421
 16777215
176
     1
 74
     1
176
     1
 91
        4
176
     1
 64
     7
176
     1
 65
   257
176
     1
 75
     1
176
     1
175
     1
176
     1
 42
1.0
176
     1
 92
        8
176
     1
 66
     7
176
     1
 43
1.0
176
     1
 76
     1
176
     1
 77
     6
176
     1
 78
     2
176
     1
 67
     7
176
     1
 79
     5
176
     1
170
     0
176
     1
171
     0
176
     1
290
     0
176
     1
 93
        1
176
     1
 44
50.0
176
     1
173
     0
176
     1
  0
VISUALSTYLE
  5
3A
102
{ACAD_REACTORS
330
2A
102
}
330
2A
100
AcDbVisualStyle
  2
ColorChange
 70
    16
177
     2
291
     1
 71
     2
176
     1
 72
     2
176
     1
 73
     3
176
     1
 90
        0
176
     1
 40
-0.6
176
     1
 41
-30.0
176
     1
 62
     5
 63
     8
421
  8421504
176
     1
 74
     1
176
     1
 91
        4
176
     1
 64
     7
176
     1
 65
   257
176
     1
 75
     1
176
     1
175
     1
176
     1
 42
1.0
176
     1
 92
        8
176
     1
 66
     8
424
  8421504
176
     1
 43
1.0
176
     1
 76
     1
176
     1
 77
     6
176
     1
 78
     2
176
     1
 67
     7
176
     1
 79
     5
176
     1
170
     0
176
     1
171
     0
176
     1
290
     0
176
     1
 93
        1
176
     1
 44
0.0
176
     1
173
     0
176
     1
  0
VISUALSTYLE
  5
34
102
{ACAD_REACTORS
330
2A
102
}
330
2A
100
AcDbVisualStyle
  2
Conceptual
 70
     9
177
     2
291
     0
 71
     3
176
     1
 72
     2
176
     1
 73
     0
176
     1
 90
        0
176
     1
 40
-0.6
176
     1
 41
-30.0
176
     1
 62
     5
 63
     7
421
 16777215
176
     1
 74
     2
176
     1
 91
        2
176
     1
 64
     7
176
     1
 65
   257
176
     1
 75
     1
176
     1
175
     1
176
     1
 42
40.0
176
     1
 92
        8
176
     1
 66
     7
176
     1
 43
1.0
176
     1
 76
     1
176
     1
 77
     6
176
     1
 78
     2
176
     1
 67
     7
176
     1
 79
     3
176
     1
170
     0
176
     1
171
     0
176
     1
290
     0
176
     1
 93
        1
176
     1
 44
0.0
176
     1
173
     0
176
     1
  0
VISUALSTYLE
  5
35
102
{ACAD_REACTORS
330
2A
102
}
330
2A
100
AcDbVisualStyle
  2
Dim
 70
    11
177
     2
291
     1
 71
     2
176
     1
 72
     2
176
     1
 73
     0
176
     1
 90
        0
176
     1
 40
-0.6
176
     1
 41
-30.0
176
     1
 62
     5
 63
     7
421
 16777215
176
     1
 74
     1
176
     1
 91
        4
176
     1
 64
     7
176
     1
 65
   257
176
     1
 75
     1
176
     1
175
     1
176
     1
 42
1.0
176
     1
 92
        8
176
     1
 66
     7
176
     1
 43
1.0
176
     1
 76
     1
176
     1
 77
     6
176
     1
 78
     2
176
     1
 67
     7
176
     1
 79
     5
176
     1
170
     0
176
     1
171
     0
176
     1
290
     0
176
     1
 93
        1
176
     1
 44
-50.0
176
     1
173
     0
176
     1
  0
VISUALSTYLE
  5
39
102
{ACAD_REACTORS
330
2A
102
}
330
2A
100
AcDbVisualStyle
  2
Facepattern
 70
    15
177
     2
291
     1
 71
     2
176
     1
 72
     2
176
     1
 73
     0
176
     1
 90
        0
176
     1
 40
-0.6
176
     1
 41
-30.0
176
     1
 62
     5
 63
     7
421
 16777215
176
     1
 74
     1
176
     1
 91
        4
176
     1
 64
     7
176
     1
 65
   257
176
     1
 75
     1
176
     1
175
     1
176
     1
 42
1.0
176
     1
 92
        8
176
     1
 66
     7
176
     1
 43
1.0
176
     1
 76
     1
176
     1
 77
     6
176
     1
 78
     2
176
     1
 67
     7
176
     1
 79
     5
176
     1
170
     0
176
     1
171
     0
176
     1
290
     0
176
     1
 93
        1
176
     1
 44
0.0
176
     1
173
     0
176
     1
  0
VISUALSTYLE
  5
2B
102
{ACAD_REACTORS
330
2A
102
}
330
2A
100
AcDbVisualStyle
  2
Flat
 70
     0
177
     2
291
     1
 71
     2
176
     1
 72
     1
176
     1
 73
     1
176
     1
 90
        2
176
     1
 40
-0.6
176
     1
 41
30.0
176
     1
 62
     5
 63
     7
421
 16777215
176
     1
 74
     0
176
     1
 91
        4
176
     1
 64
     7
176
     1
 65
   257
176
     1
 75
     1
176
     1
175
     1
176
     1
 42
1.0
176
     1
 92
        8
176
     1
 66
     7
176
     1
 43
1.0
176
     1
 76
     1
176
     1
 77
     6
176
     1
 78
     2
176
     1
 67
     7
176
     1
 79
     5
176
     1
170
     0
176
     1
171
     0
176
     1
290
     0
176
     1
 93
       13
176
     1
 44
0.0
176
     1
173
     0
176
     1
  0
VISUALSTYLE
  5
2C
102
{ACAD_REACTORS
330
2A
102
}
330
2A
100
AcDbVisualStyle
  2
FlatWithEdges
 70
     1
177
     2
291
     1
 71
     2
176
     1
 72
     1
176
     1
 73
     1
176
     1
 90
        2
176
     1
 40
-0.6
176
     1
 41
30.0
176
     1
 62
     5
 63
     7
421
 16777215
176
     1
 74
     1
176
     1
 91
        4
176
     1
 64
     7
176
     1
 65
   257
176
     1
 75
     1
176
     1
175
     1
176
     1
 42
1.0
176
     1
 92
        0
176
     1
 66
   257
176
     1
 43
1.0
176
     1
 76
     1
176
     1
 77
     6
176
     1
 78
     2
176
     1
 67
     7
176
     1
 79
     5
176
     1
170
     0
176
     1
171
     0
176
     1
290
     0
176
     1
 93
       13
176
     1
 44
0.0
176
     1
173
     0
176
     1
  0
VISUALSTYLE
  5
2D
102
{ACAD_REACTORS
330
2A
102
}
330
2A
100
AcDbVisualStyle
  2
Gouraud
 70
     2
177
     2
291
     1
 71
     2
176
     1
 72
     2
176
     1
 73
     1
176
     1
 90
        2
176
     1
 40
-0.6
176
     1
 41
30.0
176
     1
 62
     5
 63
     7
421
 16777215
176
     1
 74
     0
176
     1
 91
        4
176
     1
 64
     7
176
     1
 65
   257
176
     1
 75
     1
176
     1
175
     1
176
     1
 42
1.0
176
     1
 92
        0
176
     1
 66
     7
176
     1
 43
1.0
176
     1
 76
     1
176
     1
 77
     6
176
     1
 78
     2
176
     1
 67
     7
176
     1
 79
     5
176
     1
170
     0
176
     1
171
     0
176
     1
290
     0
176
     1
 93
       13
176
     1
 44
0.0
176
     1
173
     0
176
     1
  0
VISUALSTYLE
  5
2E
102
{ACAD_REACTORS
330
2A
102
}
330
2A
100
AcDbVisualStyle
  2
GouraudWithEdges
 70
     3
177
     2
291
     1
 71
     2
176
     1
 72
     2
176
     1
 73
     1
176
     1
 90
        2
176
     1
 40
-0.6
176
     1
 41
30.0
176
     1
 62
     5
 63
     7
421
 16777215
176
     1
 74
     1
176
     1
 91
        4
176
     1
 64
     7
176
     1
 65
   257
176
     1
 75
     1
176
     1
175
     1
176
     1
 42
1.0
176
     1
 92
        0
176
     1
 66
   257
176
     1
 43
1.0
176
     1
 76
     1
176
     1
 77
     6
176
     1
 78
     2
176
     1
 67
     7
176
     1
 79
     5
176
     1
170
     0
176
     1
171
     0
176
     1
290
     0
176
     1
 93
       13
176
     1
 44
0.0
176
     1
173
     0
176
     1
  0
VISUALSTYLE
  5
38
102
{ACAD_REACTORS
330
2A
102
}
330
2A
100
AcDbVisualStyle
  2
Linepattern
 70
    14
177
     2
291
     1
 71
     2
176
     1
 72
     2
176
     1
 73
     0
176
     1
 90
        0
176
     1
 40
-0.6
176
     1
 41
-30.0
176
     1
 62
     5
 63
     7
421
 16777215
176
     1
 74
     1
176
     1
 91
        4
176
     1
 64
     7
176
     1
 65
   257
176
     1
 75
     7
176
     1
175
     7
176
     1
 42
1.0
176
     1
 92
        8
176
     1
 66
     7
176
     1
 43
1.0
176
     1
 76
     1
176
     1
 77
     6
176
     1
 78
     2
176
     1
 67
     7
176
     1
 79
     5
176
     1
170
     0
176
     1
171
     0
176
     1
290
     0
176
     1
 93
        1
176
     1
 44
0.0
176
     1
173
     0
176
     1
  0
VISUALSTYLE
  5
33
102
{ACAD_REACTORS
330
2A
102
}
330
2A
100
AcDbVisualStyle
  2
Realistic
 70
     8
177
     2
291
     0
 71
     2
176
     1
 72
     2
176
     1
 73
     0
176
     1
 90
        0
176
     1
 40
-0.6
176
     1
 41
-30.0
176
     1
 62
     5
 63
     7
421
 16777215
176
     1
 74
     1
176
     1
 91
        0
176
     1
 64
     7
176
     1
 65
   257
176
     1
 75
     1
176
     1
175
     1
176
     1
 42
1.0
176
     1
 92
        8
176
     1
 66
     8
424
  7895160
176
     1
 43
1.0
176
     1
 76
     1
176
     1
 77
     6
176
     1
 78
     2
176
     1
 67
     7
176
     1
 79
     5
176
     1
170
     0
176
     1
171
     0
176
     1
290
     0
176
     1
 93
       13
176
     1
 44
0.0
176
     1
173
     0
176
     1
  0
VISUALSTYLE
  5
37
102
{ACAD_REACTORS
330
2A
102
}
330
2A
100
AcDbVisualStyle
  2
Thicken
 70
    13
177
     2
291
     1
 71
     2
176
     1
 72
     2
176
     1
 73
     0
176
     1
 90
        0
176
     1
 40
-0.6
176
     1
 41
-30.0
176
     1
 62
     5
 63
     7
421
 16777215
176
     1
 74
     1
176
     1
 91
        4
176
     1
 64
     7
176
     1
 65
   257
176
     1
 75
     1
176
     1
175
     1
176
     1
 42
1.0
176
     1
 92
       12
176
     1
 66
     7
176
     1
 43
1.0
176
     1
 76
     1
176
     1
 77
     6
176
     1
 78
     2
176
     1
 67
     7
176
     1
 79
     5
176
     1
170
     0
176
     1
171
     0
176
     1
290
     0
176
     1
 93
        1
176
     1
 44
0.0
176
     1
173
     0
176
     1
  0
ENDSEC
  0
EOF
