  0
SECTION
  2
HEADER
  9
$ACADVER
  1
AC1024
  9
$ACADMAINTVER
 70
     6
  9
$DWGCODEPAGE
  3
UNDEFINED
  9
$INSBASE
 10
0.0
 20
0.0
 30
0.0
  9
$EXTMIN
 10
1.000000000000000E+20
 20
1.000000000000000E+20
 30
1.000000000000000E+20
  9
$EXTMAX
 10
-1.000000000000000E+20
 20
-1.000000000000000E+20
 30
-1.000000000000000E+20
  9
$LIMMIN
 10
0.0
 20
0.0
  9
$LIMMAX
 10
12.0
 20
9.0
  9
$ORTHOMODE
 70
     0
  9
$REGENMODE
 70
     1
  9
$FILLMODE
 70
     1
  9
$QTEXTMODE
 70
     0
  9
$MIRRTEXT
 70
     1
  9
$LTSCALE
 40
1.0
  9
$ATTMODE
 70
     1
  9
$TEXTSIZE
 40
0.2
  9
$TRACEWID
 40
0.05
  9
$TEXTSTYLE
  7
Standard
  9
$CLAYER
  8
0
  9
$CELTYPE
  6
ByLayer
  9
$CECOLOR
 62
   256
  9
$CELTSCALE
 40
1.0
  9
$DISPSILH
 70
     0
  9
$DIMSCALE
 40
1.0
  9
$DIMASZ
 40
0.18
  9
$DIMEXO
 40
0.0625
  9
$DIMDLI
 40
0.38
  9
$DIMRND
 40
0.0
  9
$DIMDLE
 40
0.0
  9
$DIMEXE
 40
0.18
  9
$DIMTP
 40
0.0
  9
$DIMTM
 40
0.0
  9
$DIMTXT
 40
0.18
  9
$DIMCEN
 40
0.09
  9
$DIMTSZ
 40
0.0
  9
$DIMTOL
 70
     0
  9
$DIMLIM
 70
     0
  9
$DIMTIH
 70
     1
  9
$DIMTOH
 70
     1
  9
$DIMSE1
 70
     0
  9
$DIMSE2
 70
     0
  9
$DIMTAD
 70
     0
  9
$DIMZIN
 70
     0
  9
$DIMBLK
  1

  9
$DIMASO
 70
     1
  9
$DIMSHO
 70
     1
  9
$DIMPOST
  1

  9
$DIMAPOST
  1

  9
$DIMALT
 70
     0
  9
$DIMALTD
 70
     2
  9
$DIMALTF
 40
25.4
  9
$DIMLFAC
 40
1.0
  9
$DIMTOFL
 70
     0
  9
$DIMTVP
 40
0.0
  9
$DIMTIX
 70
     0
  9
$DIMSOXD
 70
     0
  9
$DIMSAH
 70
     0
  9
$DIMBLK1
  1

  9
$DIMBLK2
  1

  9
$DIMSTYLE
  2
Standard
  9
$DIMCLRD
 70
     0
  9
$DIMCLRE
 70
     0
  9
$DIMCLRT
 70
     0
  9
$DIMTFAC
 40
1.0
  9
$DIMGAP
 40
0.09
  9
$DIMJUST
 70
     0
  9
$DIMSD1
 70
     0
  9
$DIMSD2
 70
     0
  9
$DIMTOLJ
 70
     1
  9
$DIMTZIN
 70
     0
  9
$DIMALTZ
 70
     0
  9
$DIMALTTZ
 70
     0
  9
$DIMUPT
 70
     0
  9
$DIMDEC
 70
     4
  9
$DIMTDEC
 70
     4
  9
$DIMALTU
 70
     2
  9
$DIMALTTD
 70
     2
  9
$DIMTXSTY
  7
Standard
  9
$DIMAUNIT
 70
     0
  9
$DIMADEC
 70
     0
  9
$DIMALTRND
 40
0.0
  9
$DIMAZIN
 70
     0
  9
$DIMDSEP
 70
    46
  9
$DIMATFIT
 70
     3
  9
$DIMFRAC
 70
     0
  9
$DIMLDRBLK
  1

  9
$DIMLUNIT
 70
     2
  9
$DIMLWD
 70
    -2
  9
$DIMLWE
 70
    -2
  9
$DIMTMOVE
 70
     0
  9
$DIMFXL
 40
1.0
  9
$DIMFXLON
 70
     0
  9
$DIMJOGANG
 40
0.7853981633974483
  9
$DIMTFILL
 70
     0
  9
$DIMTFILLCLR
 70
     0
  9
$DIMARCSYM
 70
     0
  9
$DIMLTYPE
  6

  9
$DIMLTEX1
  6

  9
$DIMLTEX2
  6

  9
$DIMTXTDIRECTION
 70
     0
  9
$LUNITS
 70
     2
  9
$LUPREC
 70
     4
  9
$SKETCHINC
 40
0.1
  9
$FILLETRAD
 40
0.5
  9
$AUNITS
 70
     0
  9
$AUPREC
 70
     0
  9
$MENU
  1
.
  9
$ELEVATION
 40
0.0
  9
$PELEVATION
 40
0.0
  9
$THICKNESS
 40
0.0
  9
$LIMCHECK
 70
     0
  9
$CHAMFERA
 40
0.5
  9
$CHAMFERB
 40
0.5
  9
$CHAMFERC
 40
1.0
  9
$CHAMFERD
 40
0.0
  9
$SKPOLY
 70
     0
  9
$TDCREATE
 40
2457917.618067118
  9
$TDUCREATE
 40
2457917.24306713
  9
$TDUPDATE
 40
2457917.618067118
  9
$TDUUPDATE
 40
2457917.24306713
  9
$TDINDWG
 40
0.0000000116
  9
$TDUSRTIMER
 40
0.0000000116
  9
$USRTIMER
 70
     1
  9
$ANGBASE
 50
0.0
  9
$ANGDIR
 70
     0
  9
$PDMODE
 70
     0
  9
$PDSIZE
 40
0.0
  9
$PLINEWID
 40
0.0
  9
$SPLFRAME
 70
     0
  9
$SPLINETYPE
 70
     6
  9
$SPLINESEGS
 70
     8
  9
$HANDSEED
  5
E8
  9
$SURFTAB1
 70
     6
  9
$SURFTAB2
 70
     6
  9
$SURFTYPE
 70
     6
  9
$SURFU
 70
     6
  9
$SURFV
 70
     6
  9
$UCSBASE
  2

  9
$UCSNAME
  2

  9
$UCSORG
 10
0.0
 20
0.0
 30
0.0
  9
$UCSXDIR
 10
1.0
 20
0.0
 30
0.0
  9
$UCSYDIR
 10
0.0
 20
1.0
 30
0.0
  9
$UCSORTHOREF
  2

  9
$UCSORTHOVIEW
 70
     0
  9
$UCSORGTOP
 10
0.0
 20
0.0
 30
0.0
  9
$UCSORGBOTTOM
 10
0.0
 20
0.0
 30
0.0
  9
$UCSORGLEFT
 10
0.0
 20
0.0
 30
0.0
  9
$UCSORGRIGHT
 10
0.0
 20
0.0
 30
0.0
  9
$UCSORGFRONT
 10
0.0
 20
0.0
 30
0.0
  9
$UCSORGBACK
 10
0.0
 20
0.0
 30
0.0
  9
$PUCSBASE
  2

  9
$PUCSNAME
  2

  9
$PUCSORG
 10
0.0
 20
0.0
 30
0.0
  9
$PUCSXDIR
 10
1.0
 20
0.0
 30
0.0
  9
$PUCSYDIR
 10
0.0
 20
1.0
 30
0.0
  9
$PUCSORTHOREF
  2

  9
$PUCSORTHOVIEW
 70
     0
  9
$PUCSORGTOP
 10
0.0
 20
0.0
 30
0.0
  9
$PUCSORGBOTTOM
 10
0.0
 20
0.0
 30
0.0
  9
$PUCSORGLEFT
 10
0.0
 20
0.0
 30
0.0
  9
$PUCSORGRIGHT
 10
0.0
 20
0.0
 30
0.0
  9
$PUCSORGFRONT
 10
0.0
 20
0.0
 30
0.0
  9
$PUCSORGBACK
 10
0.0
 20
0.0
 30
0.0
  9
$USERI1
 70
     0
  9
$USERI2
 70
     0
  9
$USERI3
 70
     0
  9
$USERI4
 70
     0
  9
$USERI5
 70
     0
  9
$USERR1
 40
0.0
  9
$USERR2
 40
0.0
  9
$USERR3
 40
0.0
  9
$USERR4
 40
0.0
  9
$USERR5
 40
0.0
  9
$WORLDVIEW
 70
     1
  9
$SHADEDGE
 70
     3
  9
$SHADEDIF
 70
    70
  9
$TILEMODE
 70
     1
  9
$MAXACTVP
 70
    64
  9
$PINSBASE
 10
0.0
 20
0.0
 30
0.0
  9
$PLIMCHECK
 70
     0
  9
$PEXTMIN
 10
1.000000000000000E+20
 20
1.000000000000000E+20
 30
1.000000000000000E+20
  9
$PEXTMAX
 10
-1.000000000000000E+20
 20
-1.000000000000000E+20
 30
-1.000000000000000E+20
  9
$PLIMMIN
 10
0.0
 20
0.0
  9
$PLIMMAX
 10
12.0
 20
9.0
  9
$UNITMODE
 70
     0
  9
$VISRETAIN
 70
     1
  9
$PLINEGEN
 70
     0
  9
$PSLTSCALE
 70
     1
  9
$TREEDEPTH
 70
  3020
  9
$CMLSTYLE
  2
Standard
  9
$CMLJUST
 70
     0
  9
$CMLSCALE
 40
1.0
  9
$PROXYGRAPHICS
 70
     1
  9
$MEASUREMENT
 70
     0
  9
$CELWEIGHT
370
    -1
  9
$ENDCAPS
280
     0
  9
$JOINSTYLE
280
     0
  9
$LWDISPLAY
290
     1
  9
$INSUNITS
 70
     1
  9
$HYPERLINKBASE
  1

  9
$STYLESHEET
  1

  9
$XEDIT
290
     1
  9
$CEPSNTYPE
380
     0
  9
$PSTYLEMODE
290
     1
  9
$FINGERPRINTGUID
  2
{18BE79C3-0B2F-C0D4-48BA-FDB300F97F80}
  9
$VERSIONGUID
  2
{FAEB1C32-E019-11D5-929B-00C0DF256EC4}
  9
$EXTNAMES
290
     1
  9
$PSVPSCALE
 40
0.0
  9
$OLESTARTUP
290
     0
  9
$SORTENTS
280
   127
  9
$INDEXCTL
280
     0
  9
$HIDETEXT
280
     1
  9
$XCLIPFRAME
280
     2
  9
$HALOGAP
280
     0
  9
$OBSCOLOR
 70
   257
  9
$OBSLTYPE
280
     0
  9
$INTERSECTIONDISPLAY
280
     0
  9
$INTERSECTIONCOLOR
 70
   257
  9
$DIMASSOC
280
     2
  9
$PROJECTNAME
  1

  9
$CAMERADISPLAY
290
     0
  9
$LENSLENGTH
 40
50.0
  9
$CAMERAHEIGHT
 40
0.0
  9
$STEPSPERSEC
 40
2.0
  9
$STEPSIZE
 40
6.0
  9
$3DDWFPREC
 40
2.0
  9
$PSOLWIDTH
 40
0.25
  9
$PSOLHEIGHT
 40
4.0
  9
$LOFTANG1
 40
1.570796326794897
  9
$LOFTANG2
 40
1.570796326794897
  9
$LOFTMAG1
 40
0.0
  9
$LOFTMAG2
 40
0.0
  9
$LOFTPARAM
 70
     7
  9
$LOFTNORMALS
280
     1
  9
$LATITUDE
 40
37.795
  9
$LONGITUDE
 40
-122.394
  9
$NORTHDIRECTION
 40
0.0
  9
$TIMEZONE
 70
 -8000
  9
$LIGHTGLYPHDISPLAY
280
     1
  9
$TILEMODELIGHTSYNCH
280
     1
  9
$CMATERIAL
347
3C
  9
$SOLIDHIST
280
     1
  9
$SHOWHIST
280
     1
  9
$DWFFRAME
280
     2
  9
$DGNFRAME
280
     2
  9
$REALWORLDSCALE
290
     1
  9
$INTERFERECOLOR
 62
   256
  9
$CSHADOW
280
     0
  9
$SHADOWPLANELOCATION
 40
0.0
  0
ENDSEC
  0
SECTION
  2
CLASSES
  0
CLASS
  1
ACDBDICTIONARYWDFLT
  2
AcDbDictionaryWithDefault
  3
ObjectDBX Classes
 90
        0
 91
        4
280
     0
281
     0
  0
CLASS
  1
VISUALSTYLE
  2
AcDbVisualStyle
  3
ObjectDBX Classes
 90
     4095
 91
        4
280
     0
281
     0
  0
CLASS
  1
MATERIAL
  2
AcDbMaterial
  3
ObjectDBX Classes
 90
     1153
 91
        4
280
     0
281
     0
  0
CLASS
  1
SUN
  2
AcDbSun
  3
SCENEOE
 90
     1024
 91
        4
280
     0
281
     0
  0
ENDSEC
  0
SECTION
  2
TABLES
  0
TABLE
  2
VPORT
  5
8
330
0
100
AcDbSymbolTable
 70
     1
  0
VPORT
  5
29
330
8
100
AcDbSymbolTableRecord
100
AcDbViewportTableRecord
  2
*Active
 70
     0
 10
0.0
 20
0.0
 11
1.0
 21
1.0
 12
0.0
 22
0.0
 13
0.0
 23
0.0
 14
0.5
 24
0.5
 15
0.5
 25
0.5
 16
0.0
 26
0.0
 36
1.0
 17
91.00082462281999
 27
-128.4993055234307
 37
0.0
 40
256.9986110468615
 41
0.7081814508812795
 42
50.0
 43
0.0
 44
0.0
 50
0.0
 51
0.0
 71
     0
 72
   100
 73
     1
 74
     3
 75
     0
 76
     0
 77
     0
 78
     0
281
     0
 65
     1
110
0.0
120
0.0
130
0.0
111
1.0
121
0.0
131
0.0
112
0.0
122
1.0
132
0.0
 79
     0
146
0.0
 60
     3
 61
     5
292
     1
282
     1
141
0.0
142
0.0
 63
   250
361
3F
  0
ENDTAB
  0
TABLE
  2
LTYPE
  5
5
330
0
100
AcDbSymbolTable
 70
     1
  0
LTYPE
  5
14
330
5
100
AcDbSymbolTableRecord
100
AcDbLinetypeTableRecord
  2
ByBlock
 70
     0
  3

 72
    65
 73
     0
 40
0.0
  0
LTYPE
  5
15
330
5
100
AcDbSymbolTableRecord
100
AcDbLinetypeTableRecord
  2
ByLayer
 70
     0
  3

 72
    65
 73
     0
 40
0.0
  0
LTYPE
  5
16
330
5
100
AcDbSymbolTableRecord
100
AcDbLinetypeTableRecord
  2
Continuous
 70
     0
  3
Solid line
 72
    65
 73
     0
 40
0.0
  0
ENDTAB
  0
TABLE
  2
LAYER
  5
2
330
0
100
AcDbSymbolTable
 70
     2
  0
LAYER
  5
10
330
2
100
AcDbSymbolTableRecord
100
AcDbLayerTableRecord
  2
0
 70
     0
 62
     7
  6
Continuous
370
    -3
390
F
347
3E
  0
LAYER
  5
40
330
2
100
AcDbSymbolTableRecord
100
AcDbLayerTableRecord
  2
_U+30EC_U+30A4_U+30E4_U+30FC 1
 70
     0
 62
     7
  6
Continuous
370
    -3
390
F
347
3E
  0
ENDTAB
  0
TABLE
  2
STYLE
  5
3
330
0
100
AcDbSymbolTable
 70
     1
  0
STYLE
  5
11
330
3
100
AcDbSymbolTableRecord
100
AcDbTextStyleTableRecord
  2
Standard
 70
     0
 40
0.0
 41
1.0
 50
0.0
 71
     0
 42
0.2
  3
txt
  4

  0
ENDTAB
  0
TABLE
  2
VIEW
  5
6
330
0
100
AcDbSymbolTable
 70
     0
  0
ENDTAB
  0
TABLE
  2
UCS
  5
7
330
0
100
AcDbSymbolTable
 70
     0
  0
ENDTAB
  0
TABLE
  2
APPID
  5
9
330
0
100
AcDbSymbolTable
 70
     1
  0
APPID
  5
12
330
9
100
AcDbSymbolTableRecord
100
AcDbRegAppTableRecord
  2
ACAD
 70
     0
  0
ENDTAB
  0
TABLE
  2
DIMSTYLE
  5
A
330
0
100
AcDbSymbolTable
 70
     1
100
AcDbDimStyleTable
  0
DIMSTYLE
105
27
330
A
100
AcDbSymbolTableRecord
100
AcDbDimStyleTableRecord
  2
Standard
 70
     0
178
     0
340
11
  0
ENDTAB
  0
TABLE
  2
BLOCK_RECORD
  5
1
330
0
100
AcDbSymbolTable
 70
    11
  0
BLOCK_RECORD
  5
1F
330
1
100
AcDbSymbolTableRecord
100
AcDbBlockTableRecord
  2
*Model_Space
340
22
 70
     0
280
     1
281
     0
  0
BLOCK_RECORD
  5
1B
330
1
100
AcDbSymbolTableRecord
100
AcDbBlockTableRecord
  2
*Paper_Space
340
1E
 70
     0
280
     1
281
     0
  0
BLOCK_RECORD
  5
23
330
1
100
AcDbSymbolTableRecord
100
AcDbBlockTableRecord
  2
*Paper_Space0
340
26
 70
     0
280
     1
281
     0
  0
BLOCK_RECORD
  5
41
330
1
100
AcDbSymbolTableRecord
100
AcDbBlockTableRecord
  2
block 2
340
0
102
{BLKREFS
331
42
102
}
 70
     0
280
     1
281
     0
  0
BLOCK_RECORD
  5
45
330
1
100
AcDbSymbolTableRecord
100
AcDbBlockTableRecord
  2
block 3
340
0
102
{BLKREFS
331
46
102
}
 70
     0
280
     1
281
     0
  0
BLOCK_RECORD
  5
49
330
1
100
AcDbSymbolTableRecord
100
AcDbBlockTableRecord
  2
block 4
340
0
102
{BLKREFS
331
4A
102
}
 70
     0
280
     1
281
     0
  0
BLOCK_RECORD
  5
67
330
1
100
AcDbSymbolTableRecord
100
AcDbBlockTableRecord
  2
block 5
340
0
102
{BLKREFS
331
68
102
}
 70
     0
280
     1
281
     0
  0
BLOCK_RECORD
  5
6B
330
1
100
AcDbSymbolTableRecord
100
AcDbBlockTableRecord
  2
block 6
340
0
102
{BLKREFS
331
6C
102
}
 70
     0
280
     1
281
     0
  0
BLOCK_RECORD
  5
7B
330
1
100
AcDbSymbolTableRecord
100
AcDbBlockTableRecord
  2
block 7
340
0
102
{BLKREFS
331
7C
102
}
 70
     0
280
     1
281
     0
  0
BLOCK_RECORD
  5
84
330
1
100
AcDbSymbolTableRecord
100
AcDbBlockTableRecord
  2
block 8
340
0
102
{BLKREFS
331
85
102
}
 70
     0
280
     1
281
     0
  0
BLOCK_RECORD
  5
8D
330
1
100
AcDbSymbolTableRecord
100
AcDbBlockTableRecord
  2
block 9
340
0
102
{BLKREFS
331
8E
102
}
 70
     0
280
     1
281
     0
  0
BLOCK_RECORD
  5
96
330
1
100
AcDbSymbolTableRecord
100
AcDbBlockTableRecord
  2
block 10
340
0
102
{BLKREFS
331
97
102
}
 70
     0
280
     1
281
     0
  0
BLOCK_RECORD
  5
9A
330
1
100
AcDbSymbolTableRecord
100
AcDbBlockTableRecord
  2
block 11
340
0
102
{BLKREFS
331
9B
102
}
 70
     0
280
     1
281
     0
  0
ENDTAB
  0
ENDSEC
  0
SECTION
  2
BLOCKS
  0
BLOCK
  5
20
330
1F
100
AcDbEntity
  8
0
100
AcDbBlockBegin
  2
*Model_Space
 70
     0
 10
0.0
 20
0.0
 30
0.0
  3
*Model_Space
  1

  0
ENDBLK
  5
21
330
1F
100
AcDbEntity
  8
0
100
AcDbBlockEnd
  0
BLOCK
  5
1C
330
1B
100
AcDbEntity
 67
     1
  8
0
100
AcDbBlockBegin
  2
*Paper_Space
 70
     0
 10
0.0
 20
0.0
 30
0.0
  3
*Paper_Space
  1

  0
ENDBLK
  5
1D
330
1B
100
AcDbEntity
 67
     1
  8
0
100
AcDbBlockEnd
  0
BLOCK
  5
24
330
23
100
AcDbEntity
  8
0
100
AcDbBlockBegin
  2
*Paper_Space0
 70
     0
 10
0.0
 20
0.0
 30
0.0
  3
*Paper_Space0
  1

  0
ENDBLK
  5
25
330
23
100
AcDbEntity
  8
0
100
AcDbBlockEnd
  0
BLOCK
  5
43
330
41
100
AcDbEntity
  8
0
100
AcDbBlockBegin
  2
block 2
 70
     0
 10
0.0
 20
0.0
 30
0.0
  3
block 2
  1

  0
INSERT
  5
46
330
41
100
AcDbEntity
  8
_U+30EC_U+30A4_U+30E4_U+30FC 1
100
AcDbBlockReference
  2
block 3
 10
0.0
 20
0.0
 30
0.0
  0
ENDBLK
  5
44
330
41
100
AcDbEntity
  8
0
100
AcDbBlockEnd
  0
BLOCK
  5
47
330
45
100
AcDbEntity
  8
0
100
AcDbBlockBegin
  2
block 3
 70
     0
 10
0.0
 20
0.0
 30
0.0
  3
block 3
  1

  0
INSERT
  5
4A
330
45
100
AcDbEntity
  8
_U+30EC_U+30A4_U+30E4_U+30FC 1
100
AcDbBlockReference
  2
block 4
 10
0.0
 20
0.0
 30
0.0
  0
INSERT
  5
68
330
45
100
AcDbEntity
  8
_U+30EC_U+30A4_U+30E4_U+30FC 1
100
AcDbBlockReference
  2
block 5
 10
0.0
 20
0.0
 30
0.0
  0
ENDBLK
  5
48
330
45
100
AcDbEntity
  8
0
100
AcDbBlockEnd
  0
BLOCK
  5
4B
330
49
100
AcDbEntity
  8
0
100
AcDbBlockBegin
  2
block 4
 70
     0
 10
0.0
 20
0.0
 30
0.0
  3
block 4
  1

  0
SPLINE
  5
4D
330
49
100
AcDbEntity
  8
_U+30EC_U+30A4_U+30E4_U+30FC 1
370
     0
100
AcDbSpline
210
0.0
220
0.0
230
1.0
 70
    11
 71
     3
 72
    59
 73
    55
 74
     0
 42
0.0000000001
 43
0.0000000001
 12
1.0
 22
0.0
 32
0.0
 13
1.0
 23
0.0
 33
0.0
 40
0.0
 40
0.0
 40
0.0
 40
0.0
 40
1.0
 40
1.0
 40
1.0
 40
2.0
 40
2.0
 40
2.0
 40
3.0
 40
3.0
 40
3.0
 40
4.0
 40
4.0
 40
4.0
 40
5.0
 40
5.0
 40
5.0
 40
6.0
 40
6.0
 40
6.0
 40
7.0
 40
7.0
 40
7.0
 40
8.0
 40
8.0
 40
8.0
 40
9.0
 40
9.0
 40
9.0
 40
10.0
 40
10.0
 40
10.0
 40
11.0
 40
11.0
 40
11.0
 40
12.0
 40
12.0
 40
12.0
 40
13.0
 40
13.0
 40
13.0
 40
14.0
 40
14.0
 40
14.0
 40
15.0
 40
15.0
 40
15.0
 40
16.0
 40
16.0
 40
16.0
 40
17.0
 40
17.0
 40
17.0
 40
18.0
 40
18.0
 40
18.0
 40
18.0
 10
97.83176639299259
 20
-127.0468488571273
 30
0.0
 10
97.83176639299259
 20
-128.0664119124278
 30
0.0
 10
97.83176639299259
 20
-128.8989321899973
 30
0.0
 10
97.83176639299259
 20
-128.8989321899973
 30
0.0
 10
97.83176639299259
 20
-128.8989321899973
 30
0.0
 10
97.81419806010747
 20
-130.9873413561421
 30
0.0
 10
97.81419806010747
 20
-130.9873413561421
 30
0.0
 10
97.81419806010747
 20
-130.9873413561421
 30
0.0
 10
79.98135240395015
 20
-140.6501716315042
 30
0.0
 10
79.98135240395015
 20
-140.6501716315042
 30
0.0
 10
79.98135240395015
 20
-140.6501716315042
 30
0.0
 10
79.2297946453462
 20
-140.7242196870411
 30
0.0
 10
79.2297946453462
 20
-140.7242196870411
 30
0.0
 10
79.2297946453462
 20
-140.7242196870411
 30
0.0
 10
79.62857463517248
 20
-140.5123413537609
 30
0.0
 10
79.62857463517248
 20
-140.5123413537609
 30
0.0
 10
79.62857463517248
 20
-140.5123413537609
 30
0.0
 10
79.62857463517248
 20
-135.9228082993525
 30
0.0
 10
79.62857463517248
 20
-135.9228082993525
 30
0.0
 10
79.62857463517248
 20
-135.9228082993525
 30
0.0
 10
77.97387051072083
 20
-135.2737324661818
 30
0.0
 10
77.97387051072083
 20
-135.2737324661818
 30
0.0
 10
77.97387051072083
 20
-135.2737324661818
 30
0.0
 10
76.73572637564186
 20
-134.786934410748
 30
0.0
 10
76.73572637564186
 20
-134.786934410748
 30
0.0
 10
76.73572637564186
 20
-134.786934410748
 30
0.0
 10
76.73572637564186
 20
-134.4799824663802
 30
0.0
 10
76.73572637564186
 20
-134.4799824663802
 30
0.0
 10
76.73572637564186
 20
-134.4799824663802
 30
0.0
 10
87.0791000006493
 20
-128.1017249679744
 30
0.0
 10
87.0791000006493
 20
-128.1017249679744
 30
0.0
 10
87.0791000006493
 20
-128.1017249679744
 30
0.0
 10
90.29301130754448
 20
-126.1190785795815
 30
0.0
 10
90.29301130754448
 20
-126.1190785795815
 30
0.0
 10
90.29301130754448
 20
-126.1190785795815
 30
0.0
 10
91.22423878378689
 20
-125.5440860797249
 30
0.0
 10
91.22423878378689
 20
-125.5440860797249
 30
0.0
 10
91.22423878378689
 20
-125.5440860797249
 30
0.0
 10
75.21885252545164
 20
-120.2453638588276
 30
0.0
 10
75.21885252545164
 20
-120.2453638588276
 30
0.0
 10
75.21885252545164
 20
-120.2453638588276
 30
0.0
 10
75.1976505815481
 20
-120.2066288588372
 30
0.0
 10
75.1976505815481
 20
-120.2066288588372
 30
0.0
 10
75.1976505815481
 20
-120.2066288588372
 30
0.0
 10
77.86468579128415
 20
-118.7248916369853
 30
0.0
 10
77.86468579128415
 20
-118.7248916369853
 30
0.0
 10
77.86468579128415
 20
-118.7248916369853
 30
0.0
 10
81.4558223663333
 20
-119.8748413589202
 30
0.0
 10
81.4558223663333
 20
-119.8748413589202
 30
0.0
 10
81.4558223663333
 20
-119.8748413589202
 30
0.0
 10
95.45393839810049
 20
-124.4187602466732
 30
0.0
 10
95.45393839810049
 20
-124.4187602466732
 30
0.0
 10
96.76274392026563
 20
-124.8456213576776
 30
0.0
 10
97.83176639299259
 20
-126.0274621907153
 30
0.0
 10
97.83176639299259
 20
-127.0468488571273
 30
0.0
  0
HATCH
  5
4E
330
49
100
AcDbEntity
  8
_U+30EC_U+30A4_U+30E4_U+30FC 1
 62
     9
420
 13224394
100
AcDbHatch
 10
0.0
 20
0.0
 30
0.0
210
0.0
220
0.0
230
1.0
  2
SOLID
 70
     1
 71
     0
 91
        1
 92
        1
 93
        1
 72
     4
 94
        3
 73
     0
 74
     1
 95
       59
 96
       55
 40
0.0
 40
0.0
 40
0.0
 40
0.0
 40
1.0
 40
1.0
 40
1.0
 40
2.0
 40
2.0
 40
2.0
 40
3.0
 40
3.0
 40
3.0
 40
4.0
 40
4.0
 40
4.0
 40
5.0
 40
5.0
 40
5.0
 40
6.0
 40
6.0
 40
6.0
 40
7.0
 40
7.0
 40
7.0
 40
8.0
 40
8.0
 40
8.0
 40
9.0
 40
9.0
 40
9.0
 40
10.0
 40
10.0
 40
10.0
 40
11.0
 40
11.0
 40
11.0
 40
12.0
 40
12.0
 40
12.0
 40
13.0
 40
13.0
 40
13.0
 40
14.0
 40
14.0
 40
14.0
 40
15.0
 40
15.0
 40
15.0
 40
16.0
 40
16.0
 40
16.0
 40
17.0
 40
17.0
 40
17.0
 40
18.0
 40
18.0
 40
18.0
 40
18.0
 10
97.83176639299259
 20
-127.0468488571273
 10
97.83176639299259
 20
-128.0664119124278
 10
97.83176639299259
 20
-128.8989321899973
 10
97.83176639299259
 20
-128.8989321899973
 10
97.83176639299259
 20
-128.8989321899973
 10
97.81419806010747
 20
-130.9873413561421
 10
97.81419806010747
 20
-130.9873413561421
 10
97.81419806010747
 20
-130.9873413561421
 10
79.98135240395015
 20
-140.6501716315042
 10
79.98135240395015
 20
-140.6501716315042
 10
79.98135240395015
 20
-140.6501716315042
 10
79.2297946453462
 20
-140.7242196870411
 10
79.2297946453462
 20
-140.7242196870411
 10
79.2297946453462
 20
-140.7242196870411
 10
79.62857463517248
 20
-140.5123413537609
 10
79.62857463517248
 20
-140.5123413537609
 10
79.62857463517248
 20
-140.5123413537609
 10
79.62857463517248
 20
-135.9228082993525
 10
79.62857463517248
 20
-135.9228082993525
 10
79.62857463517248
 20
-135.9228082993525
 10
77.97387051072083
 20
-135.2737324661818
 10
77.97387051072083
 20
-135.2737324661818
 10
77.97387051072083
 20
-135.2737324661818
 10
76.73572637564186
 20
-134.786934410748
 10
76.73572637564186
 20
-134.786934410748
 10
76.73572637564186
 20
-134.786934410748
 10
76.73572637564186
 20
-134.4799824663802
 10
76.73572637564186
 20
-134.4799824663802
 10
76.73572637564186
 20
-134.4799824663802
 10
87.0791000006493
 20
-128.1017249679744
 10
87.0791000006493
 20
-128.1017249679744
 10
87.0791000006493
 20
-128.1017249679744
 10
90.29301130754448
 20
-126.1190785795815
 10
90.29301130754448
 20
-126.1190785795815
 10
90.29301130754448
 20
-126.1190785795815
 10
91.22423878378689
 20
-125.5440860797249
 10
91.22423878378689
 20
-125.5440860797249
 10
91.22423878378689
 20
-125.5440860797249
 10
75.21885252545164
 20
-120.2453638588276
 10
75.21885252545164
 20
-120.2453638588276
 10
75.21885252545164
 20
-120.2453638588276
 10
75.1976505815481
 20
-120.2066288588372
 10
75.1976505815481
 20
-120.2066288588372
 10
75.1976505815481
 20
-120.2066288588372
 10
77.86468579128415
 20
-118.7248916369853
 10
77.86468579128415
 20
-118.7248916369853
 10
77.86468579128415
 20
-118.7248916369853
 10
81.4558223663333
 20
-119.8748413589202
 10
81.4558223663333
 20
-119.8748413589202
 10
81.4558223663333
 20
-119.8748413589202
 10
95.45393839810049
 20
-124.4187602466732
 10
95.45393839810049
 20
-124.4187602466732
 10
96.76274392026563
 20
-124.8456213576776
 10
97.83176639299259
 20
-126.0274621907153
 10
97.83176639299259
 20
-127.0468488571273
 97
        0
 97
        0
 75
     2
 76
     1
 98
        0
  0
POLYLINE
  5
4F
330
49
100
AcDbEntity
  8
_U+30EC_U+30A4_U+30E4_U+30FC 1
370
     0
100
AcDb2dPolyline
 66
     1
 10
0.0
 20
0.0
 30
0.0
  0
VERTEX
  5
50
330
4F
100
AcDbEntity
  8
_U+30EC_U+30A4_U+30E4_U+30FC 1
370
     0
100
AcDbVertex
100
AcDb2dVertex
 10
90.28235741892739
 20
-126.1015102462523
 30
0.0
  0
VERTEX
  5
51
330
4F
100
AcDbEntity
  8
_U+30EC_U+30A4_U+30E4_U+30FC 1
370
     0
100
AcDbVertex
100
AcDb2dVertex
 10
90.29301130754448
 20
-126.1190785795815
 30
0.0
  0
VERTEX
  5
52
330
4F
100
AcDbEntity
  8
_U+30EC_U+30A4_U+30E4_U+30FC 1
370
     0
100
AcDbVertex
100
AcDb2dVertex
 10
87.0791000006493
 20
-128.1017249679744
 30
0.0
  0
VERTEX
  5
53
330
4F
100
AcDbEntity
  8
_U+30EC_U+30A4_U+30E4_U+30FC 1
370
     0
100
AcDbVertex
100
AcDb2dVertex
 10
87.05447611238861
 20
-128.0593563568742
 30
0.0
  0
VERTEX
  5
54
330
4F
100
AcDbEntity
  8
_U+30EC_U+30A4_U+30E4_U+30FC 1
370
     0
100
AcDbVertex
100
AcDb2dVertex
 10
77.52947635539161
 20
-124.566891635525
 30
0.0
  0
VERTEX
  5
55
330
4F
100
AcDbEntity
  8
_U+30EC_U+30A4_U+30E4_U+30FC 1
370
     0
100
AcDbVertex
100
AcDb2dVertex
 10
77.74117829443509
 20
-124.0730380245372
 30
0.0
  0
VERTEX
  5
56
330
4F
100
AcDbEntity
  8
_U+30EC_U+30A4_U+30E4_U+30FC 1
370
     0
100
AcDbVertex
100
AcDb2dVertex
 10
77.74117829443509
 20
-121.6387302473682
 30
0.0
  0
VERTEX
  5
57
330
4F
100
AcDbEntity
  8
_U+30EC_U+30A4_U+30E4_U+30FC 1
370
     0
100
AcDbVertex
100
AcDb2dVertex
 10
77.75165579416779
 20
-121.6070508029317
 30
0.0
  0
VERTEX
  5
58
330
4F
100
AcDbEntity
  8
_U+30EC_U+30A4_U+30E4_U+30FC 1
370
     0
100
AcDbVertex
100
AcDb2dVertex
 10
90.28235741892739
 20
-126.1015102462523
 30
0.0
  0
SEQEND
  5
5A
330
4F
100
AcDbEntity
  8
_U+30EC_U+30A4_U+30E4_U+30FC 1
370
     0
  0
HATCH
  5
59
330
49
100
AcDbEntity
  8
_U+30EC_U+30A4_U+30E4_U+30FC 1
 62
     9
420
 13224394
100
AcDbHatch
 10
0.0
 20
0.0
 30
0.0
210
0.0
220
0.0
230
1.0
  2
SOLID
 70
     1
 71
     0
 91
        1
 92
        1
 93
        8
 72
     1
 10
90.28235741892739
 20
-126.1015102462523
 11
90.29301130754448
 21
-126.1190785795815
 72
     1
 10
90.29301130754448
 20
-126.1190785795815
 11
87.0791000006493
 21
-128.1017249679744
 72
     1
 10
87.0791000006493
 20
-128.1017249679744
 11
87.05447611238861
 21
-128.0593563568742
 72
     1
 10
87.05447611238861
 20
-128.0593563568742
 11
77.52947635539161
 21
-124.566891635525
 72
     1
 10
77.52947635539161
 20
-124.566891635525
 11
77.74117829443509
 21
-124.0730380245372
 72
     1
 10
77.74117829443509
 20
-124.0730380245372
 11
77.74117829443509
 21
-121.6387302473682
 72
     1
 10
77.74117829443509
 20
-121.6387302473682
 11
77.75165579416779
 21
-121.6070508029317
 72
     1
 10
77.75165579416779
 20
-121.6070508029317
 11
90.28235741892739
 21
-126.1015102462523
 97
        0
 75
     2
 76
     1
 98
        0
  0
POLYLINE
  5
5B
330
49
100
AcDbEntity
  8
_U+30EC_U+30A4_U+30E4_U+30FC 1
370
     0
100
AcDb2dPolyline
 66
     1
 10
0.0
 20
0.0
 30
0.0
  0
VERTEX
  5
5C
330
5B
100
AcDbEntity
  8
_U+30EC_U+30A4_U+30E4_U+30FC 1
370
     0
100
AcDbVertex
100
AcDb2dVertex
 10
75.21885252545164
 20
-120.2453638588276
 30
0.0
  0
VERTEX
  5
5D
330
5B
100
AcDbEntity
  8
_U+30EC_U+30A4_U+30E4_U+30FC 1
370
     0
100
AcDbVertex
100
AcDb2dVertex
 10
91.22423878378689
 20
-125.5440860797249
 30
0.0
  0
VERTEX
  5
5E
330
5B
100
AcDbEntity
  8
_U+30EC_U+30A4_U+30E4_U+30FC 1
370
     0
100
AcDbVertex
100
AcDb2dVertex
 10
90.29301130754448
 20
-126.1190785795815
 30
0.0
  0
VERTEX
  5
5F
330
5B
100
AcDbEntity
  8
_U+30EC_U+30A4_U+30E4_U+30FC 1
370
     0
100
AcDbVertex
100
AcDb2dVertex
 10
90.28235741892739
 20
-126.1015102462523
 30
0.0
  0
VERTEX
  5
60
330
5B
100
AcDbEntity
  8
_U+30EC_U+30A4_U+30E4_U+30FC 1
370
     0
100
AcDbVertex
100
AcDb2dVertex
 10
77.75165579416779
 20
-121.6070508029317
 30
0.0
  0
VERTEX
  5
61
330
5B
100
AcDbEntity
  8
_U+30EC_U+30A4_U+30E4_U+30FC 1
370
     0
100
AcDbVertex
100
AcDb2dVertex
 10
75.15870391587505
 20
-120.6756821920533
 30
0.0
  0
VERTEX
  5
62
330
5B
100
AcDbEntity
  8
_U+30EC_U+30A4_U+30E4_U+30FC 1
370
     0
100
AcDbVertex
100
AcDb2dVertex
 10
75.15870391587505
 20
-120.2276191366098
 30
0.0
  0
VERTEX
  5
63
330
5B
100
AcDbEntity
  8
_U+30EC_U+30A4_U+30E4_U+30FC 1
370
     0
100
AcDbVertex
100
AcDb2dVertex
 10
75.1976505815481
 20
-120.2066288588372
 30
0.0
  0
VERTEX
  5
64
330
5B
100
AcDbEntity
  8
_U+30EC_U+30A4_U+30E4_U+30FC 1
370
     0
100
AcDbVertex
100
AcDb2dVertex
 10
75.21885252545164
 20
-120.2453638588276
 30
0.0
  0
SEQEND
  5
66
330
5B
100
AcDbEntity
  8
_U+30EC_U+30A4_U+30E4_U+30FC 1
370
     0
  0
HATCH
  5
65
330
49
100
AcDbEntity
  8
_U+30EC_U+30A4_U+30E4_U+30FC 1
 62
     9
420
 13224394
100
AcDbHatch
 10
0.0
 20
0.0
 30
0.0
210
0.0
220
0.0
230
1.0
  2
SOLID
 70
     1
 71
     0
 91
        1
 92
        1
 93
        8
 72
     1
 10
75.21885252545164
 20
-120.2453638588276
 11
91.22423878378689
 21
-125.5440860797249
 72
     1
 10
91.22423878378689
 20
-125.5440860797249
 11
90.29301130754448
 21
-126.1190785795815
 72
     1
 10
90.29301130754448
 20
-126.1190785795815
 11
90.28235741892739
 21
-126.1015102462523
 72
     1
 10
90.28235741892739
 20
-126.1015102462523
 11
77.75165579416779
 21
-121.6070508029317
 72
     1
 10
77.75165579416779
 20
-121.6070508029317
 11
75.15870391587505
 21
-120.6756821920533
 72
     1
 10
75.15870391587505
 20
-120.6756821920533
 11
75.15870391587505
 21
-120.2276191366098
 72
     1
 10
75.15870391587505
 20
-120.2276191366098
 11
75.1976505815481
 21
-120.2066288588372
 72
     1
 10
75.1976505815481
 20
-120.2066288588372
 11
75.21885252545164
 21
-120.2453638588276
 97
        0
 75
     2
 76
     1
 98
        0
  0
ENDBLK
  5
4C
330
49
100
AcDbEntity
  8
0
100
AcDbBlockEnd
  0
BLOCK
  5
69
330
67
100
AcDbEntity
  8
0
100
AcDbBlockBegin
  2
block 5
 70
     0
 10
0.0
 20
0.0
 30
0.0
  3
block 5
  1

  0
ENDBLK
  5
6A
330
67
100
AcDbEntity
  8
0
100
AcDbBlockEnd
  0
BLOCK
  5
6D
330
6B
100
AcDbEntity
  8
0
100
AcDbBlockBegin
  2
block 6
 70
     0
 10
0.0
 20
0.0
 30
0.0
  3
block 6
  1

  0
POLYLINE
  5
6F
330
6B
100
AcDbEntity
  8
_U+30EC_U+30A4_U+30E4_U+30FC 1
 62
   179
420
  2234388
370
     9
100
AcDb2dPolyline
 66
     1
 10
0.0
 20
0.0
 30
0.0
  0
VERTEX
  5
70
330
6F
100
AcDbEntity
  8
_U+30EC_U+30A4_U+30E4_U+30FC 1
 62
   179
420
  2234388
370
     9
100
AcDbVertex
100
AcDb2dVertex
 10
101.6813126836714
 20
-124.1781305245111
 30
0.0
  0
VERTEX
  5
71
330
6F
100
AcDbEntity
  8
_U+30EC_U+30A4_U+30E4_U+30FC 1
 62
   179
420
  2234388
370
     9
100
AcDbVertex
100
AcDb2dVertex
 10
97.65192028646973
 20
-125.662266635251
 30
0.0
  0
SEQEND
  5
72
330
6F
100
AcDbEntity
  8
_U+30EC_U+30A4_U+30E4_U+30FC 1
 62
   179
420
  2234388
370
     9
  0
POLYLINE
  5
73
330
6B
100
AcDbEntity
  8
_U+30EC_U+30A4_U+30E4_U+30FC 1
 62
   179
420
  2234388
370
     9
100
AcDb2dPolyline
 66
     1
 10
0.0
 20
0.0
 30
0.0
  0
VERTEX
  5
74
330
73
100
AcDbEntity
  8
_U+30EC_U+30A4_U+30E4_U+30FC 1
 62
   179
420
  2234388
370
     9
100
AcDbVertex
100
AcDb2dVertex
 10
98.84667275598906
 20
-125.552023579723
 30
0.0
  0
VERTEX
  5
75
330
73
100
AcDbEntity
  8
_U+30EC_U+30A4_U+30E4_U+30FC 1
 62
   179
420
  2234388
370
     9
100
AcDbVertex
100
AcDb2dVertex
 10
97.65192028646973
 20
-125.662266635251
 30
0.0
  0
SEQEND
  5
76
330
73
100
AcDbEntity
  8
_U+30EC_U+30A4_U+30E4_U+30FC 1
 62
   179
420
  2234388
370
     9
  0
POLYLINE
  5
77
330
6B
100
AcDbEntity
  8
_U+30EC_U+30A4_U+30E4_U+30FC 1
 62
   179
420
  2234388
370
     9
100
AcDb2dPolyline
 66
     1
 10
0.0
 20
0.0
 30
0.0
  0
VERTEX
  5
78
330
77
100
AcDbEntity
  8
_U+30EC_U+30A4_U+30E4_U+30FC 1
 62
   179
420
  2234388
370
     9
100
AcDbVertex
100
AcDb2dVertex
 10
98.63168998369595
 20
-124.9697991354243
 30
0.0
  0
VERTEX
  5
79
330
77
100
AcDbEntity
  8
_U+30EC_U+30A4_U+30E4_U+30FC 1
 62
   179
420
  2234388
370
     9
100
AcDbVertex
100
AcDb2dVertex
 10
97.65192028646973
 20
-125.662266635251
 30
0.0
  0
SEQEND
  5
7A
330
77
100
AcDbEntity
  8
_U+30EC_U+30A4_U+30E4_U+30FC 1
 62
   179
420
  2234388
370
     9
  0
ENDBLK
  5
6E
330
6B
100
AcDbEntity
  8
0
100
AcDbBlockEnd
  0
BLOCK
  5
7D
330
7B
100
AcDbEntity
  8
0
100
AcDbBlockBegin
  2
block 7
 70
     0
 10
0.0
 20
0.0
 30
0.0
  3
block 7
  1

  0
SPLINE
  5
7F
330
7B
100
AcDbEntity
  8
_U+30EC_U+30A4_U+30E4_U+30FC 1
370
     0
100
AcDbSpline
210
0.0
220
0.0
230
1.0
 70
    11
 71
     3
 72
    44
 73
    40
 74
     0
 42
0.0000000001
 43
0.0000000001
 12
1.0
 22
0.0
 32
0.0
 13
1.0
 23
0.0
 33
0.0
 40
0.0
 40
0.0
 40
0.0
 40
0.0
 40
1.0
 40
1.0
 40
1.0
 40
2.0
 40
2.0
 40
2.0
 40
3.0
 40
3.0
 40
3.0
 40
4.0
 40
4.0
 40
4.0
 40
5.0
 40
5.0
 40
5.0
 40
6.0
 40
6.0
 40
6.0
 40
7.0
 40
7.0
 40
7.0
 40
8.0
 40
8.0
 40
8.0
 40
9.0
 40
9.0
 40
9.0
 40
10.0
 40
10.0
 40
10.0
 40
11.0
 40
11.0
 40
11.0
 40
12.0
 40
12.0
 40
12.0
 40
13.0
 40
13.0
 40
13.0
 40
13.0
 10
103.1134304212703
 20
-125.0469753376619
 30
0.0
 10
103.0900037719706
 20
-125.0025336059021
 30
0.0
 10
103.0689886895105
 20
-124.9498236449778
 30
0.0
 10
103.0669216322194
 20
-124.7190022474661
 30
0.0
 10
103.0627875176371
 20
-124.4757785062074
 30
0.0
 10
103.0035318752908
 20
-124.4058430678569
 30
0.0
 10
102.8257649482519
 20
-124.4058430678569
 30
0.0
 10
102.8257649482519
 20
-124.4058430678569
 30
0.0
 10
102.4171766237013
 20
-124.4058430678569
 30
0.0
 10
102.4171766237013
 20
-124.4058430678569
 30
0.0
 10
102.4171766237013
 20
-124.4058430678569
 30
0.0
 10
102.4171766237013
 20
-125.0469753376619
 30
0.0
 10
102.4171766237013
 20
-125.0469753376619
 30
0.0
 10
102.4171766237013
 20
-125.0469753376619
 30
0.0
 10
102.1825656211557
 20
-125.0469753376619
 30
0.0
 10
102.1825656211557
 20
-125.0469753376619
 30
0.0
 10
102.1825656211557
 20
-125.0469753376619
 30
0.0
 10
102.1825656211557
 20
-123.5025390316244
 30
0.0
 10
102.1825656211557
 20
-123.5025390316244
 30
0.0
 10
102.1825656211557
 20
-123.5025390316244
 30
0.0
 10
102.8574598267162
 20
-123.5025390316244
 30
0.0
 10
102.8574598267162
 20
-123.5025390316244
 30
0.0
 10
103.1640733249034
 20
-123.5025390316244
 30
0.0
 10
103.3315049654866
 20
-123.6741047867898
 30
0.0
 10
103.3315049654866
 20
-123.9300753813439
 30
0.0
 10
103.3315049654866
 20
-123.980718284977
 30
0.0
 10
103.3225477172249
 20
-124.063400576623
 30
0.0
 10
103.2784504950137
 20
-124.1436713014294
 30
0.0
 10
103.2191948526674
 20
-124.2473686755354
 30
0.0
 10
103.1537380384477
 20
-124.2663167007043
 30
0.0
 10
103.0924153388102
 20
-124.283197668582
 30
0.0
 10
103.2295301391232
 20
-124.3255723430506
 30
0.0
 10
103.2973985201826
 20
-124.3741481893926
 30
0.0
 10
103.3018771443134
 20
-124.6893744262929
 30
0.0
 10
103.3060112588957
 20
-124.9601589314336
 30
0.0
 10
103.3418402519423
 20
-124.9918538098979
 30
0.0
 10
103.4093641234532
 20
-125.0469753376619
 30
0.0
 10
103.4093641234532
 20
-125.0469753376619
 30
0.0
 10
103.1134304212703
 20
-125.0469753376619
 30
0.0
 10
103.1134304212703
 20
-125.0469753376619
 30
0.0
  0
SPLINE
  5
80
330
7B
100
AcDbEntity
  8
_U+30EC_U+30A4_U+30E4_U+30FC 1
370
     0
100
AcDbSpline
210
0.0
220
0.0
230
1.0
 70
    11
 71
     3
 72
    20
 73
    16
 74
     0
 42
0.0000000001
 43
0.0000000001
 12
1.0
 22
0.0
 32
0.0
 13
1.0
 23
0.0
 33
0.0
 40
0.0
 40
0.0
 40
0.0
 40
0.0
 40
1.0
 40
1.0
 40
1.0
 40
2.0
 40
2.0
 40
2.0
 40
3.0
 40
3.0
 40
3.0
 40
4.0
 40
4.0
 40
4.0
 40
5.0
 40
5.0
 40
5.0
 40
5.0
 10
102.8615939412985
 20
-123.7140678944187
 30
0.0
 10
102.8615939412985
 20
-123.7140678944187
 30
0.0
 10
102.4171766237013
 20
-123.7140678944187
 30
0.0
 10
102.4171766237013
 20
-123.7140678944187
 30
0.0
 10
102.4171766237013
 20
-123.7140678944187
 30
0.0
 10
102.4171766237013
 20
-124.1943142050625
 30
0.0
 10
102.4171766237013
 20
-124.1943142050625
 30
0.0
 10
102.4171766237013
 20
-124.1943142050625
 30
0.0
 10
102.8595268840074
 20
-124.1943142050625
 30
0.0
 10
102.8595268840074
 20
-124.1943142050625
 30
0.0
 10
102.9587456339825
 20
-124.1943142050625
 30
0.0
 10
103.0944823961014
 20
-124.1181775948385
 30
0.0
 10
103.0944823961014
 20
-123.9469563492216
 30
0.0
 10
103.0944823961014
 20
-123.8687526817064
 30
0.0
 10
103.0607204603459
 20
-123.7140678944187
 30
0.0
 10
102.8615939412985
 20
-123.7140678944187
 30
0.0
  0
HATCH
  5
81
330
7B
100
AcDbEntity
  8
_U+30EC_U+30A4_U+30E4_U+30FC 1
 62
   179
420
  2234388
100
AcDbHatch
 10
0.0
 20
0.0
 30
0.0
210
0.0
220
0.0
230
1.0
  2
SOLID
 70
     1
 71
     0
 91
        2
 92
        1
 93
        1
 72
     4
 94
        3
 73
     0
 74
     1
 95
       44
 96
       40
 40
0.0
 40
0.0
 40
0.0
 40
0.0
 40
1.0
 40
1.0
 40
1.0
 40
2.0
 40
2.0
 40
2.0
 40
3.0
 40
3.0
 40
3.0
 40
4.0
 40
4.0
 40
4.0
 40
5.0
 40
5.0
 40
5.0
 40
6.0
 40
6.0
 40
6.0
 40
7.0
 40
7.0
 40
7.0
 40
8.0
 40
8.0
 40
8.0
 40
9.0
 40
9.0
 40
9.0
 40
10.0
 40
10.0
 40
10.0
 40
11.0
 40
11.0
 40
11.0
 40
12.0
 40
12.0
 40
12.0
 40
13.0
 40
13.0
 40
13.0
 40
13.0
 10
103.1134304212703
 20
-125.0469753376619
 10
103.0900037719706
 20
-125.0025336059021
 10
103.0689886895105
 20
-124.9498236449778
 10
103.0669216322194
 20
-124.7190022474661
 10
103.0627875176371
 20
-124.4757785062074
 10
103.0035318752908
 20
-124.4058430678569
 10
102.8257649482519
 20
-124.4058430678569
 10
102.8257649482519
 20
-124.4058430678569
 10
102.4171766237013
 20
-124.4058430678569
 10
102.4171766237013
 20
-124.4058430678569
 10
102.4171766237013
 20
-124.4058430678569
 10
102.4171766237013
 20
-125.0469753376619
 10
102.4171766237013
 20
-125.0469753376619
 10
102.4171766237013
 20
-125.0469753376619
 10
102.1825656211557
 20
-125.0469753376619
 10
102.1825656211557
 20
-125.0469753376619
 10
102.1825656211557
 20
-125.0469753376619
 10
102.1825656211557
 20
-123.5025390316244
 10
102.1825656211557
 20
-123.5025390316244
 10
102.1825656211557
 20
-123.5025390316244
 10
102.8574598267162
 20
-123.5025390316244
 10
102.8574598267162
 20
-123.5025390316244
 10
103.1640733249034
 20
-123.5025390316244
 10
103.3315049654866
 20
-123.6741047867898
 10
103.3315049654866
 20
-123.9300753813439
 10
103.3315049654866
 20
-123.980718284977
 10
103.3225477172249
 20
-124.063400576623
 10
103.2784504950137
 20
-124.1436713014294
 10
103.2191948526674
 20
-124.2473686755354
 10
103.1537380384477
 20
-124.2663167007043
 10
103.0924153388102
 20
-124.283197668582
 10
103.2295301391232
 20
-124.3255723430506
 10
103.2973985201826
 20
-124.3741481893926
 10
103.3018771443134
 20
-124.6893744262929
 10
103.3060112588957
 20
-124.9601589314336
 10
103.3418402519423
 20
-124.9918538098979
 10
103.4093641234532
 20
-125.0469753376619
 10
103.4093641234532
 20
-125.0469753376619
 10
103.1134304212703
 20
-125.0469753376619
 10
103.1134304212703
 20
-125.0469753376619
 97
        0
 97
        0
 92
        1
 93
        1
 72
     4
 94
        3
 73
     0
 74
     1
 95
       20
 96
       16
 40
0.0
 40
0.0
 40
0.0
 40
0.0
 40
1.0
 40
1.0
 40
1.0
 40
2.0
 40
2.0
 40
2.0
 40
3.0
 40
3.0
 40
3.0
 40
4.0
 40
4.0
 40
4.0
 40
5.0
 40
5.0
 40
5.0
 40
5.0
 10
102.8615939412985
 20
-123.7140678944187
 10
102.8615939412985
 20
-123.7140678944187
 10
102.4171766237013
 20
-123.7140678944187
 10
102.4171766237013
 20
-123.7140678944187
 10
102.4171766237013
 20
-123.7140678944187
 10
102.4171766237013
 20
-124.1943142050625
 10
102.4171766237013
 20
-124.1943142050625
 10
102.4171766237013
 20
-124.1943142050625
 10
102.8595268840074
 20
-124.1943142050625
 10
102.8595268840074
 20
-124.1943142050625
 10
102.9587456339825
 20
-124.1943142050625
 10
103.0944823961014
 20
-124.1181775948385
 10
103.0944823961014
 20
-123.9469563492216
 10
103.0944823961014
 20
-123.8687526817064
 10
103.0607204603459
 20
-123.7140678944187
 10
102.8615939412985
 20
-123.7140678944187
 97
        0
 97
        0
 75
     2
 76
     1
 98
        0
  0
SPLINE
  5
82
330
7B
100
AcDbEntity
  8
_U+30EC_U+30A4_U+30E4_U+30FC 1
370
     0
100
AcDbSpline
210
0.0
220
0.0
230
1.0
 70
    11
 71
     3
 72
    62
 73
    58
 74
     0
 42
0.0000000001
 43
0.0000000001
 12
1.0
 22
0.0
 32
0.0
 13
1.0
 23
0.0
 33
0.0
 40
0.0
 40
0.0
 40
0.0
 40
0.0
 40
1.0
 40
1.0
 40
1.0
 40
2.0
 40
2.0
 40
2.0
 40
3.0
 40
3.0
 40
3.0
 40
4.0
 40
4.0
 40
4.0
 40
5.0
 40
5.0
 40
5.0
 40
6.0
 40
6.0
 40
6.0
 40
7.0
 40
7.0
 40
7.0
 40
8.0
 40
8.0
 40
8.0
 40
9.0
 40
9.0
 40
9.0
 40
10.0
 40
10.0
 40
10.0
 40
11.0
 40
11.0
 40
11.0
 40
12.0
 40
12.0
 40
12.0
 40
13.0
 40
13.0
 40
13.0
 40
14.0
 40
14.0
 40
14.0
 40
15.0
 40
15.0
 40
15.0
 40
16.0
 40
16.0
 40
16.0
 40
17.0
 40
17.0
 40
17.0
 40
18.0
 40
18.0
 40
18.0
 40
19.0
 40
19.0
 40
19.0
 40
19.0
 10
104.040505616351
 20
-125.0976182412951
 30
0.0
 10
103.9454209809581
 20
-125.0976182412951
 30
0.0
 10
103.7276909462903
 20
-125.076603158835
 30
0.0
 10
103.6029784897243
 20
-124.8905680026315
 30
0.0
 10
103.5285644272429
 20
-124.7782578898124
 30
0.0
 10
103.5244303126606
 20
-124.6790391398372
 30
0.0
 10
103.5202961980783
 20
-124.5942897909
 30
0.0
 10
103.5202961980783
 20
-124.5942897909
 30
0.0
 10
103.7400932900372
 20
-124.5942897909
 30
0.0
 10
103.7400932900372
 20
-124.5942897909
 30
0.0
 10
103.7421603473284
 20
-124.6683593438329
 30
0.0
 10
103.7531846528812
 20
-124.9029703463784
 30
0.0
 10
104.0363715017687
 20
-124.9029703463784
 30
0.0
 10
104.1741753211787
 20
-124.9029703463784
 30
0.0
 10
104.3264485416267
 20
-124.8333794175764
 30
0.0
 10
104.3264485416267
 20
-124.6049695869043
 30
0.0
 10
104.3264485416267
 20
-124.4885253595029
 30
0.0
 10
104.2882079817405
 20
-124.4399495131609
 30
0.0
 10
104.2565131032761
 20
-124.4082546346965
 30
0.0
 10
104.1824435503433
 20
-124.3341850817637
 30
0.0
 10
104.0659993229418
 20
-124.3214382284683
 30
0.0
 10
104.0108777951778
 20
-124.3214382284683
 30
0.0
 10
103.9922742795575
 20
-124.3214382284683
 30
0.0
 10
103.9561007769624
 20
-124.3235052857594
 30
0.0
 10
103.9285400130804
 20
-124.3276394003417
 30
0.0
 10
103.9285400130804
 20
-124.3276394003417
 30
0.0
 10
103.9285400130804
 20
-124.1329915054251
 30
0.0
 10
103.9285400130804
 20
-124.1329915054251
 30
0.0
 10
103.9667805729666
 20
-124.1395371868471
 30
0.0
 10
104.0088107378867
 20
-124.1416042441382
 30
0.0
 10
104.0153564193087
 20
-124.1416042441382
 30
0.0
 10
104.0808132335284
 20
-124.1416042441382
 30
0.0
 10
104.2795952430273
 20
-124.1202446521297
 30
0.0
 10
104.2795952430273
 20
-123.883566592293
 30
0.0
 10
104.2795952430273
 20
-123.7057996652541
 30
0.0
 10
104.1486816145878
 20
-123.6506781374901
 30
0.0
 10
104.0384385590598
 20
-123.6506781374901
 30
0.0
 10
103.7741997353412
 20
-123.6506781374901
 30
0.0
 10
103.7655869966281
 20
-123.883566592293
 30
0.0
 10
103.7614528820458
 20
-123.9552245783862
 30
0.0
 10
103.7614528820458
 20
-123.9552245783862
 30
0.0
 10
103.558192248416
 20
-123.9552245783862
 30
0.0
 10
103.558192248416
 20
-123.9552245783862
 30
0.0
 10
103.5668049871291
 20
-123.8305121218201
 30
0.0
 10
103.5943657510111
 20
-123.4539631852823
 30
0.0
 10
104.0511854123553
 20
-123.4539631852823
 30
0.0
 10
104.275461128445
 20
-123.4539631852823
 30
0.0
 10
104.5166178124125
 20
-123.5810872086881
 30
0.0
 10
104.5166178124125
 20
-123.877020910871
 30
0.0
 10
104.5166178124125
 20
-124.063400576623
 30
0.0
 10
104.4215331770196
 20
-124.1457383587205
 30
0.0
 10
104.3219699174959
 20
-124.207061058358
 30
0.0
 10
104.3836371266819
 20
-124.23462182224
 30
0.0
 10
104.5655381683031
 20
-124.3148925470463
 30
0.0
 10
104.5655381683031
 20
-124.5922227336089
 30
0.0
 10
104.5655381683031
 20
-124.9305311102604
 30
0.0
 10
104.3178358029136
 20
-125.0976182412951
 30
0.0
 10
104.040505616351
 20
-125.0976182412951
 30
0.0
  0
HATCH
  5
83
330
7B
100
AcDbEntity
  8
_U+30EC_U+30A4_U+30E4_U+30FC 1
 62
   179
420
  2234388
100
AcDbHatch
 10
0.0
 20
0.0
 30
0.0
210
0.0
220
0.0
230
1.0
  2
SOLID
 70
     1
 71
     0
 91
        1
 92
        1
 93
        1
 72
     4
 94
        3
 73
     0
 74
     1
 95
       62
 96
       58
 40
0.0
 40
0.0
 40
0.0
 40
0.0
 40
1.0
 40
1.0
 40
1.0
 40
2.0
 40
2.0
 40
2.0
 40
3.0
 40
3.0
 40
3.0
 40
4.0
 40
4.0
 40
4.0
 40
5.0
 40
5.0
 40
5.0
 40
6.0
 40
6.0
 40
6.0
 40
7.0
 40
7.0
 40
7.0
 40
8.0
 40
8.0
 40
8.0
 40
9.0
 40
9.0
 40
9.0
 40
10.0
 40
10.0
 40
10.0
 40
11.0
 40
11.0
 40
11.0
 40
12.0
 40
12.0
 40
12.0
 40
13.0
 40
13.0
 40
13.0
 40
14.0
 40
14.0
 40
14.0
 40
15.0
 40
15.0
 40
15.0
 40
16.0
 40
16.0
 40
16.0
 40
17.0
 40
17.0
 40
17.0
 40
18.0
 40
18.0
 40
18.0
 40
19.0
 40
19.0
 40
19.0
 40
19.0
 10
104.040505616351
 20
-125.0976182412951
 10
103.9454209809581
 20
-125.0976182412951
 10
103.7276909462903
 20
-125.076603158835
 10
103.6029784897243
 20
-124.8905680026315
 10
103.5285644272429
 20
-124.7782578898124
 10
103.5244303126606
 20
-124.6790391398372
 10
103.5202961980783
 20
-124.5942897909
 10
103.5202961980783
 20
-124.5942897909
 10
103.7400932900372
 20
-124.5942897909
 10
103.7400932900372
 20
-124.5942897909
 10
103.7421603473284
 20
-124.6683593438329
 10
103.7531846528812
 20
-124.9029703463784
 10
104.0363715017687
 20
-124.9029703463784
 10
104.1741753211787
 20
-124.9029703463784
 10
104.3264485416267
 20
-124.8333794175764
 10
104.3264485416267
 20
-124.6049695869043
 10
104.3264485416267
 20
-124.4885253595029
 10
104.2882079817405
 20
-124.4399495131609
 10
104.2565131032761
 20
-124.4082546346965
 10
104.1824435503433
 20
-124.3341850817637
 10
104.0659993229418
 20
-124.3214382284683
 10
104.0108777951778
 20
-124.3214382284683
 10
103.9922742795575
 20
-124.3214382284683
 10
103.9561007769624
 20
-124.3235052857594
 10
103.9285400130804
 20
-124.3276394003417
 10
103.9285400130804
 20
-124.3276394003417
 10
103.9285400130804
 20
-124.1329915054251
 10
103.9285400130804
 20
-124.1329915054251
 10
103.9667805729666
 20
-124.1395371868471
 10
104.0088107378867
 20
-124.1416042441382
 10
104.0153564193087
 20
-124.1416042441382
 10
104.0808132335284
 20
-124.1416042441382
 10
104.2795952430273
 20
-124.1202446521297
 10
104.2795952430273
 20
-123.883566592293
 10
104.2795952430273
 20
-123.7057996652541
 10
104.1486816145878
 20
-123.6506781374901
 10
104.0384385590598
 20
-123.6506781374901
 10
103.7741997353412
 20
-123.6506781374901
 10
103.7655869966281
 20
-123.883566592293
 10
103.7614528820458
 20
-123.9552245783862
 10
103.7614528820458
 20
-123.9552245783862
 10
103.558192248416
 20
-123.9552245783862
 10
103.558192248416
 20
-123.9552245783862
 10
103.5668049871291
 20
-123.8305121218201
 10
103.5943657510111
 20
-123.4539631852823
 10
104.0511854123553
 20
-123.4539631852823
 10
104.275461128445
 20
-123.4539631852823
 10
104.5166178124125
 20
-123.5810872086881
 10
104.5166178124125
 20
-123.877020910871
 10
104.5166178124125
 20
-124.063400576623
 10
104.4215331770196
 20
-124.1457383587205
 10
104.3219699174959
 20
-124.207061058358
 10
104.3836371266819
 20
-124.23462182224
 10
104.5655381683031
 20
-124.3148925470463
 10
104.5655381683031
 20
-124.5922227336089
 10
104.5655381683031
 20
-124.9305311102604
 10
104.3178358029136
 20
-125.0976182412951
 10
104.040505616351
 20
-125.0976182412951
 97
        0
 97
        0
 75
     2
 76
     1
 98
        0
  0
ENDBLK
  5
7E
330
7B
100
AcDbEntity
  8
0
100
AcDbBlockEnd
  0
BLOCK
  5
86
330
84
100
AcDbEntity
  8
0
100
AcDbBlockBegin
  2
block 8
 70
     0
 10
0.0
 20
0.0
 30
0.0
  3
block 8
  1

  0
SPLINE
  5
88
330
84
100
AcDbEntity
  8
_U+30EC_U+30A4_U+30E4_U+30FC 1
370
     0
100
AcDbSpline
210
0.0
220
0.0
230
1.0
 70
    11
 71
     3
 72
    62
 73
    58
 74
     0
 42
0.0000000001
 43
0.0000000001
 12
1.0
 22
0.0
 32
0.0
 13
1.0
 23
0.0
 33
0.0
 40
0.0
 40
0.0
 40
0.0
 40
0.0
 40
1.0
 40
1.0
 40
1.0
 40
2.0
 40
2.0
 40
2.0
 40
3.0
 40
3.0
 40
3.0
 40
4.0
 40
4.0
 40
4.0
 40
5.0
 40
5.0
 40
5.0
 40
6.0
 40
6.0
 40
6.0
 40
7.0
 40
7.0
 40
7.0
 40
8.0
 40
8.0
 40
8.0
 40
9.0
 40
9.0
 40
9.0
 40
10.0
 40
10.0
 40
10.0
 40
11.0
 40
11.0
 40
11.0
 40
12.0
 40
12.0
 40
12.0
 40
13.0
 40
13.0
 40
13.0
 40
14.0
 40
14.0
 40
14.0
 40
15.0
 40
15.0
 40
15.0
 40
16.0
 40
16.0
 40
16.0
 40
17.0
 40
17.0
 40
17.0
 40
18.0
 40
18.0
 40
18.0
 40
19.0
 40
19.0
 40
19.0
 40
19.0
 10
91.54721134864099
 20
-119.4276800916709
 30
0.0
 10
91.45143769415104
 20
-119.4276800916709
 30
0.0
 10
91.2338799142575
 20
-119.4066650092108
 30
0.0
 10
91.10882294814294
 20
-119.2206298530074
 30
0.0
 10
91.03509790475859
 20
-119.1083197401882
 30
0.0
 10
91.03061928062776
 20
-119.009100990213
 30
0.0
 10
91.02648516604546
 20
-118.9243516412759
 30
0.0
 10
91.02648516604546
 20
-118.9243516412759
 30
0.0
 10
91.24662676755293
 20
-118.9243516412759
 30
0.0
 10
91.24662676755293
 20
-118.9243516412759
 30
0.0
 10
91.24869382484408
 20
-118.9984211942087
 30
0.0
 10
91.25902911129982
 20
-119.2330321967543
 30
0.0
 10
91.54238821496163
 20
-119.2330321967543
 30
0.0
 10
91.68019203437163
 20
-119.2330321967543
 30
0.0
 10
91.83246525481967
 20
-119.1634412679522
 30
0.0
 10
91.83246525481967
 20
-118.9350314372801
 30
0.0
 10
91.83246525481967
 20
-118.8185872098787
 30
0.0
 10
91.79456920448192
 20
-118.7700113635367
 30
0.0
 10
91.76287432601762
 20
-118.7383164850724
 30
0.0
 10
91.68846026353623
 20
-118.6642469321395
 30
0.0
 10
91.57201603613478
 20
-118.6515000788441
 30
0.0
 10
91.51758352746783
 20
-118.6515000788441
 30
0.0
 10
91.49829099275043
 20
-118.6515000788441
 30
0.0
 10
91.46246199970383
 20
-118.6535671361352
 30
0.0
 10
91.43490123582184
 20
-118.6577012507175
 30
0.0
 10
91.43490123582184
 20
-118.6577012507175
 30
0.0
 10
91.43490123582184
 20
-118.4630533558009
 30
0.0
 10
91.43490123582184
 20
-118.4630533558009
 30
0.0
 10
91.47279728615958
 20
-118.4695990372229
 30
0.0
 10
91.51482745107963
 20
-118.471666094514
 30
0.0
 10
91.52171764205013
 20
-118.471666094514
 30
0.0
 10
91.58717445626988
 20
-118.471666094514
 30
0.0
 10
91.78561195622027
 20
-118.4503065025055
 30
0.0
 10
91.78561195622027
 20
-118.2136284426688
 30
0.0
 10
91.78561195622027
 20
-118.0358615156299
 30
0.0
 10
91.65469832778078
 20
-117.9807399878659
 30
0.0
 10
91.54445527225278
 20
-117.9807399878659
 30
0.0
 10
91.28038870330838
 20
-117.9807399878659
 30
0.0
 10
91.27177596459525
 20
-118.2136284426688
 30
0.0
 10
91.26764185001295
 20
-118.285286428762
 30
0.0
 10
91.26764185001295
 20
-118.285286428762
 30
0.0
 10
91.06438121638321
 20
-118.285286428762
 30
0.0
 10
91.06438121638321
 20
-118.285286428762
 30
0.0
 10
91.07299395509634
 20
-118.160573972196
 30
0.0
 10
91.10055471897834
 20
-117.7840250356582
 30
0.0
 10
91.55754663509673
 20
-117.7840250356582
 30
0.0
 10
91.78147784163797
 20
-117.7840250356582
 30
0.0
 10
92.02263452560545
 20
-117.9111490590639
 30
0.0
 10
92.02263452560545
 20
-118.2070827612469
 30
0.0
 10
92.02263452560545
 20
-118.3934624269989
 30
0.0
 10
91.92754989021256
 20
-118.4758002090963
 30
0.0
 10
91.82833114023737
 20
-118.5371229087338
 30
0.0
 10
91.88965383987481
 20
-118.5646836726158
 30
0.0
 10
92.071554881496
 20
-118.6449543974221
 30
0.0
 10
92.071554881496
 20
-118.9222845839847
 30
0.0
 10
92.071554881496
 20
-119.2605929606362
 30
0.0
 10
91.82419702565507
 20
-119.4276800916709
 30
0.0
 10
91.54721134864099
 20
-119.4276800916709
 30
0.0
  0
HATCH
  5
89
330
84
100
AcDbEntity
  8
_U+30EC_U+30A4_U+30E4_U+30FC 1
 62
   179
420
  2234388
100
AcDbHatch
 10
0.0
 20
0.0
 30
0.0
210
0.0
220
0.0
230
1.0
  2
SOLID
 70
     1
 71
     0
 91
        1
 92
        1
 93
        1
 72
     4
 94
        3
 73
     0
 74
     1
 95
       62
 96
       58
 40
0.0
 40
0.0
 40
0.0
 40
0.0
 40
1.0
 40
1.0
 40
1.0
 40
2.0
 40
2.0
 40
2.0
 40
3.0
 40
3.0
 40
3.0
 40
4.0
 40
4.0
 40
4.0
 40
5.0
 40
5.0
 40
5.0
 40
6.0
 40
6.0
 40
6.0
 40
7.0
 40
7.0
 40
7.0
 40
8.0
 40
8.0
 40
8.0
 40
9.0
 40
9.0
 40
9.0
 40
10.0
 40
10.0
 40
10.0
 40
11.0
 40
11.0
 40
11.0
 40
12.0
 40
12.0
 40
12.0
 40
13.0
 40
13.0
 40
13.0
 40
14.0
 40
14.0
 40
14.0
 40
15.0
 40
15.0
 40
15.0
 40
16.0
 40
16.0
 40
16.0
 40
17.0
 40
17.0
 40
17.0
 40
18.0
 40
18.0
 40
18.0
 40
19.0
 40
19.0
 40
19.0
 40
19.0
 10
91.54721134864099
 20
-119.4276800916709
 10
91.45143769415104
 20
-119.4276800916709
 10
91.2338799142575
 20
-119.4066650092108
 10
91.10882294814294
 20
-119.2206298530074
 10
91.03509790475859
 20
-119.1083197401882
 10
91.03061928062776
 20
-119.009100990213
 10
91.02648516604546
 20
-118.9243516412759
 10
91.02648516604546
 20
-118.9243516412759
 10
91.24662676755293
 20
-118.9243516412759
 10
91.24662676755293
 20
-118.9243516412759
 10
91.24869382484408
 20
-118.9984211942087
 10
91.25902911129982
 20
-119.2330321967543
 10
91.54238821496163
 20
-119.2330321967543
 10
91.68019203437163
 20
-119.2330321967543
 10
91.83246525481967
 20
-119.1634412679522
 10
91.83246525481967
 20
-118.9350314372801
 10
91.83246525481967
 20
-118.8185872098787
 10
91.79456920448192
 20
-118.7700113635367
 10
91.76287432601762
 20
-118.7383164850724
 10
91.68846026353623
 20
-118.6642469321395
 10
91.57201603613478
 20
-118.6515000788441
 10
91.51758352746783
 20
-118.6515000788441
 10
91.49829099275043
 20
-118.6515000788441
 10
91.46246199970383
 20
-118.6535671361352
 10
91.43490123582184
 20
-118.6577012507175
 10
91.43490123582184
 20
-118.6577012507175
 10
91.43490123582184
 20
-118.4630533558009
 10
91.43490123582184
 20
-118.4630533558009
 10
91.47279728615958
 20
-118.4695990372229
 10
91.51482745107963
 20
-118.471666094514
 10
91.52171764205013
 20
-118.471666094514
 10
91.58717445626988
 20
-118.471666094514
 10
91.78561195622027
 20
-118.4503065025055
 10
91.78561195622027
 20
-118.2136284426688
 10
91.78561195622027
 20
-118.0358615156299
 10
91.65469832778078
 20
-117.9807399878659
 10
91.54445527225278
 20
-117.9807399878659
 10
91.28038870330838
 20
-117.9807399878659
 10
91.27177596459525
 20
-118.2136284426688
 10
91.26764185001295
 20
-118.285286428762
 10
91.26764185001295
 20
-118.285286428762
 10
91.06438121638321
 20
-118.285286428762
 10
91.06438121638321
 20
-118.285286428762
 10
91.07299395509634
 20
-118.160573972196
 10
91.10055471897834
 20
-117.7840250356582
 10
91.55754663509673
 20
-117.7840250356582
 10
91.78147784163797
 20
-117.7840250356582
 10
92.02263452560545
 20
-117.9111490590639
 10
92.02263452560545
 20
-118.2070827612469
 10
92.02263452560545
 20
-118.3934624269989
 10
91.92754989021256
 20
-118.4758002090963
 10
91.82833114023737
 20
-118.5371229087338
 10
91.88965383987481
 20
-118.5646836726158
 10
92.071554881496
 20
-118.6449543974221
 10
92.071554881496
 20
-118.9222845839847
 10
92.071554881496
 20
-119.2605929606362
 10
91.82419702565507
 20
-119.4276800916709
 10
91.54721134864099
 20
-119.4276800916709
 97
        0
 97
        0
 75
     2
 76
     1
 98
        0
  0
SPLINE
  5
8A
330
84
100
AcDbEntity
  8
_U+30EC_U+30A4_U+30E4_U+30FC 1
370
     0
100
AcDbSpline
210
0.0
220
0.0
230
1.0
 70
    11
 71
     3
 72
    29
 73
    25
 74
     0
 42
0.0000000001
 43
0.0000000001
 12
1.0
 22
0.0
 32
0.0
 13
1.0
 23
0.0
 33
0.0
 40
0.0
 40
0.0
 40
0.0
 40
0.0
 40
1.0
 40
1.0
 40
1.0
 40
2.0
 40
2.0
 40
2.0
 40
3.0
 40
3.0
 40
3.0
 40
4.0
 40
4.0
 40
4.0
 40
5.0
 40
5.0
 40
5.0
 40
6.0
 40
6.0
 40
6.0
 40
7.0
 40
7.0
 40
7.0
 40
8.0
 40
8.0
 40
8.0
 40
8.0
 10
93.12988821456476
 20
-119.1992702609988
 30
0.0
 10
93.02171221632791
 20
-119.408732066502
 30
0.0
 10
92.84876842296836
 20
-119.4276800916709
 30
0.0
 10
92.73232419556692
 20
-119.4276800916709
 30
0.0
 10
92.57109372685723
 20
-119.4276800916709
 30
0.0
 10
92.42984481196198
 20
-119.38117130262
 30
0.0
 10
92.33476017656909
 20
-119.1992702609988
 30
0.0
 10
92.23071829291455
 20
-119.0046223660822
 30
0.0
 10
92.2121147772942
 20
-118.767599796697
 30
0.0
 10
92.2121147772942
 20
-118.6049912897932
 30
0.0
 10
92.2121147772942
 20
-118.4609862985098
 30
0.0
 10
92.2286512356234
 20
-118.209149818538
 30
0.0
 10
92.33476017656909
 20
-118.0103678090391
 30
0.0
 10
92.44224715570888
 20
-117.8074516849579
 30
0.0
 10
92.60347762441857
 20
-117.7840250356582
 30
0.0
 10
92.73232419556692
 20
-117.7840250356582
 30
0.0
 10
92.89079858788841
 20
-117.7840250356582
 30
0.0
 10
93.03480357917186
 20
-117.8284667674179
 30
0.0
 10
93.12988821456476
 20
-118.0103678090391
 30
0.0
 10
93.22910696453995
 20
-118.2029486466646
 30
0.0
 10
93.25253361383965
 20
-118.4313584773366
 30
0.0
 10
93.25253361383965
 20
-118.6049912897932
 30
0.0
 10
93.25253361383965
 20
-118.7762125354101
 30
0.0
 10
93.2311740218311
 20
-119.0066894233733
 30
0.0
 10
93.12988821456476
 20
-119.1992702609988
 30
0.0
  0
SPLINE
  5
8B
330
84
100
AcDbEntity
  8
_U+30EC_U+30A4_U+30E4_U+30FC 1
370
     0
100
AcDbSpline
210
0.0
220
0.0
230
1.0
 70
    11
 71
     3
 72
    17
 73
    13
 74
     0
 42
0.0000000001
 43
0.0000000001
 12
1.0
 22
0.0
 32
0.0
 13
1.0
 23
0.0
 33
0.0
 40
0.0
 40
0.0
 40
0.0
 40
0.0
 40
1.0
 40
1.0
 40
1.0
 40
2.0
 40
2.0
 40
2.0
 40
3.0
 40
3.0
 40
3.0
 40
4.0
 40
4.0
 40
4.0
 40
4.0
 10
92.73232419556692
 20
-117.9766058732836
 30
0.0
 10
92.48289928243483
 20
-117.9766058732836
 30
0.0
 10
92.43604598383544
 20
-118.2601372317197
 30
0.0
 10
92.43604598383544
 20
-118.6049912897932
 30
0.0
 10
92.43604598383544
 20
-118.9243516412759
 30
0.0
 10
92.47187497688203
 20
-119.2330321967543
 30
0.0
 10
92.73232419556692
 20
-119.2330321967543
 30
0.0
 10
92.97968205140786
 20
-119.2330321967543
 30
0.0
 10
93.02860240729841
 20
-118.9519124051579
 30
0.0
 10
93.02860240729841
 20
-118.6049912897932
 30
0.0
 10
93.02860240729841
 20
-118.285286428762
 30
0.0
 10
92.9900173378636
 20
-117.9766058732836
 30
0.0
 10
92.73232419556692
 20
-117.9766058732836
 30
0.0
  0
HATCH
  5
8C
330
84
100
AcDbEntity
  8
_U+30EC_U+30A4_U+30E4_U+30FC 1
 62
   179
420
  2234388
100
AcDbHatch
 10
0.0
 20
0.0
 30
0.0
210
0.0
220
0.0
230
1.0
  2
SOLID
 70
     1
 71
     0
 91
        2
 92
        1
 93
        1
 72
     4
 94
        3
 73
     0
 74
     1
 95
       29
 96
       25
 40
0.0
 40
0.0
 40
0.0
 40
0.0
 40
1.0
 40
1.0
 40
1.0
 40
2.0
 40
2.0
 40
2.0
 40
3.0
 40
3.0
 40
3.0
 40
4.0
 40
4.0
 40
4.0
 40
5.0
 40
5.0
 40
5.0
 40
6.0
 40
6.0
 40
6.0
 40
7.0
 40
7.0
 40
7.0
 40
8.0
 40
8.0
 40
8.0
 40
8.0
 10
93.12988821456476
 20
-119.1992702609988
 10
93.02171221632791
 20
-119.408732066502
 10
92.84876842296836
 20
-119.4276800916709
 10
92.73232419556692
 20
-119.4276800916709
 10
92.57109372685723
 20
-119.4276800916709
 10
92.42984481196198
 20
-119.38117130262
 10
92.33476017656909
 20
-119.1992702609988
 10
92.23071829291455
 20
-119.0046223660822
 10
92.2121147772942
 20
-118.767599796697
 10
92.2121147772942
 20
-118.6049912897932
 10
92.2121147772942
 20
-118.4609862985098
 10
92.2286512356234
 20
-118.209149818538
 10
92.33476017656909
 20
-118.0103678090391
 10
92.44224715570888
 20
-117.8074516849579
 10
92.60347762441857
 20
-117.7840250356582
 10
92.73232419556692
 20
-117.7840250356582
 10
92.89079858788841
 20
-117.7840250356582
 10
93.03480357917186
 20
-117.8284667674179
 10
93.12988821456476
 20
-118.0103678090391
 10
93.22910696453995
 20
-118.2029486466646
 10
93.25253361383965
 20
-118.4313584773366
 10
93.25253361383965
 20
-118.6049912897932
 10
93.25253361383965
 20
-118.7762125354101
 10
93.2311740218311
 20
-119.0066894233733
 10
93.12988821456476
 20
-119.1992702609988
 97
        0
 97
        0
 92
        1
 93
        1
 72
     4
 94
        3
 73
     0
 74
     1
 95
       17
 96
       13
 40
0.0
 40
0.0
 40
0.0
 40
0.0
 40
1.0
 40
1.0
 40
1.0
 40
2.0
 40
2.0
 40
2.0
 40
3.0
 40
3.0
 40
3.0
 40
4.0
 40
4.0
 40
4.0
 40
4.0
 10
92.73232419556692
 20
-117.9766058732836
 10
92.48289928243483
 20
-117.9766058732836
 10
92.43604598383544
 20
-118.2601372317197
 10
92.43604598383544
 20
-118.6049912897932
 10
92.43604598383544
 20
-118.9243516412759
 10
92.47187497688203
 20
-119.2330321967543
 10
92.73232419556692
 20
-119.2330321967543
 10
92.97968205140786
 20
-119.2330321967543
 10
93.02860240729841
 20
-118.9519124051579
 10
93.02860240729841
 20
-118.6049912897932
 10
93.02860240729841
 20
-118.285286428762
 10
92.9900173378636
 20
-117.9766058732836
 10
92.73232419556692
 20
-117.9766058732836
 97
        0
 97
        0
 75
     2
 76
     1
 98
        0
  0
ENDBLK
  5
87
330
84
100
AcDbEntity
  8
0
100
AcDbBlockEnd
  0
BLOCK
  5
8F
330
8D
100
AcDbEntity
  8
0
100
AcDbBlockBegin
  2
block 9
 70
     0
 10
0.0
 20
0.0
 30
0.0
  3
block 9
  1

  0
SPLINE
  5
91
330
8D
100
AcDbEntity
  8
_U+30EC_U+30A4_U+30E4_U+30FC 1
370
     0
100
AcDbSpline
210
0.0
220
0.0
230
1.0
 70
    11
 71
     3
 72
    62
 73
    58
 74
     0
 42
0.0000000001
 43
0.0000000001
 12
1.0
 22
0.0
 32
0.0
 13
1.0
 23
0.0
 33
0.0
 40
0.0
 40
0.0
 40
0.0
 40
0.0
 40
1.0
 40
1.0
 40
1.0
 40
2.0
 40
2.0
 40
2.0
 40
3.0
 40
3.0
 40
3.0
 40
4.0
 40
4.0
 40
4.0
 40
5.0
 40
5.0
 40
5.0
 40
6.0
 40
6.0
 40
6.0
 40
7.0
 40
7.0
 40
7.0
 40
8.0
 40
8.0
 40
8.0
 40
9.0
 40
9.0
 40
9.0
 40
10.0
 40
10.0
 40
10.0
 40
11.0
 40
11.0
 40
11.0
 40
12.0
 40
12.0
 40
12.0
 40
13.0
 40
13.0
 40
13.0
 40
14.0
 40
14.0
 40
14.0
 40
15.0
 40
15.0
 40
15.0
 40
16.0
 40
16.0
 40
16.0
 40
17.0
 40
17.0
 40
17.0
 40
18.0
 40
18.0
 40
18.0
 40
19.0
 40
19.0
 40
19.0
 40
19.0
 10
97.10346134725192
 20
-135.7436523098141
 30
0.0
 10
97.00768769276198
 20
-135.7436523098141
 30
0.0
 10
96.78995765809418
 20
-135.7226372273541
 30
0.0
 10
96.66524520152814
 20
-135.5366020711506
 30
0.0
 10
96.5915201581438
 20
-135.4242919583314
 30
0.0
 10
96.58669702446444
 20
-135.3250732083562
 30
0.0
 10
96.58256290988214
 20
-135.2403238594191
 30
0.0
 10
96.58256290988214
 20
-135.2403238594191
 30
0.0
 10
96.80304902093813
 20
-135.2403238594191
 30
0.0
 10
96.80304902093813
 20
-135.2403238594191
 30
0.0
 10
96.80511607822928
 20
-135.314393412352
 30
0.0
 10
96.81545136468503
 20
-135.5490044148975
 30
0.0
 10
97.09863821357257
 20
-135.5490044148975
 30
0.0
 10
97.23644203298257
 20
-135.5490044148975
 30
0.0
 10
97.3887152534306
 20
-135.4794134860954
 30
0.0
 10
97.3887152534306
 20
-135.2510036554234
 30
0.0
 10
97.3887152534306
 20
-135.1345594280219
 30
0.0
 10
97.35081920309285
 20
-135.0859835816799
 30
0.0
 10
97.31912432462856
 20
-135.0542887032156
 30
0.0
 10
97.24471026214717
 20
-134.9802191502827
 30
0.0
 10
97.12826603474572
 20
-134.9674722969873
 30
0.0
 10
97.07383352607877
 20
-134.9674722969873
 30
0.0
 10
97.05454099136136
 20
-134.9674722969873
 30
0.0
 10
97.01871199831477
 20
-134.9695393542785
 30
0.0
 10
96.99115123443278
 20
-134.9736734688608
 30
0.0
 10
96.99115123443278
 20
-134.9736734688608
 30
0.0
 10
96.99115123443278
 20
-134.7790255739441
 30
0.0
 10
96.99115123443278
 20
-134.7790255739441
 30
0.0
 10
97.02904728477053
 20
-134.7855712553661
 30
0.0
 10
97.07107744969056
 20
-134.7876383126573
 30
0.0
 10
97.07796764066107
 20
-134.7876383126573
 30
0.0
 10
97.14342445488082
 20
-134.7876383126573
 30
0.0
 10
97.3418619548312
 20
-134.7662787206487
 30
0.0
 10
97.3418619548312
 20
-134.529600660812
 30
0.0
 10
97.3418619548312
 20
-134.3518337337732
 30
0.0
 10
97.21094832639172
 20
-134.2967122060092
 30
0.0
 10
97.10070527086371
 20
-134.2967122060092
 30
0.0
 10
96.83681095669358
 20
-134.2967122060092
 30
0.0
 10
96.82785370843193
 20
-134.529600660812
 30
0.0
 10
96.82371959384963
 20
-134.6012586469053
 30
0.0
 10
96.82371959384963
 20
-134.6012586469053
 30
0.0
 10
96.62045896021989
 20
-134.6012586469053
 30
0.0
 10
96.62045896021989
 20
-134.6012586469053
 30
0.0
 10
96.62941620848154
 20
-134.4765461903392
 30
0.0
 10
96.65697697236354
 20
-134.0999972538014
 30
0.0
 10
97.11379663370766
 20
-134.0999972538014
 30
0.0
 10
97.3377278402489
 20
-134.0999972538014
 30
0.0
 10
97.57888452421639
 20
-134.2271212772071
 30
0.0
 10
97.57888452421639
 20
-134.5230549793901
 30
0.0
 10
97.57888452421639
 20
-134.7094346451421
 30
0.0
 10
97.4837998888235
 20
-134.7917724272396
 30
0.0
 10
97.3845811388483
 20
-134.853095126877
 30
0.0
 10
97.44590383848575
 20
-134.880655890759
 30
0.0
 10
97.62780488010694
 20
-134.9609266155653
 30
0.0
 10
97.62780488010694
 20
-135.2382568021279
 30
0.0
 10
97.62780488010694
 20
-135.5765651787795
 30
0.0
 10
97.380447024266
 20
-135.7436523098141
 30
0.0
 10
97.10346134725192
 20
-135.7436523098141
 30
0.0
  0
HATCH
  5
92
330
8D
100
AcDbEntity
  8
_U+30EC_U+30A4_U+30E4_U+30FC 1
 62
   179
420
  2234388
100
AcDbHatch
 10
0.0
 20
0.0
 30
0.0
210
0.0
220
0.0
230
1.0
  2
SOLID
 70
     1
 71
     0
 91
        1
 92
        1
 93
        1
 72
     4
 94
        3
 73
     0
 74
     1
 95
       62
 96
       58
 40
0.0
 40
0.0
 40
0.0
 40
0.0
 40
1.0
 40
1.0
 40
1.0
 40
2.0
 40
2.0
 40
2.0
 40
3.0
 40
3.0
 40
3.0
 40
4.0
 40
4.0
 40
4.0
 40
5.0
 40
5.0
 40
5.0
 40
6.0
 40
6.0
 40
6.0
 40
7.0
 40
7.0
 40
7.0
 40
8.0
 40
8.0
 40
8.0
 40
9.0
 40
9.0
 40
9.0
 40
10.0
 40
10.0
 40
10.0
 40
11.0
 40
11.0
 40
11.0
 40
12.0
 40
12.0
 40
12.0
 40
13.0
 40
13.0
 40
13.0
 40
14.0
 40
14.0
 40
14.0
 40
15.0
 40
15.0
 40
15.0
 40
16.0
 40
16.0
 40
16.0
 40
17.0
 40
17.0
 40
17.0
 40
18.0
 40
18.0
 40
18.0
 40
19.0
 40
19.0
 40
19.0
 40
19.0
 10
97.10346134725192
 20
-135.7436523098141
 10
97.00768769276198
 20
-135.7436523098141
 10
96.78995765809418
 20
-135.7226372273541
 10
96.66524520152814
 20
-135.5366020711506
 10
96.5915201581438
 20
-135.4242919583314
 10
96.58669702446444
 20
-135.3250732083562
 10
96.58256290988214
 20
-135.2403238594191
 10
96.58256290988214
 20
-135.2403238594191
 10
96.80304902093813
 20
-135.2403238594191
 10
96.80304902093813
 20
-135.2403238594191
 10
96.80511607822928
 20
-135.314393412352
 10
96.81545136468503
 20
-135.5490044148975
 10
97.09863821357257
 20
-135.5490044148975
 10
97.23644203298257
 20
-135.5490044148975
 10
97.3887152534306
 20
-135.4794134860954
 10
97.3887152534306
 20
-135.2510036554234
 10
97.3887152534306
 20
-135.1345594280219
 10
97.35081920309285
 20
-135.0859835816799
 10
97.31912432462856
 20
-135.0542887032156
 10
97.24471026214717
 20
-134.9802191502827
 10
97.12826603474572
 20
-134.9674722969873
 10
97.07383352607877
 20
-134.9674722969873
 10
97.05454099136136
 20
-134.9674722969873
 10
97.01871199831477
 20
-134.9695393542785
 10
96.99115123443278
 20
-134.9736734688608
 10
96.99115123443278
 20
-134.9736734688608
 10
96.99115123443278
 20
-134.7790255739441
 10
96.99115123443278
 20
-134.7790255739441
 10
97.02904728477053
 20
-134.7855712553661
 10
97.07107744969056
 20
-134.7876383126573
 10
97.07796764066107
 20
-134.7876383126573
 10
97.14342445488082
 20
-134.7876383126573
 10
97.3418619548312
 20
-134.7662787206487
 10
97.3418619548312
 20
-134.529600660812
 10
97.3418619548312
 20
-134.3518337337732
 10
97.21094832639172
 20
-134.2967122060092
 10
97.10070527086371
 20
-134.2967122060092
 10
96.83681095669358
 20
-134.2967122060092
 10
96.82785370843193
 20
-134.529600660812
 10
96.82371959384963
 20
-134.6012586469053
 10
96.82371959384963
 20
-134.6012586469053
 10
96.62045896021989
 20
-134.6012586469053
 10
96.62045896021989
 20
-134.6012586469053
 10
96.62941620848154
 20
-134.4765461903392
 10
96.65697697236354
 20
-134.0999972538014
 10
97.11379663370766
 20
-134.0999972538014
 10
97.3377278402489
 20
-134.0999972538014
 10
97.57888452421639
 20
-134.2271212772071
 10
97.57888452421639
 20
-134.5230549793901
 10
97.57888452421639
 20
-134.7094346451421
 10
97.4837998888235
 20
-134.7917724272396
 10
97.3845811388483
 20
-134.853095126877
 10
97.44590383848575
 20
-134.880655890759
 10
97.62780488010694
 20
-134.9609266155653
 10
97.62780488010694
 20
-135.2382568021279
 10
97.62780488010694
 20
-135.5765651787795
 10
97.380447024266
 20
-135.7436523098141
 10
97.10346134725192
 20
-135.7436523098141
 97
        0
 97
        0
 75
     2
 76
     1
 98
        0
  0
SPLINE
  5
93
330
8D
100
AcDbEntity
  8
_U+30EC_U+30A4_U+30E4_U+30FC 1
370
     0
100
AcDbSpline
210
0.0
220
0.0
230
1.0
 70
    11
 71
     3
 72
    29
 73
    25
 74
     0
 42
0.0000000001
 43
0.0000000001
 12
1.0
 22
0.0
 32
0.0
 13
1.0
 23
0.0
 33
0.0
 40
0.0
 40
0.0
 40
0.0
 40
0.0
 40
1.0
 40
1.0
 40
1.0
 40
2.0
 40
2.0
 40
2.0
 40
3.0
 40
3.0
 40
3.0
 40
4.0
 40
4.0
 40
4.0
 40
5.0
 40
5.0
 40
5.0
 40
6.0
 40
6.0
 40
6.0
 40
7.0
 40
7.0
 40
7.0
 40
8.0
 40
8.0
 40
8.0
 40
8.0
 10
98.6861382131757
 20
-135.515242479142
 30
0.0
 10
98.57796221493885
 20
-135.7247042846452
 30
0.0
 10
98.4050184215793
 20
-135.7436523098141
 30
0.0
 10
98.28857419417785
 20
-135.7436523098141
 30
0.0
 10
98.12734372546817
 20
-135.7436523098141
 30
0.0
 10
97.98609481057292
 20
-135.6971435207632
 30
0.0
 10
97.89101017518003
 20
-135.515242479142
 30
0.0
 10
97.78696829152548
 20
-135.3205945842254
 30
0.0
 10
97.76836477590514
 20
-135.0835720148402
 30
0.0
 10
97.76836477590514
 20
-134.9209635079364
 30
0.0
 10
97.76836477590514
 20
-134.776958516653
 30
0.0
 10
97.78490123423434
 20
-134.5251220366812
 30
0.0
 10
97.89101017518003
 20
-134.3263400271823
 30
0.0
 10
97.99849715431982
 20
-134.1234239031011
 30
0.0
 10
98.15972762302951
 20
-134.0999972538014
 30
0.0
 10
98.28857419417785
 20
-134.0999972538014
 30
0.0
 10
98.44704858649935
 20
-134.0999972538014
 30
0.0
 10
98.5910535777828
 20
-134.1444389855611
 30
0.0
 10
98.6861382131757
 20
-134.3263400271823
 30
0.0
 10
98.78535696315089
 20
-134.5189208648078
 30
0.0
 10
98.80878361245058
 20
-134.7473306954798
 30
0.0
 10
98.80878361245058
 20
-134.9209635079364
 30
0.0
 10
98.80878361245058
 20
-135.0921847535533
 30
0.0
 10
98.78742402044203
 20
-135.3226616415166
 30
0.0
 10
98.6861382131757
 20
-135.515242479142
 30
0.0
  0
SPLINE
  5
94
330
8D
100
AcDbEntity
  8
_U+30EC_U+30A4_U+30E4_U+30FC 1
370
     0
100
AcDbSpline
210
0.0
220
0.0
230
1.0
 70
    11
 71
     3
 72
    17
 73
    13
 74
     0
 42
0.0000000001
 43
0.0000000001
 12
1.0
 22
0.0
 32
0.0
 13
1.0
 23
0.0
 33
0.0
 40
0.0
 40
0.0
 40
0.0
 40
0.0
 40
1.0
 40
1.0
 40
1.0
 40
2.0
 40
2.0
 40
2.0
 40
3.0
 40
3.0
 40
3.0
 40
4.0
 40
4.0
 40
4.0
 40
4.0
 10
98.28857419417785
 20
-134.2925780914269
 30
0.0
 10
98.03914928104577
 20
-134.2925780914269
 30
0.0
 10
97.99229598244638
 20
-134.5761094498629
 30
0.0
 10
97.99229598244638
 20
-134.9209635079364
 30
0.0
 10
97.99229598244638
 20
-135.2403238594191
 30
0.0
 10
98.02812497549297
 20
-135.5490044148975
 30
0.0
 10
98.28857419417785
 20
-135.5490044148975
 30
0.0
 10
98.5359320500188
 20
-135.5490044148975
 30
0.0
 10
98.58485240590934
 20
-135.2678846233011
 30
0.0
 10
98.58485240590934
 20
-134.9209635079364
 30
0.0
 10
98.58485240590934
 20
-134.6012586469053
 30
0.0
 10
98.54626733647454
 20
-134.2925780914269
 30
0.0
 10
98.28857419417785
 20
-134.2925780914269
 30
0.0
  0
HATCH
  5
95
330
8D
100
AcDbEntity
  8
_U+30EC_U+30A4_U+30E4_U+30FC 1
 62
   179
420
  2234388
100
AcDbHatch
 10
0.0
 20
0.0
 30
0.0
210
0.0
220
0.0
230
1.0
  2
SOLID
 70
     1
 71
     0
 91
        2
 92
        1
 93
        1
 72
     4
 94
        3
 73
     0
 74
     1
 95
       29
 96
       25
 40
0.0
 40
0.0
 40
0.0
 40
0.0
 40
1.0
 40
1.0
 40
1.0
 40
2.0
 40
2.0
 40
2.0
 40
3.0
 40
3.0
 40
3.0
 40
4.0
 40
4.0
 40
4.0
 40
5.0
 40
5.0
 40
5.0
 40
6.0
 40
6.0
 40
6.0
 40
7.0
 40
7.0
 40
7.0
 40
8.0
 40
8.0
 40
8.0
 40
8.0
 10
98.6861382131757
 20
-135.515242479142
 10
98.57796221493885
 20
-135.7247042846452
 10
98.4050184215793
 20
-135.7436523098141
 10
98.28857419417785
 20
-135.7436523098141
 10
98.12734372546817
 20
-135.7436523098141
 10
97.98609481057292
 20
-135.6971435207632
 10
97.89101017518003
 20
-135.515242479142
 10
97.78696829152548
 20
-135.3205945842254
 10
97.76836477590514
 20
-135.0835720148402
 10
97.76836477590514
 20
-134.9209635079364
 10
97.76836477590514
 20
-134.776958516653
 10
97.78490123423434
 20
-134.5251220366812
 10
97.89101017518003
 20
-134.3263400271823
 10
97.99849715431982
 20
-134.1234239031011
 10
98.15972762302951
 20
-134.0999972538014
 10
98.28857419417785
 20
-134.0999972538014
 10
98.44704858649935
 20
-134.0999972538014
 10
98.5910535777828
 20
-134.1444389855611
 10
98.6861382131757
 20
-134.3263400271823
 10
98.78535696315089
 20
-134.5189208648078
 10
98.80878361245058
 20
-134.7473306954798
 10
98.80878361245058
 20
-134.9209635079364
 10
98.80878361245058
 20
-135.0921847535533
 10
98.78742402044203
 20
-135.3226616415166
 10
98.6861382131757
 20
-135.515242479142
 97
        0
 97
        0
 92
        1
 93
        1
 72
     4
 94
        3
 73
     0
 74
     1
 95
       17
 96
       13
 40
0.0
 40
0.0
 40
0.0
 40
0.0
 40
1.0
 40
1.0
 40
1.0
 40
2.0
 40
2.0
 40
2.0
 40
3.0
 40
3.0
 40
3.0
 40
4.0
 40
4.0
 40
4.0
 40
4.0
 10
98.28857419417785
 20
-134.2925780914269
 10
98.03914928104577
 20
-134.2925780914269
 10
97.99229598244638
 20
-134.5761094498629
 10
97.99229598244638
 20
-134.9209635079364
 10
97.99229598244638
 20
-135.2403238594191
 10
98.02812497549297
 20
-135.5490044148975
 10
98.28857419417785
 20
-135.5490044148975
 10
98.5359320500188
 20
-135.5490044148975
 10
98.58485240590934
 20
-135.2678846233011
 10
98.58485240590934
 20
-134.9209635079364
 10
98.58485240590934
 20
-134.6012586469053
 10
98.54626733647454
 20
-134.2925780914269
 10
98.28857419417785
 20
-134.2925780914269
 97
        0
 97
        0
 75
     2
 76
     1
 98
        0
  0
ENDBLK
  5
90
330
8D
100
AcDbEntity
  8
0
100
AcDbBlockEnd
  0
BLOCK
  5
98
330
96
100
AcDbEntity
  8
0
100
AcDbBlockBegin
  2
block 10
 70
     0
 10
0.0
 20
0.0
 30
0.0
  3
block 10
  1

  0
INSERT
  5
9B
330
96
100
AcDbEntity
  8
_U+30EC_U+30A4_U+30E4_U+30FC 1
100
AcDbBlockReference
  2
block 11
 10
0.0
 20
0.0
 30
0.0
  0
POLYLINE
  5
CE
330
96
100
AcDbEntity
  8
_U+30EC_U+30A4_U+30E4_U+30FC 1
 62
   179
420
  2234388
370
     9
100
AcDb2dPolyline
 66
     1
 10
0.0
 20
0.0
 30
0.0
  0
VERTEX
  5
CF
330
CE
100
AcDbEntity
  8
_U+30EC_U+30A4_U+30E4_U+30FC 1
 62
   179
420
  2234388
370
     9
100
AcDbVertex
100
AcDb2dVertex
 10
81.03950932139877
 20
-136.1026191326411
 30
0.0
  0
VERTEX
  5
D0
330
CE
100
AcDbEntity
  8
_U+30EC_U+30A4_U+30E4_U+30FC 1
 62
   179
420
  2234388
370
     9
100
AcDbVertex
100
AcDb2dVertex
 10
89.50617577206278
 20
-139.136719687438
 30
0.0
  0
SEQEND
  5
D1
330
CE
100
AcDbEntity
  8
_U+30EC_U+30A4_U+30E4_U+30FC 1
 62
   179
420
  2234388
370
     9
  0
POLYLINE
  5
D2
330
96
100
AcDbEntity
  8
_U+30EC_U+30A4_U+30E4_U+30FC 1
 62
   179
420
  2234388
370
     9
100
AcDb2dPolyline
 66
     1
 10
0.0
 20
0.0
 30
0.0
  0
VERTEX
  5
D3
330
D2
100
AcDbEntity
  8
_U+30EC_U+30A4_U+30E4_U+30FC 1
 62
   179
420
  2234388
370
     9
100
AcDbVertex
100
AcDb2dVertex
 10
99.15122580377482
 20
-125.662266635251
 30
0.0
  0
VERTEX
  5
D4
330
D2
100
AcDbEntity
  8
_U+30EC_U+30A4_U+30E4_U+30FC 1
 62
   179
420
  2234388
370
     9
100
AcDbVertex
100
AcDb2dVertex
 10
107.2155166398627
 20
-128.5533863567505
 30
0.0
  0
SEQEND
  5
D5
330
D2
100
AcDbEntity
  8
_U+30EC_U+30A4_U+30E4_U+30FC 1
 62
   179
420
  2234388
370
     9
  0
POLYLINE
  5
D6
330
96
100
AcDbEntity
  8
_U+30EC_U+30A4_U+30E4_U+30FC 1
 62
   179
420
  2234388
370
     9
100
AcDb2dPolyline
 66
     1
 10
0.0
 20
0.0
 30
0.0
  0
VERTEX
  5
D7
330
D6
100
AcDbEntity
  8
_U+30EC_U+30A4_U+30E4_U+30FC 1
 62
   179
420
  2234388
370
     9
100
AcDbVertex
100
AcDb2dVertex
 10
78.28791328048672
 20
-118.3931041370684
 30
0.0
  0
VERTEX
  5
D8
330
D6
100
AcDbEntity
  8
_U+30EC_U+30A4_U+30E4_U+30FC 1
 62
   179
420
  2234388
370
     9
100
AcDbVertex
100
AcDb2dVertex
 10
82.45062039650944
 20
-115.9946385821126
 30
0.0
  0
SEQEND
  5
D9
330
D6
100
AcDbEntity
  8
_U+30EC_U+30A4_U+30E4_U+30FC 1
 62
   179
420
  2234388
370
     9
  0
POLYLINE
  5
DA
330
96
100
AcDbEntity
  8
_U+30EC_U+30A4_U+30E4_U+30FC 1
 62
   179
420
  2234388
370
     9
100
AcDb2dPolyline
 66
     1
 10
0.0
 20
0.0
 30
0.0
  0
VERTEX
  5
DB
330
DA
100
AcDbEntity
  8
_U+30EC_U+30A4_U+30E4_U+30FC 1
 62
   179
420
  2234388
370
     9
100
AcDbVertex
100
AcDb2dVertex
 10
98.75435081389995
 20
-124.6480305243934
 30
0.0
  0
VERTEX
  5
DC
330
DA
100
AcDbEntity
  8
_U+30EC_U+30A4_U+30E4_U+30FC 1
 62
   179
420
  2234388
370
     9
100
AcDbVertex
100
AcDb2dVertex
 10
102.4178773871023
 20
-122.5561641360276
 30
0.0
  0
SEQEND
  5
DD
330
DA
100
AcDbEntity
  8
_U+30EC_U+30A4_U+30E4_U+30FC 1
 62
   179
420
  2234388
370
     9
  0
POLYLINE
  5
DE
330
96
100
AcDbEntity
  8
_U+30EC_U+30A4_U+30E4_U+30FC 1
 62
   179
420
  2234388
370
     9
100
AcDb2dPolyline
 66
     1
 10
0.0
 20
0.0
 30
0.0
  0
VERTEX
  5
DF
330
DE
100
AcDbEntity
  8
_U+30EC_U+30A4_U+30E4_U+30FC 1
 62
   179
420
  2234388
370
     9
100
AcDbVertex
100
AcDb2dVertex
 10
80.96905960097386
 20
-116.8410935819008
 30
0.0
  0
VERTEX
  5
E0
330
DE
100
AcDbEntity
  8
_U+30EC_U+30A4_U+30E4_U+30FC 1
 62
   179
420
  2234388
370
     9
100
AcDbVertex
100
AcDb2dVertex
 10
101.0542854774459
 20
-123.3323458025003
 30
0.0
  0
SEQEND
  5
E1
330
DE
100
AcDbEntity
  8
_U+30EC_U+30A4_U+30E4_U+30FC 1
 62
   179
420
  2234388
370
     9
  0
POLYLINE
  5
E2
330
96
100
AcDbEntity
  8
_U+30EC_U+30A4_U+30E4_U+30FC 1
 62
   179
420
  2234388
370
     9
100
AcDb2dPolyline
 66
     1
 10
0.0
 20
0.0
 30
0.0
  0
VERTEX
  5
E3
330
E2
100
AcDbEntity
  8
_U+30EC_U+30A4_U+30E4_U+30FC 1
 62
   179
420
  2234388
370
     9
100
AcDbVertex
100
AcDb2dVertex
 10
87.88353914679301
 20
-138.5017902431521
 30
0.0
  0
VERTEX
  5
E4
330
E2
100
AcDbEntity
  8
_U+30EC_U+30A4_U+30E4_U+30FC 1
 62
   179
420
  2234388
370
     9
100
AcDbVertex
100
AcDb2dVertex
 10
105.8753464655615
 20
-128.1299824679674
 30
0.0
  0
SEQEND
  5
E5
330
E2
100
AcDbEntity
  8
_U+30EC_U+30A4_U+30E4_U+30FC 1
 62
   179
420
  2234388
370
     9
  0
ENDBLK
  5
99
330
96
100
AcDbEntity
  8
0
100
AcDbBlockEnd
  0
BLOCK
  5
9C
330
9A
100
AcDbEntity
  8
0
100
AcDbBlockBegin
  2
block 11
 70
     0
 10
0.0
 20
0.0
 30
0.0
  3
block 11
  1

  0
POLYLINE
  5
9E
330
9A
100
AcDbEntity
  8
_U+30EC_U+30A4_U+30E4_U+30FC 1
 62
   179
420
  2234388
370
    25
100
AcDb2dPolyline
 66
     1
 10
0.0
 20
0.0
 30
0.0
  0
VERTEX
  5
9F
330
9E
100
AcDbEntity
  8
_U+30EC_U+30A4_U+30E4_U+30FC 1
 62
   179
420
  2234388
370
    25
100
AcDbVertex
100
AcDb2dVertex
 10
76.78860776318163
 20
-134.539249133032
 30
0.0
  0
VERTEX
  5
A0
330
9E
100
AcDbEntity
  8
_U+30EC_U+30A4_U+30E4_U+30FC 1
 62
   179
420
  2234388
370
    25
100
AcDbVertex
100
AcDb2dVertex
 10
79.96946379314234
 20
-135.785330799387
 30
0.0
  0
VERTEX
  5
A1
330
9E
100
AcDbEntity
  8
_U+30EC_U+30A4_U+30E4_U+30FC 1
 62
   179
420
  2234388
370
    25
100
AcDbVertex
100
AcDb2dVertex
 10
79.89883768383305
 20
-140.5240535759801
 30
0.0
  0
VERTEX
  5
A2
330
9E
100
AcDbEntity
  8
_U+30EC_U+30A4_U+30E4_U+30FC 1
 62
   179
420
  2234388
370
    25
100
AcDbVertex
100
AcDb2dVertex
 10
79.73448053562203
 20
-140.6715146870542
 30
0.0
  0
SEQEND
  5
A3
330
9E
100
AcDbEntity
  8
_U+30EC_U+30A4_U+30E4_U+30FC 1
 62
   179
420
  2234388
370
    25
  0
POLYLINE
  5
A4
330
9A
100
AcDbEntity
  8
_U+30EC_U+30A4_U+30E4_U+30FC 1
 62
   179
420
  2234388
370
    25
100
AcDb2dPolyline
 66
     1
 10
0.0
 20
0.0
 30
0.0
  0
VERTEX
  5
A5
330
A4
100
AcDbEntity
  8
_U+30EC_U+30A4_U+30E4_U+30FC 1
 62
   179
420
  2234388
370
    25
100
AcDbVertex
100
AcDb2dVertex
 10
77.97284745519138
 20
-135.2716863550709
 30
0.0
  0
VERTEX
  5
A6
330
A4
100
AcDbEntity
  8
_U+30EC_U+30A4_U+30E4_U+30FC 1
 62
   179
420
  2234388
370
    25
100
AcDbVertex
100
AcDb2dVertex
 10
79.6283982462881
 20
-135.9214324660196
 30
0.0
  0
VERTEX
  5
A7
330
A4
100
AcDbEntity
  8
_U+30EC_U+30A4_U+30E4_U+30FC 1
 62
   179
420
  2234388
370
    25
100
AcDbVertex
100
AcDb2dVertex
 10
79.6283982462881
 20
-140.5123413537609
 30
0.0
  0
VERTEX
  5
A8
330
A4
100
AcDbEntity
  8
_U+30EC_U+30A4_U+30E4_U+30FC 1
 62
   179
420
  2234388
370
    25
100
AcDbVertex
100
AcDb2dVertex
 10
79.22873631203987
 20
-140.7242196870411
 30
0.0
  0
SEQEND
  5
A9
330
A4
100
AcDbEntity
  8
_U+30EC_U+30A4_U+30E4_U+30FC 1
 62
   179
420
  2234388
370
    25
  0
POLYLINE
  5
AA
330
9A
100
AcDbEntity
  8
_U+30EC_U+30A4_U+30E4_U+30FC 1
 62
   179
420
  2234388
370
    25
100
AcDb2dPolyline
 66
     1
 10
0.0
 20
0.0
 30
0.0
  0
VERTEX
  5
AB
330
AA
100
AcDbEntity
  8
_U+30EC_U+30A4_U+30E4_U+30FC 1
 62
   179
420
  2234388
370
    25
100
AcDbVertex
100
AcDb2dVertex
 10
75.21867613656725
 20
-120.2455402477165
 30
0.0
  0
VERTEX
  5
AC
330
AA
100
AcDbEntity
  8
_U+30EC_U+30A4_U+30E4_U+30FC 1
 62
   179
420
  2234388
370
    25
100
AcDbVertex
100
AcDb2dVertex
 10
91.22318045048056
 20
-125.5434158019476
 30
0.0
  0
VERTEX
  5
AD
330
AA
100
AcDbEntity
  8
_U+30EC_U+30A4_U+30E4_U+30FC 1
 62
   179
420
  2234388
370
    25
100
AcDbVertex
100
AcDb2dVertex
 10
76.73572637564186
 20
-134.4799824663802
 30
0.0
  0
VERTEX
  5
AE
330
AA
100
AcDbEntity
  8
_U+30EC_U+30A4_U+30E4_U+30FC 1
 62
   179
420
  2234388
370
    25
100
AcDbVertex
100
AcDb2dVertex
 10
76.73572637564186
 20
-134.7859113551922
 30
0.0
  0
VERTEX
  5
AF
330
AA
100
AcDbEntity
  8
_U+30EC_U+30A4_U+30E4_U+30FC 1
 62
   179
420
  2234388
370
    25
100
AcDbVertex
100
AcDb2dVertex
 10
77.97284745519138
 20
-135.2716863550709
 30
0.0
  0
SEQEND
  5
B0
330
AA
100
AcDbEntity
  8
_U+30EC_U+30A4_U+30E4_U+30FC 1
 62
   179
420
  2234388
370
    25
  0
POLYLINE
  5
B1
330
9A
100
AcDbEntity
  8
_U+30EC_U+30A4_U+30E4_U+30FC 1
 62
   179
420
  2234388
370
    25
100
AcDb2dPolyline
 66
     1
 10
0.0
 20
0.0
 30
0.0
  0
VERTEX
  5
B2
330
B1
100
AcDbEntity
  8
_U+30EC_U+30A4_U+30E4_U+30FC 1
 62
   179
420
  2234388
370
    25
100
AcDbVertex
100
AcDb2dVertex
 10
81.4556459774489
 20
-119.8734655255874
 30
0.0
  0
VERTEX
  5
B3
330
B1
100
AcDbEntity
  8
_U+30EC_U+30A4_U+30E4_U+30FC 1
 62
   179
420
  2234388
370
    25
100
AcDbVertex
100
AcDb2dVertex
 10
77.86450940239976
 20
-118.7224574703195
 30
0.0
  0
VERTEX
  5
B4
330
B1
100
AcDbEntity
  8
_U+30EC_U+30A4_U+30E4_U+30FC 1
 62
   179
420
  2234388
370
    25
100
AcDbVertex
100
AcDb2dVertex
 10
75.16007974917328
 20
-120.2279719143876
 30
0.0
  0
VERTEX
  5
B5
330
B1
100
AcDbEntity
  8
_U+30EC_U+30A4_U+30E4_U+30FC 1
 62
   179
420
  2234388
370
    25
100
AcDbVertex
100
AcDb2dVertex
 10
75.16007974917328
 20
-120.6748002476092
 30
0.0
  0
VERTEX
  5
B6
330
B1
100
AcDbEntity
  8
_U+30EC_U+30A4_U+30E4_U+30FC 1
 62
   179
420
  2234388
370
    25
100
AcDbVertex
100
AcDb2dVertex
 10
90.28235741892739
 20
-126.1015102462523
 30
0.0
  0
SEQEND
  5
B7
330
B1
100
AcDbEntity
  8
_U+30EC_U+30A4_U+30E4_U+30FC 1
 62
   179
420
  2234388
370
    25
  0
POLYLINE
  5
B8
330
9A
100
AcDbEntity
  8
_U+30EC_U+30A4_U+30E4_U+30FC 1
 62
   179
420
  2234388
370
    25
100
AcDb2dPolyline
 66
     1
 10
0.0
 20
0.0
 30
0.0
  0
VERTEX
  5
B9
330
B8
100
AcDbEntity
  8
_U+30EC_U+30A4_U+30E4_U+30FC 1
 62
   179
420
  2234388
370
    25
100
AcDbVertex
100
AcDb2dVertex
 10
97.83243667075327
 20
-128.8989321899973
 30
0.0
  0
VERTEX
  5
BA
330
B8
100
AcDbEntity
  8
_U+30EC_U+30A4_U+30E4_U+30FC 1
 62
   179
420
  2234388
370
    25
100
AcDbVertex
100
AcDb2dVertex
 10
97.83243667075327
 20
-125.190638024258
 30
0.0
  0
VERTEX
  5
BB
330
B8
100
AcDbEntity
  8
_U+30EC_U+30A4_U+30E4_U+30FC 1
 62
   179
420
  2234388
370
    25
100
AcDbVertex
100
AcDb2dVertex
 10
81.4556459774489
 20
-119.8734655255874
 30
0.0
  0
SEQEND
  5
BC
330
B8
100
AcDbEntity
  8
_U+30EC_U+30A4_U+30E4_U+30FC 1
 62
   179
420
  2234388
370
    25
  0
POLYLINE
  5
BD
330
9A
100
AcDbEntity
  8
_U+30EC_U+30A4_U+30E4_U+30FC 1
 62
   179
420
  2234388
370
    25
100
AcDb2dPolyline
 66
     1
 10
0.0
 20
0.0
 30
0.0
  0
VERTEX
  5
BE
330
BD
100
AcDbEntity
  8
_U+30EC_U+30A4_U+30E4_U+30FC 1
 62
   179
420
  2234388
370
    25
100
AcDbVertex
100
AcDb2dVertex
 10
79.22873631203987
 20
-140.7242196870411
 30
0.0
  0
VERTEX
  5
BF
330
BD
100
AcDbEntity
  8
_U+30EC_U+30A4_U+30E4_U+30FC 1
 62
   179
420
  2234388
370
    25
100
AcDbVertex
100
AcDb2dVertex
 10
79.98117601506576
 20
-140.6487957981713
 30
0.0
  0
VERTEX
  5
C0
330
BD
100
AcDbEntity
  8
_U+30EC_U+30A4_U+30E4_U+30FC 1
 62
   179
420
  2234388
370
    25
100
AcDbVertex
100
AcDb2dVertex
 10
97.81451556009937
 20
-130.9866710783648
 30
0.0
  0
VERTEX
  5
C1
330
BD
100
AcDbEntity
  8
_U+30EC_U+30A4_U+30E4_U+30FC 1
 62
   179
420
  2234388
370
    25
100
AcDbVertex
100
AcDb2dVertex
 10
97.83243667075327
 20
-128.8989321899973
 30
0.0
  0
SEQEND
  5
C2
330
BD
100
AcDbEntity
  8
_U+30EC_U+30A4_U+30E4_U+30FC 1
 62
   179
420
  2234388
370
    25
  0
POLYLINE
  5
C3
330
9A
100
AcDbEntity
  8
_U+30EC_U+30A4_U+30E4_U+30FC 1
 62
   179
420
  2234388
370
    25
100
AcDb2dPolyline
 66
     1
 10
0.0
 20
0.0
 30
0.0
  0
VERTEX
  5
C4
330
C3
100
AcDbEntity
  8
_U+30EC_U+30A4_U+30E4_U+30FC 1
 62
   179
420
  2234388
370
    25
100
AcDbVertex
100
AcDb2dVertex
 10
77.74117829443509
 20
-121.6387302473682
 30
0.0
  0
VERTEX
  5
C5
330
C3
100
AcDbEntity
  8
_U+30EC_U+30A4_U+30E4_U+30FC 1
 62
   179
420
  2234388
370
    25
100
AcDbVertex
100
AcDb2dVertex
 10
77.74117829443509
 20
-124.0730380245372
 30
0.0
  0
VERTEX
  5
C6
330
C3
100
AcDbEntity
  8
_U+30EC_U+30A4_U+30E4_U+30FC 1
 62
   179
420
  2234388
370
    25
100
AcDbVertex
100
AcDb2dVertex
 10
77.52947635539161
 20
-124.5670680244139
 30
0.0
  0
VERTEX
  5
C7
330
C3
100
AcDbEntity
  8
_U+30EC_U+30A4_U+30E4_U+30FC 1
 62
   179
420
  2234388
370
    25
100
AcDbVertex
100
AcDb2dVertex
 10
87.05461942268087
 20
-128.0597091346516
 30
0.0
  0
SEQEND
  5
C8
330
C3
100
AcDbEntity
  8
_U+30EC_U+30A4_U+30E4_U+30FC 1
 62
   179
420
  2234388
370
    25
  0
POLYLINE
  5
C9
330
9A
100
AcDbEntity
  8
_U+30EC_U+30A4_U+30E4_U+30FC 1
 62
   179
420
  2234388
370
    25
100
AcDb2dPolyline
 66
     1
 10
0.0
 20
0.0
 30
0.0
  0
VERTEX
  5
CA
330
C9
100
AcDbEntity
  8
_U+30EC_U+30A4_U+30E4_U+30FC 1
 62
   179
420
  2234388
370
    25
100
AcDbVertex
100
AcDb2dVertex
 10
77.74117829443509
 20
-124.0730380245372
 30
0.0
  0
VERTEX
  5
CB
330
C9
100
AcDbEntity
  8
_U+30EC_U+30A4_U+30E4_U+30FC 1
 62
   179
420
  2234388
370
    25
100
AcDbVertex
100
AcDb2dVertex
 10
87.74228692817444
 20
-127.6714419125266
 30
0.0
  0
SEQEND
  5
CC
330
C9
100
AcDbEntity
  8
_U+30EC_U+30A4_U+30E4_U+30FC 1
 62
   179
420
  2234388
370
    25
  0
SPLINE
  5
CD
330
9A
100
AcDbEntity
  8
_U+30EC_U+30A4_U+30E4_U+30FC 1
 62
   179
420
  2234388
370
    25
100
AcDbSpline
210
0.0
220
0.0
230
1.0
 70
     8
 71
     3
 72
    11
 73
     7
 74
     0
 42
0.0000000001
 43
0.0000000001
 12
1.0
 22
0.0
 32
0.0
 13
1.0
 23
0.0
 33
0.0
 40
0.0
 40
0.0
 40
0.0
 40
0.0
 40
1.0
 40
1.0
 40
1.0
 40
2.0
 40
2.0
 40
2.0
 40
2.0
 10
80.36926683849808
 20
-135.538315799449
 30
0.0
 10
80.36926683849808
 20
-135.538315799449
 30
0.0
 10
91.693294421521
 20
-129.1531791343781
 30
0.0
 10
92.50496319555734
 20
-128.7297752455953
 30
0.0
 10
93.31659900818411
 20
-128.3063713568122
 30
0.0
 10
96.94982197104842
 20
-126.0133158018299
 30
0.0
 10
96.94982197104842
 20
-126.0133158018299
 30
0.0
  0
ENDBLK
  5
9D
330
9A
100
AcDbEntity
  8
0
100
AcDbBlockEnd
  0
ENDSEC
  0
SECTION
  2
ENTITIES
  0
INSERT
  5
42
330
1F
100
AcDbEntity
  8
_U+30EC_U+30A4_U+30E4_U+30FC 1
100
AcDbBlockReference
  2
block 2
 10
0.0
 20
0.0
 30
0.0
  0
INSERT
  5
6C
330
1F
100
AcDbEntity
  8
_U+30EC_U+30A4_U+30E4_U+30FC 1
100
AcDbBlockReference
  2
block 6
 10
0.0
 20
0.0
 30
0.0
  0
INSERT
  5
7C
330
1F
100
AcDbEntity
  8
_U+30EC_U+30A4_U+30E4_U+30FC 1
100
AcDbBlockReference
  2
block 7
 10
0.0
 20
0.0
 30
0.0
  0
INSERT
  5
85
330
1F
100
AcDbEntity
  8
_U+30EC_U+30A4_U+30E4_U+30FC 1
100
AcDbBlockReference
  2
block 8
 10
0.0
 20
0.0
 30
0.0
  0
INSERT
  5
8E
330
1F
100
AcDbEntity
  8
_U+30EC_U+30A4_U+30E4_U+30FC 1
100
AcDbBlockReference
  2
block 9
 10
0.0
 20
0.0
 30
0.0
  0
INSERT
  5
97
330
1F
100
AcDbEntity
  8
_U+30EC_U+30A4_U+30E4_U+30FC 1
100
AcDbBlockReference
  2
block 10
 10
0.0
 20
0.0
 30
0.0
  0
ENDSEC
  0
SECTION
  2
OBJECTS
  0
DICTIONARY
  5
C
330
0
100
AcDbDictionary
281
     1
  3
ACAD_GROUP
350
D
  3
ACAD_LAYOUT
350
1A
  3
ACAD_MATERIAL
350
3B
  3
ACAD_MLEADERSTYLE
350
E7
  3
ACAD_MLINESTYLE
350
17
  3
ACAD_PLOTSETTINGS
350
19
  3
ACAD_PLOTSTYLENAME
350
E
  3
ACAD_TABLESTYLE
350
E6
  3
ACAD_VISUALSTYLE
350
2A
  0
SUN
  5
3F
330
29
100
AcDbSun
 90
        1
290
     0
 63
     7
421
 16777215
 40
1.0
291
     1
 91
  2455826
 92
 54000000
292
     0
 70
     2
 71
   256
280
     1
  0
DICTIONARY
  5
D
102
{ACAD_REACTORS
330
C
102
}
330
C
100
AcDbDictionary
281
     1
  0
DICTIONARY
  5
1A
102
{ACAD_REACTORS
330
C
102
}
330
C
100
AcDbDictionary
281
     1
  3
Layout1
350
1E
  3
Layout2
350
26
  3
Model
350
22
  0
DICTIONARY
  5
3B
102
{ACAD_REACTORS
330
C
102
}
330
C
100
AcDbDictionary
281
     1
  3
ByBlock
350
3D
  3
ByLayer
350
3C
  3
Global
350
3E
  0
DICTIONARY
  5
E7
102
{ACAD_REACTORS
330
C
102
}
330
C
100
AcDbDictionary
281
     1
  0
DICTIONARY
  5
17
102
{ACAD_REACTORS
330
C
102
}
330
C
100
AcDbDictionary
281
     1
  3
Standard
350
18
  0
DICTIONARY
  5
19
102
{ACAD_REACTORS
330
C
102
}
330
C
100
AcDbDictionary
281
     1
  0
ACDBDICTIONARYWDFLT
  5
E
102
{ACAD_REACTORS
330
C
102
}
330
C
100
AcDbDictionary
281
     1
  3
Normal
350
F
100
AcDbDictionaryWithDefault
340
F
  0
DICTIONARY
  5
E6
102
{ACAD_REACTORS
330
C
102
}
330
C
100
AcDbDictionary
281
     1
  0
DICTIONARY
  5
2A
102
{ACAD_REACTORS
330
C
102
}
330
C
100
AcDbDictionary
281
     1
  3
2dWireframe
350
2F
  3
3D Hidden
350
31
  3
3dWireframe
350
30
  3
Basic
350
32
  3
Brighten
350
36
  3
ColorChange
350
3A
  3
Conceptual
350
34
  3
Dim
350
35
  3
Facepattern
350
39
  3
Flat
350
2B
  3
FlatWithEdges
350
2C
  3
Gouraud
350
2D
  3
GouraudWithEdges
350
2E
  3
Linepattern
350
38
  3
Realistic
350
33
  3
Thicken
350
37
  0
LAYOUT
  5
1E
102
{ACAD_REACTORS
330
1A
102
}
330
1A
100
AcDbPlotSettings
  1

  2
none_device
  4

  6

 40
0.0
 41
0.0
 42
0.0
 43
0.0
 44
0.0
 45
0.0
 46
0.0
 47
0.0
 48
0.0
 49
0.0
140
0.0
141
0.0
142
1.0
143
1.0
 70
   688
 72
     0
 73
     0
 74
     5
  7

 75
    16
 76
     0
 77
     2
 78
   300
147
1.0
148
0.0
149
0.0
100
AcDbLayout
  1
Layout1
 70
     1
 71
     1
 10
0.0
 20
0.0
 11
12.0
 21
9.0
 12
0.0
 22
0.0
 32
0.0
 14
1.000000000000000E+20
 24
1.000000000000000E+20
 34
1.000000000000000E+20
 15
-1.000000000000000E+20
 25
-1.000000000000000E+20
 35
-1.000000000000000E+20
146
0.0
 13
0.0
 23
0.0
 33
0.0
 16
1.0
 26
0.0
 36
0.0
 17
0.0
 27
1.0
 37
0.0
 76
     0
330
1B
  0
LAYOUT
  5
26
102
{ACAD_REACTORS
330
1A
102
}
330
1A
100
AcDbPlotSettings
  1

  2
none_device
  4

  6

 40
0.0
 41
0.0
 42
0.0
 43
0.0
 44
0.0
 45
0.0
 46
0.0
 47
0.0
 48
0.0
 49
0.0
140
0.0
141
0.0
142
1.0
143
1.0
 70
   688
 72
     0
 73
     0
 74
     5
  7

 75
    16
 76
     0
 77
     2
 78
   300
147
1.0
148
0.0
149
0.0
100
AcDbLayout
  1
Layout2
 70
     1
 71
     2
 10
0.0
 20
0.0
 11
0.0
 21
0.0
 12
0.0
 22
0.0
 32
0.0
 14
0.0
 24
0.0
 34
0.0
 15
0.0
 25
0.0
 35
0.0
146
0.0
 13
0.0
 23
0.0
 33
0.0
 16
1.0
 26
0.0
 36
0.0
 17
0.0
 27
1.0
 37
0.0
 76
     0
330
23
  0
LAYOUT
  5
22
102
{ACAD_REACTORS
330
1A
102
}
330
1A
100
AcDbPlotSettings
  1

  2
none_device
  4

  6

 40
0.0
 41
0.0
 42
0.0
 43
0.0
 44
0.0
 45
0.0
 46
0.0
 47
0.0
 48
0.0
 49
0.0
140
0.0
141
0.0
142
1.0
143
1.0
 70
  1712
 72
     0
 73
     0
 74
     0
  7

 75
     0
 76
     0
 77
     2
 78
   300
147
1.0
148
0.0
149
0.0
100
AcDbLayout
  1
Model
 70
     1
 71
     0
 10
0.0
 20
0.0
 11
12.0
 21
9.0
 12
0.0
 22
0.0
 32
0.0
 14
1.000000000000000E+20
 24
1.000000000000000E+20
 34
1.000000000000000E+20
 15
-1.000000000000000E+20
 25
-1.000000000000000E+20
 35
-1.000000000000000E+20
146
0.0
 13
0.0
 23
0.0
 33
0.0
 16
1.0
 26
0.0
 36
0.0
 17
0.0
 27
1.0
 37
0.0
 76
     0
330
1F
331
29
  0
MATERIAL
  5
3D
102
{ACAD_REACTORS
330
3B
102
}
330
3B
100
AcDbMaterial
  1
ByBlock
 72
     1
 94
      127
  0
MATERIAL
  5
3C
102
{ACAD_REACTORS
330
3B
102
}
330
3B
100
AcDbMaterial
  1
ByLayer
 72
     1
 94
      127
  0
MATERIAL
  5
3E
102
{ACAD_REACTORS
330
3B
102
}
330
3B
100
AcDbMaterial
  1
Global
 72
     1
 94
      127
  0
MLINESTYLE
  5
18
102
{ACAD_REACTORS
330
17
102
}
330
17
100
AcDbMlineStyle
  2
Standard
 70
     0
  3

 62
   256
 51
90.0
 52
90.0
 71
     2
 49
0.5
 62
   256
  6
BYLAYER
 49
-0.5
 62
   256
  6
BYLAYER
  0
ACDBPLACEHOLDER
  5
F
102
{ACAD_REACTORS
330
E
102
}
330
E
  0
VISUALSTYLE
  5
2F
102
{ACAD_REACTORS
330
2A
102
}
330
2A
100
AcDbVisualStyle
  2
2dWireframe
 70
     4
177
     2
291
     0
 71
     0
176
     1
 72
     2
176
     1
 73
     0
176
     1
 90
        0
176
     1
 40
-0.6
176
     1
 41
-30.0
176
     1
 62
     5
 63
     7
421
 16777215
176
     1
 74
     1
176
     1
 91
        4
176
     1
 64
     7
176
     1
 65
   257
176
     1
 75
     1
176
     1
175
     1
176
     1
 42
1.0
176
     1
 92
        0
176
     1
 66
   257
176
     1
 43
1.0
176
     1
 76
     1
176
     1
 77
     6
176
     1
 78
     2
176
     1
 67
     7
176
     1
 79
     5
176
     1
170
     0
176
     1
171
     0
176
     1
290
     0
176
     1
 93
        1
176
     1
 44
0.0
176
     1
173
     0
176
     1
  0
VISUALSTYLE
  5
31
102
{ACAD_REACTORS
330
2A
102
}
330
2A
100
AcDbVisualStyle
  2
3D Hidden
 70
     6
177
     2
291
     0
 71
     1
176
     1
 72
     2
176
     1
 73
     2
176
     1
 90
        0
176
     1
 40
-0.6
176
     1
 41
-30.0
176
     1
 62
     5
 63
     7
421
 16777215
176
     1
 74
     2
176
     1
 91
        2
176
     1
 64
     7
176
     1
 65
   257
176
     1
 75
     2
176
     1
175
     1
176
     1
 42
40.0
176
     1
 92
        0
176
     1
 66
   257
176
     1
 43
1.0
176
     1
 76
     1
176
     1
 77
     6
176
     1
 78
     2
176
     1
 67
     7
176
     1
 79
     3
176
     1
170
     0
176
     1
171
     0
176
     1
290
     0
176
     1
 93
        1
176
     1
 44
0.0
176
     1
173
     0
176
     1
  0
VISUALSTYLE
  5
30
102
{ACAD_REACTORS
330
2A
102
}
330
2A
100
AcDbVisualStyle
  2
3dWireframe
 70
     5
177
     2
291
     0
 71
     0
176
     1
 72
     2
176
     1
 73
     0
176
     1
 90
        0
176
     1
 40
-0.6
176
     1
 41
-30.0
176
     1
 62
     5
 63
     7
421
 16777215
176
     1
 74
     1
176
     1
 91
        4
176
     1
 64
     7
176
     1
 65
   257
176
     1
 75
     1
176
     1
175
     1
176
     1
 42
1.0
176
     1
 92
        0
176
     1
 66
   257
176
     1
 43
1.0
176
     1
 76
     1
176
     1
 77
     6
176
     1
 78
     2
176
     1
 67
     7
176
     1
 79
     5
176
     1
170
     0
176
     1
171
     0
176
     1
290
     0
176
     1
 93
        1
176
     1
 44
0.0
176
     1
173
     0
176
     1
  0
VISUALSTYLE
  5
32
102
{ACAD_REACTORS
330
2A
102
}
330
2A
100
AcDbVisualStyle
  2
Basic
 70
     7
177
     2
291
     1
 71
     1
176
     1
 72
     0
176
     1
 73
     1
176
     1
 90
        0
176
     1
 40
-0.6
176
     1
 41
-30.0
176
     1
 62
     5
 63
     7
421
 16777215
176
     1
 74
     0
176
     1
 91
        4
176
     1
 64
     7
176
     1
 65
   257
176
     1
 75
     1
176
     1
175
     1
176
     1
 42
1.0
176
     1
 92
        8
176
     1
 66
     7
176
     1
 43
1.0
176
     1
 76
     1
176
     1
 77
     6
176
     1
 78
     2
176
     1
 67
     7
176
     1
 79
     5
176
     1
170
     0
176
     1
171
     0
176
     1
290
     0
176
     1
 93
        1
176
     1
 44
0.0
176
     1
173
     0
176
     1
  0
VISUALSTYLE
  5
36
102
{ACAD_REACTORS
330
2A
102
}
330
2A
100
AcDbVisualStyle
  2
Brighten
 70
    12
177
     2
291
     1
 71
     2
176
     1
 72
     2
176
     1
 73
     0
176
     1
 90
        0
176
     1
 40
-0.6
176
     1
 41
-30.0
176
     1
 62
     5
 63
     7
421
 16777215
176
     1
 74
     1
176
     1
 91
        4
176
     1
 64
     7
176
     1
 65
   257
176
     1
 75
     1
176
     1
175
     1
176
     1
 42
1.0
176
     1
 92
        8
176
     1
 66
     7
176
     1
 43
1.0
176
     1
 76
     1
176
     1
 77
     6
176
     1
 78
     2
176
     1
 67
     7
176
     1
 79
     5
176
     1
170
     0
176
     1
171
     0
176
     1
290
     0
176
     1
 93
        1
176
     1
 44
50.0
176
     1
173
     0
176
     1
  0
VISUALSTYLE
  5
3A
102
{ACAD_REACTORS
330
2A
102
}
330
2A
100
AcDbVisualStyle
  2
ColorChange
 70
    16
177
     2
291
     1
 71
     2
176
     1
 72
     2
176
     1
 73
     3
176
     1
 90
        0
176
     1
 40
-0.6
176
     1
 41
-30.0
176
     1
 62
     5
 63
     8
421
  8421504
176
     1
 74
     1
176
     1
 91
        4
176
     1
 64
     7
176
     1
 65
   257
176
     1
 75
     1
176
     1
175
     1
176
     1
 42
1.0
176
     1
 92
        8
176
     1
 66
     8
424
  8421504
176
     1
 43
1.0
176
     1
 76
     1
176
     1
 77
     6
176
     1
 78
     2
176
     1
 67
     7
176
     1
 79
     5
176
     1
170
     0
176
     1
171
     0
176
     1
290
     0
176
     1
 93
        1
176
     1
 44
0.0
176
     1
173
     0
176
     1
  0
VISUALSTYLE
  5
34
102
{ACAD_REACTORS
330
2A
102
}
330
2A
100
AcDbVisualStyle
  2
Conceptual
 70
     9
177
     2
291
     0
 71
     3
176
     1
 72
     2
176
     1
 73
     0
176
     1
 90
        0
176
     1
 40
-0.6
176
     1
 41
-30.0
176
     1
 62
     5
 63
     7
421
 16777215
176
     1
 74
     2
176
     1
 91
        2
176
     1
 64
     7
176
     1
 65
   257
176
     1
 75
     1
176
     1
175
     1
176
     1
 42
40.0
176
     1
 92
        8
176
     1
 66
     7
176
     1
 43
1.0
176
     1
 76
     1
176
     1
 77
     6
176
     1
 78
     2
176
     1
 67
     7
176
     1
 79
     3
176
     1
170
     0
176
     1
171
     0
176
     1
290
     0
176
     1
 93
        1
176
     1
 44
0.0
176
     1
173
     0
176
     1
  0
VISUALSTYLE
  5
35
102
{ACAD_REACTORS
330
2A
102
}
330
2A
100
AcDbVisualStyle
  2
Dim
 70
    11
177
     2
291
     1
 71
     2
176
     1
 72
     2
176
     1
 73
     0
176
     1
 90
        0
176
     1
 40
-0.6
176
     1
 41
-30.0
176
     1
 62
     5
 63
     7
421
 16777215
176
     1
 74
     1
176
     1
 91
        4
176
     1
 64
     7
176
     1
 65
   257
176
     1
 75
     1
176
     1
175
     1
176
     1
 42
1.0
176
     1
 92
        8
176
     1
 66
     7
176
     1
 43
1.0
176
     1
 76
     1
176
     1
 77
     6
176
     1
 78
     2
176
     1
 67
     7
176
     1
 79
     5
176
     1
170
     0
176
     1
171
     0
176
     1
290
     0
176
     1
 93
        1
176
     1
 44
-50.0
176
     1
173
     0
176
     1
  0
VISUALSTYLE
  5
39
102
{ACAD_REACTORS
330
2A
102
}
330
2A
100
AcDbVisualStyle
  2
Facepattern
 70
    15
177
     2
291
     1
 71
     2
176
     1
 72
     2
176
     1
 73
     0
176
     1
 90
        0
176
     1
 40
-0.6
176
     1
 41
-30.0
176
     1
 62
     5
 63
     7
421
 16777215
176
     1
 74
     1
176
     1
 91
        4
176
     1
 64
     7
176
     1
 65
   257
176
     1
 75
     1
176
     1
175
     1
176
     1
 42
1.0
176
     1
 92
        8
176
     1
 66
     7
176
     1
 43
1.0
176
     1
 76
     1
176
     1
 77
     6
176
     1
 78
     2
176
     1
 67
     7
176
     1
 79
     5
176
     1
170
     0
176
     1
171
     0
176
     1
290
     0
176
     1
 93
        1
176
     1
 44
0.0
176
     1
173
     0
176
     1
  0
VISUALSTYLE
  5
2B
102
{ACAD_REACTORS
330
2A
102
}
330
2A
100
AcDbVisualStyle
  2
Flat
 70
     0
177
     2
291
     1
 71
     2
176
     1
 72
     1
176
     1
 73
     1
176
     1
 90
        2
176
     1
 40
-0.6
176
     1
 41
30.0
176
     1
 62
     5
 63
     7
421
 16777215
176
     1
 74
     0
176
     1
 91
        4
176
     1
 64
     7
176
     1
 65
   257
176
     1
 75
     1
176
     1
175
     1
176
     1
 42
1.0
176
     1
 92
        8
176
     1
 66
     7
176
     1
 43
1.0
176
     1
 76
     1
176
     1
 77
     6
176
     1
 78
     2
176
     1
 67
     7
176
     1
 79
     5
176
     1
170
     0
176
     1
171
     0
176
     1
290
     0
176
     1
 93
       13
176
     1
 44
0.0
176
     1
173
     0
176
     1
  0
VISUALSTYLE
  5
2C
102
{ACAD_REACTORS
330
2A
102
}
330
2A
100
AcDbVisualStyle
  2
FlatWithEdges
 70
     1
177
     2
291
     1
 71
     2
176
     1
 72
     1
176
     1
 73
     1
176
     1
 90
        2
176
     1
 40
-0.6
176
     1
 41
30.0
176
     1
 62
     5
 63
     7
421
 16777215
176
     1
 74
     1
176
     1
 91
        4
176
     1
 64
     7
176
     1
 65
   257
176
     1
 75
     1
176
     1
175
     1
176
     1
 42
1.0
176
     1
 92
        0
176
     1
 66
   257
176
     1
 43
1.0
176
     1
 76
     1
176
     1
 77
     6
176
     1
 78
     2
176
     1
 67
     7
176
     1
 79
     5
176
     1
170
     0
176
     1
171
     0
176
     1
290
     0
176
     1
 93
       13
176
     1
 44
0.0
176
     1
173
     0
176
     1
  0
VISUALSTYLE
  5
2D
102
{ACAD_REACTORS
330
2A
102
}
330
2A
100
AcDbVisualStyle
  2
Gouraud
 70
     2
177
     2
291
     1
 71
     2
176
     1
 72
     2
176
     1
 73
     1
176
     1
 90
        2
176
     1
 40
-0.6
176
     1
 41
30.0
176
     1
 62
     5
 63
     7
421
 16777215
176
     1
 74
     0
176
     1
 91
        4
176
     1
 64
     7
176
     1
 65
   257
176
     1
 75
     1
176
     1
175
     1
176
     1
 42
1.0
176
     1
 92
        0
176
     1
 66
     7
176
     1
 43
1.0
176
     1
 76
     1
176
     1
 77
     6
176
     1
 78
     2
176
     1
 67
     7
176
     1
 79
     5
176
     1
170
     0
176
     1
171
     0
176
     1
290
     0
176
     1
 93
       13
176
     1
 44
0.0
176
     1
173
     0
176
     1
  0
VISUALSTYLE
  5
2E
102
{ACAD_REACTORS
330
2A
102
}
330
2A
100
AcDbVisualStyle
  2
GouraudWithEdges
 70
     3
177
     2
291
     1
 71
     2
176
     1
 72
     2
176
     1
 73
     1
176
     1
 90
        2
176
     1
 40
-0.6
176
     1
 41
30.0
176
     1
 62
     5
 63
     7
421
 16777215
176
     1
 74
     1
176
     1
 91
        4
176
     1
 64
     7
176
     1
 65
   257
176
     1
 75
     1
176
     1
175
     1
176
     1
 42
1.0
176
     1
 92
        0
176
     1
 66
   257
176
     1
 43
1.0
176
     1
 76
     1
176
     1
 77
     6
176
     1
 78
     2
176
     1
 67
     7
176
     1
 79
     5
176
     1
170
     0
176
     1
171
     0
176
     1
290
     0
176
     1
 93
       13
176
     1
 44
0.0
176
     1
173
     0
176
     1
  0
VISUALSTYLE
  5
38
102
{ACAD_REACTORS
330
2A
102
}
330
2A
100
AcDbVisualStyle
  2
Linepattern
 70
    14
177
     2
291
     1
 71
     2
176
     1
 72
     2
176
     1
 73
     0
176
     1
 90
        0
176
     1
 40
-0.6
176
     1
 41
-30.0
176
     1
 62
     5
 63
     7
421
 16777215
176
     1
 74
     1
176
     1
 91
        4
176
     1
 64
     7
176
     1
 65
   257
176
     1
 75
     7
176
     1
175
     7
176
     1
 42
1.0
176
     1
 92
        8
176
     1
 66
     7
176
     1
 43
1.0
176
     1
 76
     1
176
     1
 77
     6
176
     1
 78
     2
176
     1
 67
     7
176
     1
 79
     5
176
     1
170
     0
176
     1
171
     0
176
     1
290
     0
176
     1
 93
        1
176
     1
 44
0.0
176
     1
173
     0
176
     1
  0
VISUALSTYLE
  5
33
102
{ACAD_REACTORS
330
2A
102
}
330
2A
100
AcDbVisualStyle
  2
Realistic
 70
     8
177
     2
291
     0
 71
     2
176
     1
 72
     2
176
     1
 73
     0
176
     1
 90
        0
176
     1
 40
-0.6
176
     1
 41
-30.0
176
     1
 62
     5
 63
     7
421
 16777215
176
     1
 74
     1
176
     1
 91
        0
176
     1
 64
     7
176
     1
 65
   257
176
     1
 75
     1
176
     1
175
     1
176
     1
 42
1.0
176
     1
 92
        8
176
     1
 66
     8
424
  7895160
176
     1
 43
1.0
176
     1
 76
     1
176
     1
 77
     6
176
     1
 78
     2
176
     1
 67
     7
176
     1
 79
     5
176
     1
170
     0
176
     1
171
     0
176
     1
290
     0
176
     1
 93
       13
176
     1
 44
0.0
176
     1
173
     0
176
     1
  0
VISUALSTYLE
  5
37
102
{ACAD_REACTORS
330
2A
102
}
330
2A
100
AcDbVisualStyle
  2
Thicken
 70
    13
177
     2
291
     1
 71
     2
176
     1
 72
     2
176
     1
 73
     0
176
     1
 90
        0
176
     1
 40
-0.6
176
     1
 41
-30.0
176
     1
 62
     5
 63
     7
421
 16777215
176
     1
 74
     1
176
     1
 91
        4
176
     1
 64
     7
176
     1
 65
   257
176
     1
 75
     1
176
     1
175
     1
176
     1
 42
1.0
176
     1
 92
       12
176
     1
 66
     7
176
     1
 43
1.0
176
     1
 76
     1
176
     1
 77
     6
176
     1
 78
     2
176
     1
 67
     7
176
     1
 79
     5
176
     1
170
     0
176
     1
171
     0
176
     1
290
     0
176
     1
 93
        1
176
     1
 44
0.0
176
     1
173
     0
176
     1
  0
ENDSEC
  0
EOF
