  0
SECTION
  2
HEADER
  9
$ACADVER
  1
AC1024
  9
$ACADMAINTVER
 70
     6
  9
$DWGCODEPAGE
  3
UNDEFINED
  9
$INSBASE
 10
0.0
 20
0.0
 30
0.0
  9
$EXTMIN
 10
1.000000000000000E+20
 20
1.000000000000000E+20
 30
1.000000000000000E+20
  9
$EXTMAX
 10
-1.000000000000000E+20
 20
-1.000000000000000E+20
 30
-1.000000000000000E+20
  9
$LIMMIN
 10
0.0
 20
0.0
  9
$LIMMAX
 10
12.0
 20
9.0
  9
$ORTHOMODE
 70
     0
  9
$REGENMODE
 70
     1
  9
$FILLMODE
 70
     1
  9
$QTEXTMODE
 70
     0
  9
$MIRRTEXT
 70
     1
  9
$LTSCALE
 40
1.0
  9
$ATTMODE
 70
     1
  9
$TEXTSIZE
 40
0.2
  9
$TRACEWID
 40
0.05
  9
$TEXTSTYLE
  7
Standard
  9
$CLAYER
  8
0
  9
$CELTYPE
  6
ByLayer
  9
$CECOLOR
 62
   256
  9
$CELTSCALE
 40
1.0
  9
$DISPSILH
 70
     0
  9
$DIMSCALE
 40
1.0
  9
$DIMASZ
 40
0.18
  9
$DIMEXO
 40
0.0625
  9
$DIMDLI
 40
0.38
  9
$DIMRND
 40
0.0
  9
$DIMDLE
 40
0.0
  9
$DIMEXE
 40
0.18
  9
$DIMTP
 40
0.0
  9
$DIMTM
 40
0.0
  9
$DIMTXT
 40
0.18
  9
$DIMCEN
 40
0.09
  9
$DIMTSZ
 40
0.0
  9
$DIMTOL
 70
     0
  9
$DIMLIM
 70
     0
  9
$DIMTIH
 70
     1
  9
$DIMTOH
 70
     1
  9
$DIMSE1
 70
     0
  9
$DIMSE2
 70
     0
  9
$DIMTAD
 70
     0
  9
$DIMZIN
 70
     0
  9
$DIMBLK
  1

  9
$DIMASO
 70
     1
  9
$DIMSHO
 70
     1
  9
$DIMPOST
  1

  9
$DIMAPOST
  1

  9
$DIMALT
 70
     0
  9
$DIMALTD
 70
     2
  9
$DIMALTF
 40
25.4
  9
$DIMLFAC
 40
1.0
  9
$DIMTOFL
 70
     0
  9
$DIMTVP
 40
0.0
  9
$DIMTIX
 70
     0
  9
$DIMSOXD
 70
     0
  9
$DIMSAH
 70
     0
  9
$DIMBLK1
  1

  9
$DIMBLK2
  1

  9
$DIMSTYLE
  2
Standard
  9
$DIMCLRD
 70
     0
  9
$DIMCLRE
 70
     0
  9
$DIMCLRT
 70
     0
  9
$DIMTFAC
 40
1.0
  9
$DIMGAP
 40
0.09
  9
$DIMJUST
 70
     0
  9
$DIMSD1
 70
     0
  9
$DIMSD2
 70
     0
  9
$DIMTOLJ
 70
     1
  9
$DIMTZIN
 70
     0
  9
$DIMALTZ
 70
     0
  9
$DIMALTTZ
 70
     0
  9
$DIMUPT
 70
     0
  9
$DIMDEC
 70
     4
  9
$DIMTDEC
 70
     4
  9
$DIMALTU
 70
     2
  9
$DIMALTTD
 70
     2
  9
$DIMTXSTY
  7
Standard
  9
$DIMAUNIT
 70
     0
  9
$DIMADEC
 70
     0
  9
$DIMALTRND
 40
0.0
  9
$DIMAZIN
 70
     0
  9
$DIMDSEP
 70
    46
  9
$DIMATFIT
 70
     3
  9
$DIMFRAC
 70
     0
  9
$DIMLDRBLK
  1

  9
$DIMLUNIT
 70
     2
  9
$DIMLWD
 70
    -2
  9
$DIMLWE
 70
    -2
  9
$DIMTMOVE
 70
     0
  9
$DIMFXL
 40
1.0
  9
$DIMFXLON
 70
     0
  9
$DIMJOGANG
 40
0.7853981633974483
  9
$DIMTFILL
 70
     0
  9
$DIMTFILLCLR
 70
     0
  9
$DIMARCSYM
 70
     0
  9
$DIMLTYPE
  6

  9
$DIMLTEX1
  6

  9
$DIMLTEX2
  6

  9
$DIMTXTDIRECTION
 70
     0
  9
$LUNITS
 70
     2
  9
$LUPREC
 70
     4
  9
$SKETCHINC
 40
0.1
  9
$FILLETRAD
 40
0.5
  9
$AUNITS
 70
     0
  9
$AUPREC
 70
     0
  9
$MENU
  1
.
  9
$ELEVATION
 40
0.0
  9
$PELEVATION
 40
0.0
  9
$THICKNESS
 40
0.0
  9
$LIMCHECK
 70
     0
  9
$CHAMFERA
 40
0.5
  9
$CHAMFERB
 40
0.5
  9
$CHAMFERC
 40
1.0
  9
$CHAMFERD
 40
0.0
  9
$SKPOLY
 70
     0
  9
$TDCREATE
 40
2457917.618032407
  9
$TDUCREATE
 40
2457917.243032407
  9
$TDUPDATE
 40
2457917.618032407
  9
$TDUUPDATE
 40
2457917.243032407
  9
$TDINDWG
 40
0.0000000116
  9
$TDUSRTIMER
 40
0.0000000116
  9
$USRTIMER
 70
     1
  9
$ANGBASE
 50
0.0
  9
$ANGDIR
 70
     0
  9
$PDMODE
 70
     0
  9
$PDSIZE
 40
0.0
  9
$PLINEWID
 40
0.0
  9
$SPLFRAME
 70
     0
  9
$SPLINETYPE
 70
     6
  9
$SPLINESEGS
 70
     8
  9
$HANDSEED
  5
E4
  9
$SURFTAB1
 70
     6
  9
$SURFTAB2
 70
     6
  9
$SURFTYPE
 70
     6
  9
$SURFU
 70
     6
  9
$SURFV
 70
     6
  9
$UCSBASE
  2

  9
$UCSNAME
  2

  9
$UCSORG
 10
0.0
 20
0.0
 30
0.0
  9
$UCSXDIR
 10
1.0
 20
0.0
 30
0.0
  9
$UCSYDIR
 10
0.0
 20
1.0
 30
0.0
  9
$UCSORTHOREF
  2

  9
$UCSORTHOVIEW
 70
     0
  9
$UCSORGTOP
 10
0.0
 20
0.0
 30
0.0
  9
$UCSORGBOTTOM
 10
0.0
 20
0.0
 30
0.0
  9
$UCSORGLEFT
 10
0.0
 20
0.0
 30
0.0
  9
$UCSORGRIGHT
 10
0.0
 20
0.0
 30
0.0
  9
$UCSORGFRONT
 10
0.0
 20
0.0
 30
0.0
  9
$UCSORGBACK
 10
0.0
 20
0.0
 30
0.0
  9
$PUCSBASE
  2

  9
$PUCSNAME
  2

  9
$PUCSORG
 10
0.0
 20
0.0
 30
0.0
  9
$PUCSXDIR
 10
1.0
 20
0.0
 30
0.0
  9
$PUCSYDIR
 10
0.0
 20
1.0
 30
0.0
  9
$PUCSORTHOREF
  2

  9
$PUCSORTHOVIEW
 70
     0
  9
$PUCSORGTOP
 10
0.0
 20
0.0
 30
0.0
  9
$PUCSORGBOTTOM
 10
0.0
 20
0.0
 30
0.0
  9
$PUCSORGLEFT
 10
0.0
 20
0.0
 30
0.0
  9
$PUCSORGRIGHT
 10
0.0
 20
0.0
 30
0.0
  9
$PUCSORGFRONT
 10
0.0
 20
0.0
 30
0.0
  9
$PUCSORGBACK
 10
0.0
 20
0.0
 30
0.0
  9
$USERI1
 70
     0
  9
$USERI2
 70
     0
  9
$USERI3
 70
     0
  9
$USERI4
 70
     0
  9
$USERI5
 70
     0
  9
$USERR1
 40
0.0
  9
$USERR2
 40
0.0
  9
$USERR3
 40
0.0
  9
$USERR4
 40
0.0
  9
$USERR5
 40
0.0
  9
$WORLDVIEW
 70
     1
  9
$SHADEDGE
 70
     3
  9
$SHADEDIF
 70
    70
  9
$TILEMODE
 70
     1
  9
$MAXACTVP
 70
    64
  9
$PINSBASE
 10
0.0
 20
0.0
 30
0.0
  9
$PLIMCHECK
 70
     0
  9
$PEXTMIN
 10
1.000000000000000E+20
 20
1.000000000000000E+20
 30
1.000000000000000E+20
  9
$PEXTMAX
 10
-1.000000000000000E+20
 20
-1.000000000000000E+20
 30
-1.000000000000000E+20
  9
$PLIMMIN
 10
0.0
 20
0.0
  9
$PLIMMAX
 10
12.0
 20
9.0
  9
$UNITMODE
 70
     0
  9
$VISRETAIN
 70
     1
  9
$PLINEGEN
 70
     0
  9
$PSLTSCALE
 70
     1
  9
$TREEDEPTH
 70
  3020
  9
$CMLSTYLE
  2
Standard
  9
$CMLJUST
 70
     0
  9
$CMLSCALE
 40
1.0
  9
$PROXYGRAPHICS
 70
     1
  9
$MEASUREMENT
 70
     0
  9
$CELWEIGHT
370
    -1
  9
$ENDCAPS
280
     0
  9
$JOINSTYLE
280
     0
  9
$LWDISPLAY
290
     1
  9
$INSUNITS
 70
     1
  9
$HYPERLINKBASE
  1

  9
$STYLESHEET
  1

  9
$XEDIT
290
     1
  9
$CEPSNTYPE
380
     0
  9
$PSTYLEMODE
290
     1
  9
$FINGERPRINTGUID
  2
{AA0361CF-EE3A-3B4F-1C6C-685EBB5E4147}
  9
$VERSIONGUID
  2
{FAEB1C32-E019-11D5-929B-00C0DF256EC4}
  9
$EXTNAMES
290
     1
  9
$PSVPSCALE
 40
0.0
  9
$OLESTARTUP
290
     0
  9
$SORTENTS
280
   127
  9
$INDEXCTL
280
     0
  9
$HIDETEXT
280
     1
  9
$XCLIPFRAME
280
     2
  9
$HALOGAP
280
     0
  9
$OBSCOLOR
 70
   257
  9
$OBSLTYPE
280
     0
  9
$INTERSECTIONDISPLAY
280
     0
  9
$INTERSECTIONCOLOR
 70
   257
  9
$DIMASSOC
280
     2
  9
$PROJECTNAME
  1

  9
$CAMERADISPLAY
290
     0
  9
$LENSLENGTH
 40
50.0
  9
$CAMERAHEIGHT
 40
0.0
  9
$STEPSPERSEC
 40
2.0
  9
$STEPSIZE
 40
6.0
  9
$3DDWFPREC
 40
2.0
  9
$PSOLWIDTH
 40
0.25
  9
$PSOLHEIGHT
 40
4.0
  9
$LOFTANG1
 40
1.570796326794897
  9
$LOFTANG2
 40
1.570796326794897
  9
$LOFTMAG1
 40
0.0
  9
$LOFTMAG2
 40
0.0
  9
$LOFTPARAM
 70
     7
  9
$LOFTNORMALS
280
     1
  9
$LATITUDE
 40
37.795
  9
$LONGITUDE
 40
-122.394
  9
$NORTHDIRECTION
 40
0.0
  9
$TIMEZONE
 70
 -8000
  9
$LIGHTGLYPHDISPLAY
280
     1
  9
$TILEMODELIGHTSYNCH
280
     1
  9
$CMATERIAL
347
3C
  9
$SOLIDHIST
280
     1
  9
$SHOWHIST
280
     1
  9
$DWFFRAME
280
     2
  9
$DGNFRAME
280
     2
  9
$REALWORLDSCALE
290
     1
  9
$INTERFERECOLOR
 62
   256
  9
$CSHADOW
280
     0
  9
$SHADOWPLANELOCATION
 40
0.0
  0
ENDSEC
  0
SECTION
  2
CLASSES
  0
CLASS
  1
ACDBDICTIONARYWDFLT
  2
AcDbDictionaryWithDefault
  3
ObjectDBX Classes
 90
        0
 91
        4
280
     0
281
     0
  0
CLASS
  1
VISUALSTYLE
  2
AcDbVisualStyle
  3
ObjectDBX Classes
 90
     4095
 91
        4
280
     0
281
     0
  0
CLASS
  1
MATERIAL
  2
AcDbMaterial
  3
ObjectDBX Classes
 90
     1153
 91
        4
280
     0
281
     0
  0
CLASS
  1
SUN
  2
AcDbSun
  3
SCENEOE
 90
     1024
 91
        4
280
     0
281
     0
  0
ENDSEC
  0
SECTION
  2
TABLES
  0
TABLE
  2
VPORT
  5
8
330
0
100
AcDbSymbolTable
 70
     1
  0
VPORT
  5
29
330
8
100
AcDbSymbolTableRecord
100
AcDbViewportTableRecord
  2
*Active
 70
     0
 10
0.0
 20
0.0
 11
1.0
 21
1.0
 12
0.0
 22
0.0
 13
0.0
 23
0.0
 14
0.5
 24
0.5
 15
0.5
 25
0.5
 16
0.0
 26
0.0
 36
1.0
 17
91.00082462281999
 27
-128.4993055234307
 37
0.0
 40
256.9986110468615
 41
0.7081814508812795
 42
50.0
 43
0.0
 44
0.0
 50
0.0
 51
0.0
 71
     0
 72
   100
 73
     1
 74
     3
 75
     0
 76
     0
 77
     0
 78
     0
281
     0
 65
     1
110
0.0
120
0.0
130
0.0
111
1.0
121
0.0
131
0.0
112
0.0
122
1.0
132
0.0
 79
     0
146
0.0
 60
     3
 61
     5
292
     1
282
     1
141
0.0
142
0.0
 63
   250
361
3F
  0
ENDTAB
  0
TABLE
  2
LTYPE
  5
5
330
0
100
AcDbSymbolTable
 70
     1
  0
LTYPE
  5
14
330
5
100
AcDbSymbolTableRecord
100
AcDbLinetypeTableRecord
  2
ByBlock
 70
     0
  3

 72
    65
 73
     0
 40
0.0
  0
LTYPE
  5
15
330
5
100
AcDbSymbolTableRecord
100
AcDbLinetypeTableRecord
  2
ByLayer
 70
     0
  3

 72
    65
 73
     0
 40
0.0
  0
LTYPE
  5
16
330
5
100
AcDbSymbolTableRecord
100
AcDbLinetypeTableRecord
  2
Continuous
 70
     0
  3
Solid line
 72
    65
 73
     0
 40
0.0
  0
ENDTAB
  0
TABLE
  2
LAYER
  5
2
330
0
100
AcDbSymbolTable
 70
     2
  0
LAYER
  5
10
330
2
100
AcDbSymbolTableRecord
100
AcDbLayerTableRecord
  2
0
 70
     0
 62
     7
  6
Continuous
370
    -3
390
F
347
3E
  0
LAYER
  5
40
330
2
100
AcDbSymbolTableRecord
100
AcDbLayerTableRecord
  2
_U+30EC_U+30A4_U+30E4_U+30FC 1
 70
     0
 62
     7
  6
Continuous
370
    -3
390
F
347
3E
  0
ENDTAB
  0
TABLE
  2
STYLE
  5
3
330
0
100
AcDbSymbolTable
 70
     1
  0
STYLE
  5
11
330
3
100
AcDbSymbolTableRecord
100
AcDbTextStyleTableRecord
  2
Standard
 70
     0
 40
0.0
 41
1.0
 50
0.0
 71
     0
 42
0.2
  3
txt
  4

  0
ENDTAB
  0
TABLE
  2
VIEW
  5
6
330
0
100
AcDbSymbolTable
 70
     0
  0
ENDTAB
  0
TABLE
  2
UCS
  5
7
330
0
100
AcDbSymbolTable
 70
     0
  0
ENDTAB
  0
TABLE
  2
APPID
  5
9
330
0
100
AcDbSymbolTable
 70
     1
  0
APPID
  5
12
330
9
100
AcDbSymbolTableRecord
100
AcDbRegAppTableRecord
  2
ACAD
 70
     0
  0
ENDTAB
  0
TABLE
  2
DIMSTYLE
  5
A
330
0
100
AcDbSymbolTable
 70
     1
100
AcDbDimStyleTable
  0
DIMSTYLE
105
27
330
A
100
AcDbSymbolTableRecord
100
AcDbDimStyleTableRecord
  2
Standard
 70
     0
178
     0
340
11
  0
ENDTAB
  0
TABLE
  2
BLOCK_RECORD
  5
1
330
0
100
AcDbSymbolTable
 70
     8
  0
BLOCK_RECORD
  5
1F
330
1
100
AcDbSymbolTableRecord
100
AcDbBlockTableRecord
  2
*Model_Space
340
22
 70
     0
280
     1
281
     0
  0
BLOCK_RECORD
  5
1B
330
1
100
AcDbSymbolTableRecord
100
AcDbBlockTableRecord
  2
*Paper_Space
340
1E
 70
     0
280
     1
281
     0
  0
BLOCK_RECORD
  5
23
330
1
100
AcDbSymbolTableRecord
100
AcDbBlockTableRecord
  2
*Paper_Space0
340
26
 70
     0
280
     1
281
     0
  0
BLOCK_RECORD
  5
43
330
1
100
AcDbSymbolTableRecord
100
AcDbBlockTableRecord
  2
block 2
340
0
102
{BLKREFS
331
44
102
}
 70
     0
280
     1
281
     0
  0
BLOCK_RECORD
  5
85
330
1
100
AcDbSymbolTableRecord
100
AcDbBlockTableRecord
  2
block 3
340
0
102
{BLKREFS
331
86
102
}
 70
     0
280
     1
281
     0
  0
BLOCK_RECORD
  5
99
330
1
100
AcDbSymbolTableRecord
100
AcDbBlockTableRecord
  2
block 4
340
0
102
{BLKREFS
331
9A
102
}
 70
     0
280
     1
281
     0
  0
BLOCK_RECORD
  5
AF
330
1
100
AcDbSymbolTableRecord
100
AcDbBlockTableRecord
  2
block 5
340
0
102
{BLKREFS
331
B0
102
}
 70
     0
280
     1
281
     0
  0
BLOCK_RECORD
  5
CC
330
1
100
AcDbSymbolTableRecord
100
AcDbBlockTableRecord
  2
block 6
340
0
102
{BLKREFS
331
CD
102
}
 70
     0
280
     1
281
     0
  0
BLOCK_RECORD
  5
D2
330
1
100
AcDbSymbolTableRecord
100
AcDbBlockTableRecord
  2
block 7
340
0
102
{BLKREFS
331
D3
102
}
 70
     0
280
     1
281
     0
  0
BLOCK_RECORD
  5
D8
330
1
100
AcDbSymbolTableRecord
100
AcDbBlockTableRecord
  2
block 8
340
0
102
{BLKREFS
331
D9
102
}
 70
     0
280
     1
281
     0
  0
ENDTAB
  0
ENDSEC
  0
SECTION
  2
BLOCKS
  0
BLOCK
  5
20
330
1F
100
AcDbEntity
  8
0
100
AcDbBlockBegin
  2
*Model_Space
 70
     0
 10
0.0
 20
0.0
 30
0.0
  3
*Model_Space
  1

  0
ENDBLK
  5
21
330
1F
100
AcDbEntity
  8
0
100
AcDbBlockEnd
  0
BLOCK
  5
1C
330
1B
100
AcDbEntity
 67
     1
  8
0
100
AcDbBlockBegin
  2
*Paper_Space
 70
     0
 10
0.0
 20
0.0
 30
0.0
  3
*Paper_Space
  1

  0
ENDBLK
  5
1D
330
1B
100
AcDbEntity
 67
     1
  8
0
100
AcDbBlockEnd
  0
BLOCK
  5
24
330
23
100
AcDbEntity
  8
0
100
AcDbBlockBegin
  2
*Paper_Space0
 70
     0
 10
0.0
 20
0.0
 30
0.0
  3
*Paper_Space0
  1

  0
ENDBLK
  5
25
330
23
100
AcDbEntity
  8
0
100
AcDbBlockEnd
  0
BLOCK
  5
45
330
43
100
AcDbEntity
  8
0
100
AcDbBlockBegin
  2
block 2
 70
     0
 10
0.0
 20
0.0
 30
0.0
  3
block 2
  1

  0
POLYLINE
  5
47
330
43
100
AcDbEntity
  8
_U+30EC_U+30A4_U+30E4_U+30FC 1
 62
   179
420
  2234388
370
    25
100
AcDb2dPolyline
 66
     1
 10
0.0
 20
0.0
 30
0.0
  0
VERTEX
  5
48
330
47
100
AcDbEntity
  8
_U+30EC_U+30A4_U+30E4_U+30FC 1
 62
   179
420
  2234388
370
    25
100
AcDbVertex
100
AcDb2dVertex
 10
81.62085180656747
 20
-128.0321571902142
 30
0.0
  0
VERTEX
  5
49
330
47
100
AcDbEntity
  8
_U+30EC_U+30A4_U+30E4_U+30FC 1
 62
   179
420
  2234388
370
    25
100
AcDbVertex
100
AcDb2dVertex
 10
88.62095275562248
 20
-128.0321571902142
 30
0.0
  0
SEQEND
  5
4A
330
47
100
AcDbEntity
  8
_U+30EC_U+30A4_U+30E4_U+30FC 1
 62
   179
420
  2234388
370
    25
  0
POLYLINE
  5
4B
330
43
100
AcDbEntity
  8
_U+30EC_U+30A4_U+30E4_U+30FC 1
 62
   179
420
  2234388
370
    25
100
AcDb2dPolyline
 66
     1
 10
0.0
 20
0.0
 30
0.0
  0
VERTEX
  5
4C
330
4B
100
AcDbEntity
  8
_U+30EC_U+30A4_U+30E4_U+30FC 1
 62
   179
420
  2234388
370
    25
100
AcDbVertex
100
AcDb2dVertex
 10
80.62107960985158
 20
-127.0322085793531
 30
0.0
  0
VERTEX
  5
4D
330
4B
100
AcDbEntity
  8
_U+30EC_U+30A4_U+30E4_U+30FC 1
 62
   179
420
  2234388
370
    25
100
AcDbVertex
100
AcDb2dVertex
 10
82.62129428104407
 20
-127.0322085793531
 30
0.0
  0
SEQEND
  5
4E
330
4B
100
AcDbEntity
  8
_U+30EC_U+30A4_U+30E4_U+30FC 1
 62
   179
420
  2234388
370
    25
  0
POLYLINE
  5
4F
330
43
100
AcDbEntity
  8
_U+30EC_U+30A4_U+30E4_U+30FC 1
 62
   179
420
  2234388
370
    25
100
AcDb2dPolyline
 66
     1
 10
0.0
 20
0.0
 30
0.0
  0
VERTEX
  5
50
330
4F
100
AcDbEntity
  8
_U+30EC_U+30A4_U+30E4_U+30FC 1
 62
   179
420
  2234388
370
    25
100
AcDbVertex
100
AcDb2dVertex
 10
81.62085180656747
 20
-130.5326108007
 30
0.0
  0
VERTEX
  5
51
330
4F
100
AcDbEntity
  8
_U+30EC_U+30A4_U+30E4_U+30FC 1
 62
   179
420
  2234388
370
    25
100
AcDbVertex
100
AcDb2dVertex
 10
87.7551985945117
 20
-130.5326108007
 30
0.0
  0
SEQEND
  5
52
330
4F
100
AcDbEntity
  8
_U+30EC_U+30A4_U+30E4_U+30FC 1
 62
   179
420
  2234388
370
    25
  0
POLYLINE
  5
53
330
43
100
AcDbEntity
  8
_U+30EC_U+30A4_U+30E4_U+30FC 1
 62
   179
420
  2234388
370
    25
100
AcDb2dPolyline
 66
     1
 10
0.0
 20
0.0
 30
0.0
  0
VERTEX
  5
54
330
53
100
AcDbEntity
  8
_U+30EC_U+30A4_U+30E4_U+30FC 1
 62
   179
420
  2234388
370
    25
100
AcDbVertex
100
AcDb2dVertex
 10
81.42103847833181
 20
-131.5323830226725
 30
0.0
  0
VERTEX
  5
55
330
53
100
AcDbEntity
  8
_U+30EC_U+30A4_U+30E4_U+30FC 1
 62
   179
420
  2234388
370
    25
100
AcDbVertex
100
AcDb2dVertex
 10
98.62103609507886
 20
-131.5323830226725
 30
0.0
  0
SEQEND
  5
56
330
53
100
AcDbEntity
  8
_U+30EC_U+30A4_U+30E4_U+30FC 1
 62
   179
420
  2234388
370
    25
  0
POLYLINE
  5
57
330
43
100
AcDbEntity
  8
_U+30EC_U+30A4_U+30E4_U+30FC 1
 62
   179
420
  2234388
370
    25
100
AcDb2dPolyline
 66
     1
 10
0.0
 20
0.0
 30
0.0
  0
VERTEX
  5
58
330
57
100
AcDbEntity
  8
_U+30EC_U+30A4_U+30E4_U+30FC 1
 62
   179
420
  2234388
370
    25
100
AcDbVertex
100
AcDb2dVertex
 10
88.62095275562248
 20
-127.4321880236974
 30
0.0
  0
VERTEX
  5
59
330
57
100
AcDbEntity
  8
_U+30EC_U+30A4_U+30E4_U+30FC 1
 62
   179
420
  2234388
370
    25
100
AcDbVertex
100
AcDb2dVertex
 10
88.62095275562248
 20
-128.0321571902142
 30
0.0
  0
SEQEND
  5
5A
330
57
100
AcDbEntity
  8
_U+30EC_U+30A4_U+30E4_U+30FC 1
 62
   179
420
  2234388
370
    25
  0
POLYLINE
  5
5B
330
43
100
AcDbEntity
  8
_U+30EC_U+30A4_U+30E4_U+30FC 1
 62
   179
420
  2234388
370
    25
100
AcDb2dPolyline
 66
     1
 10
0.0
 20
0.0
 30
0.0
  0
VERTEX
  5
5C
330
5B
100
AcDbEntity
  8
_U+30EC_U+30A4_U+30E4_U+30FC 1
 62
   179
420
  2234388
370
    25
100
AcDbVertex
100
AcDb2dVertex
 10
80.62107960985158
 20
-127.0322085793531
 30
0.0
  0
VERTEX
  5
5D
330
5B
100
AcDbEntity
  8
_U+30EC_U+30A4_U+30E4_U+30FC 1
 62
   179
420
  2234388
370
    25
100
AcDbVertex
100
AcDb2dVertex
 10
80.62107960985158
 20
-130.7324241339833
 30
0.0
  0
SEQEND
  5
5E
330
5B
100
AcDbEntity
  8
_U+30EC_U+30A4_U+30E4_U+30FC 1
 62
   179
420
  2234388
370
    25
  0
POLYLINE
  5
5F
330
43
100
AcDbEntity
  8
_U+30EC_U+30A4_U+30E4_U+30FC 1
 62
   179
420
  2234388
370
    25
100
AcDb2dPolyline
 66
     1
 10
0.0
 20
0.0
 30
0.0
  0
VERTEX
  5
60
330
5F
100
AcDbEntity
  8
_U+30EC_U+30A4_U+30E4_U+30FC 1
 62
   179
420
  2234388
370
    25
100
AcDbVertex
100
AcDb2dVertex
 10
81.62085180656747
 20
-128.0321571902142
 30
0.0
  0
VERTEX
  5
61
330
5F
100
AcDbEntity
  8
_U+30EC_U+30A4_U+30E4_U+30FC 1
 62
   179
420
  2234388
370
    25
100
AcDbVertex
100
AcDb2dVertex
 10
81.62085180656747
 20
-130.5326108007
 30
0.0
  0
SEQEND
  5
62
330
5F
100
AcDbEntity
  8
_U+30EC_U+30A4_U+30E4_U+30FC 1
 62
   179
420
  2234388
370
    25
  0
POLYLINE
  5
63
330
43
100
AcDbEntity
  8
_U+30EC_U+30A4_U+30E4_U+30FC 1
 62
   179
420
  2234388
370
    25
100
AcDb2dPolyline
 66
     1
 10
0.0
 20
0.0
 30
0.0
  0
VERTEX
  5
64
330
63
100
AcDbEntity
  8
_U+30EC_U+30A4_U+30E4_U+30FC 1
 62
   179
420
  2234388
370
    25
100
AcDbVertex
100
AcDb2dVertex
 10
86.61106973481196
 20
-127.231351634859
 30
0.0
  0
VERTEX
  5
65
330
63
100
AcDbEntity
  8
_U+30EC_U+30A4_U+30E4_U+30FC 1
 62
   179
420
  2234388
370
    25
100
AcDbVertex
100
AcDb2dVertex
 10
88.62095275562248
 20
-127.4321880236974
 30
0.0
  0
SEQEND
  5
66
330
63
100
AcDbEntity
  8
_U+30EC_U+30A4_U+30E4_U+30FC 1
 62
   179
420
  2234388
370
    25
  0
POLYLINE
  5
67
330
43
100
AcDbEntity
  8
_U+30EC_U+30A4_U+30E4_U+30FC 1
 62
   179
420
  2234388
370
    25
100
AcDb2dPolyline
 66
     1
 10
0.0
 20
0.0
 30
0.0
  0
VERTEX
  5
68
330
67
100
AcDbEntity
  8
_U+30EC_U+30A4_U+30E4_U+30FC 1
 62
   179
420
  2234388
370
    25
100
AcDbVertex
100
AcDb2dVertex
 10
88.62095275562248
 20
-131.0321441339088
 30
0.0
  0
VERTEX
  5
69
330
67
100
AcDbEntity
  8
_U+30EC_U+30A4_U+30E4_U+30FC 1
 62
   179
420
  2234388
370
    25
100
AcDbVertex
100
AcDb2dVertex
 10
98.12114999672092
 20
-131.0321441339088
 30
0.0
  0
SEQEND
  5
6A
330
67
100
AcDbEntity
  8
_U+30EC_U+30A4_U+30E4_U+30FC 1
 62
   179
420
  2234388
370
    25
  0
POLYLINE
  5
6B
330
43
100
AcDbEntity
  8
_U+30EC_U+30A4_U+30E4_U+30FC 1
 62
   179
420
  2234388
370
    25
100
AcDb2dPolyline
 66
     1
 10
0.0
 20
0.0
 30
0.0
  0
VERTEX
  5
6C
330
6B
100
AcDbEntity
  8
_U+30EC_U+30A4_U+30E4_U+30FC 1
 62
   179
420
  2234388
370
    25
100
AcDbVertex
100
AcDb2dVertex
 10
81.62085180656747
 20
-128.0321571902142
 30
0.0
  0
VERTEX
  5
6D
330
6B
100
AcDbEntity
  8
_U+30EC_U+30A4_U+30E4_U+30FC 1
 62
   179
420
  2234388
370
    25
100
AcDbVertex
100
AcDb2dVertex
 10
87.7551985945117
 20
-128.0321571902142
 30
0.0
  0
SEQEND
  5
6E
330
6B
100
AcDbEntity
  8
_U+30EC_U+30A4_U+30E4_U+30FC 1
 62
   179
420
  2234388
370
    25
  0
SPLINE
  5
6F
330
43
100
AcDbEntity
  8
_U+30EC_U+30A4_U+30E4_U+30FC 1
 62
   179
420
  2234388
370
    25
100
AcDbSpline
210
0.0
220
0.0
230
1.0
 70
     8
 71
     3
 72
     8
 73
     4
 74
     0
 42
0.0000000001
 43
0.0000000001
 12
1.0
 22
0.0
 32
0.0
 13
1.0
 23
0.0
 33
0.0
 40
0.0
 40
0.0
 40
0.0
 40
0.0
 40
1.0
 40
1.0
 40
1.0
 40
1.0
 10
80.62107960985158
 20
-130.7324241339833
 30
0.0
 10
80.62107960985158
 20
-131.1740666338733
 30
0.0
 10
80.97939598959904
 20
-131.5323830226725
 30
0.0
 10
81.42103847833181
 20
-131.5323830226725
 30
0.0
  0
SPLINE
  5
70
330
43
100
AcDbEntity
  8
_U+30EC_U+30A4_U+30E4_U+30FC 1
 62
   179
420
  2234388
370
    25
100
AcDbSpline
210
0.0
220
0.0
230
1.0
 70
     8
 71
     3
 72
     8
 73
     4
 74
     0
 42
0.0000000001
 43
0.0000000001
 12
1.0
 22
0.0
 32
0.0
 13
1.0
 23
0.0
 33
0.0
 40
0.0
 40
0.0
 40
0.0
 40
0.0
 40
1.0
 40
1.0
 40
1.0
 40
1.0
 10
98.62103609507886
 20
-131.5323830226725
 30
0.0
 10
98.62103609507886
 20
-131.2560874671861
 30
0.0
 10
98.3970927674588
 20
-131.0321441339088
 30
0.0
 10
98.12114999672092
 20
-131.0321441339088
 30
0.0
  0
SPLINE
  5
71
330
43
100
AcDbEntity
  8
_U+30EC_U+30A4_U+30E4_U+30FC 1
 62
   179
420
  2234388
370
    25
100
AcDbSpline
210
0.0
220
0.0
230
1.0
 70
     8
 71
     3
 72
     8
 73
     4
 74
     0
 42
0.0000000001
 43
0.0000000001
 12
1.0
 22
0.0
 32
0.0
 13
1.0
 23
0.0
 33
0.0
 40
0.0
 40
0.0
 40
0.0
 40
0.0
 40
1.0
 40
1.0
 40
1.0
 40
1.0
 10
88.62095275562248
 20
-131.0321441339088
 30
0.0
 10
88.44248024364435
 20
-130.7227580228749
 30
0.0
 10
88.11245664095284
 20
-130.5326108007
 30
0.0
 10
87.7551985945117
 20
-130.5326108007
 30
0.0
  0
SPLINE
  5
72
330
43
100
AcDbEntity
  8
_U+30EC_U+30A4_U+30E4_U+30FC 1
 62
   179
420
  2234388
370
    25
100
AcDbSpline
210
0.0
220
0.0
230
1.0
 70
     8
 71
     3
 72
     8
 73
     4
 74
     0
 42
0.0000000001
 43
0.0000000001
 12
1.0
 22
0.0
 32
0.0
 13
1.0
 23
0.0
 33
0.0
 40
0.0
 40
0.0
 40
0.0
 40
0.0
 40
1.0
 40
1.0
 40
1.0
 40
1.0
 10
86.61106973481196
 20
-127.231351634859
 30
0.0
 10
85.28504865753047
 20
-127.0987071904476
 30
0.0
 10
83.95352424705605
 20
-127.0322085793531
 30
0.0
 10
82.62129428104407
 20
-127.0322085793531
 30
0.0
  0
SPLINE
  5
73
330
43
100
AcDbEntity
  8
_U+30EC_U+30A4_U+30E4_U+30FC 1
 62
   179
420
  2234388
370
     9
100
AcDbSpline
210
0.0
220
0.0
230
1.0
 70
    11
 71
     3
 72
    17
 73
    13
 74
     0
 42
0.0000000001
 43
0.0000000001
 12
1.0
 22
0.0
 32
0.0
 13
1.0
 23
0.0
 33
0.0
 40
0.0
 40
0.0
 40
0.0
 40
0.0
 40
1.0
 40
1.0
 40
1.0
 40
2.0
 40
2.0
 40
2.0
 40
3.0
 40
3.0
 40
3.0
 40
4.0
 40
4.0
 40
4.0
 40
4.0
 10
80.7209862739694
 20
-123.0320966359088
 30
0.0
 10
80.7209862739694
 20
-122.9769927470335
 30
0.0
 10
80.67621877511152
 20
-122.9321899692668
 30
0.0
 10
80.62107960985158
 20
-122.9321899692668
 30
0.0
 10
80.56597775763636
 20
-122.9321899692668
 30
0.0
 10
80.52117497986964
 20
-122.9769927470335
 30
0.0
 10
80.52117497986964
 20
-123.0320966359088
 30
0.0
 10
80.52117497986964
 20
-123.0875885803393
 30
0.0
 10
80.56597775763636
 20
-123.1323560803282
 30
0.0
 10
80.62107960985158
 20
-123.1323560803282
 30
0.0
 10
80.67621877511152
 20
-123.1323560803282
 30
0.0
 10
80.7209862739694
 20
-123.0875885803393
 30
0.0
 10
80.7209862739694
 20
-123.0320966359088
 30
0.0
  0
SPLINE
  5
74
330
43
100
AcDbEntity
  8
_U+30EC_U+30A4_U+30E4_U+30FC 1
 62
   179
420
  2234388
370
     9
100
AcDbSpline
210
0.0
220
0.0
230
1.0
 70
    11
 71
     3
 72
    17
 73
    13
 74
     0
 42
0.0000000001
 43
0.0000000001
 12
1.0
 22
0.0
 32
0.0
 13
1.0
 23
0.0
 33
0.0
 40
0.0
 40
0.0
 40
0.0
 40
0.0
 40
1.0
 40
1.0
 40
1.0
 40
2.0
 40
2.0
 40
2.0
 40
3.0
 40
3.0
 40
3.0
 40
4.0
 40
4.0
 40
4.0
 40
4.0
 10
88.72120995875558
 20
-123.0320966359088
 30
0.0
 10
88.72120995875558
 20
-122.9769927470335
 30
0.0
 10
88.67640718212083
 20
-122.9321899692668
 30
0.0
 10
88.62095275562248
 20
-122.9321899692668
 30
0.0
 10
88.56581135160903
 20
-122.9321899692668
 30
0.0
 10
88.52104385275113
 20
-122.9769927470335
 30
0.0
 10
88.52104385275113
 20
-123.0320966359088
 30
0.0
 10
88.52104385275113
 20
-123.0875885803393
 30
0.0
 10
88.56581135160903
 20
-123.1323560803282
 30
0.0
 10
88.62095275562248
 20
-123.1323560803282
 30
0.0
 10
88.67640718212083
 20
-123.1323560803282
 30
0.0
 10
88.72120995875558
 20
-123.0875885803393
 30
0.0
 10
88.72120995875558
 20
-123.0320966359088
 30
0.0
  0
SPLINE
  5
75
330
43
100
AcDbEntity
  8
_U+30EC_U+30A4_U+30E4_U+30FC 1
 62
   179
420
  2234388
370
     9
100
AcDbSpline
210
0.0
220
0.0
230
1.0
 70
    11
 71
     3
 72
    17
 73
    13
 74
     0
 42
0.0000000001
 43
0.0000000001
 12
1.0
 22
0.0
 32
0.0
 13
1.0
 23
0.0
 33
0.0
 40
0.0
 40
0.0
 40
0.0
 40
0.0
 40
1.0
 40
1.0
 40
1.0
 40
2.0
 40
2.0
 40
2.0
 40
3.0
 40
3.0
 40
3.0
 40
4.0
 40
4.0
 40
4.0
 40
4.0
 10
102.2459687803769
 20
-128.0321571902142
 30
0.0
 10
102.2459687803769
 20
-127.9770180235614
 30
0.0
 10
102.2011660037421
 20
-127.9322505235725
 30
0.0
 10
102.1460621162591
 20
-127.9322505235725
 30
0.0
 10
102.0909229509991
 20
-127.9322505235725
 30
0.0
 10
102.0461201743644
 20
-127.9770180235614
 30
0.0
 10
102.0461201743644
 20
-128.0321571902142
 30
0.0
 10
102.0461201743644
 20
-128.0876138568669
 30
0.0
 10
102.0909229509991
 20
-128.1324166346336
 30
0.0
 10
102.1460621162591
 20
-128.1324166346336
 30
0.0
 10
102.2011660037421
 20
-128.1324166346336
 30
0.0
 10
102.2459687803769
 20
-128.0876138568669
 30
0.0
 10
102.2459687803769
 20
-128.0321571902142
 30
0.0
  0
SPLINE
  5
76
330
43
100
AcDbEntity
  8
_U+30EC_U+30A4_U+30E4_U+30FC 1
 62
   179
420
  2234388
370
     9
100
AcDbSpline
210
0.0
220
0.0
230
1.0
 70
    11
 71
     3
 72
    17
 73
    13
 74
     0
 42
0.0000000001
 43
0.0000000001
 12
1.0
 22
0.0
 32
0.0
 13
1.0
 23
0.0
 33
0.0
 40
0.0
 40
0.0
 40
0.0
 40
0.0
 40
1.0
 40
1.0
 40
1.0
 40
2.0
 40
2.0
 40
2.0
 40
3.0
 40
3.0
 40
3.0
 40
4.0
 40
4.0
 40
4.0
 40
4.0
 10
102.2459687803769
 20
-130.5326108007
 30
0.0
 10
102.2459687803769
 20
-130.4771188562698
 30
0.0
 10
102.2011660037421
 20
-130.4323513562806
 30
0.0
 10
102.1460621162591
 20
-130.4323513562806
 30
0.0
 10
102.0909229509991
 20
-130.4323513562806
 30
0.0
 10
102.0461201743644
 20
-130.4771188562698
 30
0.0
 10
102.0461201743644
 20
-130.5326108007
 30
0.0
 10
102.0461201743644
 20
-130.5877146895756
 30
0.0
 10
102.0909229509991
 20
-130.6325174673416
 30
0.0
 10
102.1460621162591
 20
-130.6325174673416
 30
0.0
 10
102.2011660037421
 20
-130.6325174673416
 30
0.0
 10
102.2459687803769
 20
-130.5877146895756
 30
0.0
 10
102.2459687803769
 20
-130.5326108007
 30
0.0
  0
SPLINE
  5
77
330
43
100
AcDbEntity
  8
_U+30EC_U+30A4_U+30E4_U+30FC 1
 62
   179
420
  2234388
370
     9
100
AcDbSpline
210
0.0
220
0.0
230
1.0
 70
    11
 71
     3
 72
    17
 73
    13
 74
     0
 42
0.0000000001
 43
0.0000000001
 12
1.0
 22
0.0
 32
0.0
 13
1.0
 23
0.0
 33
0.0
 40
0.0
 40
0.0
 40
0.0
 40
0.0
 40
1.0
 40
1.0
 40
1.0
 40
2.0
 40
2.0
 40
2.0
 40
3.0
 40
3.0
 40
3.0
 40
4.0
 40
4.0
 40
4.0
 40
4.0
 10
80.7209862739694
 20
-135.532459688339
 30
0.0
 10
80.7209862739694
 20
-135.4770030216864
 30
0.0
 10
80.67621877511152
 20
-135.4322002439197
 30
0.0
 10
80.62107960985158
 20
-135.4322002439197
 30
0.0
 10
80.56597775763636
 20
-135.4322002439197
 30
0.0
 10
80.52117497986964
 20
-135.4770030216864
 30
0.0
 10
80.52117497986964
 20
-135.532459688339
 30
0.0
 10
80.52117497986964
 20
-135.5875988549921
 30
0.0
 10
80.56597775763636
 20
-135.6323663549807
 30
0.0
 10
80.62107960985158
 20
-135.6323663549807
 30
0.0
 10
80.67621877511152
 20
-135.6323663549807
 30
0.0
 10
80.7209862739694
 20
-135.5875988549921
 30
0.0
 10
80.7209862739694
 20
-135.532459688339
 30
0.0
  0
SPLINE
  5
78
330
43
100
AcDbEntity
  8
_U+30EC_U+30A4_U+30E4_U+30FC 1
 62
   179
420
  2234388
370
     9
100
AcDbSpline
210
0.0
220
0.0
230
1.0
 70
    11
 71
     3
 72
    17
 73
    13
 74
     0
 42
0.0000000001
 43
0.0000000001
 12
1.0
 22
0.0
 32
0.0
 13
1.0
 23
0.0
 33
0.0
 40
0.0
 40
0.0
 40
0.0
 40
0.0
 40
1.0
 40
1.0
 40
1.0
 40
2.0
 40
2.0
 40
2.0
 40
3.0
 40
3.0
 40
3.0
 40
4.0
 40
4.0
 40
4.0
 40
4.0
 10
98.7209427591967
 20
-135.532459688339
 30
0.0
 10
98.7209427591967
 20
-135.4770030216864
 30
0.0
 10
98.67613998256193
 20
-135.4322002439197
 30
0.0
 10
98.62103609507886
 20
-135.4322002439197
 30
0.0
 10
98.56589692981892
 20
-135.4322002439197
 30
0.0
 10
98.52112943096104
 20
-135.4770030216864
 30
0.0
 10
98.52112943096104
 20
-135.532459688339
 30
0.0
 10
98.52112943096104
 20
-135.5875988549921
 30
0.0
 10
98.56589692981892
 20
-135.6323663549807
 30
0.0
 10
98.62103609507886
 20
-135.6323663549807
 30
0.0
 10
98.67613998256193
 20
-135.6323663549807
 30
0.0
 10
98.7209427591967
 20
-135.5875988549921
 30
0.0
 10
98.7209427591967
 20
-135.532459688339
 30
0.0
  0
POLYLINE
  5
79
330
43
100
AcDbEntity
  8
_U+30EC_U+30A4_U+30E4_U+30FC 1
 62
   179
420
  2234388
370
     9
100
AcDb2dPolyline
 66
     1
 10
0.0
 20
0.0
 30
0.0
  0
VERTEX
  5
7A
330
79
100
AcDbEntity
  8
_U+30EC_U+30A4_U+30E4_U+30FC 1
 62
   179
420
  2234388
370
     9
100
AcDbVertex
100
AcDb2dVertex
 10
80.62107960985158
 20
-123.0320966359088
 30
0.0
  0
VERTEX
  5
7B
330
79
100
AcDbEntity
  8
_U+30EC_U+30A4_U+30E4_U+30FC 1
 62
   179
420
  2234388
370
     9
100
AcDbVertex
100
AcDb2dVertex
 10
88.62095275562248
 20
-123.0320966359088
 30
0.0
  0
SEQEND
  5
7C
330
79
100
AcDbEntity
  8
_U+30EC_U+30A4_U+30E4_U+30FC 1
 62
   179
420
  2234388
370
     9
  0
POLYLINE
  5
7D
330
43
100
AcDbEntity
  8
_U+30EC_U+30A4_U+30E4_U+30FC 1
 62
   179
420
  2234388
370
     9
100
AcDb2dPolyline
 66
     1
 10
0.0
 20
0.0
 30
0.0
  0
VERTEX
  5
7E
330
7D
100
AcDbEntity
  8
_U+30EC_U+30A4_U+30E4_U+30FC 1
 62
   179
420
  2234388
370
     9
100
AcDbVertex
100
AcDb2dVertex
 10
80.62107960985158
 20
-124.4921380244325
 30
0.0
  0
VERTEX
  5
7F
330
7D
100
AcDbEntity
  8
_U+30EC_U+30A4_U+30E4_U+30FC 1
 62
   179
420
  2234388
370
     9
100
AcDbVertex
100
AcDb2dVertex
 10
80.62107960985158
 20
-122.0316541361588
 30
0.0
  0
SEQEND
  5
80
330
7D
100
AcDbEntity
  8
_U+30EC_U+30A4_U+30E4_U+30FC 1
 62
   179
420
  2234388
370
     9
  0
POLYLINE
  5
81
330
43
100
AcDbEntity
  8
_U+30EC_U+30A4_U+30E4_U+30FC 1
 62
   179
420
  2234388
370
     9
100
AcDb2dPolyline
 66
     1
 10
0.0
 20
0.0
 30
0.0
  0
VERTEX
  5
82
330
81
100
AcDbEntity
  8
_U+30EC_U+30A4_U+30E4_U+30FC 1
 62
   179
420
  2234388
370
     9
100
AcDbVertex
100
AcDb2dVertex
 10
88.62095275562248
 20
-124.8921174687771
 30
0.0
  0
VERTEX
  5
83
330
81
100
AcDbEntity
  8
_U+30EC_U+30A4_U+30E4_U+30FC 1
 62
   179
420
  2234388
370
     9
100
AcDbVertex
100
AcDb2dVertex
 10
88.62095275562248
 20
-122.0316541361588
 30
0.0
  0
SEQEND
  5
84
330
81
100
AcDbEntity
  8
_U+30EC_U+30A4_U+30E4_U+30FC 1
 62
   179
420
  2234388
370
     9
  0
INSERT
  5
86
330
43
100
AcDbEntity
  8
_U+30EC_U+30A4_U+30E4_U+30FC 1
100
AcDbBlockReference
  2
block 3
 10
0.0
 20
0.0
 30
0.0
  0
POLYLINE
  5
8D
330
43
100
AcDbEntity
  8
_U+30EC_U+30A4_U+30E4_U+30FC 1
 62
   179
420
  2234388
370
     9
100
AcDb2dPolyline
 66
     1
 10
0.0
 20
0.0
 30
0.0
  0
VERTEX
  5
8E
330
8D
100
AcDbEntity
  8
_U+30EC_U+30A4_U+30E4_U+30FC 1
 62
   179
420
  2234388
370
     9
100
AcDbVertex
100
AcDb2dVertex
 10
80.62107960985158
 20
-135.532459688339
 30
0.0
  0
VERTEX
  5
8F
330
8D
100
AcDbEntity
  8
_U+30EC_U+30A4_U+30E4_U+30FC 1
 62
   179
420
  2234388
370
     9
100
AcDbVertex
100
AcDb2dVertex
 10
98.62103609507886
 20
-135.532459688339
 30
0.0
  0
SEQEND
  5
90
330
8D
100
AcDbEntity
  8
_U+30EC_U+30A4_U+30E4_U+30FC 1
 62
   179
420
  2234388
370
     9
  0
POLYLINE
  5
91
330
43
100
AcDbEntity
  8
_U+30EC_U+30A4_U+30E4_U+30FC 1
 62
   179
420
  2234388
370
     9
100
AcDb2dPolyline
 66
     1
 10
0.0
 20
0.0
 30
0.0
  0
VERTEX
  5
92
330
91
100
AcDbEntity
  8
_U+30EC_U+30A4_U+30E4_U+30FC 1
 62
   179
420
  2234388
370
     9
100
AcDbVertex
100
AcDb2dVertex
 10
80.62107960985158
 20
-133.2721419111265
 30
0.0
  0
VERTEX
  5
93
330
91
100
AcDbEntity
  8
_U+30EC_U+30A4_U+30E4_U+30FC 1
 62
   179
420
  2234388
370
     9
100
AcDbVertex
100
AcDb2dVertex
 10
80.62107960985158
 20
-136.5322319103116
 30
0.0
  0
SEQEND
  5
94
330
91
100
AcDbEntity
  8
_U+30EC_U+30A4_U+30E4_U+30FC 1
 62
   179
420
  2234388
370
     9
  0
POLYLINE
  5
95
330
43
100
AcDbEntity
  8
_U+30EC_U+30A4_U+30E4_U+30FC 1
 62
   179
420
  2234388
370
     9
100
AcDb2dPolyline
 66
     1
 10
0.0
 20
0.0
 30
0.0
  0
VERTEX
  5
96
330
95
100
AcDbEntity
  8
_U+30EC_U+30A4_U+30E4_U+30FC 1
 62
   179
420
  2234388
370
     9
100
AcDbVertex
100
AcDb2dVertex
 10
98.62103609507886
 20
-134.0724535775929
 30
0.0
  0
VERTEX
  5
97
330
95
100
AcDbEntity
  8
_U+30EC_U+30A4_U+30E4_U+30FC 1
 62
   179
420
  2234388
370
     9
100
AcDbVertex
100
AcDb2dVertex
 10
98.62103609507886
 20
-136.5322319103116
 30
0.0
  0
SEQEND
  5
98
330
95
100
AcDbEntity
  8
_U+30EC_U+30A4_U+30E4_U+30FC 1
 62
   179
420
  2234388
370
     9
  0
INSERT
  5
9A
330
43
100
AcDbEntity
  8
_U+30EC_U+30A4_U+30E4_U+30FC 1
100
AcDbBlockReference
  2
block 4
 10
0.0
 20
0.0
 30
0.0
  0
POLYLINE
  5
A3
330
43
100
AcDbEntity
  8
_U+30EC_U+30A4_U+30E4_U+30FC 1
 62
   179
420
  2234388
370
     9
100
AcDb2dPolyline
 66
     1
 10
0.0
 20
0.0
 30
0.0
  0
VERTEX
  5
A4
330
A3
100
AcDbEntity
  8
_U+30EC_U+30A4_U+30E4_U+30FC 1
 62
   179
420
  2234388
370
     9
100
AcDbVertex
100
AcDb2dVertex
 10
102.1460621162591
 20
-128.0321571902142
 30
0.0
  0
VERTEX
  5
A5
330
A3
100
AcDbEntity
  8
_U+30EC_U+30A4_U+30E4_U+30FC 1
 62
   179
420
  2234388
370
     9
100
AcDbVertex
100
AcDb2dVertex
 10
102.1460621162591
 20
-122.7744277470841
 30
0.0
  0
SEQEND
  5
A6
330
A3
100
AcDbEntity
  8
_U+30EC_U+30A4_U+30E4_U+30FC 1
 62
   179
420
  2234388
370
     9
  0
POLYLINE
  5
A7
330
43
100
AcDbEntity
  8
_U+30EC_U+30A4_U+30E4_U+30FC 1
 62
   179
420
  2234388
370
     9
100
AcDb2dPolyline
 66
     1
 10
0.0
 20
0.0
 30
0.0
  0
VERTEX
  5
A8
330
A7
100
AcDbEntity
  8
_U+30EC_U+30A4_U+30E4_U+30FC 1
 62
   179
420
  2234388
370
     9
100
AcDbVertex
100
AcDb2dVertex
 10
102.1460621162591
 20
-130.5326108007
 30
0.0
  0
VERTEX
  5
A9
330
A7
100
AcDbEntity
  8
_U+30EC_U+30A4_U+30E4_U+30FC 1
 62
   179
420
  2234388
370
     9
100
AcDbVertex
100
AcDb2dVertex
 10
102.1460621162591
 20
-128.0321571902142
 30
0.0
  0
SEQEND
  5
AA
330
A7
100
AcDbEntity
  8
_U+30EC_U+30A4_U+30E4_U+30FC 1
 62
   179
420
  2234388
370
     9
  0
POLYLINE
  5
AB
330
43
100
AcDbEntity
  8
_U+30EC_U+30A4_U+30E4_U+30FC 1
 62
   179
420
  2234388
370
     9
100
AcDb2dPolyline
 66
     1
 10
0.0
 20
0.0
 30
0.0
  0
VERTEX
  5
AC
330
AB
100
AcDbEntity
  8
_U+30EC_U+30A4_U+30E4_U+30FC 1
 62
   179
420
  2234388
370
     9
100
AcDbVertex
100
AcDb2dVertex
 10
101.0181257561462
 20
-128.0321571902142
 30
0.0
  0
VERTEX
  5
AD
330
AB
100
AcDbEntity
  8
_U+30EC_U+30A4_U+30E4_U+30FC 1
 62
   179
420
  2234388
370
     9
100
AcDbVertex
100
AcDb2dVertex
 10
103.1461518129669
 20
-128.0321571902142
 30
0.0
  0
SEQEND
  5
AE
330
AB
100
AcDbEntity
  8
_U+30EC_U+30A4_U+30E4_U+30FC 1
 62
   179
420
  2234388
370
     9
  0
INSERT
  5
B0
330
43
100
AcDbEntity
  8
_U+30EC_U+30A4_U+30E4_U+30FC 1
100
AcDbBlockReference
  2
block 5
 10
0.0
 20
0.0
 30
0.0
  0
ENDBLK
  5
46
330
43
100
AcDbEntity
  8
0
100
AcDbBlockEnd
  0
BLOCK
  5
87
330
85
100
AcDbEntity
  8
0
100
AcDbBlockBegin
  2
block 3
 70
     0
 10
0.0
 20
0.0
 30
0.0
  3
block 3
  1

  0
SPLINE
  5
89
330
85
100
AcDbEntity
  8
_U+30EC_U+30A4_U+30E4_U+30FC 1
370
     0
100
AcDbSpline
210
0.0
220
0.0
230
1.0
 70
    11
 71
     3
 72
    29
 73
    25
 74
     0
 42
0.0000000001
 43
0.0000000001
 12
1.0
 22
0.0
 32
0.0
 13
1.0
 23
0.0
 33
0.0
 40
0.0
 40
0.0
 40
0.0
 40
0.0
 40
1.0
 40
1.0
 40
1.0
 40
2.0
 40
2.0
 40
2.0
 40
3.0
 40
3.0
 40
3.0
 40
4.0
 40
4.0
 40
4.0
 40
5.0
 40
5.0
 40
5.0
 40
6.0
 40
6.0
 40
6.0
 40
7.0
 40
7.0
 40
7.0
 40
8.0
 40
8.0
 40
8.0
 40
8.0
 10
84.66373831433754
 20
-122.4862358634757
 30
0.0
 10
84.37882891770738
 20
-122.4862358634757
 30
0.0
 10
84.10752764824396
 20
-122.3486042988399
 30
0.0
 10
84.10752764824396
 20
-121.9996161261841
 30
0.0
 10
84.10752764824396
 20
-121.7436455316301
 30
0.0
 10
84.25893959482069
 20
-121.6483886414629
 30
0.0
 10
84.37211098151114
 20
-121.5870659418255
 30
0.0
 10
84.23861353145772
 20
-121.5278102994792
 30
0.0
 10
84.15730927800581
 20
-121.4136053841431
 30
0.0
 10
84.15730927800581
 20
-121.2528916797562
 30
0.0
 10
84.15730927800581
 20
-120.977800805259
 30
0.0
 10
84.36969941467147
 20
-120.8424085526887
 30
0.0
 10
84.66373831433754
 20
-120.8424085526887
 30
0.0
 10
84.96673446226526
 20
-120.8424085526887
 30
0.0
 10
85.17016735066927
 20
-120.9862412891979
 30
0.0
 10
85.17016735066927
 20
-121.2528916797562
 30
0.0
 10
85.17016735066927
 20
-121.4136053841431
 30
0.0
 10
85.0864515303777
 20
-121.5278102994792
 30
0.0
 10
84.95312633509853
 20
-121.5870659418255
 30
0.0
 10
85.04803871571715
 20
-121.6378811002329
 30
0.0
 10
85.21753741359146
 20
-121.7331379904001
 30
0.0
 10
85.21753741359146
 20
-121.9953097568276
 30
0.0
 10
85.21753741359146
 20
-122.3697916360742
 30
0.0
 10
84.91919214456881
 20
-122.4862358634757
 30
0.0
 10
84.66373831433754
 20
-122.4862358634757
 30
0.0
  0
SPLINE
  5
8A
330
85
100
AcDbEntity
  8
_U+30EC_U+30A4_U+30E4_U+30FC 1
370
     0
100
AcDbSpline
210
0.0
220
0.0
230
1.0
 70
    11
 71
     3
 72
    17
 73
    13
 74
     0
 42
0.0000000001
 43
0.0000000001
 12
1.0
 22
0.0
 32
0.0
 13
1.0
 23
0.0
 33
0.0
 40
0.0
 40
0.0
 40
0.0
 40
0.0
 40
1.0
 40
1.0
 40
1.0
 40
2.0
 40
2.0
 40
2.0
 40
3.0
 40
3.0
 40
3.0
 40
4.0
 40
4.0
 40
4.0
 40
4.0
 10
84.66373831433754
 20
-121.695069685288
 30
0.0
 10
84.50991480092114
 20
-121.695069685288
 30
0.0
 10
84.34713403924309
 20
-121.7817138367421
 30
0.0
 10
84.34713403924309
 20
-121.9848022155976
 30
0.0
 10
84.34713403924309
 20
-122.1899576517442
 30
0.0
 10
84.48287080136193
 20
-122.2915879685591
 30
0.0
 10
84.66373831433754
 20
-122.2915879685591
 30
0.0
 10
84.86269257861072
 20
-122.2915879685591
 30
0.0
 10
84.98017033465774
 20
-122.1689425692842
 30
0.0
 10
84.98017033465774
 20
-121.9911756422453
 30
0.0
 10
84.98017033465774
 20
-121.7689669834466
 30
0.0
 10
84.80619301265263
 20
-121.695069685288
 30
0.0
 10
84.66373831433754
 20
-121.695069685288
 30
0.0
  0
SPLINE
  5
8B
330
85
100
AcDbEntity
  8
_U+30EC_U+30A4_U+30E4_U+30FC 1
370
     0
100
AcDbSpline
210
0.0
220
0.0
230
1.0
 70
    11
 71
     3
 72
    17
 73
    13
 74
     0
 42
0.0000000001
 43
0.0000000001
 12
1.0
 22
0.0
 32
0.0
 13
1.0
 23
0.0
 33
0.0
 40
0.0
 40
0.0
 40
0.0
 40
0.0
 40
1.0
 40
1.0
 40
1.0
 40
2.0
 40
2.0
 40
2.0
 40
3.0
 40
3.0
 40
3.0
 40
4.0
 40
4.0
 40
4.0
 40
4.0
 10
84.66373831433754
 20
-121.0349893903142
 30
0.0
 10
84.48734942549275
 20
-121.0349893903142
 30
0.0
 10
84.39691566900494
 20
-121.1300740257071
 30
0.0
 10
84.39691566900494
 20
-121.2654662782774
 30
0.0
 10
84.39691566900494
 20
-121.3882839323265
 30
0.0
 10
84.47374129832602
 20
-121.5067952170191
 30
0.0
 10
84.66373831433754
 20
-121.5067952170191
 30
0.0
 10
84.85356307557481
 20
-121.5067952170191
 30
0.0
 10
84.93056095967015
 20
-121.3882839323265
 30
0.0
 10
84.93056095967015
 20
-121.2654662782774
 30
0.0
 10
84.93056095967015
 20
-121.1300740257071
 30
0.0
 10
84.83771563634266
 20
-121.0349893903142
 30
0.0
 10
84.66373831433754
 20
-121.0349893903142
 30
0.0
  0
HATCH
  5
8C
330
85
100
AcDbEntity
  8
_U+30EC_U+30A4_U+30E4_U+30FC 1
 62
   179
420
  2234388
100
AcDbHatch
 10
0.0
 20
0.0
 30
0.0
210
0.0
220
0.0
230
1.0
  2
SOLID
 70
     1
 71
     0
 91
        3
 92
        1
 93
        1
 72
     4
 94
        3
 73
     0
 74
     1
 95
       29
 96
       25
 40
0.0
 40
0.0
 40
0.0
 40
0.0
 40
1.0
 40
1.0
 40
1.0
 40
2.0
 40
2.0
 40
2.0
 40
3.0
 40
3.0
 40
3.0
 40
4.0
 40
4.0
 40
4.0
 40
5.0
 40
5.0
 40
5.0
 40
6.0
 40
6.0
 40
6.0
 40
7.0
 40
7.0
 40
7.0
 40
8.0
 40
8.0
 40
8.0
 40
8.0
 10
84.66373831433754
 20
-122.4862358634757
 10
84.37882891770738
 20
-122.4862358634757
 10
84.10752764824396
 20
-122.3486042988399
 10
84.10752764824396
 20
-121.9996161261841
 10
84.10752764824396
 20
-121.7436455316301
 10
84.25893959482069
 20
-121.6483886414629
 10
84.37211098151114
 20
-121.5870659418255
 10
84.23861353145772
 20
-121.5278102994792
 10
84.15730927800581
 20
-121.4136053841431
 10
84.15730927800581
 20
-121.2528916797562
 10
84.15730927800581
 20
-120.977800805259
 10
84.36969941467147
 20
-120.8424085526887
 10
84.66373831433754
 20
-120.8424085526887
 10
84.96673446226526
 20
-120.8424085526887
 10
85.17016735066927
 20
-120.9862412891979
 10
85.17016735066927
 20
-121.2528916797562
 10
85.17016735066927
 20
-121.4136053841431
 10
85.0864515303777
 20
-121.5278102994792
 10
84.95312633509853
 20
-121.5870659418255
 10
85.04803871571715
 20
-121.6378811002329
 10
85.21753741359146
 20
-121.7331379904001
 10
85.21753741359146
 20
-121.9953097568276
 10
85.21753741359146
 20
-122.3697916360742
 10
84.91919214456881
 20
-122.4862358634757
 10
84.66373831433754
 20
-122.4862358634757
 97
        0
 97
        0
 92
        1
 93
        1
 72
     4
 94
        3
 73
     0
 74
     1
 95
       17
 96
       13
 40
0.0
 40
0.0
 40
0.0
 40
0.0
 40
1.0
 40
1.0
 40
1.0
 40
2.0
 40
2.0
 40
2.0
 40
3.0
 40
3.0
 40
3.0
 40
4.0
 40
4.0
 40
4.0
 40
4.0
 10
84.66373831433754
 20
-121.695069685288
 10
84.50991480092114
 20
-121.695069685288
 10
84.34713403924309
 20
-121.7817138367421
 10
84.34713403924309
 20
-121.9848022155976
 10
84.34713403924309
 20
-122.1899576517442
 10
84.48287080136193
 20
-122.2915879685591
 10
84.66373831433754
 20
-122.2915879685591
 10
84.86269257861072
 20
-122.2915879685591
 10
84.98017033465774
 20
-122.1689425692842
 10
84.98017033465774
 20
-121.9911756422453
 10
84.98017033465774
 20
-121.7689669834466
 10
84.80619301265263
 20
-121.695069685288
 10
84.66373831433754
 20
-121.695069685288
 97
        0
 97
        0
 92
        1
 93
        1
 72
     4
 94
        3
 73
     0
 74
     1
 95
       17
 96
       13
 40
0.0
 40
0.0
 40
0.0
 40
0.0
 40
1.0
 40
1.0
 40
1.0
 40
2.0
 40
2.0
 40
2.0
 40
3.0
 40
3.0
 40
3.0
 40
4.0
 40
4.0
 40
4.0
 40
4.0
 10
84.66373831433754
 20
-121.0349893903142
 10
84.48734942549275
 20
-121.0349893903142
 10
84.39691566900494
 20
-121.1300740257071
 10
84.39691566900494
 20
-121.2654662782774
 10
84.39691566900494
 20
-121.3882839323265
 10
84.47374129832602
 20
-121.5067952170191
 10
84.66373831433754
 20
-121.5067952170191
 10
84.85356307557481
 20
-121.5067952170191
 10
84.93056095967015
 20
-121.3882839323265
 10
84.93056095967015
 20
-121.2654662782774
 10
84.93056095967015
 20
-121.1300740257071
 10
84.83771563634266
 20
-121.0349893903142
 10
84.66373831433754
 20
-121.0349893903142
 97
        0
 97
        0
 75
     2
 76
     1
 98
        0
  0
ENDBLK
  5
88
330
85
100
AcDbEntity
  8
0
100
AcDbBlockEnd
  0
BLOCK
  5
9B
330
99
100
AcDbEntity
  8
0
100
AcDbBlockBegin
  2
block 4
 70
     0
 10
0.0
 20
0.0
 30
0.0
  3
block 4
  1

  0
SPLINE
  5
9D
330
99
100
AcDbEntity
  8
_U+30EC_U+30A4_U+30E4_U+30FC 1
370
     0
100
AcDbSpline
210
0.0
220
0.0
230
1.0
 70
    11
 71
     3
 72
    26
 73
    22
 74
     0
 42
0.0000000001
 43
0.0000000001
 12
1.0
 22
0.0
 32
0.0
 13
1.0
 23
0.0
 33
0.0
 40
0.0
 40
0.0
 40
0.0
 40
0.0
 40
1.0
 40
1.0
 40
1.0
 40
2.0
 40
2.0
 40
2.0
 40
3.0
 40
3.0
 40
3.0
 40
4.0
 40
4.0
 40
4.0
 40
5.0
 40
5.0
 40
5.0
 40
6.0
 40
6.0
 40
6.0
 40
7.0
 40
7.0
 40
7.0
 40
7.0
 10
88.94478621908326
 20
-134.9361219280715
 30
0.0
 10
88.94478621908326
 20
-134.9361219280715
 30
0.0
 10
88.94478621908326
 20
-133.831968825049
 30
0.0
 10
88.94478621908326
 20
-133.831968825049
 30
0.0
 10
88.94478621908326
 20
-133.831968825049
 30
0.0
 10
88.5923529509422
 20
-133.831968825049
 30
0.0
 10
88.5923529509422
 20
-133.831968825049
 30
0.0
 10
88.5923529509422
 20
-133.831968825049
 30
0.0
 10
88.5923529509422
 20
-133.6838297191832
 30
0.0
 10
88.5923529509422
 20
-133.6838297191832
 30
0.0
 10
88.94719778592292
 20
-133.6690158085966
 30
0.0
 10
88.99680716091052
 20
-133.5060627921443
 30
0.0
 10
89.02850203937483
 20
-133.391685622034
 30
0.0
 10
89.02850203937483
 20
-133.391685622034
 30
0.0
 10
89.18456486485664
 20
-133.391685622034
 30
0.0
 10
89.18456486485664
 20
-133.391685622034
 30
0.0
 10
89.18456486485664
 20
-133.391685622034
 30
0.0
 10
89.18456486485664
 20
-134.9361219280715
 30
0.0
 10
89.18456486485664
 20
-134.9361219280715
 30
0.0
 10
89.18456486485664
 20
-134.9361219280715
 30
0.0
 10
88.94478621908326
 20
-134.9361219280715
 30
0.0
 10
88.94478621908326
 20
-134.9361219280715
 30
0.0
  0
HATCH
  5
9E
330
99
100
AcDbEntity
  8
_U+30EC_U+30A4_U+30E4_U+30FC 1
 62
   179
420
  2234388
100
AcDbHatch
 10
0.0
 20
0.0
 30
0.0
210
0.0
220
0.0
230
1.0
  2
SOLID
 70
     1
 71
     0
 91
        1
 92
        1
 93
        1
 72
     4
 94
        3
 73
     0
 74
     1
 95
       26
 96
       22
 40
0.0
 40
0.0
 40
0.0
 40
0.0
 40
1.0
 40
1.0
 40
1.0
 40
2.0
 40
2.0
 40
2.0
 40
3.0
 40
3.0
 40
3.0
 40
4.0
 40
4.0
 40
4.0
 40
5.0
 40
5.0
 40
5.0
 40
6.0
 40
6.0
 40
6.0
 40
7.0
 40
7.0
 40
7.0
 40
7.0
 10
88.94478621908326
 20
-134.9361219280715
 10
88.94478621908326
 20
-134.9361219280715
 10
88.94478621908326
 20
-133.831968825049
 10
88.94478621908326
 20
-133.831968825049
 10
88.94478621908326
 20
-133.831968825049
 10
88.5923529509422
 20
-133.831968825049
 10
88.5923529509422
 20
-133.831968825049
 10
88.5923529509422
 20
-133.831968825049
 10
88.5923529509422
 20
-133.6838297191832
 10
88.5923529509422
 20
-133.6838297191832
 10
88.94719778592292
 20
-133.6690158085966
 10
88.99680716091052
 20
-133.5060627921443
 10
89.02850203937483
 20
-133.391685622034
 10
89.02850203937483
 20
-133.391685622034
 10
89.18456486485664
 20
-133.391685622034
 10
89.18456486485664
 20
-133.391685622034
 10
89.18456486485664
 20
-133.391685622034
 10
89.18456486485664
 20
-134.9361219280715
 10
89.18456486485664
 20
-134.9361219280715
 10
89.18456486485664
 20
-134.9361219280715
 10
88.94478621908326
 20
-134.9361219280715
 10
88.94478621908326
 20
-134.9361219280715
 97
        0
 97
        0
 75
     2
 76
     1
 98
        0
  0
SPLINE
  5
9F
330
99
100
AcDbEntity
  8
_U+30EC_U+30A4_U+30E4_U+30FC 1
370
     0
100
AcDbSpline
210
0.0
220
0.0
230
1.0
 70
    11
 71
     3
 72
    29
 73
    25
 74
     0
 42
0.0000000001
 43
0.0000000001
 12
1.0
 22
0.0
 32
0.0
 13
1.0
 23
0.0
 33
0.0
 40
0.0
 40
0.0
 40
0.0
 40
0.0
 40
1.0
 40
1.0
 40
1.0
 40
2.0
 40
2.0
 40
2.0
 40
3.0
 40
3.0
 40
3.0
 40
4.0
 40
4.0
 40
4.0
 40
5.0
 40
5.0
 40
5.0
 40
6.0
 40
6.0
 40
6.0
 40
7.0
 40
7.0
 40
7.0
 40
8.0
 40
8.0
 40
8.0
 40
8.0
 10
90.25461152257525
 20
-134.9867648317047
 30
0.0
 10
89.96970212594508
 20
-134.9867648317047
 30
0.0
 10
89.69857311125591
 20
-134.8493055218432
 30
0.0
 10
89.69857311125591
 20
-134.5003173491874
 30
0.0
 10
89.69857311125591
 20
-134.2443467546334
 30
0.0
 10
89.85015731260691
 20
-134.1492621192405
 30
0.0
 10
89.96315644452311
 20
-134.087939419603
 30
0.0
 10
89.82983124924394
 20
-134.0286837772567
 30
0.0
 10
89.74818248624351
 20
-133.9143066071464
 30
0.0
 10
89.74818248624351
 20
-133.7534206479853
 30
0.0
 10
89.74818248624351
 20
-133.4785020282623
 30
0.0
 10
89.96074487768342
 20
-133.343109775692
 30
0.0
 10
90.25461152257525
 20
-133.343109775692
 30
0.0
 10
90.55777992527723
 20
-133.343109775692
 30
0.0
 10
90.76104055890697
 20
-133.4871147669755
 30
0.0
 10
90.76104055890697
 20
-133.7534206479853
 30
0.0
 10
90.76104055890697
 20
-133.9143066071464
 30
0.0
 10
90.67766924816392
 20
-134.0286837772567
 30
0.0
 10
90.54399954333623
 20
-134.087939419603
 30
0.0
 10
90.63908417872912
 20
-134.1385823232362
 30
0.0
 10
90.80858287660341
 20
-134.2336669586291
 30
0.0
 10
90.80858287660341
 20
-134.4961832346051
 30
0.0
 10
90.80858287660341
 20
-134.8706651138518
 30
0.0
 10
90.51023760758078
 20
-134.9867648317047
 30
0.0
 10
90.25461152257525
 20
-134.9867648317047
 30
0.0
  0
SPLINE
  5
A0
330
99
100
AcDbEntity
  8
_U+30EC_U+30A4_U+30E4_U+30FC 1
370
     0
100
AcDbSpline
210
0.0
220
0.0
230
1.0
 70
    11
 71
     3
 72
    17
 73
    13
 74
     0
 42
0.0000000001
 43
0.0000000001
 12
1.0
 22
0.0
 32
0.0
 13
1.0
 23
0.0
 33
0.0
 40
0.0
 40
0.0
 40
0.0
 40
0.0
 40
1.0
 40
1.0
 40
1.0
 40
2.0
 40
2.0
 40
2.0
 40
3.0
 40
3.0
 40
3.0
 40
4.0
 40
4.0
 40
4.0
 40
4.0
 10
90.25461152257525
 20
-134.1957709082913
 30
0.0
 10
90.1009602639331
 20
-134.1957709082913
 30
0.0
 10
89.93835175702931
 20
-134.2825873145196
 30
0.0
 10
89.93835175702931
 20
-134.4855034386009
 30
0.0
 10
89.93835175702931
 20
-134.6908311295217
 30
0.0
 10
90.07374400959962
 20
-134.7921169367881
 30
0.0
 10
90.25461152257525
 20
-134.7921169367881
 30
0.0
 10
90.45373804162269
 20
-134.7921169367881
 30
0.0
 10
90.5712157976697
 20
-134.6694715375132
 30
0.0
 10
90.5712157976697
 20
-134.4917046104743
 30
0.0
 10
90.5712157976697
 20
-134.2698404612242
 30
0.0
 10
90.39723847566458
 20
-134.1957709082913
 30
0.0
 10
90.25461152257525
 20
-134.1957709082913
 30
0.0
  0
SPLINE
  5
A1
330
99
100
AcDbEntity
  8
_U+30EC_U+30A4_U+30E4_U+30FC 1
370
     0
100
AcDbSpline
210
0.0
220
0.0
230
1.0
 70
    11
 71
     3
 72
    17
 73
    13
 74
     0
 42
0.0000000001
 43
0.0000000001
 12
1.0
 22
0.0
 32
0.0
 13
1.0
 23
0.0
 33
0.0
 40
0.0
 40
0.0
 40
0.0
 40
0.0
 40
1.0
 40
1.0
 40
1.0
 40
2.0
 40
2.0
 40
2.0
 40
3.0
 40
3.0
 40
3.0
 40
4.0
 40
4.0
 40
4.0
 40
4.0
 10
90.25461152257525
 20
-133.5356906133175
 30
0.0
 10
90.07856714327897
 20
-133.5356906133175
 30
0.0
 10
89.9879611320169
 20
-133.6307752487104
 30
0.0
 10
89.9879611320169
 20
-133.7661675012807
 30
0.0
 10
89.9879611320169
 20
-133.8888129005556
 30
0.0
 10
90.06478676133797
 20
-134.0073241852482
 30
0.0
 10
90.25461152257525
 20
-134.0073241852482
 30
0.0
 10
90.44478079336103
 20
-134.0073241852482
 30
0.0
 10
90.5216064226821
 20
-133.8888129005556
 30
0.0
 10
90.5216064226821
 20
-133.7661675012807
 30
0.0
 10
90.5216064226821
 20
-133.6307752487104
 30
0.0
 10
90.42893335412889
 20
-133.5356906133175
 30
0.0
 10
90.25461152257525
 20
-133.5356906133175
 30
0.0
  0
HATCH
  5
A2
330
99
100
AcDbEntity
  8
_U+30EC_U+30A4_U+30E4_U+30FC 1
 62
   179
420
  2234388
100
AcDbHatch
 10
0.0
 20
0.0
 30
0.0
210
0.0
220
0.0
230
1.0
  2
SOLID
 70
     1
 71
     0
 91
        3
 92
        1
 93
        1
 72
     4
 94
        3
 73
     0
 74
     1
 95
       29
 96
       25
 40
0.0
 40
0.0
 40
0.0
 40
0.0
 40
1.0
 40
1.0
 40
1.0
 40
2.0
 40
2.0
 40
2.0
 40
3.0
 40
3.0
 40
3.0
 40
4.0
 40
4.0
 40
4.0
 40
5.0
 40
5.0
 40
5.0
 40
6.0
 40
6.0
 40
6.0
 40
7.0
 40
7.0
 40
7.0
 40
8.0
 40
8.0
 40
8.0
 40
8.0
 10
90.25461152257525
 20
-134.9867648317047
 10
89.96970212594508
 20
-134.9867648317047
 10
89.69857311125591
 20
-134.8493055218432
 10
89.69857311125591
 20
-134.5003173491874
 10
89.69857311125591
 20
-134.2443467546334
 10
89.85015731260691
 20
-134.1492621192405
 10
89.96315644452311
 20
-134.087939419603
 10
89.82983124924394
 20
-134.0286837772567
 10
89.74818248624351
 20
-133.9143066071464
 10
89.74818248624351
 20
-133.7534206479853
 10
89.74818248624351
 20
-133.4785020282623
 10
89.96074487768342
 20
-133.343109775692
 10
90.25461152257525
 20
-133.343109775692
 10
90.55777992527723
 20
-133.343109775692
 10
90.76104055890697
 20
-133.4871147669755
 10
90.76104055890697
 20
-133.7534206479853
 10
90.76104055890697
 20
-133.9143066071464
 10
90.67766924816392
 20
-134.0286837772567
 10
90.54399954333623
 20
-134.087939419603
 10
90.63908417872912
 20
-134.1385823232362
 10
90.80858287660341
 20
-134.2336669586291
 10
90.80858287660341
 20
-134.4961832346051
 10
90.80858287660341
 20
-134.8706651138518
 10
90.51023760758078
 20
-134.9867648317047
 10
90.25461152257525
 20
-134.9867648317047
 97
        0
 97
        0
 92
        1
 93
        1
 72
     4
 94
        3
 73
     0
 74
     1
 95
       17
 96
       13
 40
0.0
 40
0.0
 40
0.0
 40
0.0
 40
1.0
 40
1.0
 40
1.0
 40
2.0
 40
2.0
 40
2.0
 40
3.0
 40
3.0
 40
3.0
 40
4.0
 40
4.0
 40
4.0
 40
4.0
 10
90.25461152257525
 20
-134.1957709082913
 10
90.1009602639331
 20
-134.1957709082913
 10
89.93835175702931
 20
-134.2825873145196
 10
89.93835175702931
 20
-134.4855034386009
 10
89.93835175702931
 20
-134.6908311295217
 10
90.07374400959962
 20
-134.7921169367881
 10
90.25461152257525
 20
-134.7921169367881
 10
90.45373804162269
 20
-134.7921169367881
 10
90.5712157976697
 20
-134.6694715375132
 10
90.5712157976697
 20
-134.4917046104743
 10
90.5712157976697
 20
-134.2698404612242
 10
90.39723847566458
 20
-134.1957709082913
 10
90.25461152257525
 20
-134.1957709082913
 97
        0
 97
        0
 92
        1
 93
        1
 72
     4
 94
        3
 73
     0
 74
     1
 95
       17
 96
       13
 40
0.0
 40
0.0
 40
0.0
 40
0.0
 40
1.0
 40
1.0
 40
1.0
 40
2.0
 40
2.0
 40
2.0
 40
3.0
 40
3.0
 40
3.0
 40
4.0
 40
4.0
 40
4.0
 40
4.0
 10
90.25461152257525
 20
-133.5356906133175
 10
90.07856714327897
 20
-133.5356906133175
 10
89.9879611320169
 20
-133.6307752487104
 10
89.9879611320169
 20
-133.7661675012807
 10
89.9879611320169
 20
-133.8888129005556
 10
90.06478676133797
 20
-134.0073241852482
 10
90.25461152257525
 20
-134.0073241852482
 10
90.44478079336103
 20
-134.0073241852482
 10
90.5216064226821
 20
-133.8888129005556
 10
90.5216064226821
 20
-133.7661675012807
 10
90.5216064226821
 20
-133.6307752487104
 10
90.42893335412889
 20
-133.5356906133175
 10
90.25461152257525
 20
-133.5356906133175
 97
        0
 97
        0
 75
     2
 76
     1
 98
        0
  0
ENDBLK
  5
9C
330
99
100
AcDbEntity
  8
0
100
AcDbBlockEnd
  0
BLOCK
  5
B1
330
AF
100
AcDbEntity
  8
0
100
AcDbBlockBegin
  2
block 5
 70
     0
 10
0.0
 20
0.0
 30
0.0
  3
block 5
  1

  0
SPLINE
  5
B3
330
AF
100
AcDbEntity
  8
_U+30EC_U+30A4_U+30E4_U+30FC 1
370
     0
100
AcDbSpline
210
0.0
220
0.0
230
1.0
 70
    11
 71
     3
 72
    44
 73
    40
 74
     0
 42
0.0000000001
 43
0.0000000001
 12
1.0
 22
0.0
 32
0.0
 13
1.0
 23
0.0
 33
0.0
 40
0.0
 40
0.0
 40
0.0
 40
0.0
 40
1.0
 40
1.0
 40
1.0
 40
2.0
 40
2.0
 40
2.0
 40
3.0
 40
3.0
 40
3.0
 40
4.0
 40
4.0
 40
4.0
 40
5.0
 40
5.0
 40
5.0
 40
6.0
 40
6.0
 40
6.0
 40
7.0
 40
7.0
 40
7.0
 40
8.0
 40
8.0
 40
8.0
 40
9.0
 40
9.0
 40
9.0
 40
10.0
 40
10.0
 40
10.0
 40
11.0
 40
11.0
 40
11.0
 40
12.0
 40
12.0
 40
12.0
 40
13.0
 40
13.0
 40
13.0
 40
13.0
 10
100.6150471753671
 20
-125.7070556326357
 30
0.0
 10
100.7738660772371
 20
-125.9399440874386
 30
0.0
 10
100.84793563017
 20
-126.0395073469624
 30
0.0
 10
100.9915961119049
 20
-126.0911837792411
 30
0.0
 10
100.9915961119049
 20
-126.0911837792411
 30
0.0
 10
100.9915961119049
 20
-125.2595377291018
 30
0.0
 10
100.9915961119049
 20
-125.2595377291018
 30
0.0
 10
100.9915961119049
 20
-125.2595377291018
 30
0.0
 10
101.1969238028258
 20
-125.2595377291018
 30
0.0
 10
101.1969238028258
 20
-125.2595377291018
 30
0.0
 10
101.1969238028258
 20
-125.2595377291018
 30
0.0
 10
101.1969238028258
 20
-126.358178679348
 30
0.0
 10
101.1969238028258
 20
-126.358178679348
 30
0.0
 10
100.8393228914568
 20
-126.324072234044
 30
0.0
 10
100.7611192239417
 20
-126.2541367956934
 30
0.0
 10
100.462773954919
 20
-125.8427923947546
 30
0.0
 10
100.2639919454201
 20
-125.5692518132257
 30
0.0
 10
100.1961235643607
 20
-125.4989718653267
 30
0.0
 10
100.0586642544992
 20
-125.4989718653267
 30
0.0
 10
99.94015296980663
 20
-125.4989718653267
 30
0.0
 10
99.80923934136715
 20
-125.5757974946477
 30
0.0
 10
99.80923934136715
 20
-125.7862928287965
 30
0.0
 10
99.80923934136715
 20
-126.0643120344562
 30
0.0
 10
100.0397162293304
 20
-126.0732692827178
 30
0.0
 10
100.1561604567318
 20
-126.0777479068486
 30
0.0
 10
100.1561604567318
 20
-126.0777479068486
 30
0.0
 10
100.1561604567318
 20
-126.317526552622
 30
0.0
 10
100.1561604567318
 20
-126.317526552622
 30
0.0
 10
100.0290364333261
 20
-126.3082247948118
 30
0.0
 10
99.91707083005547
 20
-126.297200489259
 30
0.0
 10
99.79855954536286
 20
-126.2110731021278
 30
0.0
 10
99.6376735862017
 20
-126.0935953460808
 30
0.0
 10
99.60391165044625
 20
-125.8948133365819
 30
0.0
 10
99.60391165044625
 20
-125.7704453895643
 30
0.0
 10
99.60391165044625
 20
-125.4741671778329
 30
0.0
 10
99.7878797493586
 20
-125.2526475381313
 30
0.0
 10
100.0607313117904
 20
-125.2526475381313
 30
0.0
 10
100.289485652011
 20
-125.2526475381313
 30
0.0
 10
100.3887044019862
 20
-125.3770154851488
 30
0.0
 10
100.6150471753671
 20
-125.7070556326357
 30
0.0
  0
HATCH
  5
B4
330
AF
100
AcDbEntity
  8
_U+30EC_U+30A4_U+30E4_U+30FC 1
 62
   179
420
  2234388
100
AcDbHatch
 10
0.0
 20
0.0
 30
0.0
210
0.0
220
0.0
230
1.0
  2
SOLID
 70
     1
 71
     0
 91
        1
 92
        1
 93
        1
 72
     4
 94
        3
 73
     0
 74
     1
 95
       44
 96
       40
 40
0.0
 40
0.0
 40
0.0
 40
0.0
 40
1.0
 40
1.0
 40
1.0
 40
2.0
 40
2.0
 40
2.0
 40
3.0
 40
3.0
 40
3.0
 40
4.0
 40
4.0
 40
4.0
 40
5.0
 40
5.0
 40
5.0
 40
6.0
 40
6.0
 40
6.0
 40
7.0
 40
7.0
 40
7.0
 40
8.0
 40
8.0
 40
8.0
 40
9.0
 40
9.0
 40
9.0
 40
10.0
 40
10.0
 40
10.0
 40
11.0
 40
11.0
 40
11.0
 40
12.0
 40
12.0
 40
12.0
 40
13.0
 40
13.0
 40
13.0
 40
13.0
 10
100.6150471753671
 20
-125.7070556326357
 10
100.7738660772371
 20
-125.9399440874386
 10
100.84793563017
 20
-126.0395073469624
 10
100.9915961119049
 20
-126.0911837792411
 10
100.9915961119049
 20
-126.0911837792411
 10
100.9915961119049
 20
-125.2595377291018
 10
100.9915961119049
 20
-125.2595377291018
 10
100.9915961119049
 20
-125.2595377291018
 10
101.1969238028258
 20
-125.2595377291018
 10
101.1969238028258
 20
-125.2595377291018
 10
101.1969238028258
 20
-125.2595377291018
 10
101.1969238028258
 20
-126.358178679348
 10
101.1969238028258
 20
-126.358178679348
 10
100.8393228914568
 20
-126.324072234044
 10
100.7611192239417
 20
-126.2541367956934
 10
100.462773954919
 20
-125.8427923947546
 10
100.2639919454201
 20
-125.5692518132257
 10
100.1961235643607
 20
-125.4989718653267
 10
100.0586642544992
 20
-125.4989718653267
 10
99.94015296980663
 20
-125.4989718653267
 10
99.80923934136715
 20
-125.5757974946477
 10
99.80923934136715
 20
-125.7862928287965
 10
99.80923934136715
 20
-126.0643120344562
 10
100.0397162293304
 20
-126.0732692827178
 10
100.1561604567318
 20
-126.0777479068486
 10
100.1561604567318
 20
-126.0777479068486
 10
100.1561604567318
 20
-126.317526552622
 10
100.1561604567318
 20
-126.317526552622
 10
100.0290364333261
 20
-126.3082247948118
 10
99.91707083005547
 20
-126.297200489259
 10
99.79855954536286
 20
-126.2110731021278
 10
99.6376735862017
 20
-126.0935953460808
 10
99.60391165044625
 20
-125.8948133365819
 10
99.60391165044625
 20
-125.7704453895643
 10
99.60391165044625
 20
-125.4741671778329
 10
99.7878797493586
 20
-125.2526475381313
 10
100.0607313117904
 20
-125.2526475381313
 10
100.289485652011
 20
-125.2526475381313
 10
100.3887044019862
 20
-125.3770154851488
 10
100.6150471753671
 20
-125.7070556326357
 97
        0
 97
        0
 75
     2
 76
     1
 98
        0
  0
POLYLINE
  5
B5
330
AF
100
AcDbEntity
  8
_U+30EC_U+30A4_U+30E4_U+30FC 1
370
     0
100
AcDb2dPolyline
 66
     1
 10
0.0
 20
0.0
 30
0.0
  0
VERTEX
  5
B6
330
B5
100
AcDbEntity
  8
_U+30EC_U+30A4_U+30E4_U+30FC 1
370
     0
100
AcDbVertex
100
AcDb2dVertex
 10
101.1969238028258
 20
-125.0190700642313
 30
0.0
  0
VERTEX
  5
B7
330
B5
100
AcDbEntity
  8
_U+30EC_U+30A4_U+30E4_U+30FC 1
370
     0
100
AcDbVertex
100
AcDb2dVertex
 10
100.945087322854
 20
-125.0190700642313
 30
0.0
  0
VERTEX
  5
B8
330
B5
100
AcDbEntity
  8
_U+30EC_U+30A4_U+30E4_U+30FC 1
370
     0
100
AcDbVertex
100
AcDb2dVertex
 10
100.945087322854
 20
-124.7500081068333
 30
0.0
  0
VERTEX
  5
B9
330
B5
100
AcDbEntity
  8
_U+30EC_U+30A4_U+30E4_U+30FC 1
370
     0
100
AcDbVertex
100
AcDb2dVertex
 10
101.1969238028258
 20
-124.7500081068333
 30
0.0
  0
VERTEX
  5
BA
330
B5
100
AcDbEntity
  8
_U+30EC_U+30A4_U+30E4_U+30FC 1
370
     0
100
AcDbVertex
100
AcDb2dVertex
 10
101.1969238028258
 20
-125.0190700642313
 30
0.0
  0
SEQEND
  5
BB
330
B5
100
AcDbEntity
  8
_U+30EC_U+30A4_U+30E4_U+30FC 1
370
     0
  0
HATCH
  5
BC
330
AF
100
AcDbEntity
  8
_U+30EC_U+30A4_U+30E4_U+30FC 1
 62
   179
420
  2234388
100
AcDbHatch
 10
0.0
 20
0.0
 30
0.0
210
0.0
220
0.0
230
1.0
  2
SOLID
 70
     1
 71
     0
 91
        1
 92
        1
 93
        4
 72
     1
 10
101.1969238028258
 20
-125.0190700642313
 11
100.945087322854
 21
-125.0190700642313
 72
     1
 10
100.945087322854
 20
-125.0190700642313
 11
100.945087322854
 21
-124.7500081068333
 72
     1
 10
100.945087322854
 20
-124.7500081068333
 11
101.1969238028258
 21
-124.7500081068333
 72
     1
 10
101.1969238028258
 20
-124.7500081068333
 11
101.1969238028258
 21
-125.0190700642313
 97
        0
 75
     2
 76
     1
 98
        0
  0
SPLINE
  5
BD
330
AF
100
AcDbEntity
  8
_U+30EC_U+30A4_U+30E4_U+30FC 1
370
     0
100
AcDbSpline
210
0.0
220
0.0
230
1.0
 70
    11
 71
     3
 72
    53
 73
    49
 74
     0
 42
0.0000000001
 43
0.0000000001
 12
1.0
 22
0.0
 32
0.0
 13
1.0
 23
0.0
 33
0.0
 40
0.0
 40
0.0
 40
0.0
 40
0.0
 40
1.0
 40
1.0
 40
1.0
 40
2.0
 40
2.0
 40
2.0
 40
3.0
 40
3.0
 40
3.0
 40
4.0
 40
4.0
 40
4.0
 40
5.0
 40
5.0
 40
5.0
 40
6.0
 40
6.0
 40
6.0
 40
7.0
 40
7.0
 40
7.0
 40
8.0
 40
8.0
 40
8.0
 40
9.0
 40
9.0
 40
9.0
 40
10.0
 40
10.0
 40
10.0
 40
11.0
 40
11.0
 40
11.0
 40
12.0
 40
12.0
 40
12.0
 40
13.0
 40
13.0
 40
13.0
 40
14.0
 40
14.0
 40
14.0
 40
15.0
 40
15.0
 40
15.0
 40
16.0
 40
16.0
 40
16.0
 40
16.0
 10
101.2475667064589
 20
-123.9831298518167
 30
0.0
 10
101.2475667064589
 20
-124.0668456721083
 30
0.0
 10
101.2306857385812
 20
-124.1750216703451
 30
0.0
 10
101.1672959816526
 20
-124.283886687679
 30
0.0
 10
101.0573974356732
 20
-124.4692328247855
 30
0.0
 10
100.9261392976851
 20
-124.4916259454396
 30
0.0
 10
100.8183078089968
 20
-124.5119520088026
 30
0.0
 10
100.8183078089968
 20
-124.5119520088026
 30
0.0
 10
100.8183078089968
 20
-124.2745849298689
 30
0.0
 10
100.8183078089968
 20
-124.2745849298689
 30
0.0
 10
101.0170898184957
 20
-124.2160183066196
 30
0.0
 10
101.0467176396689
 20
-124.0802815445008
 30
0.0
 10
101.0467176396689
 20
-123.980718284977
 30
0.0
 10
101.0467176396689
 20
-123.8315456504657
 30
0.0
 10
100.9471543801452
 20
-123.6685926340134
 30
0.0
 10
100.7146104348908
 20
-123.6685926340134
 30
0.0
 10
100.4586398403367
 20
-123.6685926340134
 30
0.0
 10
100.3887044019862
 20
-123.8608289620904
 30
0.0
 10
100.3887044019862
 20
-123.9896755332387
 30
0.0
 10
100.3887044019862
 20
-124.0237819785427
 30
0.0
 10
100.3887044019862
 20
-124.1750216703451
 30
0.0
 10
100.517895482683
 20
-124.270106305738
 30
0.0
 10
100.517895482683
 20
-124.270106305738
 30
0.0
 10
100.4989474575142
 20
-124.4578640096841
 30
0.0
 10
100.4989474575142
 20
-124.4578640096841
 30
0.0
 10
100.4989474575142
 20
-124.4578640096841
 30
0.0
 10
99.65248749678827
 20
-124.3290174385358
 30
0.0
 10
99.65248749678827
 20
-124.3290174385358
 30
0.0
 10
99.65248749678827
 20
-124.3290174385358
 30
0.0
 10
99.65248749678827
 20
-123.497026878848
 30
0.0
 10
99.65248749678827
 20
-123.497026878848
 30
0.0
 10
99.65248749678827
 20
-123.497026878848
 30
0.0
 10
99.84713539170488
 20
-123.497026878848
 30
0.0
 10
99.84713539170488
 20
-123.497026878848
 30
0.0
 10
99.84713539170488
 20
-123.497026878848
 30
0.0
 10
99.84713539170488
 20
-124.1546956069822
 30
0.0
 10
99.84713539170488
 20
-124.1546956069822
 30
0.0
 10
99.84713539170488
 20
-124.1546956069822
 30
0.0
 10
100.2701931172936
 20
-124.2249755548813
 30
0.0
 10
100.2701931172936
 20
-124.2249755548813
 30
0.0
 10
100.2364311815381
 20
-124.1595187406615
 30
0.0
 10
100.1961235643607
 20
-124.0713242962391
 30
0.0
 10
100.1961235643607
 20
-123.9445447823819
 30
0.0
 10
100.1961235643607
 20
-123.6734157676928
 30
0.0
 10
100.3825032301127
 20
-123.4202012495269
 30
0.0
 10
100.6956624097219
 20
-123.4202012495269
 30
0.0
 10
101.0129557039134
 20
-123.4202012495269
 30
0.0
 10
101.2475667064589
 20
-123.6596353857518
 30
0.0
 10
101.2475667064589
 20
-123.9831298518167
 30
0.0
  0
HATCH
  5
BE
330
AF
100
AcDbEntity
  8
_U+30EC_U+30A4_U+30E4_U+30FC 1
 62
   179
420
  2234388
100
AcDbHatch
 10
0.0
 20
0.0
 30
0.0
210
0.0
220
0.0
230
1.0
  2
SOLID
 70
     1
 71
     0
 91
        1
 92
        1
 93
        1
 72
     4
 94
        3
 73
     0
 74
     1
 95
       53
 96
       49
 40
0.0
 40
0.0
 40
0.0
 40
0.0
 40
1.0
 40
1.0
 40
1.0
 40
2.0
 40
2.0
 40
2.0
 40
3.0
 40
3.0
 40
3.0
 40
4.0
 40
4.0
 40
4.0
 40
5.0
 40
5.0
 40
5.0
 40
6.0
 40
6.0
 40
6.0
 40
7.0
 40
7.0
 40
7.0
 40
8.0
 40
8.0
 40
8.0
 40
9.0
 40
9.0
 40
9.0
 40
10.0
 40
10.0
 40
10.0
 40
11.0
 40
11.0
 40
11.0
 40
12.0
 40
12.0
 40
12.0
 40
13.0
 40
13.0
 40
13.0
 40
14.0
 40
14.0
 40
14.0
 40
15.0
 40
15.0
 40
15.0
 40
16.0
 40
16.0
 40
16.0
 40
16.0
 10
101.2475667064589
 20
-123.9831298518167
 10
101.2475667064589
 20
-124.0668456721083
 10
101.2306857385812
 20
-124.1750216703451
 10
101.1672959816526
 20
-124.283886687679
 10
101.0573974356732
 20
-124.4692328247855
 10
100.9261392976851
 20
-124.4916259454396
 10
100.8183078089968
 20
-124.5119520088026
 10
100.8183078089968
 20
-124.5119520088026
 10
100.8183078089968
 20
-124.2745849298689
 10
100.8183078089968
 20
-124.2745849298689
 10
101.0170898184957
 20
-124.2160183066196
 10
101.0467176396689
 20
-124.0802815445008
 10
101.0467176396689
 20
-123.980718284977
 10
101.0467176396689
 20
-123.8315456504657
 10
100.9471543801452
 20
-123.6685926340134
 10
100.7146104348908
 20
-123.6685926340134
 10
100.4586398403367
 20
-123.6685926340134
 10
100.3887044019862
 20
-123.8608289620904
 10
100.3887044019862
 20
-123.9896755332387
 10
100.3887044019862
 20
-124.0237819785427
 10
100.3887044019862
 20
-124.1750216703451
 10
100.517895482683
 20
-124.270106305738
 10
100.517895482683
 20
-124.270106305738
 10
100.4989474575142
 20
-124.4578640096841
 10
100.4989474575142
 20
-124.4578640096841
 10
100.4989474575142
 20
-124.4578640096841
 10
99.65248749678827
 20
-124.3290174385358
 10
99.65248749678827
 20
-124.3290174385358
 10
99.65248749678827
 20
-124.3290174385358
 10
99.65248749678827
 20
-123.497026878848
 10
99.65248749678827
 20
-123.497026878848
 10
99.65248749678827
 20
-123.497026878848
 10
99.84713539170488
 20
-123.497026878848
 10
99.84713539170488
 20
-123.497026878848
 10
99.84713539170488
 20
-123.497026878848
 10
99.84713539170488
 20
-124.1546956069822
 10
99.84713539170488
 20
-124.1546956069822
 10
99.84713539170488
 20
-124.1546956069822
 10
100.2701931172936
 20
-124.2249755548813
 10
100.2701931172936
 20
-124.2249755548813
 10
100.2364311815381
 20
-124.1595187406615
 10
100.1961235643607
 20
-124.0713242962391
 10
100.1961235643607
 20
-123.9445447823819
 10
100.1961235643607
 20
-123.6734157676928
 10
100.3825032301127
 20
-123.4202012495269
 10
100.6956624097219
 20
-123.4202012495269
 10
101.0129557039134
 20
-123.4202012495269
 10
101.2475667064589
 20
-123.6596353857518
 10
101.2475667064589
 20
-123.9831298518167
 97
        0
 97
        0
 75
     2
 76
     1
 98
        0
  0
ENDBLK
  5
B2
330
AF
100
AcDbEntity
  8
0
100
AcDbBlockEnd
  0
BLOCK
  5
CE
330
CC
100
AcDbEntity
  8
0
100
AcDbBlockBegin
  2
block 6
 70
     0
 10
0.0
 20
0.0
 30
0.0
  3
block 6
  1

  0
SPLINE
  5
D0
330
CC
100
AcDbEntity
  8
_U+30EC_U+30A4_U+30E4_U+30FC 1
370
     0
100
AcDbSpline
210
0.0
220
0.0
230
1.0
 70
    11
 71
     3
 72
    26
 73
    22
 74
     0
 42
0.0000000001
 43
0.0000000001
 12
1.0
 22
0.0
 32
0.0
 13
1.0
 23
0.0
 33
0.0
 40
0.0
 40
0.0
 40
0.0
 40
0.0
 40
1.0
 40
1.0
 40
1.0
 40
2.0
 40
2.0
 40
2.0
 40
3.0
 40
3.0
 40
3.0
 40
4.0
 40
4.0
 40
4.0
 40
5.0
 40
5.0
 40
5.0
 40
6.0
 40
6.0
 40
6.0
 40
7.0
 40
7.0
 40
7.0
 40
7.0
 10
101.1969238028258
 20
-131.0545328448405
 30
0.0
 10
101.1969238028258
 20
-131.0545328448405
 30
0.0
 10
100.0927706998032
 20
-131.0545328448405
 30
0.0
 10
100.0927706998032
 20
-131.0545328448405
 30
0.0
 10
100.0927706998032
 20
-131.0545328448405
 30
0.0
 10
100.0927706998032
 20
-131.4069661129816
 30
0.0
 10
100.0927706998032
 20
-131.4069661129816
 30
0.0
 10
100.0927706998032
 20
-131.4069661129816
 30
0.0
 10
99.94463159393746
 20
-131.4069661129816
 30
0.0
 10
99.94463159393746
 20
-131.4069661129816
 30
0.0
 10
99.92981768335089
 20
-131.0521212780009
 30
0.0
 10
99.76686466689857
 20
-131.0025119030133
 30
0.0
 10
99.65248749678827
 20
-130.970817024549
 30
0.0
 10
99.65248749678827
 20
-130.970817024549
 30
0.0
 10
99.65248749678827
 20
-130.8147541990672
 30
0.0
 10
99.65248749678827
 20
-130.8147541990672
 30
0.0
 10
99.65248749678827
 20
-130.8147541990672
 30
0.0
 10
101.1969238028258
 20
-130.8147541990672
 30
0.0
 10
101.1969238028258
 20
-130.8147541990672
 30
0.0
 10
101.1969238028258
 20
-130.8147541990672
 30
0.0
 10
101.1969238028258
 20
-131.0545328448405
 30
0.0
 10
101.1969238028258
 20
-131.0545328448405
 30
0.0
  0
HATCH
  5
D1
330
CC
100
AcDbEntity
  8
_U+30EC_U+30A4_U+30E4_U+30FC 1
 62
   179
420
  2234388
100
AcDbHatch
 10
0.0
 20
0.0
 30
0.0
210
0.0
220
0.0
230
1.0
  2
SOLID
 70
     1
 71
     0
 91
        1
 92
        1
 93
        1
 72
     4
 94
        3
 73
     0
 74
     1
 95
       26
 96
       22
 40
0.0
 40
0.0
 40
0.0
 40
0.0
 40
1.0
 40
1.0
 40
1.0
 40
2.0
 40
2.0
 40
2.0
 40
3.0
 40
3.0
 40
3.0
 40
4.0
 40
4.0
 40
4.0
 40
5.0
 40
5.0
 40
5.0
 40
6.0
 40
6.0
 40
6.0
 40
7.0
 40
7.0
 40
7.0
 40
7.0
 10
101.1969238028258
 20
-131.0545328448405
 10
101.1969238028258
 20
-131.0545328448405
 10
100.0927706998032
 20
-131.0545328448405
 10
100.0927706998032
 20
-131.0545328448405
 10
100.0927706998032
 20
-131.0545328448405
 10
100.0927706998032
 20
-131.4069661129816
 10
100.0927706998032
 20
-131.4069661129816
 10
100.0927706998032
 20
-131.4069661129816
 10
99.94463159393746
 20
-131.4069661129816
 10
99.94463159393746
 20
-131.4069661129816
 10
99.92981768335089
 20
-131.0521212780009
 10
99.76686466689857
 20
-131.0025119030133
 10
99.65248749678827
 20
-130.970817024549
 10
99.65248749678827
 20
-130.970817024549
 10
99.65248749678827
 20
-130.8147541990672
 10
99.65248749678827
 20
-130.8147541990672
 10
99.65248749678827
 20
-130.8147541990672
 10
101.1969238028258
 20
-130.8147541990672
 10
101.1969238028258
 20
-130.8147541990672
 10
101.1969238028258
 20
-130.8147541990672
 10
101.1969238028258
 20
-131.0545328448405
 10
101.1969238028258
 20
-131.0545328448405
 97
        0
 97
        0
 75
     2
 76
     1
 98
        0
  0
ENDBLK
  5
CF
330
CC
100
AcDbEntity
  8
0
100
AcDbBlockEnd
  0
BLOCK
  5
D4
330
D2
100
AcDbEntity
  8
0
100
AcDbBlockBegin
  2
block 7
 70
     0
 10
0.0
 20
0.0
 30
0.0
  3
block 7
  1

  0
SPLINE
  5
D6
330
D2
100
AcDbEntity
  8
_U+30EC_U+30A4_U+30E4_U+30FC 1
 62
   179
420
  2234388
370
     9
100
AcDbSpline
210
0.0
220
0.0
230
1.0
 70
    11
 71
     3
 72
    17
 73
    13
 74
     0
 42
0.0000000001
 43
0.0000000001
 12
1.0
 22
0.0
 32
0.0
 13
1.0
 23
0.0
 33
0.0
 40
0.0
 40
0.0
 40
0.0
 40
0.0
 40
1.0
 40
1.0
 40
1.0
 40
2.0
 40
2.0
 40
2.0
 40
3.0
 40
3.0
 40
3.0
 40
4.0
 40
4.0
 40
4.0
 40
4.0
 10
80.72080988508502
 20
-129.3502408009956
 30
0.0
 10
80.72080988508502
 20
-129.2951369121207
 30
0.0
 10
80.67604442427547
 20
-129.250334134354
 30
0.0
 10
80.62076210985967
 20
-129.250334134354
 30
0.0
 10
80.5656249798586
 20
-129.250334134354
 30
0.0
 10
80.52082220209188
 20
-129.2951369121207
 30
0.0
 10
80.52082220209188
 20
-129.3502408009956
 30
0.0
 10
80.52082220209188
 20
-129.4053799676487
 30
0.0
 10
80.5656249798586
 20
-129.4501474676373
 30
0.0
 10
80.62076210985967
 20
-129.4501474676373
 30
0.0
 10
80.67604442427547
 20
-129.4501474676373
 30
0.0
 10
80.72080988508502
 20
-129.4053799676487
 30
0.0
 10
80.72080988508502
 20
-129.3502408009956
 30
0.0
  0
SPLINE
  5
D7
330
D2
100
AcDbEntity
  8
_U+30EC_U+30A4_U+30E4_U+30FC 1
 62
   179
420
  2234388
370
     9
100
AcDbSpline
210
0.0
220
0.0
230
1.0
 70
    11
 71
     3
 72
    17
 73
    13
 74
     0
 42
0.0000000001
 43
0.0000000001
 12
1.0
 22
0.0
 32
0.0
 13
1.0
 23
0.0
 33
0.0
 40
0.0
 40
0.0
 40
0.0
 40
0.0
 40
1.0
 40
1.0
 40
1.0
 40
2.0
 40
2.0
 40
2.0
 40
3.0
 40
3.0
 40
3.0
 40
4.0
 40
4.0
 40
4.0
 40
4.0
 10
81.72058208180093
 20
-129.3502408009956
 30
0.0
 10
81.72058208180093
 20
-129.2951369121207
 30
0.0
 10
81.6758166462477
 20
-129.250334134354
 30
0.0
 10
81.6204990287987
 20
-129.250334134354
 30
0.0
 10
81.56539720183082
 20
-129.250334134354
 30
0.0
 10
81.52059442406441
 20
-129.2951369121207
 30
0.0
 10
81.52059442406441
 20
-129.3502408009956
 30
0.0
 10
81.52059442406441
 20
-129.4053799676487
 30
0.0
 10
81.56539720183082
 20
-129.4501474676373
 30
0.0
 10
81.6204990287987
 20
-129.4501474676373
 30
0.0
 10
81.6758166462477
 20
-129.4501474676373
 30
0.0
 10
81.72058208180093
 20
-129.4053799676487
 30
0.0
 10
81.72058208180093
 20
-129.3502408009956
 30
0.0
  0
INSERT
  5
D9
330
D2
100
AcDbEntity
  8
_U+30EC_U+30A4_U+30E4_U+30FC 1
100
AcDbBlockReference
  2
block 8
 10
0.0
 20
0.0
 30
0.0
  0
POLYLINE
  5
DE
330
D2
100
AcDbEntity
  8
_U+30EC_U+30A4_U+30E4_U+30FC 1
 62
   179
420
  2234388
370
     9
100
AcDb2dPolyline
 66
     1
 10
0.0
 20
0.0
 30
0.0
  0
VERTEX
  5
DF
330
DE
100
AcDbEntity
  8
_U+30EC_U+30A4_U+30E4_U+30FC 1
 62
   179
420
  2234388
370
     9
100
AcDbVertex
100
AcDb2dVertex
 10
82.48194706237689
 20
-129.3502408009956
 30
0.0
  0
VERTEX
  5
E0
330
DE
100
AcDbEntity
  8
_U+30EC_U+30A4_U+30E4_U+30FC 1
 62
   179
420
  2234388
370
     9
100
AcDbVertex
100
AcDb2dVertex
 10
78.64291354920768
 20
-129.3502408009956
 30
0.0
  0
SEQEND
  5
E1
330
DE
100
AcDbEntity
  8
_U+30EC_U+30A4_U+30E4_U+30FC 1
 62
   179
420
  2234388
370
     9
  0
ENDBLK
  5
D5
330
D2
100
AcDbEntity
  8
0
100
AcDbBlockEnd
  0
BLOCK
  5
DA
330
D8
100
AcDbEntity
  8
0
100
AcDbBlockBegin
  2
block 8
 70
     0
 10
0.0
 20
0.0
 30
0.0
  3
block 8
  1

  0
SPLINE
  5
DC
330
D8
100
AcDbEntity
  8
_U+30EC_U+30A4_U+30E4_U+30FC 1
370
     0
100
AcDbSpline
210
0.0
220
0.0
230
1.0
 70
    11
 71
     3
 72
    26
 73
    22
 74
     0
 42
0.0000000001
 43
0.0000000001
 12
1.0
 22
0.0
 32
0.0
 13
1.0
 23
0.0
 33
0.0
 40
0.0
 40
0.0
 40
0.0
 40
0.0
 40
1.0
 40
1.0
 40
1.0
 40
2.0
 40
2.0
 40
2.0
 40
3.0
 40
3.0
 40
3.0
 40
4.0
 40
4.0
 40
4.0
 40
5.0
 40
5.0
 40
5.0
 40
6.0
 40
6.0
 40
6.0
 40
7.0
 40
7.0
 40
7.0
 40
7.0
 10
79.44545218282961
 20
-128.7616495446325
 30
0.0
 10
79.44545218282961
 20
-128.7616495446325
 30
0.0
 10
79.44545218282961
 20
-127.6573241868357
 30
0.0
 10
79.44545218282961
 20
-127.6573241868357
 30
0.0
 10
79.44545218282961
 20
-127.6573241868357
 30
0.0
 10
79.11541203534267
 20
-127.6573241868357
 30
0.0
 10
79.11541203534267
 20
-127.6573241868357
 30
0.0
 10
79.11541203534267
 20
-127.6573241868357
 30
0.0
 10
79.11541203534267
 20
-127.5091850809699
 30
0.0
 10
79.11541203534267
 20
-127.5091850809699
 30
0.0
 10
79.44751924012077
 20
-127.4945434251576
 30
0.0
 10
79.49402802917163
 20
-127.3315904087053
 30
0.0
 10
79.52365585034478
 20
-127.2173854933693
 30
0.0
 10
79.52365585034478
 20
-127.2173854933693
 30
0.0
 10
79.66972789891938
 20
-127.2173854933693
 30
0.0
 10
79.66972789891938
 20
-127.2173854933693
 30
0.0
 10
79.66972789891938
 20
-127.2173854933693
 30
0.0
 10
79.66972789891938
 20
-128.7616495446325
 30
0.0
 10
79.66972789891938
 20
-128.7616495446325
 30
0.0
 10
79.66972789891938
 20
-128.7616495446325
 30
0.0
 10
79.44545218282961
 20
-128.7616495446325
 30
0.0
 10
79.44545218282961
 20
-128.7616495446325
 30
0.0
  0
HATCH
  5
DD
330
D8
100
AcDbEntity
  8
_U+30EC_U+30A4_U+30E4_U+30FC 1
 62
   179
420
  2234388
100
AcDbHatch
 10
0.0
 20
0.0
 30
0.0
210
0.0
220
0.0
230
1.0
  2
SOLID
 70
     1
 71
     0
 91
        1
 92
        1
 93
        1
 72
     4
 94
        3
 73
     0
 74
     1
 95
       26
 96
       22
 40
0.0
 40
0.0
 40
0.0
 40
0.0
 40
1.0
 40
1.0
 40
1.0
 40
2.0
 40
2.0
 40
2.0
 40
3.0
 40
3.0
 40
3.0
 40
4.0
 40
4.0
 40
4.0
 40
5.0
 40
5.0
 40
5.0
 40
6.0
 40
6.0
 40
6.0
 40
7.0
 40
7.0
 40
7.0
 40
7.0
 10
79.44545218282961
 20
-128.7616495446325
 10
79.44545218282961
 20
-128.7616495446325
 10
79.44545218282961
 20
-127.6573241868357
 10
79.44545218282961
 20
-127.6573241868357
 10
79.44545218282961
 20
-127.6573241868357
 10
79.11541203534267
 20
-127.6573241868357
 10
79.11541203534267
 20
-127.6573241868357
 10
79.11541203534267
 20
-127.6573241868357
 10
79.11541203534267
 20
-127.5091850809699
 10
79.11541203534267
 20
-127.5091850809699
 10
79.44751924012077
 20
-127.4945434251576
 10
79.49402802917163
 20
-127.3315904087053
 10
79.52365585034478
 20
-127.2173854933693
 10
79.52365585034478
 20
-127.2173854933693
 10
79.66972789891938
 20
-127.2173854933693
 10
79.66972789891938
 20
-127.2173854933693
 10
79.66972789891938
 20
-127.2173854933693
 10
79.66972789891938
 20
-128.7616495446325
 10
79.66972789891938
 20
-128.7616495446325
 10
79.66972789891938
 20
-128.7616495446325
 10
79.44545218282961
 20
-128.7616495446325
 10
79.44545218282961
 20
-128.7616495446325
 97
        0
 97
        0
 75
     2
 76
     1
 98
        0
  0
ENDBLK
  5
DB
330
D8
100
AcDbEntity
  8
0
100
AcDbBlockEnd
  0
ENDSEC
  0
SECTION
  2
ENTITIES
  0
SPLINE
  5
41
330
1F
100
AcDbEntity
  8
_U+30EC_U+30A4_U+30E4_U+30FC 1
370
     0
100
AcDbSpline
210
0.0
220
0.0
230
1.0
 70
    11
 71
     3
 72
    47
 73
    43
 74
     0
 42
0.0000000001
 43
0.0000000001
 12
1.0
 22
0.0
 32
0.0
 13
1.0
 23
0.0
 33
0.0
 40
0.0
 40
0.0
 40
0.0
 40
0.0
 40
1.0
 40
1.0
 40
1.0
 40
2.0
 40
2.0
 40
2.0
 40
3.0
 40
3.0
 40
3.0
 40
4.0
 40
4.0
 40
4.0
 40
5.0
 40
5.0
 40
5.0
 40
6.0
 40
6.0
 40
6.0
 40
7.0
 40
7.0
 40
7.0
 40
8.0
 40
8.0
 40
8.0
 40
9.0
 40
9.0
 40
9.0
 40
10.0
 40
10.0
 40
10.0
 40
11.0
 40
11.0
 40
11.0
 40
12.0
 40
12.0
 40
12.0
 40
13.0
 40
13.0
 40
13.0
 40
14.0
 40
14.0
 40
14.0
 40
14.0
 10
98.12114999672092
 20
-131.0321441339088
 30
0.0
 10
98.12114999672092
 20
-131.0321441339088
 30
0.0
 10
88.62095275562248
 20
-131.0321441339088
 30
0.0
 10
88.62095275562248
 20
-131.0321441339088
 30
0.0
 10
88.44248024364435
 20
-130.7227580228749
 30
0.0
 10
88.11245664095284
 20
-130.5326108007
 30
0.0
 10
87.7551985945117
 20
-130.5326108007
 30
0.0
 10
87.7551985945117
 20
-130.5326108007
 30
0.0
 10
81.62085180656747
 20
-130.5326108007
 30
0.0
 10
81.62085180656747
 20
-130.5326108007
 30
0.0
 10
81.62085180656747
 20
-130.5326108007
 30
0.0
 10
81.62085180656747
 20
-128.0321571902142
 30
0.0
 10
81.62085180656747
 20
-128.0321571902142
 30
0.0
 10
81.62085180656747
 20
-128.0321571902142
 30
0.0
 10
87.7551985945117
 20
-128.0321571902142
 30
0.0
 10
87.7551985945117
 20
-128.0321571902142
 30
0.0
 10
87.7551985945117
 20
-128.0321571902142
 30
0.0
 10
88.62095275562248
 20
-128.0321571902142
 30
0.0
 10
88.62095275562248
 20
-128.0321571902142
 30
0.0
 10
88.62095275562248
 20
-128.0321571902142
 30
0.0
 10
88.62095275562248
 20
-127.4321880236974
 30
0.0
 10
88.62095275562248
 20
-127.4321880236974
 30
0.0
 10
88.62095275562248
 20
-127.4321880236974
 30
0.0
 10
86.61106973481196
 20
-127.231351634859
 30
0.0
 10
86.61106973481196
 20
-127.231351634859
 30
0.0
 10
85.28504865753047
 20
-127.0987071904476
 30
0.0
 10
83.95352424705605
 20
-127.0322085793531
 30
0.0
 10
82.62129428104407
 20
-127.0322085793531
 30
0.0
 10
82.62129428104407
 20
-127.0322085793531
 30
0.0
 10
80.62107960985158
 20
-127.0322085793531
 30
0.0
 10
80.62107960985158
 20
-127.0322085793531
 30
0.0
 10
80.62107960985158
 20
-127.0322085793531
 30
0.0
 10
80.62107960985158
 20
-130.7324241339833
 30
0.0
 10
80.62107960985158
 20
-130.7324241339833
 30
0.0
 10
80.62107960985158
 20
-131.1740666338733
 30
0.0
 10
80.97939598959904
 20
-131.5323830226725
 30
0.0
 10
81.42103847833181
 20
-131.5323830226725
 30
0.0
 10
81.42103847833181
 20
-131.5323830226725
 30
0.0
 10
98.62103609507886
 20
-131.5323830226725
 30
0.0
 10
98.62103609507886
 20
-131.5323830226725
 30
0.0
 10
98.62103609507886
 20
-131.2560874671861
 30
0.0
 10
98.3970927674588
 20
-131.0321441339088
 30
0.0
 10
98.12114999672092
 20
-131.0321441339088
 30
0.0
  0
HATCH
  5
42
330
1F
100
AcDbEntity
  8
_U+30EC_U+30A4_U+30E4_U+30FC 1
 62
   253
420
 11711154
100
AcDbHatch
 10
0.0
 20
0.0
 30
0.0
210
0.0
220
0.0
230
1.0
  2
SOLID
 70
     1
 71
     0
 91
        1
 92
        1
 93
        1
 72
     4
 94
        3
 73
     0
 74
     1
 95
       47
 96
       43
 40
0.0
 40
0.0
 40
0.0
 40
0.0
 40
1.0
 40
1.0
 40
1.0
 40
2.0
 40
2.0
 40
2.0
 40
3.0
 40
3.0
 40
3.0
 40
4.0
 40
4.0
 40
4.0
 40
5.0
 40
5.0
 40
5.0
 40
6.0
 40
6.0
 40
6.0
 40
7.0
 40
7.0
 40
7.0
 40
8.0
 40
8.0
 40
8.0
 40
9.0
 40
9.0
 40
9.0
 40
10.0
 40
10.0
 40
10.0
 40
11.0
 40
11.0
 40
11.0
 40
12.0
 40
12.0
 40
12.0
 40
13.0
 40
13.0
 40
13.0
 40
14.0
 40
14.0
 40
14.0
 40
14.0
 10
98.12114999672092
 20
-131.0321441339088
 10
98.12114999672092
 20
-131.0321441339088
 10
88.62095275562248
 20
-131.0321441339088
 10
88.62095275562248
 20
-131.0321441339088
 10
88.44248024364435
 20
-130.7227580228749
 10
88.11245664095284
 20
-130.5326108007
 10
87.7551985945117
 20
-130.5326108007
 10
87.7551985945117
 20
-130.5326108007
 10
81.62085180656747
 20
-130.5326108007
 10
81.62085180656747
 20
-130.5326108007
 10
81.62085180656747
 20
-130.5326108007
 10
81.62085180656747
 20
-128.0321571902142
 10
81.62085180656747
 20
-128.0321571902142
 10
81.62085180656747
 20
-128.0321571902142
 10
87.7551985945117
 20
-128.0321571902142
 10
87.7551985945117
 20
-128.0321571902142
 10
87.7551985945117
 20
-128.0321571902142
 10
88.62095275562248
 20
-128.0321571902142
 10
88.62095275562248
 20
-128.0321571902142
 10
88.62095275562248
 20
-128.0321571902142
 10
88.62095275562248
 20
-127.4321880236974
 10
88.62095275562248
 20
-127.4321880236974
 10
88.62095275562248
 20
-127.4321880236974
 10
86.61106973481196
 20
-127.231351634859
 10
86.61106973481196
 20
-127.231351634859
 10
85.28504865753047
 20
-127.0987071904476
 10
83.95352424705605
 20
-127.0322085793531
 10
82.62129428104407
 20
-127.0322085793531
 10
82.62129428104407
 20
-127.0322085793531
 10
80.62107960985158
 20
-127.0322085793531
 10
80.62107960985158
 20
-127.0322085793531
 10
80.62107960985158
 20
-127.0322085793531
 10
80.62107960985158
 20
-130.7324241339833
 10
80.62107960985158
 20
-130.7324241339833
 10
80.62107960985158
 20
-131.1740666338733
 10
80.97939598959904
 20
-131.5323830226725
 10
81.42103847833181
 20
-131.5323830226725
 10
81.42103847833181
 20
-131.5323830226725
 10
98.62103609507886
 20
-131.5323830226725
 10
98.62103609507886
 20
-131.5323830226725
 10
98.62103609507886
 20
-131.2560874671861
 10
98.3970927674588
 20
-131.0321441339088
 10
98.12114999672092
 20
-131.0321441339088
 97
        0
 97
        0
 75
     2
 76
     1
 98
        0
  0
INSERT
  5
44
330
1F
100
AcDbEntity
  8
_U+30EC_U+30A4_U+30E4_U+30FC 1
100
AcDbBlockReference
  2
block 2
 10
0.0
 20
0.0
 30
0.0
  0
SPLINE
  5
BF
330
1F
100
AcDbEntity
  8
_U+30EC_U+30A4_U+30E4_U+30FC 1
 62
   179
420
  2234388
370
     9
100
AcDbSpline
210
0.0
220
0.0
230
1.0
 70
    11
 71
     3
 72
    17
 73
    13
 74
     0
 42
0.0000000001
 43
0.0000000001
 12
1.0
 22
0.0
 32
0.0
 13
1.0
 23
0.0
 33
0.0
 40
0.0
 40
0.0
 40
0.0
 40
0.0
 40
1.0
 40
1.0
 40
1.0
 40
2.0
 40
2.0
 40
2.0
 40
3.0
 40
3.0
 40
3.0
 40
4.0
 40
4.0
 40
4.0
 40
4.0
 10
102.2459687803769
 20
-131.5310071893397
 30
0.0
 10
102.2459687803769
 20
-131.4751624671311
 30
0.0
 10
102.2011660037421
 20
-131.4303949671425
 30
0.0
 10
102.1460621162591
 20
-131.4303949671425
 30
0.0
 10
102.0909229509991
 20
-131.4303949671425
 30
0.0
 10
102.0461201743644
 20
-131.4751624671311
 30
0.0
 10
102.0461201743644
 20
-131.5310071893397
 30
0.0
 10
102.0461201743644
 20
-131.5861110782146
 30
0.0
 10
102.0909229509991
 20
-131.6309138559813
 30
0.0
 10
102.1460621162591
 20
-131.6309138559813
 30
0.0
 10
102.2011660037421
 20
-131.6309138559813
 30
0.0
 10
102.2459687803769
 20
-131.5861110782146
 30
0.0
 10
102.2459687803769
 20
-131.5310071893397
 30
0.0
  0
POLYLINE
  5
C0
330
1F
100
AcDbEntity
  8
_U+30EC_U+30A4_U+30E4_U+30FC 1
 62
   179
420
  2234388
370
     9
100
AcDb2dPolyline
 66
     1
 10
0.0
 20
0.0
 30
0.0
  0
VERTEX
  5
C1
330
C0
100
AcDbEntity
  8
_U+30EC_U+30A4_U+30E4_U+30FC 1
 62
   179
420
  2234388
370
     9
100
AcDbVertex
100
AcDb2dVertex
 10
102.1460621162591
 20
-131.5310071893397
 30
0.0
  0
VERTEX
  5
C2
330
C0
100
AcDbEntity
  8
_U+30EC_U+30A4_U+30E4_U+30FC 1
 62
   179
420
  2234388
370
     9
100
AcDbVertex
100
AcDb2dVertex
 10
102.1460621162591
 20
-127.5906558014356
 30
0.0
  0
SEQEND
  5
C3
330
C0
100
AcDbEntity
  8
_U+30EC_U+30A4_U+30E4_U+30FC 1
 62
   179
420
  2234388
370
     9
  0
POLYLINE
  5
C4
330
1F
100
AcDbEntity
  8
_U+30EC_U+30A4_U+30E4_U+30FC 1
 62
   179
420
  2234388
370
     9
100
AcDb2dPolyline
 66
     1
 10
0.0
 20
0.0
 30
0.0
  0
VERTEX
  5
C5
330
C4
100
AcDbEntity
  8
_U+30EC_U+30A4_U+30E4_U+30FC 1
 62
   179
420
  2234388
370
     9
100
AcDbVertex
100
AcDb2dVertex
 10
101.0181257561462
 20
-130.5357152451435
 30
0.0
  0
VERTEX
  5
C6
330
C4
100
AcDbEntity
  8
_U+30EC_U+30A4_U+30E4_U+30FC 1
 62
   179
420
  2234388
370
     9
100
AcDbVertex
100
AcDb2dVertex
 10
103.1461518129669
 20
-130.5357152451435
 30
0.0
  0
SEQEND
  5
C7
330
C4
100
AcDbEntity
  8
_U+30EC_U+30A4_U+30E4_U+30FC 1
 62
   179
420
  2234388
370
     9
  0
POLYLINE
  5
C8
330
1F
100
AcDbEntity
  8
_U+30EC_U+30A4_U+30E4_U+30FC 1
 62
   179
420
  2234388
370
     9
100
AcDb2dPolyline
 66
     1
 10
0.0
 20
0.0
 30
0.0
  0
VERTEX
  5
C9
330
C8
100
AcDbEntity
  8
_U+30EC_U+30A4_U+30E4_U+30FC 1
 62
   179
420
  2234388
370
     9
100
AcDbVertex
100
AcDb2dVertex
 10
101.0181257561462
 20
-131.5310071893397
 30
0.0
  0
VERTEX
  5
CA
330
C8
100
AcDbEntity
  8
_U+30EC_U+30A4_U+30E4_U+30FC 1
 62
   179
420
  2234388
370
     9
100
AcDbVertex
100
AcDb2dVertex
 10
103.1461518129669
 20
-131.5310071893397
 30
0.0
  0
SEQEND
  5
CB
330
C8
100
AcDbEntity
  8
_U+30EC_U+30A4_U+30E4_U+30FC 1
 62
   179
420
  2234388
370
     9
  0
INSERT
  5
CD
330
1F
100
AcDbEntity
  8
_U+30EC_U+30A4_U+30E4_U+30FC 1
100
AcDbBlockReference
  2
block 6
 10
0.0
 20
0.0
 30
0.0
  0
INSERT
  5
D3
330
1F
100
AcDbEntity
  8
_U+30EC_U+30A4_U+30E4_U+30FC 1
100
AcDbBlockReference
  2
block 7
 10
0.0
 20
0.0
 30
0.0
  0
ENDSEC
  0
SECTION
  2
OBJECTS
  0
DICTIONARY
  5
C
330
0
100
AcDbDictionary
281
     1
  3
ACAD_GROUP
350
D
  3
ACAD_LAYOUT
350
1A
  3
ACAD_MATERIAL
350
3B
  3
ACAD_MLEADERSTYLE
350
E3
  3
ACAD_MLINESTYLE
350
17
  3
ACAD_PLOTSETTINGS
350
19
  3
ACAD_PLOTSTYLENAME
350
E
  3
ACAD_TABLESTYLE
350
E2
  3
ACAD_VISUALSTYLE
350
2A
  0
SUN
  5
3F
330
29
100
AcDbSun
 90
        1
290
     0
 63
     7
421
 16777215
 40
1.0
291
     1
 91
  2455826
 92
 54000000
292
     0
 70
     2
 71
   256
280
     1
  0
DICTIONARY
  5
D
102
{ACAD_REACTORS
330
C
102
}
330
C
100
AcDbDictionary
281
     1
  0
DICTIONARY
  5
1A
102
{ACAD_REACTORS
330
C
102
}
330
C
100
AcDbDictionary
281
     1
  3
Layout1
350
1E
  3
Layout2
350
26
  3
Model
350
22
  0
DICTIONARY
  5
3B
102
{ACAD_REACTORS
330
C
102
}
330
C
100
AcDbDictionary
281
     1
  3
ByBlock
350
3D
  3
ByLayer
350
3C
  3
Global
350
3E
  0
DICTIONARY
  5
E3
102
{ACAD_REACTORS
330
C
102
}
330
C
100
AcDbDictionary
281
     1
  0
DICTIONARY
  5
17
102
{ACAD_REACTORS
330
C
102
}
330
C
100
AcDbDictionary
281
     1
  3
Standard
350
18
  0
DICTIONARY
  5
19
102
{ACAD_REACTORS
330
C
102
}
330
C
100
AcDbDictionary
281
     1
  0
ACDBDICTIONARYWDFLT
  5
E
102
{ACAD_REACTORS
330
C
102
}
330
C
100
AcDbDictionary
281
     1
  3
Normal
350
F
100
AcDbDictionaryWithDefault
340
F
  0
DICTIONARY
  5
E2
102
{ACAD_REACTORS
330
C
102
}
330
C
100
AcDbDictionary
281
     1
  0
DICTIONARY
  5
2A
102
{ACAD_REACTORS
330
C
102
}
330
C
100
AcDbDictionary
281
     1
  3
2dWireframe
350
2F
  3
3D Hidden
350
31
  3
3dWireframe
350
30
  3
Basic
350
32
  3
Brighten
350
36
  3
ColorChange
350
3A
  3
Conceptual
350
34
  3
Dim
350
35
  3
Facepattern
350
39
  3
Flat
350
2B
  3
FlatWithEdges
350
2C
  3
Gouraud
350
2D
  3
GouraudWithEdges
350
2E
  3
Linepattern
350
38
  3
Realistic
350
33
  3
Thicken
350
37
  0
LAYOUT
  5
1E
102
{ACAD_REACTORS
330
1A
102
}
330
1A
100
AcDbPlotSettings
  1

  2
none_device
  4

  6

 40
0.0
 41
0.0
 42
0.0
 43
0.0
 44
0.0
 45
0.0
 46
0.0
 47
0.0
 48
0.0
 49
0.0
140
0.0
141
0.0
142
1.0
143
1.0
 70
   688
 72
     0
 73
     0
 74
     5
  7

 75
    16
 76
     0
 77
     2
 78
   300
147
1.0
148
0.0
149
0.0
100
AcDbLayout
  1
Layout1
 70
     1
 71
     1
 10
0.0
 20
0.0
 11
12.0
 21
9.0
 12
0.0
 22
0.0
 32
0.0
 14
1.000000000000000E+20
 24
1.000000000000000E+20
 34
1.000000000000000E+20
 15
-1.000000000000000E+20
 25
-1.000000000000000E+20
 35
-1.000000000000000E+20
146
0.0
 13
0.0
 23
0.0
 33
0.0
 16
1.0
 26
0.0
 36
0.0
 17
0.0
 27
1.0
 37
0.0
 76
     0
330
1B
  0
LAYOUT
  5
26
102
{ACAD_REACTORS
330
1A
102
}
330
1A
100
AcDbPlotSettings
  1

  2
none_device
  4

  6

 40
0.0
 41
0.0
 42
0.0
 43
0.0
 44
0.0
 45
0.0
 46
0.0
 47
0.0
 48
0.0
 49
0.0
140
0.0
141
0.0
142
1.0
143
1.0
 70
   688
 72
     0
 73
     0
 74
     5
  7

 75
    16
 76
     0
 77
     2
 78
   300
147
1.0
148
0.0
149
0.0
100
AcDbLayout
  1
Layout2
 70
     1
 71
     2
 10
0.0
 20
0.0
 11
0.0
 21
0.0
 12
0.0
 22
0.0
 32
0.0
 14
0.0
 24
0.0
 34
0.0
 15
0.0
 25
0.0
 35
0.0
146
0.0
 13
0.0
 23
0.0
 33
0.0
 16
1.0
 26
0.0
 36
0.0
 17
0.0
 27
1.0
 37
0.0
 76
     0
330
23
  0
LAYOUT
  5
22
102
{ACAD_REACTORS
330
1A
102
}
330
1A
100
AcDbPlotSettings
  1

  2
none_device
  4

  6

 40
0.0
 41
0.0
 42
0.0
 43
0.0
 44
0.0
 45
0.0
 46
0.0
 47
0.0
 48
0.0
 49
0.0
140
0.0
141
0.0
142
1.0
143
1.0
 70
  1712
 72
     0
 73
     0
 74
     0
  7

 75
     0
 76
     0
 77
     2
 78
   300
147
1.0
148
0.0
149
0.0
100
AcDbLayout
  1
Model
 70
     1
 71
     0
 10
0.0
 20
0.0
 11
12.0
 21
9.0
 12
0.0
 22
0.0
 32
0.0
 14
1.000000000000000E+20
 24
1.000000000000000E+20
 34
1.000000000000000E+20
 15
-1.000000000000000E+20
 25
-1.000000000000000E+20
 35
-1.000000000000000E+20
146
0.0
 13
0.0
 23
0.0
 33
0.0
 16
1.0
 26
0.0
 36
0.0
 17
0.0
 27
1.0
 37
0.0
 76
     0
330
1F
331
29
  0
MATERIAL
  5
3D
102
{ACAD_REACTORS
330
3B
102
}
330
3B
100
AcDbMaterial
  1
ByBlock
 72
     1
 94
      127
  0
MATERIAL
  5
3C
102
{ACAD_REACTORS
330
3B
102
}
330
3B
100
AcDbMaterial
  1
ByLayer
 72
     1
 94
      127
  0
MATERIAL
  5
3E
102
{ACAD_REACTORS
330
3B
102
}
330
3B
100
AcDbMaterial
  1
Global
 72
     1
 94
      127
  0
MLINESTYLE
  5
18
102
{ACAD_REACTORS
330
17
102
}
330
17
100
AcDbMlineStyle
  2
Standard
 70
     0
  3

 62
   256
 51
90.0
 52
90.0
 71
     2
 49
0.5
 62
   256
  6
BYLAYER
 49
-0.5
 62
   256
  6
BYLAYER
  0
ACDBPLACEHOLDER
  5
F
102
{ACAD_REACTORS
330
E
102
}
330
E
  0
VISUALSTYLE
  5
2F
102
{ACAD_REACTORS
330
2A
102
}
330
2A
100
AcDbVisualStyle
  2
2dWireframe
 70
     4
177
     2
291
     0
 71
     0
176
     1
 72
     2
176
     1
 73
     0
176
     1
 90
        0
176
     1
 40
-0.6
176
     1
 41
-30.0
176
     1
 62
     5
 63
     7
421
 16777215
176
     1
 74
     1
176
     1
 91
        4
176
     1
 64
     7
176
     1
 65
   257
176
     1
 75
     1
176
     1
175
     1
176
     1
 42
1.0
176
     1
 92
        0
176
     1
 66
   257
176
     1
 43
1.0
176
     1
 76
     1
176
     1
 77
     6
176
     1
 78
     2
176
     1
 67
     7
176
     1
 79
     5
176
     1
170
     0
176
     1
171
     0
176
     1
290
     0
176
     1
 93
        1
176
     1
 44
0.0
176
     1
173
     0
176
     1
  0
VISUALSTYLE
  5
31
102
{ACAD_REACTORS
330
2A
102
}
330
2A
100
AcDbVisualStyle
  2
3D Hidden
 70
     6
177
     2
291
     0
 71
     1
176
     1
 72
     2
176
     1
 73
     2
176
     1
 90
        0
176
     1
 40
-0.6
176
     1
 41
-30.0
176
     1
 62
     5
 63
     7
421
 16777215
176
     1
 74
     2
176
     1
 91
        2
176
     1
 64
     7
176
     1
 65
   257
176
     1
 75
     2
176
     1
175
     1
176
     1
 42
40.0
176
     1
 92
        0
176
     1
 66
   257
176
     1
 43
1.0
176
     1
 76
     1
176
     1
 77
     6
176
     1
 78
     2
176
     1
 67
     7
176
     1
 79
     3
176
     1
170
     0
176
     1
171
     0
176
     1
290
     0
176
     1
 93
        1
176
     1
 44
0.0
176
     1
173
     0
176
     1
  0
VISUALSTYLE
  5
30
102
{ACAD_REACTORS
330
2A
102
}
330
2A
100
AcDbVisualStyle
  2
3dWireframe
 70
     5
177
     2
291
     0
 71
     0
176
     1
 72
     2
176
     1
 73
     0
176
     1
 90
        0
176
     1
 40
-0.6
176
     1
 41
-30.0
176
     1
 62
     5
 63
     7
421
 16777215
176
     1
 74
     1
176
     1
 91
        4
176
     1
 64
     7
176
     1
 65
   257
176
     1
 75
     1
176
     1
175
     1
176
     1
 42
1.0
176
     1
 92
        0
176
     1
 66
   257
176
     1
 43
1.0
176
     1
 76
     1
176
     1
 77
     6
176
     1
 78
     2
176
     1
 67
     7
176
     1
 79
     5
176
     1
170
     0
176
     1
171
     0
176
     1
290
     0
176
     1
 93
        1
176
     1
 44
0.0
176
     1
173
     0
176
     1
  0
VISUALSTYLE
  5
32
102
{ACAD_REACTORS
330
2A
102
}
330
2A
100
AcDbVisualStyle
  2
Basic
 70
     7
177
     2
291
     1
 71
     1
176
     1
 72
     0
176
     1
 73
     1
176
     1
 90
        0
176
     1
 40
-0.6
176
     1
 41
-30.0
176
     1
 62
     5
 63
     7
421
 16777215
176
     1
 74
     0
176
     1
 91
        4
176
     1
 64
     7
176
     1
 65
   257
176
     1
 75
     1
176
     1
175
     1
176
     1
 42
1.0
176
     1
 92
        8
176
     1
 66
     7
176
     1
 43
1.0
176
     1
 76
     1
176
     1
 77
     6
176
     1
 78
     2
176
     1
 67
     7
176
     1
 79
     5
176
     1
170
     0
176
     1
171
     0
176
     1
290
     0
176
     1
 93
        1
176
     1
 44
0.0
176
     1
173
     0
176
     1
  0
VISUALSTYLE
  5
36
102
{ACAD_REACTORS
330
2A
102
}
330
2A
100
AcDbVisualStyle
  2
Brighten
 70
    12
177
     2
291
     1
 71
     2
176
     1
 72
     2
176
     1
 73
     0
176
     1
 90
        0
176
     1
 40
-0.6
176
     1
 41
-30.0
176
     1
 62
     5
 63
     7
421
 16777215
176
     1
 74
     1
176
     1
 91
        4
176
     1
 64
     7
176
     1
 65
   257
176
     1
 75
     1
176
     1
175
     1
176
     1
 42
1.0
176
     1
 92
        8
176
     1
 66
     7
176
     1
 43
1.0
176
     1
 76
     1
176
     1
 77
     6
176
     1
 78
     2
176
     1
 67
     7
176
     1
 79
     5
176
     1
170
     0
176
     1
171
     0
176
     1
290
     0
176
     1
 93
        1
176
     1
 44
50.0
176
     1
173
     0
176
     1
  0
VISUALSTYLE
  5
3A
102
{ACAD_REACTORS
330
2A
102
}
330
2A
100
AcDbVisualStyle
  2
ColorChange
 70
    16
177
     2
291
     1
 71
     2
176
     1
 72
     2
176
     1
 73
     3
176
     1
 90
        0
176
     1
 40
-0.6
176
     1
 41
-30.0
176
     1
 62
     5
 63
     8
421
  8421504
176
     1
 74
     1
176
     1
 91
        4
176
     1
 64
     7
176
     1
 65
   257
176
     1
 75
     1
176
     1
175
     1
176
     1
 42
1.0
176
     1
 92
        8
176
     1
 66
     8
424
  8421504
176
     1
 43
1.0
176
     1
 76
     1
176
     1
 77
     6
176
     1
 78
     2
176
     1
 67
     7
176
     1
 79
     5
176
     1
170
     0
176
     1
171
     0
176
     1
290
     0
176
     1
 93
        1
176
     1
 44
0.0
176
     1
173
     0
176
     1
  0
VISUALSTYLE
  5
34
102
{ACAD_REACTORS
330
2A
102
}
330
2A
100
AcDbVisualStyle
  2
Conceptual
 70
     9
177
     2
291
     0
 71
     3
176
     1
 72
     2
176
     1
 73
     0
176
     1
 90
        0
176
     1
 40
-0.6
176
     1
 41
-30.0
176
     1
 62
     5
 63
     7
421
 16777215
176
     1
 74
     2
176
     1
 91
        2
176
     1
 64
     7
176
     1
 65
   257
176
     1
 75
     1
176
     1
175
     1
176
     1
 42
40.0
176
     1
 92
        8
176
     1
 66
     7
176
     1
 43
1.0
176
     1
 76
     1
176
     1
 77
     6
176
     1
 78
     2
176
     1
 67
     7
176
     1
 79
     3
176
     1
170
     0
176
     1
171
     0
176
     1
290
     0
176
     1
 93
        1
176
     1
 44
0.0
176
     1
173
     0
176
     1
  0
VISUALSTYLE
  5
35
102
{ACAD_REACTORS
330
2A
102
}
330
2A
100
AcDbVisualStyle
  2
Dim
 70
    11
177
     2
291
     1
 71
     2
176
     1
 72
     2
176
     1
 73
     0
176
     1
 90
        0
176
     1
 40
-0.6
176
     1
 41
-30.0
176
     1
 62
     5
 63
     7
421
 16777215
176
     1
 74
     1
176
     1
 91
        4
176
     1
 64
     7
176
     1
 65
   257
176
     1
 75
     1
176
     1
175
     1
176
     1
 42
1.0
176
     1
 92
        8
176
     1
 66
     7
176
     1
 43
1.0
176
     1
 76
     1
176
     1
 77
     6
176
     1
 78
     2
176
     1
 67
     7
176
     1
 79
     5
176
     1
170
     0
176
     1
171
     0
176
     1
290
     0
176
     1
 93
        1
176
     1
 44
-50.0
176
     1
173
     0
176
     1
  0
VISUALSTYLE
  5
39
102
{ACAD_REACTORS
330
2A
102
}
330
2A
100
AcDbVisualStyle
  2
Facepattern
 70
    15
177
     2
291
     1
 71
     2
176
     1
 72
     2
176
     1
 73
     0
176
     1
 90
        0
176
     1
 40
-0.6
176
     1
 41
-30.0
176
     1
 62
     5
 63
     7
421
 16777215
176
     1
 74
     1
176
     1
 91
        4
176
     1
 64
     7
176
     1
 65
   257
176
     1
 75
     1
176
     1
175
     1
176
     1
 42
1.0
176
     1
 92
        8
176
     1
 66
     7
176
     1
 43
1.0
176
     1
 76
     1
176
     1
 77
     6
176
     1
 78
     2
176
     1
 67
     7
176
     1
 79
     5
176
     1
170
     0
176
     1
171
     0
176
     1
290
     0
176
     1
 93
        1
176
     1
 44
0.0
176
     1
173
     0
176
     1
  0
VISUALSTYLE
  5
2B
102
{ACAD_REACTORS
330
2A
102
}
330
2A
100
AcDbVisualStyle
  2
Flat
 70
     0
177
     2
291
     1
 71
     2
176
     1
 72
     1
176
     1
 73
     1
176
     1
 90
        2
176
     1
 40
-0.6
176
     1
 41
30.0
176
     1
 62
     5
 63
     7
421
 16777215
176
     1
 74
     0
176
     1
 91
        4
176
     1
 64
     7
176
     1
 65
   257
176
     1
 75
     1
176
     1
175
     1
176
     1
 42
1.0
176
     1
 92
        8
176
     1
 66
     7
176
     1
 43
1.0
176
     1
 76
     1
176
     1
 77
     6
176
     1
 78
     2
176
     1
 67
     7
176
     1
 79
     5
176
     1
170
     0
176
     1
171
     0
176
     1
290
     0
176
     1
 93
       13
176
     1
 44
0.0
176
     1
173
     0
176
     1
  0
VISUALSTYLE
  5
2C
102
{ACAD_REACTORS
330
2A
102
}
330
2A
100
AcDbVisualStyle
  2
FlatWithEdges
 70
     1
177
     2
291
     1
 71
     2
176
     1
 72
     1
176
     1
 73
     1
176
     1
 90
        2
176
     1
 40
-0.6
176
     1
 41
30.0
176
     1
 62
     5
 63
     7
421
 16777215
176
     1
 74
     1
176
     1
 91
        4
176
     1
 64
     7
176
     1
 65
   257
176
     1
 75
     1
176
     1
175
     1
176
     1
 42
1.0
176
     1
 92
        0
176
     1
 66
   257
176
     1
 43
1.0
176
     1
 76
     1
176
     1
 77
     6
176
     1
 78
     2
176
     1
 67
     7
176
     1
 79
     5
176
     1
170
     0
176
     1
171
     0
176
     1
290
     0
176
     1
 93
       13
176
     1
 44
0.0
176
     1
173
     0
176
     1
  0
VISUALSTYLE
  5
2D
102
{ACAD_REACTORS
330
2A
102
}
330
2A
100
AcDbVisualStyle
  2
Gouraud
 70
     2
177
     2
291
     1
 71
     2
176
     1
 72
     2
176
     1
 73
     1
176
     1
 90
        2
176
     1
 40
-0.6
176
     1
 41
30.0
176
     1
 62
     5
 63
     7
421
 16777215
176
     1
 74
     0
176
     1
 91
        4
176
     1
 64
     7
176
     1
 65
   257
176
     1
 75
     1
176
     1
175
     1
176
     1
 42
1.0
176
     1
 92
        0
176
     1
 66
     7
176
     1
 43
1.0
176
     1
 76
     1
176
     1
 77
     6
176
     1
 78
     2
176
     1
 67
     7
176
     1
 79
     5
176
     1
170
     0
176
     1
171
     0
176
     1
290
     0
176
     1
 93
       13
176
     1
 44
0.0
176
     1
173
     0
176
     1
  0
VISUALSTYLE
  5
2E
102
{ACAD_REACTORS
330
2A
102
}
330
2A
100
AcDbVisualStyle
  2
GouraudWithEdges
 70
     3
177
     2
291
     1
 71
     2
176
     1
 72
     2
176
     1
 73
     1
176
     1
 90
        2
176
     1
 40
-0.6
176
     1
 41
30.0
176
     1
 62
     5
 63
     7
421
 16777215
176
     1
 74
     1
176
     1
 91
        4
176
     1
 64
     7
176
     1
 65
   257
176
     1
 75
     1
176
     1
175
     1
176
     1
 42
1.0
176
     1
 92
        0
176
     1
 66
   257
176
     1
 43
1.0
176
     1
 76
     1
176
     1
 77
     6
176
     1
 78
     2
176
     1
 67
     7
176
     1
 79
     5
176
     1
170
     0
176
     1
171
     0
176
     1
290
     0
176
     1
 93
       13
176
     1
 44
0.0
176
     1
173
     0
176
     1
  0
VISUALSTYLE
  5
38
102
{ACAD_REACTORS
330
2A
102
}
330
2A
100
AcDbVisualStyle
  2
Linepattern
 70
    14
177
     2
291
     1
 71
     2
176
     1
 72
     2
176
     1
 73
     0
176
     1
 90
        0
176
     1
 40
-0.6
176
     1
 41
-30.0
176
     1
 62
     5
 63
     7
421
 16777215
176
     1
 74
     1
176
     1
 91
        4
176
     1
 64
     7
176
     1
 65
   257
176
     1
 75
     7
176
     1
175
     7
176
     1
 42
1.0
176
     1
 92
        8
176
     1
 66
     7
176
     1
 43
1.0
176
     1
 76
     1
176
     1
 77
     6
176
     1
 78
     2
176
     1
 67
     7
176
     1
 79
     5
176
     1
170
     0
176
     1
171
     0
176
     1
290
     0
176
     1
 93
        1
176
     1
 44
0.0
176
     1
173
     0
176
     1
  0
VISUALSTYLE
  5
33
102
{ACAD_REACTORS
330
2A
102
}
330
2A
100
AcDbVisualStyle
  2
Realistic
 70
     8
177
     2
291
     0
 71
     2
176
     1
 72
     2
176
     1
 73
     0
176
     1
 90
        0
176
     1
 40
-0.6
176
     1
 41
-30.0
176
     1
 62
     5
 63
     7
421
 16777215
176
     1
 74
     1
176
     1
 91
        0
176
     1
 64
     7
176
     1
 65
   257
176
     1
 75
     1
176
     1
175
     1
176
     1
 42
1.0
176
     1
 92
        8
176
     1
 66
     8
424
  7895160
176
     1
 43
1.0
176
     1
 76
     1
176
     1
 77
     6
176
     1
 78
     2
176
     1
 67
     7
176
     1
 79
     5
176
     1
170
     0
176
     1
171
     0
176
     1
290
     0
176
     1
 93
       13
176
     1
 44
0.0
176
     1
173
     0
176
     1
  0
VISUALSTYLE
  5
37
102
{ACAD_REACTORS
330
2A
102
}
330
2A
100
AcDbVisualStyle
  2
Thicken
 70
    13
177
     2
291
     1
 71
     2
176
     1
 72
     2
176
     1
 73
     0
176
     1
 90
        0
176
     1
 40
-0.6
176
     1
 41
-30.0
176
     1
 62
     5
 63
     7
421
 16777215
176
     1
 74
     1
176
     1
 91
        4
176
     1
 64
     7
176
     1
 65
   257
176
     1
 75
     1
176
     1
175
     1
176
     1
 42
1.0
176
     1
 92
       12
176
     1
 66
     7
176
     1
 43
1.0
176
     1
 76
     1
176
     1
 77
     6
176
     1
 78
     2
176
     1
 67
     7
176
     1
 79
     5
176
     1
170
     0
176
     1
171
     0
176
     1
290
     0
176
     1
 93
        1
176
     1
 44
0.0
176
     1
173
     0
176
     1
  0
ENDSEC
  0
EOF
