  0
SECTION
  2
HEADER
  9
$ACADVER
  1
AC1024
  9
$ACADMAINTVER
 70
     6
  9
$DWGCODEPAGE
  3
UNDEFINED
  9
$INSBASE
 10
0.0
 20
0.0
 30
0.0
  9
$EXTMIN
 10
1.000000000000000E+20
 20
1.000000000000000E+20
 30
1.000000000000000E+20
  9
$EXTMAX
 10
-1.000000000000000E+20
 20
-1.000000000000000E+20
 30
-1.000000000000000E+20
  9
$LIMMIN
 10
0.0
 20
0.0
  9
$LIMMAX
 10
12.0
 20
9.0
  9
$ORTHOMODE
 70
     0
  9
$REGENMODE
 70
     1
  9
$FILLMODE
 70
     1
  9
$QTEXTMODE
 70
     0
  9
$MIRRTEXT
 70
     1
  9
$LTSCALE
 40
1.0
  9
$ATTMODE
 70
     1
  9
$TEXTSIZE
 40
0.2
  9
$TRACEWID
 40
0.05
  9
$TEXTSTYLE
  7
Standard
  9
$CLAYER
  8
0
  9
$CELTYPE
  6
ByLayer
  9
$CECOLOR
 62
   256
  9
$CELTSCALE
 40
1.0
  9
$DISPSILH
 70
     0
  9
$DIMSCALE
 40
1.0
  9
$DIMASZ
 40
0.18
  9
$DIMEXO
 40
0.0625
  9
$DIMDLI
 40
0.38
  9
$DIMRND
 40
0.0
  9
$DIMDLE
 40
0.0
  9
$DIMEXE
 40
0.18
  9
$DIMTP
 40
0.0
  9
$DIMTM
 40
0.0
  9
$DIMTXT
 40
0.18
  9
$DIMCEN
 40
0.09
  9
$DIMTSZ
 40
0.0
  9
$DIMTOL
 70
     0
  9
$DIMLIM
 70
     0
  9
$DIMTIH
 70
     1
  9
$DIMTOH
 70
     1
  9
$DIMSE1
 70
     0
  9
$DIMSE2
 70
     0
  9
$DIMTAD
 70
     0
  9
$DIMZIN
 70
     0
  9
$DIMBLK
  1

  9
$DIMASO
 70
     1
  9
$DIMSHO
 70
     1
  9
$DIMPOST
  1

  9
$DIMAPOST
  1

  9
$DIMALT
 70
     0
  9
$DIMALTD
 70
     2
  9
$DIMALTF
 40
25.4
  9
$DIMLFAC
 40
1.0
  9
$DIMTOFL
 70
     0
  9
$DIMTVP
 40
0.0
  9
$DIMTIX
 70
     0
  9
$DIMSOXD
 70
     0
  9
$DIMSAH
 70
     0
  9
$DIMBLK1
  1

  9
$DIMBLK2
  1

  9
$DIMSTYLE
  2
Standard
  9
$DIMCLRD
 70
     0
  9
$DIMCLRE
 70
     0
  9
$DIMCLRT
 70
     0
  9
$DIMTFAC
 40
1.0
  9
$DIMGAP
 40
0.09
  9
$DIMJUST
 70
     0
  9
$DIMSD1
 70
     0
  9
$DIMSD2
 70
     0
  9
$DIMTOLJ
 70
     1
  9
$DIMTZIN
 70
     0
  9
$DIMALTZ
 70
     0
  9
$DIMALTTZ
 70
     0
  9
$DIMUPT
 70
     0
  9
$DIMDEC
 70
     4
  9
$DIMTDEC
 70
     4
  9
$DIMALTU
 70
     2
  9
$DIMALTTD
 70
     2
  9
$DIMTXSTY
  7
Standard
  9
$DIMAUNIT
 70
     0
  9
$DIMADEC
 70
     0
  9
$DIMALTRND
 40
0.0
  9
$DIMAZIN
 70
     0
  9
$DIMDSEP
 70
    46
  9
$DIMATFIT
 70
     3
  9
$DIMFRAC
 70
     0
  9
$DIMLDRBLK
  1

  9
$DIMLUNIT
 70
     2
  9
$DIMLWD
 70
    -2
  9
$DIMLWE
 70
    -2
  9
$DIMTMOVE
 70
     0
  9
$DIMFXL
 40
1.0
  9
$DIMFXLON
 70
     0
  9
$DIMJOGANG
 40
0.7853981633974483
  9
$DIMTFILL
 70
     0
  9
$DIMTFILLCLR
 70
     0
  9
$DIMARCSYM
 70
     0
  9
$DIMLTYPE
  6

  9
$DIMLTEX1
  6

  9
$DIMLTEX2
  6

  9
$DIMTXTDIRECTION
 70
     0
  9
$LUNITS
 70
     2
  9
$LUPREC
 70
     4
  9
$SKETCHINC
 40
0.1
  9
$FILLETRAD
 40
0.5
  9
$AUNITS
 70
     0
  9
$AUPREC
 70
     0
  9
$MENU
  1
.
  9
$ELEVATION
 40
0.0
  9
$PELEVATION
 40
0.0
  9
$THICKNESS
 40
0.0
  9
$LIMCHECK
 70
     0
  9
$CHAMFERA
 40
0.5
  9
$CHAMFERB
 40
0.5
  9
$CHAMFERC
 40
1.0
  9
$CHAMFERD
 40
0.0
  9
$SKPOLY
 70
     0
  9
$TDCREATE
 40
2457917.618009259
  9
$TDUCREATE
 40
2457917.243009259
  9
$TDUPDATE
 40
2457917.618009259
  9
$TDUUPDATE
 40
2457917.243009259
  9
$TDINDWG
 40
0.0000000116
  9
$TDUSRTIMER
 40
0.0000000116
  9
$USRTIMER
 70
     1
  9
$ANGBASE
 50
0.0
  9
$ANGDIR
 70
     0
  9
$PDMODE
 70
     0
  9
$PDSIZE
 40
0.0
  9
$PLINEWID
 40
0.0
  9
$SPLFRAME
 70
     0
  9
$SPLINETYPE
 70
     6
  9
$SPLINESEGS
 70
     8
  9
$HANDSEED
  5
AC
  9
$SURFTAB1
 70
     6
  9
$SURFTAB2
 70
     6
  9
$SURFTYPE
 70
     6
  9
$SURFU
 70
     6
  9
$SURFV
 70
     6
  9
$UCSBASE
  2

  9
$UCSNAME
  2

  9
$UCSORG
 10
0.0
 20
0.0
 30
0.0
  9
$UCSXDIR
 10
1.0
 20
0.0
 30
0.0
  9
$UCSYDIR
 10
0.0
 20
1.0
 30
0.0
  9
$UCSORTHOREF
  2

  9
$UCSORTHOVIEW
 70
     0
  9
$UCSORGTOP
 10
0.0
 20
0.0
 30
0.0
  9
$UCSORGBOTTOM
 10
0.0
 20
0.0
 30
0.0
  9
$UCSORGLEFT
 10
0.0
 20
0.0
 30
0.0
  9
$UCSORGRIGHT
 10
0.0
 20
0.0
 30
0.0
  9
$UCSORGFRONT
 10
0.0
 20
0.0
 30
0.0
  9
$UCSORGBACK
 10
0.0
 20
0.0
 30
0.0
  9
$PUCSBASE
  2

  9
$PUCSNAME
  2

  9
$PUCSORG
 10
0.0
 20
0.0
 30
0.0
  9
$PUCSXDIR
 10
1.0
 20
0.0
 30
0.0
  9
$PUCSYDIR
 10
0.0
 20
1.0
 30
0.0
  9
$PUCSORTHOREF
  2

  9
$PUCSORTHOVIEW
 70
     0
  9
$PUCSORGTOP
 10
0.0
 20
0.0
 30
0.0
  9
$PUCSORGBOTTOM
 10
0.0
 20
0.0
 30
0.0
  9
$PUCSORGLEFT
 10
0.0
 20
0.0
 30
0.0
  9
$PUCSORGRIGHT
 10
0.0
 20
0.0
 30
0.0
  9
$PUCSORGFRONT
 10
0.0
 20
0.0
 30
0.0
  9
$PUCSORGBACK
 10
0.0
 20
0.0
 30
0.0
  9
$USERI1
 70
     0
  9
$USERI2
 70
     0
  9
$USERI3
 70
     0
  9
$USERI4
 70
     0
  9
$USERI5
 70
     0
  9
$USERR1
 40
0.0
  9
$USERR2
 40
0.0
  9
$USERR3
 40
0.0
  9
$USERR4
 40
0.0
  9
$USERR5
 40
0.0
  9
$WORLDVIEW
 70
     1
  9
$SHADEDGE
 70
     3
  9
$SHADEDIF
 70
    70
  9
$TILEMODE
 70
     1
  9
$MAXACTVP
 70
    64
  9
$PINSBASE
 10
0.0
 20
0.0
 30
0.0
  9
$PLIMCHECK
 70
     0
  9
$PEXTMIN
 10
1.000000000000000E+20
 20
1.000000000000000E+20
 30
1.000000000000000E+20
  9
$PEXTMAX
 10
-1.000000000000000E+20
 20
-1.000000000000000E+20
 30
-1.000000000000000E+20
  9
$PLIMMIN
 10
0.0
 20
0.0
  9
$PLIMMAX
 10
12.0
 20
9.0
  9
$UNITMODE
 70
     0
  9
$VISRETAIN
 70
     1
  9
$PLINEGEN
 70
     0
  9
$PSLTSCALE
 70
     1
  9
$TREEDEPTH
 70
  3020
  9
$CMLSTYLE
  2
Standard
  9
$CMLJUST
 70
     0
  9
$CMLSCALE
 40
1.0
  9
$PROXYGRAPHICS
 70
     1
  9
$MEASUREMENT
 70
     0
  9
$CELWEIGHT
370
    -1
  9
$ENDCAPS
280
     0
  9
$JOINSTYLE
280
     0
  9
$LWDISPLAY
290
     1
  9
$INSUNITS
 70
     1
  9
$HYPERLINKBASE
  1

  9
$STYLESHEET
  1

  9
$XEDIT
290
     1
  9
$CEPSNTYPE
380
     0
  9
$PSTYLEMODE
290
     1
  9
$FINGERPRINTGUID
  2
{CAF5D550-9D8D-6185-EA6B-6BD62F8F2605}
  9
$VERSIONGUID
  2
{FAEB1C32-E019-11D5-929B-00C0DF256EC4}
  9
$EXTNAMES
290
     1
  9
$PSVPSCALE
 40
0.0
  9
$OLESTARTUP
290
     0
  9
$SORTENTS
280
   127
  9
$INDEXCTL
280
     0
  9
$HIDETEXT
280
     1
  9
$XCLIPFRAME
280
     2
  9
$HALOGAP
280
     0
  9
$OBSCOLOR
 70
   257
  9
$OBSLTYPE
280
     0
  9
$INTERSECTIONDISPLAY
280
     0
  9
$INTERSECTIONCOLOR
 70
   257
  9
$DIMASSOC
280
     2
  9
$PROJECTNAME
  1

  9
$CAMERADISPLAY
290
     0
  9
$LENSLENGTH
 40
50.0
  9
$CAMERAHEIGHT
 40
0.0
  9
$STEPSPERSEC
 40
2.0
  9
$STEPSIZE
 40
6.0
  9
$3DDWFPREC
 40
2.0
  9
$PSOLWIDTH
 40
0.25
  9
$PSOLHEIGHT
 40
4.0
  9
$LOFTANG1
 40
1.570796326794897
  9
$LOFTANG2
 40
1.570796326794897
  9
$LOFTMAG1
 40
0.0
  9
$LOFTMAG2
 40
0.0
  9
$LOFTPARAM
 70
     7
  9
$LOFTNORMALS
280
     1
  9
$LATITUDE
 40
37.795
  9
$LONGITUDE
 40
-122.394
  9
$NORTHDIRECTION
 40
0.0
  9
$TIMEZONE
 70
 -8000
  9
$LIGHTGLYPHDISPLAY
280
     1
  9
$TILEMODELIGHTSYNCH
280
     1
  9
$CMATERIAL
347
3C
  9
$SOLIDHIST
280
     1
  9
$SHOWHIST
280
     1
  9
$DWFFRAME
280
     2
  9
$DGNFRAME
280
     2
  9
$REALWORLDSCALE
290
     1
  9
$INTERFERECOLOR
 62
   256
  9
$CSHADOW
280
     0
  9
$SHADOWPLANELOCATION
 40
0.0
  0
ENDSEC
  0
SECTION
  2
CLASSES
  0
CLASS
  1
ACDBDICTIONARYWDFLT
  2
AcDbDictionaryWithDefault
  3
ObjectDBX Classes
 90
        0
 91
        4
280
     0
281
     0
  0
CLASS
  1
VISUALSTYLE
  2
AcDbVisualStyle
  3
ObjectDBX Classes
 90
     4095
 91
        4
280
     0
281
     0
  0
CLASS
  1
MATERIAL
  2
AcDbMaterial
  3
ObjectDBX Classes
 90
     1153
 91
        4
280
     0
281
     0
  0
CLASS
  1
SUN
  2
AcDbSun
  3
SCENEOE
 90
     1024
 91
        4
280
     0
281
     0
  0
ENDSEC
  0
SECTION
  2
TABLES
  0
TABLE
  2
VPORT
  5
8
330
0
100
AcDbSymbolTable
 70
     1
  0
VPORT
  5
29
330
8
100
AcDbSymbolTableRecord
100
AcDbViewportTableRecord
  2
*Active
 70
     0
 10
0.0
 20
0.0
 11
1.0
 21
1.0
 12
0.0
 22
0.0
 13
0.0
 23
0.0
 14
0.5
 24
0.5
 15
0.5
 25
0.5
 16
0.0
 26
0.0
 36
1.0
 17
91.00082462281999
 27
-128.4993055234307
 37
0.0
 40
256.9986110468615
 41
0.7081814508812795
 42
50.0
 43
0.0
 44
0.0
 50
0.0
 51
0.0
 71
     0
 72
   100
 73
     1
 74
     3
 75
     0
 76
     0
 77
     0
 78
     0
281
     0
 65
     1
110
0.0
120
0.0
130
0.0
111
1.0
121
0.0
131
0.0
112
0.0
122
1.0
132
0.0
 79
     0
146
0.0
 60
     3
 61
     5
292
     1
282
     1
141
0.0
142
0.0
 63
   250
361
3F
  0
ENDTAB
  0
TABLE
  2
LTYPE
  5
5
330
0
100
AcDbSymbolTable
 70
     2
  0
LTYPE
  5
14
330
5
100
AcDbSymbolTableRecord
100
AcDbLinetypeTableRecord
  2
ByBlock
 70
     0
  3

 72
    65
 73
     0
 40
0.0
  0
LTYPE
  5
15
330
5
100
AcDbSymbolTableRecord
100
AcDbLinetypeTableRecord
  2
ByLayer
 70
     0
  3

 72
    65
 73
     0
 40
0.0
  0
LTYPE
  5
16
330
5
100
AcDbSymbolTableRecord
100
AcDbLinetypeTableRecord
  2
Continuous
 70
     0
  3
Solid line
 72
    65
 73
     0
 40
0.0
  0
LTYPE
  5
A8
330
5
100
AcDbSymbolTableRecord
100
AcDbLinetypeTableRecord
  2
AI-Linetype-1
 70
     0
  3
Adobe Illustrator Linetype No. 1
 72
    65
 73
     2
 40
1.411111110758333
 49
0.7055555553791667
 74
     0
 49
-0.7055555553791667
 74
     0
  0
ENDTAB
  0
TABLE
  2
LAYER
  5
2
330
0
100
AcDbSymbolTable
 70
     2
  0
LAYER
  5
10
330
2
100
AcDbSymbolTableRecord
100
AcDbLayerTableRecord
  2
0
 70
     0
 62
     7
  6
Continuous
370
    -3
390
F
347
3E
  0
LAYER
  5
40
330
2
100
AcDbSymbolTableRecord
100
AcDbLayerTableRecord
  2
_U+30EC_U+30A4_U+30E4_U+30FC 1
 70
     0
 62
     7
  6
Continuous
370
    -3
390
F
347
3E
  0
ENDTAB
  0
TABLE
  2
STYLE
  5
3
330
0
100
AcDbSymbolTable
 70
     1
  0
STYLE
  5
11
330
3
100
AcDbSymbolTableRecord
100
AcDbTextStyleTableRecord
  2
Standard
 70
     0
 40
0.0
 41
1.0
 50
0.0
 71
     0
 42
0.2
  3
txt
  4

  0
ENDTAB
  0
TABLE
  2
VIEW
  5
6
330
0
100
AcDbSymbolTable
 70
     0
  0
ENDTAB
  0
TABLE
  2
UCS
  5
7
330
0
100
AcDbSymbolTable
 70
     0
  0
ENDTAB
  0
TABLE
  2
APPID
  5
9
330
0
100
AcDbSymbolTable
 70
     1
  0
APPID
  5
12
330
9
100
AcDbSymbolTableRecord
100
AcDbRegAppTableRecord
  2
ACAD
 70
     0
  0
ENDTAB
  0
TABLE
  2
DIMSTYLE
  5
A
330
0
100
AcDbSymbolTable
 70
     1
100
AcDbDimStyleTable
  0
DIMSTYLE
105
27
330
A
100
AcDbSymbolTableRecord
100
AcDbDimStyleTableRecord
  2
Standard
 70
     0
178
     0
340
11
  0
ENDTAB
  0
TABLE
  2
BLOCK_RECORD
  5
1
330
0
100
AcDbSymbolTable
 70
     6
  0
BLOCK_RECORD
  5
1F
330
1
100
AcDbSymbolTableRecord
100
AcDbBlockTableRecord
  2
*Model_Space
340
22
 70
     0
280
     1
281
     0
  0
BLOCK_RECORD
  5
1B
330
1
100
AcDbSymbolTableRecord
100
AcDbBlockTableRecord
  2
*Paper_Space
340
1E
 70
     0
280
     1
281
     0
  0
BLOCK_RECORD
  5
23
330
1
100
AcDbSymbolTableRecord
100
AcDbBlockTableRecord
  2
*Paper_Space0
340
26
 70
     0
280
     1
281
     0
  0
BLOCK_RECORD
  5
56
330
1
100
AcDbSymbolTableRecord
100
AcDbBlockTableRecord
  2
block 2
340
0
102
{BLKREFS
331
57
102
}
 70
     0
280
     1
281
     0
  0
BLOCK_RECORD
  5
6A
330
1
100
AcDbSymbolTableRecord
100
AcDbBlockTableRecord
  2
block 3
340
0
102
{BLKREFS
331
6B
102
}
 70
     0
280
     1
281
     0
  0
BLOCK_RECORD
  5
80
330
1
100
AcDbSymbolTableRecord
100
AcDbBlockTableRecord
  2
block 4
340
0
102
{BLKREFS
331
81
102
}
 70
     0
280
     1
281
     0
  0
BLOCK_RECORD
  5
91
330
1
100
AcDbSymbolTableRecord
100
AcDbBlockTableRecord
  2
block 5
340
0
102
{BLKREFS
331
92
102
}
 70
     0
280
     1
281
     0
  0
BLOCK_RECORD
  5
99
330
1
100
AcDbSymbolTableRecord
100
AcDbBlockTableRecord
  2
block 6
340
0
102
{BLKREFS
331
9A
102
}
 70
     0
280
     1
281
     0
  0
ENDTAB
  0
ENDSEC
  0
SECTION
  2
BLOCKS
  0
BLOCK
  5
20
330
1F
100
AcDbEntity
  8
0
100
AcDbBlockBegin
  2
*Model_Space
 70
     0
 10
0.0
 20
0.0
 30
0.0
  3
*Model_Space
  1

  0
ENDBLK
  5
21
330
1F
100
AcDbEntity
  8
0
100
AcDbBlockEnd
  0
BLOCK
  5
1C
330
1B
100
AcDbEntity
 67
     1
  8
0
100
AcDbBlockBegin
  2
*Paper_Space
 70
     0
 10
0.0
 20
0.0
 30
0.0
  3
*Paper_Space
  1

  0
ENDBLK
  5
1D
330
1B
100
AcDbEntity
 67
     1
  8
0
100
AcDbBlockEnd
  0
BLOCK
  5
24
330
23
100
AcDbEntity
  8
0
100
AcDbBlockBegin
  2
*Paper_Space0
 70
     0
 10
0.0
 20
0.0
 30
0.0
  3
*Paper_Space0
  1

  0
ENDBLK
  5
25
330
23
100
AcDbEntity
  8
0
100
AcDbBlockEnd
  0
BLOCK
  5
58
330
56
100
AcDbEntity
  8
0
100
AcDbBlockBegin
  2
block 2
 70
     0
 10
0.0
 20
0.0
 30
0.0
  3
block 2
  1

  0
SPLINE
  5
5A
330
56
100
AcDbEntity
  8
_U+30EC_U+30A4_U+30E4_U+30FC 1
370
     0
100
AcDbSpline
210
0.0
220
0.0
230
1.0
 70
    11
 71
     3
 72
    29
 73
    25
 74
     0
 42
0.0000000001
 43
0.0000000001
 12
1.0
 22
0.0
 32
0.0
 13
1.0
 23
0.0
 33
0.0
 40
0.0
 40
0.0
 40
0.0
 40
0.0
 40
1.0
 40
1.0
 40
1.0
 40
2.0
 40
2.0
 40
2.0
 40
3.0
 40
3.0
 40
3.0
 40
4.0
 40
4.0
 40
4.0
 40
5.0
 40
5.0
 40
5.0
 40
6.0
 40
6.0
 40
6.0
 40
7.0
 40
7.0
 40
7.0
 40
8.0
 40
8.0
 40
8.0
 40
8.0
 10
84.83306475743757
 20
-117.1871622428386
 30
0.0
 10
84.54815536080741
 20
-117.1871622428386
 30
0.0
 10
84.27685409134398
 20
-117.0495306782029
 30
0.0
 10
84.27685409134398
 20
-116.7005425055471
 30
0.0
 10
84.27685409134398
 20
-116.444571910993
 30
0.0
 10
84.42826603792072
 20
-116.3493150208259
 30
0.0
 10
84.54143742461117
 20
-116.2879923211884
 30
0.0
 10
84.40793997455773
 20
-116.2287366788421
 30
0.0
 10
84.32663572110584
 20
-116.1145317635061
 30
0.0
 10
84.32663572110584
 20
-115.9538180591192
 30
0.0
 10
84.32663572110584
 20
-115.678727184622
 30
0.0
 10
84.53919811254576
 20
-115.5433349320517
 30
0.0
 10
84.83306475743757
 20
-115.5433349320517
 30
0.0
 10
85.13588865059103
 20
-115.5433349320517
 30
0.0
 10
85.3394937937693
 20
-115.6871676685608
 30
0.0
 10
85.3394937937693
 20
-115.9538180591192
 30
0.0
 10
85.3394937937693
 20
-116.1145317635061
 30
0.0
 10
85.25577797347772
 20
-116.2287366788421
 30
0.0
 10
85.12245277819856
 20
-116.2879923211884
 30
0.0
 10
85.21736515881719
 20
-116.3388074795959
 30
0.0
 10
85.38686385669148
 20
-116.434064369763
 30
0.0
 10
85.38686385669148
 20
-116.6964083909648
 30
0.0
 10
85.38686385669148
 20
-117.0707180154372
 30
0.0
 10
85.08851858766884
 20
-117.1871622428386
 30
0.0
 10
84.83306475743757
 20
-117.1871622428386
 30
0.0
  0
SPLINE
  5
5B
330
56
100
AcDbEntity
  8
_U+30EC_U+30A4_U+30E4_U+30FC 1
370
     0
100
AcDbSpline
210
0.0
220
0.0
230
1.0
 70
    11
 71
     3
 72
    17
 73
    13
 74
     0
 42
0.0000000001
 43
0.0000000001
 12
1.0
 22
0.0
 32
0.0
 13
1.0
 23
0.0
 33
0.0
 40
0.0
 40
0.0
 40
0.0
 40
0.0
 40
1.0
 40
1.0
 40
1.0
 40
2.0
 40
2.0
 40
2.0
 40
3.0
 40
3.0
 40
3.0
 40
4.0
 40
4.0
 40
4.0
 40
4.0
 10
84.83306475743757
 20
-116.395996064651
 30
0.0
 10
84.67924124402117
 20
-116.395996064651
 30
0.0
 10
84.5164604823431
 20
-116.482640216105
 30
0.0
 10
84.5164604823431
 20
-116.6857285949605
 30
0.0
 10
84.5164604823431
 20
-116.8908840311071
 30
0.0
 10
84.65219724446196
 20
-116.992514347922
 30
0.0
 10
84.83306475743757
 20
-116.992514347922
 30
0.0
 10
85.03201902171075
 20
-116.992514347922
 30
0.0
 10
85.14949677775778
 20
-116.8698689486471
 30
0.0
 10
85.14949677775778
 20
-116.6921020216082
 30
0.0
 10
85.14949677775778
 20
-116.4698933628096
 30
0.0
 10
84.97551945575265
 20
-116.395996064651
 30
0.0
 10
84.83306475743757
 20
-116.395996064651
 30
0.0
  0
SPLINE
  5
5C
330
56
100
AcDbEntity
  8
_U+30EC_U+30A4_U+30E4_U+30FC 1
370
     0
100
AcDbSpline
210
0.0
220
0.0
230
1.0
 70
    11
 71
     3
 72
    17
 73
    13
 74
     0
 42
0.0000000001
 43
0.0000000001
 12
1.0
 22
0.0
 32
0.0
 13
1.0
 23
0.0
 33
0.0
 40
0.0
 40
0.0
 40
0.0
 40
0.0
 40
1.0
 40
1.0
 40
1.0
 40
2.0
 40
2.0
 40
2.0
 40
3.0
 40
3.0
 40
3.0
 40
4.0
 40
4.0
 40
4.0
 40
4.0
 10
84.83306475743757
 20
-115.7359157696771
 30
0.0
 10
84.65667586859279
 20
-115.7359157696771
 30
0.0
 10
84.56624211210497
 20
-115.83100040507
 30
0.0
 10
84.56624211210497
 20
-115.9663926576404
 30
0.0
 10
84.56624211210497
 20
-116.0892103116895
 30
0.0
 10
84.64306774142604
 20
-116.2077215963821
 30
0.0
 10
84.83306475743757
 20
-116.2077215963821
 30
0.0
 10
85.02288951867483
 20
-116.2077215963821
 30
0.0
 10
85.09971514799591
 20
-116.0892103116895
 30
0.0
 10
85.09971514799591
 20
-115.9663926576404
 30
0.0
 10
85.09971514799591
 20
-115.83100040507
 30
0.0
 10
85.00704207944268
 20
-115.7359157696771
 30
0.0
 10
84.83306475743757
 20
-115.7359157696771
 30
0.0
  0
HATCH
  5
5D
330
56
100
AcDbEntity
  8
_U+30EC_U+30A4_U+30E4_U+30FC 1
 62
     7
420
 16777215
100
AcDbHatch
 10
0.0
 20
0.0
 30
0.0
210
0.0
220
0.0
230
1.0
  2
SOLID
 70
     1
 71
     0
 91
        3
 92
        1
 93
        1
 72
     4
 94
        3
 73
     0
 74
     1
 95
       29
 96
       25
 40
0.0
 40
0.0
 40
0.0
 40
0.0
 40
1.0
 40
1.0
 40
1.0
 40
2.0
 40
2.0
 40
2.0
 40
3.0
 40
3.0
 40
3.0
 40
4.0
 40
4.0
 40
4.0
 40
5.0
 40
5.0
 40
5.0
 40
6.0
 40
6.0
 40
6.0
 40
7.0
 40
7.0
 40
7.0
 40
8.0
 40
8.0
 40
8.0
 40
8.0
 10
84.83306475743757
 20
-117.1871622428386
 10
84.54815536080741
 20
-117.1871622428386
 10
84.27685409134398
 20
-117.0495306782029
 10
84.27685409134398
 20
-116.7005425055471
 10
84.27685409134398
 20
-116.444571910993
 10
84.42826603792072
 20
-116.3493150208259
 10
84.54143742461117
 20
-116.2879923211884
 10
84.40793997455773
 20
-116.2287366788421
 10
84.32663572110584
 20
-116.1145317635061
 10
84.32663572110584
 20
-115.9538180591192
 10
84.32663572110584
 20
-115.678727184622
 10
84.53919811254576
 20
-115.5433349320517
 10
84.83306475743757
 20
-115.5433349320517
 10
85.13588865059103
 20
-115.5433349320517
 10
85.3394937937693
 20
-115.6871676685608
 10
85.3394937937693
 20
-115.9538180591192
 10
85.3394937937693
 20
-116.1145317635061
 10
85.25577797347772
 20
-116.2287366788421
 10
85.12245277819856
 20
-116.2879923211884
 10
85.21736515881719
 20
-116.3388074795959
 10
85.38686385669148
 20
-116.434064369763
 10
85.38686385669148
 20
-116.6964083909648
 10
85.38686385669148
 20
-117.0707180154372
 10
85.08851858766884
 20
-117.1871622428386
 10
84.83306475743757
 20
-117.1871622428386
 97
        0
 97
        0
 92
        1
 93
        1
 72
     4
 94
        3
 73
     0
 74
     1
 95
       17
 96
       13
 40
0.0
 40
0.0
 40
0.0
 40
0.0
 40
1.0
 40
1.0
 40
1.0
 40
2.0
 40
2.0
 40
2.0
 40
3.0
 40
3.0
 40
3.0
 40
4.0
 40
4.0
 40
4.0
 40
4.0
 10
84.83306475743757
 20
-116.395996064651
 10
84.67924124402117
 20
-116.395996064651
 10
84.5164604823431
 20
-116.482640216105
 10
84.5164604823431
 20
-116.6857285949605
 10
84.5164604823431
 20
-116.8908840311071
 10
84.65219724446196
 20
-116.992514347922
 10
84.83306475743757
 20
-116.992514347922
 10
85.03201902171075
 20
-116.992514347922
 10
85.14949677775778
 20
-116.8698689486471
 10
85.14949677775778
 20
-116.6921020216082
 10
85.14949677775778
 20
-116.4698933628096
 10
84.97551945575265
 20
-116.395996064651
 10
84.83306475743757
 20
-116.395996064651
 97
        0
 97
        0
 92
        1
 93
        1
 72
     4
 94
        3
 73
     0
 74
     1
 95
       17
 96
       13
 40
0.0
 40
0.0
 40
0.0
 40
0.0
 40
1.0
 40
1.0
 40
1.0
 40
2.0
 40
2.0
 40
2.0
 40
3.0
 40
3.0
 40
3.0
 40
4.0
 40
4.0
 40
4.0
 40
4.0
 10
84.83306475743757
 20
-115.7359157696771
 10
84.65667586859279
 20
-115.7359157696771
 10
84.56624211210497
 20
-115.83100040507
 10
84.56624211210497
 20
-115.9663926576404
 10
84.56624211210497
 20
-116.0892103116895
 10
84.64306774142604
 20
-116.2077215963821
 10
84.83306475743757
 20
-116.2077215963821
 10
85.02288951867483
 20
-116.2077215963821
 10
85.09971514799591
 20
-116.0892103116895
 10
85.09971514799591
 20
-115.9663926576404
 10
85.09971514799591
 20
-115.83100040507
 10
85.00704207944268
 20
-115.7359157696771
 10
84.83306475743757
 20
-115.7359157696771
 97
        0
 97
        0
 75
     2
 76
     1
 98
        0
  0
ENDBLK
  5
59
330
56
100
AcDbEntity
  8
0
100
AcDbBlockEnd
  0
BLOCK
  5
6C
330
6A
100
AcDbEntity
  8
0
100
AcDbBlockBegin
  2
block 3
 70
     0
 10
0.0
 20
0.0
 30
0.0
  3
block 3
  1

  0
SPLINE
  5
6E
330
6A
100
AcDbEntity
  8
_U+30EC_U+30A4_U+30E4_U+30FC 1
370
     0
100
AcDbSpline
210
0.0
220
0.0
230
1.0
 70
    11
 71
     3
 72
    26
 73
    22
 74
     0
 42
0.0000000001
 43
0.0000000001
 12
1.0
 22
0.0
 32
0.0
 13
1.0
 23
0.0
 33
0.0
 40
0.0
 40
0.0
 40
0.0
 40
0.0
 40
1.0
 40
1.0
 40
1.0
 40
2.0
 40
2.0
 40
2.0
 40
3.0
 40
3.0
 40
3.0
 40
4.0
 40
4.0
 40
4.0
 40
5.0
 40
5.0
 40
5.0
 40
6.0
 40
6.0
 40
6.0
 40
7.0
 40
7.0
 40
7.0
 40
7.0
 10
89.11394040740902
 20
-140.1361490535076
 30
0.0
 10
89.11394040740902
 20
-140.1361490535076
 30
0.0
 10
89.11394040740902
 20
-139.0319959504851
 30
0.0
 10
89.11394040740902
 20
-139.0319959504851
 30
0.0
 10
89.11394040740902
 20
-139.0319959504851
 30
0.0
 10
88.76150713926796
 20
-139.0319959504851
 30
0.0
 10
88.76150713926796
 20
-139.0319959504851
 30
0.0
 10
88.76150713926796
 20
-139.0319959504851
 30
0.0
 10
88.76150713926796
 20
-138.8838568446193
 30
0.0
 10
88.76150713926796
 20
-138.8838568446193
 30
0.0
 10
89.11635197424869
 20
-138.8690429340327
 30
0.0
 10
89.1659613492363
 20
-138.7060899175804
 30
0.0
 10
89.19765622770059
 20
-138.5917127474701
 30
0.0
 10
89.19765622770059
 20
-138.5917127474701
 30
0.0
 10
89.3537190531824
 20
-138.5917127474701
 30
0.0
 10
89.3537190531824
 20
-138.5917127474701
 30
0.0
 10
89.3537190531824
 20
-138.5917127474701
 30
0.0
 10
89.3537190531824
 20
-140.1361490535076
 30
0.0
 10
89.3537190531824
 20
-140.1361490535076
 30
0.0
 10
89.3537190531824
 20
-140.1361490535076
 30
0.0
 10
89.11394040740902
 20
-140.1361490535076
 30
0.0
 10
89.11394040740902
 20
-140.1361490535076
 30
0.0
  0
HATCH
  5
6F
330
6A
100
AcDbEntity
  8
_U+30EC_U+30A4_U+30E4_U+30FC 1
 62
     7
420
 16777215
100
AcDbHatch
 10
0.0
 20
0.0
 30
0.0
210
0.0
220
0.0
230
1.0
  2
SOLID
 70
     1
 71
     0
 91
        1
 92
        1
 93
        1
 72
     4
 94
        3
 73
     0
 74
     1
 95
       26
 96
       22
 40
0.0
 40
0.0
 40
0.0
 40
0.0
 40
1.0
 40
1.0
 40
1.0
 40
2.0
 40
2.0
 40
2.0
 40
3.0
 40
3.0
 40
3.0
 40
4.0
 40
4.0
 40
4.0
 40
5.0
 40
5.0
 40
5.0
 40
6.0
 40
6.0
 40
6.0
 40
7.0
 40
7.0
 40
7.0
 40
7.0
 10
89.11394040740902
 20
-140.1361490535076
 10
89.11394040740902
 20
-140.1361490535076
 10
89.11394040740902
 20
-139.0319959504851
 10
89.11394040740902
 20
-139.0319959504851
 10
89.11394040740902
 20
-139.0319959504851
 10
88.76150713926796
 20
-139.0319959504851
 10
88.76150713926796
 20
-139.0319959504851
 10
88.76150713926796
 20
-139.0319959504851
 10
88.76150713926796
 20
-138.8838568446193
 10
88.76150713926796
 20
-138.8838568446193
 10
89.11635197424869
 20
-138.8690429340327
 10
89.1659613492363
 20
-138.7060899175804
 10
89.19765622770059
 20
-138.5917127474701
 10
89.19765622770059
 20
-138.5917127474701
 10
89.3537190531824
 20
-138.5917127474701
 10
89.3537190531824
 20
-138.5917127474701
 10
89.3537190531824
 20
-138.5917127474701
 10
89.3537190531824
 20
-140.1361490535076
 10
89.3537190531824
 20
-140.1361490535076
 10
89.3537190531824
 20
-140.1361490535076
 10
89.11394040740902
 20
-140.1361490535076
 10
89.11394040740902
 20
-140.1361490535076
 97
        0
 97
        0
 75
     2
 76
     1
 98
        0
  0
SPLINE
  5
70
330
6A
100
AcDbEntity
  8
_U+30EC_U+30A4_U+30E4_U+30FC 1
370
     0
100
AcDbSpline
210
0.0
220
0.0
230
1.0
 70
    11
 71
     3
 72
    29
 73
    25
 74
     0
 42
0.0000000001
 43
0.0000000001
 12
1.0
 22
0.0
 32
0.0
 13
1.0
 23
0.0
 33
0.0
 40
0.0
 40
0.0
 40
0.0
 40
0.0
 40
1.0
 40
1.0
 40
1.0
 40
2.0
 40
2.0
 40
2.0
 40
3.0
 40
3.0
 40
3.0
 40
4.0
 40
4.0
 40
4.0
 40
5.0
 40
5.0
 40
5.0
 40
6.0
 40
6.0
 40
6.0
 40
7.0
 40
7.0
 40
7.0
 40
8.0
 40
8.0
 40
8.0
 40
8.0
 10
90.42376571090101
 20
-140.1867919571408
 30
0.0
 10
90.13885631427084
 20
-140.1867919571408
 30
0.0
 10
89.86772729958169
 20
-140.0493326472793
 30
0.0
 10
89.86772729958169
 20
-139.7003444746235
 30
0.0
 10
89.86772729958169
 20
-139.4443738800695
 30
0.0
 10
90.01931150093267
 20
-139.3492892446766
 30
0.0
 10
90.13231063284887
 20
-139.2879665450391
 30
0.0
 10
89.9989854375697
 20
-139.2287109026928
 30
0.0
 10
89.91733667456928
 20
-139.1143337325825
 30
0.0
 10
89.91733667456928
 20
-138.9534477734214
 30
0.0
 10
89.91733667456928
 20
-138.6785291536984
 30
0.0
 10
90.1298990660092
 20
-138.5431369011281
 30
0.0
 10
90.42376571090101
 20
-138.5431369011281
 30
0.0
 10
90.726934113603
 20
-138.5431369011281
 30
0.0
 10
90.93019474723273
 20
-138.6871418924115
 30
0.0
 10
90.93019474723273
 20
-138.9534477734214
 30
0.0
 10
90.93019474723273
 20
-139.1143337325825
 30
0.0
 10
90.84682343648969
 20
-139.2287109026928
 30
0.0
 10
90.71315373166199
 20
-139.2879665450391
 30
0.0
 10
90.80823836705488
 20
-139.3386094486723
 30
0.0
 10
90.97773706492919
 20
-139.4336940840652
 30
0.0
 10
90.97773706492919
 20
-139.6962103600412
 30
0.0
 10
90.97773706492919
 20
-140.0706922392879
 30
0.0
 10
90.67939179590654
 20
-140.1867919571408
 30
0.0
 10
90.42376571090101
 20
-140.1867919571408
 30
0.0
  0
SPLINE
  5
71
330
6A
100
AcDbEntity
  8
_U+30EC_U+30A4_U+30E4_U+30FC 1
370
     0
100
AcDbSpline
210
0.0
220
0.0
230
1.0
 70
    11
 71
     3
 72
    17
 73
    13
 74
     0
 42
0.0000000001
 43
0.0000000001
 12
1.0
 22
0.0
 32
0.0
 13
1.0
 23
0.0
 33
0.0
 40
0.0
 40
0.0
 40
0.0
 40
0.0
 40
1.0
 40
1.0
 40
1.0
 40
2.0
 40
2.0
 40
2.0
 40
3.0
 40
3.0
 40
3.0
 40
4.0
 40
4.0
 40
4.0
 40
4.0
 10
90.42376571090101
 20
-139.3957980337275
 30
0.0
 10
90.27011445225887
 20
-139.3957980337275
 30
0.0
 10
90.10750594535507
 20
-139.4826144399557
 30
0.0
 10
90.10750594535507
 20
-139.685530564037
 30
0.0
 10
90.10750594535507
 20
-139.8908582549578
 30
0.0
 10
90.24289819792538
 20
-139.9921440622242
 30
0.0
 10
90.42376571090101
 20
-139.9921440622242
 30
0.0
 10
90.62289222994845
 20
-139.9921440622242
 30
0.0
 10
90.74036998599547
 20
-139.8694986629493
 30
0.0
 10
90.74036998599547
 20
-139.6917317359104
 30
0.0
 10
90.74036998599547
 20
-139.4698675866603
 30
0.0
 10
90.56639266399036
 20
-139.3957980337275
 30
0.0
 10
90.42376571090101
 20
-139.3957980337275
 30
0.0
  0
SPLINE
  5
72
330
6A
100
AcDbEntity
  8
_U+30EC_U+30A4_U+30E4_U+30FC 1
370
     0
100
AcDbSpline
210
0.0
220
0.0
230
1.0
 70
    11
 71
     3
 72
    17
 73
    13
 74
     0
 42
0.0000000001
 43
0.0000000001
 12
1.0
 22
0.0
 32
0.0
 13
1.0
 23
0.0
 33
0.0
 40
0.0
 40
0.0
 40
0.0
 40
0.0
 40
1.0
 40
1.0
 40
1.0
 40
2.0
 40
2.0
 40
2.0
 40
3.0
 40
3.0
 40
3.0
 40
4.0
 40
4.0
 40
4.0
 40
4.0
 10
90.42376571090101
 20
-138.7357177387536
 30
0.0
 10
90.24772133160474
 20
-138.7357177387536
 30
0.0
 10
90.15711532034267
 20
-138.8308023741465
 30
0.0
 10
90.15711532034267
 20
-138.9661946267168
 30
0.0
 10
90.15711532034267
 20
-139.0888400259917
 30
0.0
 10
90.23394094966375
 20
-139.2073513106843
 30
0.0
 10
90.42376571090101
 20
-139.2073513106843
 30
0.0
 10
90.6139349816868
 20
-139.2073513106843
 30
0.0
 10
90.69076061100787
 20
-139.0888400259917
 30
0.0
 10
90.69076061100787
 20
-138.9661946267168
 30
0.0
 10
90.69076061100787
 20
-138.8308023741465
 30
0.0
 10
90.59808754245465
 20
-138.7357177387536
 30
0.0
 10
90.42376571090101
 20
-138.7357177387536
 30
0.0
  0
HATCH
  5
73
330
6A
100
AcDbEntity
  8
_U+30EC_U+30A4_U+30E4_U+30FC 1
 62
     7
420
 16777215
100
AcDbHatch
 10
0.0
 20
0.0
 30
0.0
210
0.0
220
0.0
230
1.0
  2
SOLID
 70
     1
 71
     0
 91
        3
 92
        1
 93
        1
 72
     4
 94
        3
 73
     0
 74
     1
 95
       29
 96
       25
 40
0.0
 40
0.0
 40
0.0
 40
0.0
 40
1.0
 40
1.0
 40
1.0
 40
2.0
 40
2.0
 40
2.0
 40
3.0
 40
3.0
 40
3.0
 40
4.0
 40
4.0
 40
4.0
 40
5.0
 40
5.0
 40
5.0
 40
6.0
 40
6.0
 40
6.0
 40
7.0
 40
7.0
 40
7.0
 40
8.0
 40
8.0
 40
8.0
 40
8.0
 10
90.42376571090101
 20
-140.1867919571408
 10
90.13885631427084
 20
-140.1867919571408
 10
89.86772729958169
 20
-140.0493326472793
 10
89.86772729958169
 20
-139.7003444746235
 10
89.86772729958169
 20
-139.4443738800695
 10
90.01931150093267
 20
-139.3492892446766
 10
90.13231063284887
 20
-139.2879665450391
 10
89.9989854375697
 20
-139.2287109026928
 10
89.91733667456928
 20
-139.1143337325825
 10
89.91733667456928
 20
-138.9534477734214
 10
89.91733667456928
 20
-138.6785291536984
 10
90.1298990660092
 20
-138.5431369011281
 10
90.42376571090101
 20
-138.5431369011281
 10
90.726934113603
 20
-138.5431369011281
 10
90.93019474723273
 20
-138.6871418924115
 10
90.93019474723273
 20
-138.9534477734214
 10
90.93019474723273
 20
-139.1143337325825
 10
90.84682343648969
 20
-139.2287109026928
 10
90.71315373166199
 20
-139.2879665450391
 10
90.80823836705488
 20
-139.3386094486723
 10
90.97773706492919
 20
-139.4336940840652
 10
90.97773706492919
 20
-139.6962103600412
 10
90.97773706492919
 20
-140.0706922392879
 10
90.67939179590654
 20
-140.1867919571408
 10
90.42376571090101
 20
-140.1867919571408
 97
        0
 97
        0
 92
        1
 93
        1
 72
     4
 94
        3
 73
     0
 74
     1
 95
       17
 96
       13
 40
0.0
 40
0.0
 40
0.0
 40
0.0
 40
1.0
 40
1.0
 40
1.0
 40
2.0
 40
2.0
 40
2.0
 40
3.0
 40
3.0
 40
3.0
 40
4.0
 40
4.0
 40
4.0
 40
4.0
 10
90.42376571090101
 20
-139.3957980337275
 10
90.27011445225887
 20
-139.3957980337275
 10
90.10750594535507
 20
-139.4826144399557
 10
90.10750594535507
 20
-139.685530564037
 10
90.10750594535507
 20
-139.8908582549578
 10
90.24289819792538
 20
-139.9921440622242
 10
90.42376571090101
 20
-139.9921440622242
 10
90.62289222994845
 20
-139.9921440622242
 10
90.74036998599547
 20
-139.8694986629493
 10
90.74036998599547
 20
-139.6917317359104
 10
90.74036998599547
 20
-139.4698675866603
 10
90.56639266399036
 20
-139.3957980337275
 10
90.42376571090101
 20
-139.3957980337275
 97
        0
 97
        0
 92
        1
 93
        1
 72
     4
 94
        3
 73
     0
 74
     1
 95
       17
 96
       13
 40
0.0
 40
0.0
 40
0.0
 40
0.0
 40
1.0
 40
1.0
 40
1.0
 40
2.0
 40
2.0
 40
2.0
 40
3.0
 40
3.0
 40
3.0
 40
4.0
 40
4.0
 40
4.0
 40
4.0
 10
90.42376571090101
 20
-138.7357177387536
 10
90.24772133160474
 20
-138.7357177387536
 10
90.15711532034267
 20
-138.8308023741465
 10
90.15711532034267
 20
-138.9661946267168
 10
90.15711532034267
 20
-139.0888400259917
 10
90.23394094966375
 20
-139.2073513106843
 10
90.42376571090101
 20
-139.2073513106843
 10
90.6139349816868
 20
-139.2073513106843
 10
90.69076061100787
 20
-139.0888400259917
 10
90.69076061100787
 20
-138.9661946267168
 10
90.69076061100787
 20
-138.8308023741465
 10
90.59808754245465
 20
-138.7357177387536
 10
90.42376571090101
 20
-138.7357177387536
 97
        0
 97
        0
 75
     2
 76
     1
 98
        0
  0
ENDBLK
  5
6D
330
6A
100
AcDbEntity
  8
0
100
AcDbBlockEnd
  0
BLOCK
  5
82
330
80
100
AcDbEntity
  8
0
100
AcDbBlockBegin
  2
block 4
 70
     0
 10
0.0
 20
0.0
 30
0.0
  3
block 4
  1

  0
SPLINE
  5
84
330
80
100
AcDbEntity
  8
_U+30EC_U+30A4_U+30E4_U+30FC 1
370
     0
100
AcDbSpline
210
0.0
220
0.0
230
1.0
 70
    11
 71
     3
 72
    26
 73
    22
 74
     0
 42
0.0000000001
 43
0.0000000001
 12
1.0
 22
0.0
 32
0.0
 13
1.0
 23
0.0
 33
0.0
 40
0.0
 40
0.0
 40
0.0
 40
0.0
 40
1.0
 40
1.0
 40
1.0
 40
2.0
 40
2.0
 40
2.0
 40
3.0
 40
3.0
 40
3.0
 40
4.0
 40
4.0
 40
4.0
 40
5.0
 40
5.0
 40
5.0
 40
6.0
 40
6.0
 40
6.0
 40
7.0
 40
7.0
 40
7.0
 40
7.0
 10
101.3137125397758
 20
-129.9086940864464
 30
0.0
 10
101.3137125397758
 20
-129.9086940864464
 30
0.0
 10
100.2095594367532
 20
-129.9086940864464
 30
0.0
 10
100.2095594367532
 20
-129.9086940864464
 30
0.0
 10
100.2095594367532
 20
-129.9086940864464
 30
0.0
 10
100.2095594367532
 20
-130.2611273545875
 30
0.0
 10
100.2095594367532
 20
-130.2611273545875
 30
0.0
 10
100.2095594367532
 20
-130.2611273545875
 30
0.0
 10
100.0614203308874
 20
-130.2611273545875
 30
0.0
 10
100.0614203308874
 20
-130.2611273545875
 30
0.0
 10
100.0466064203008
 20
-129.9062825196068
 30
0.0
 10
99.88365340384854
 20
-129.8566731446192
 30
0.0
 10
99.76927623373824
 20
-129.8249782661549
 30
0.0
 10
99.76927623373824
 20
-129.8249782661549
 30
0.0
 10
99.76927623373824
 20
-129.6689154406731
 30
0.0
 10
99.76927623373824
 20
-129.6689154406731
 30
0.0
 10
99.76927623373824
 20
-129.6689154406731
 30
0.0
 10
101.3137125397758
 20
-129.6689154406731
 30
0.0
 10
101.3137125397758
 20
-129.6689154406731
 30
0.0
 10
101.3137125397758
 20
-129.6689154406731
 30
0.0
 10
101.3137125397758
 20
-129.9086940864464
 30
0.0
 10
101.3137125397758
 20
-129.9086940864464
 30
0.0
  0
HATCH
  5
85
330
80
100
AcDbEntity
  8
_U+30EC_U+30A4_U+30E4_U+30FC 1
 62
     7
420
 16777215
100
AcDbHatch
 10
0.0
 20
0.0
 30
0.0
210
0.0
220
0.0
230
1.0
  2
SOLID
 70
     1
 71
     0
 91
        1
 92
        1
 93
        1
 72
     4
 94
        3
 73
     0
 74
     1
 95
       26
 96
       22
 40
0.0
 40
0.0
 40
0.0
 40
0.0
 40
1.0
 40
1.0
 40
1.0
 40
2.0
 40
2.0
 40
2.0
 40
3.0
 40
3.0
 40
3.0
 40
4.0
 40
4.0
 40
4.0
 40
5.0
 40
5.0
 40
5.0
 40
6.0
 40
6.0
 40
6.0
 40
7.0
 40
7.0
 40
7.0
 40
7.0
 10
101.3137125397758
 20
-129.9086940864464
 10
101.3137125397758
 20
-129.9086940864464
 10
100.2095594367532
 20
-129.9086940864464
 10
100.2095594367532
 20
-129.9086940864464
 10
100.2095594367532
 20
-129.9086940864464
 10
100.2095594367532
 20
-130.2611273545875
 10
100.2095594367532
 20
-130.2611273545875
 10
100.2095594367532
 20
-130.2611273545875
 10
100.0614203308874
 20
-130.2611273545875
 10
100.0614203308874
 20
-130.2611273545875
 10
100.0466064203008
 20
-129.9062825196068
 10
99.88365340384854
 20
-129.8566731446192
 10
99.76927623373824
 20
-129.8249782661549
 10
99.76927623373824
 20
-129.8249782661549
 10
99.76927623373824
 20
-129.6689154406731
 10
99.76927623373824
 20
-129.6689154406731
 10
99.76927623373824
 20
-129.6689154406731
 10
101.3137125397758
 20
-129.6689154406731
 10
101.3137125397758
 20
-129.6689154406731
 10
101.3137125397758
 20
-129.6689154406731
 10
101.3137125397758
 20
-129.9086940864464
 10
101.3137125397758
 20
-129.9086940864464
 97
        0
 97
        0
 75
     2
 76
     1
 98
        0
  0
SPLINE
  5
86
330
80
100
AcDbEntity
  8
_U+30EC_U+30A4_U+30E4_U+30FC 1
370
     0
100
AcDbSpline
210
0.0
220
0.0
230
1.0
 70
    11
 71
     3
 72
    62
 73
    58
 74
     0
 42
0.0000000001
 43
0.0000000001
 12
1.0
 22
0.0
 32
0.0
 13
1.0
 23
0.0
 33
0.0
 40
0.0
 40
0.0
 40
0.0
 40
0.0
 40
1.0
 40
1.0
 40
1.0
 40
2.0
 40
2.0
 40
2.0
 40
3.0
 40
3.0
 40
3.0
 40
4.0
 40
4.0
 40
4.0
 40
5.0
 40
5.0
 40
5.0
 40
6.0
 40
6.0
 40
6.0
 40
7.0
 40
7.0
 40
7.0
 40
8.0
 40
8.0
 40
8.0
 40
9.0
 40
9.0
 40
9.0
 40
10.0
 40
10.0
 40
10.0
 40
11.0
 40
11.0
 40
11.0
 40
12.0
 40
12.0
 40
12.0
 40
13.0
 40
13.0
 40
13.0
 40
14.0
 40
14.0
 40
14.0
 40
15.0
 40
15.0
 40
15.0
 40
16.0
 40
16.0
 40
16.0
 40
17.0
 40
17.0
 40
17.0
 40
18.0
 40
18.0
 40
18.0
 40
19.0
 40
19.0
 40
19.0
 40
19.0
 10
101.3643554434089
 20
-128.6078260312161
 30
0.0
 10
101.3643554434089
 20
-128.709456348031
 30
0.0
 10
101.3433403609489
 20
-128.9423448028339
 30
0.0
 10
101.1573052047454
 20
-129.075669998113
 30
0.0
 10
101.0449950919263
 20
-129.1549071942738
 30
0.0
 10
100.9457763419511
 20
-129.1593858184046
 30
0.0
 10
100.8610269930139
 20
-129.1638644425354
 30
0.0
 10
100.8610269930139
 20
-129.1638644425354
 30
0.0
 10
100.8610269930139
 20
-128.9289089304414
 30
0.0
 10
100.8610269930139
 20
-128.9289089304414
 30
0.0
 10
100.9350965459468
 20
-128.9264973636017
 30
0.0
 10
101.1697075484923
 20
-128.9151285485004
 30
0.0
 10
101.1697075484923
 20
-128.6123046553469
 30
0.0
 10
101.1697075484923
 20
-128.4651990781268
 30
0.0
 10
101.1001166196903
 20
-128.302590571223
 30
0.0
 10
100.8717067890182
 20
-128.302590571223
 30
0.0
 10
100.7552625616167
 20
-128.302590571223
 30
0.0
 10
100.7066867152747
 20
-128.3432426979489
 30
0.0
 10
100.6749918368104
 20
-128.3773491432529
 30
0.0
 10
100.6009222838776
 20
-128.4562418298651
 30
0.0
 10
100.5881754305821
 20
-128.5806097768826
 30
0.0
 10
100.5881754305821
 20
-128.6395209096804
 30
0.0
 10
100.5881754305821
 20
-128.6598469730434
 30
0.0
 10
100.5902424878733
 20
-128.6980875329297
 30
0.0
 10
100.5943766024556
 20
-128.7277153541028
 30
0.0
 10
100.5943766024556
 20
-128.7277153541028
 30
0.0
 10
100.399728707539
 20
-128.7277153541028
 30
0.0
 10
100.399728707539
 20
-128.7277153541028
 30
0.0
 10
100.4062743889609
 20
-128.6870632273769
 30
0.0
 10
100.4083414462521
 20
-128.6415879669715
 30
0.0
 10
100.4083414462521
 20
-128.6350422855496
 30
0.0
 10
100.4083414462521
 20
-128.5647623376505
 30
0.0
 10
100.3869818542435
 20
-128.3521999462106
 30
0.0
 10
100.1503037944069
 20
-128.3521999462106
 30
0.0
 10
99.97253686736798
 20
-128.3521999462106
 30
0.0
 10
99.91741533960398
 20
-128.4924153324602
 30
0.0
 10
99.91741533960398
 20
-128.6098930885072
 30
0.0
 10
99.91741533960398
 20
-128.8927354278463
 30
0.0
 10
100.1503037944069
 20
-128.9016926761079
 30
0.0
 10
100.2219617805001
 20
-128.9061713002388
 30
0.0
 10
100.2219617805001
 20
-128.9061713002388
 30
0.0
 10
100.2219617805001
 20
-129.1232123158095
 30
0.0
 10
100.2219617805001
 20
-129.1232123158095
 30
0.0
 10
100.097249323934
 20
-129.1142550675478
 30
0.0
 10
99.72070038739622
 20
-129.0849717559232
 30
0.0
 10
99.72070038739622
 20
-128.5964572161148
 30
0.0
 10
99.72070038739622
 20
-128.3566785703414
 30
0.0
 10
99.84782441080193
 20
-128.0989854280447
 30
0.0
 10
100.1437581129849
 20
-128.0989854280447
 30
0.0
 10
100.3301377787369
 20
-128.0989854280447
 30
0.0
 10
100.4124755608344
 20
-128.2009602544081
 30
0.0
 10
100.4737982604718
 20
-128.3070691953538
 30
0.0
 10
100.5013590243538
 20
-128.241612381134
 30
0.0
 10
100.5816297491602
 20
-128.0469644862174
 30
0.0
 10
100.8589599357228
 20
-128.0469644862174
 30
0.0
 10
101.1972683123743
 20
-128.0469644862174
 30
0.0
 10
101.3643554434089
 20
-128.3115478194846
 30
0.0
 10
101.3643554434089
 20
-128.6078260312161
 30
0.0
  0
HATCH
  5
87
330
80
100
AcDbEntity
  8
_U+30EC_U+30A4_U+30E4_U+30FC 1
 62
     7
420
 16777215
100
AcDbHatch
 10
0.0
 20
0.0
 30
0.0
210
0.0
220
0.0
230
1.0
  2
SOLID
 70
     1
 71
     0
 91
        1
 92
        1
 93
        1
 72
     4
 94
        3
 73
     0
 74
     1
 95
       62
 96
       58
 40
0.0
 40
0.0
 40
0.0
 40
0.0
 40
1.0
 40
1.0
 40
1.0
 40
2.0
 40
2.0
 40
2.0
 40
3.0
 40
3.0
 40
3.0
 40
4.0
 40
4.0
 40
4.0
 40
5.0
 40
5.0
 40
5.0
 40
6.0
 40
6.0
 40
6.0
 40
7.0
 40
7.0
 40
7.0
 40
8.0
 40
8.0
 40
8.0
 40
9.0
 40
9.0
 40
9.0
 40
10.0
 40
10.0
 40
10.0
 40
11.0
 40
11.0
 40
11.0
 40
12.0
 40
12.0
 40
12.0
 40
13.0
 40
13.0
 40
13.0
 40
14.0
 40
14.0
 40
14.0
 40
15.0
 40
15.0
 40
15.0
 40
16.0
 40
16.0
 40
16.0
 40
17.0
 40
17.0
 40
17.0
 40
18.0
 40
18.0
 40
18.0
 40
19.0
 40
19.0
 40
19.0
 40
19.0
 10
101.3643554434089
 20
-128.6078260312161
 10
101.3643554434089
 20
-128.709456348031
 10
101.3433403609489
 20
-128.9423448028339
 10
101.1573052047454
 20
-129.075669998113
 10
101.0449950919263
 20
-129.1549071942738
 10
100.9457763419511
 20
-129.1593858184046
 10
100.8610269930139
 20
-129.1638644425354
 10
100.8610269930139
 20
-129.1638644425354
 10
100.8610269930139
 20
-128.9289089304414
 10
100.8610269930139
 20
-128.9289089304414
 10
100.9350965459468
 20
-128.9264973636017
 10
101.1697075484923
 20
-128.9151285485004
 10
101.1697075484923
 20
-128.6123046553469
 10
101.1697075484923
 20
-128.4651990781268
 10
101.1001166196903
 20
-128.302590571223
 10
100.8717067890182
 20
-128.302590571223
 10
100.7552625616167
 20
-128.302590571223
 10
100.7066867152747
 20
-128.3432426979489
 10
100.6749918368104
 20
-128.3773491432529
 10
100.6009222838776
 20
-128.4562418298651
 10
100.5881754305821
 20
-128.5806097768826
 10
100.5881754305821
 20
-128.6395209096804
 10
100.5881754305821
 20
-128.6598469730434
 10
100.5902424878733
 20
-128.6980875329297
 10
100.5943766024556
 20
-128.7277153541028
 10
100.5943766024556
 20
-128.7277153541028
 10
100.399728707539
 20
-128.7277153541028
 10
100.399728707539
 20
-128.7277153541028
 10
100.4062743889609
 20
-128.6870632273769
 10
100.4083414462521
 20
-128.6415879669715
 10
100.4083414462521
 20
-128.6350422855496
 10
100.4083414462521
 20
-128.5647623376505
 10
100.3869818542435
 20
-128.3521999462106
 10
100.1503037944069
 20
-128.3521999462106
 10
99.97253686736798
 20
-128.3521999462106
 10
99.91741533960398
 20
-128.4924153324602
 10
99.91741533960398
 20
-128.6098930885072
 10
99.91741533960398
 20
-128.8927354278463
 10
100.1503037944069
 20
-128.9016926761079
 10
100.2219617805001
 20
-128.9061713002388
 10
100.2219617805001
 20
-128.9061713002388
 10
100.2219617805001
 20
-129.1232123158095
 10
100.2219617805001
 20
-129.1232123158095
 10
100.097249323934
 20
-129.1142550675478
 10
99.72070038739622
 20
-129.0849717559232
 10
99.72070038739622
 20
-128.5964572161148
 10
99.72070038739622
 20
-128.3566785703414
 10
99.84782441080193
 20
-128.0989854280447
 10
100.1437581129849
 20
-128.0989854280447
 10
100.3301377787369
 20
-128.0989854280447
 10
100.4124755608344
 20
-128.2009602544081
 10
100.4737982604718
 20
-128.3070691953538
 10
100.5013590243538
 20
-128.241612381134
 10
100.5816297491602
 20
-128.0469644862174
 10
100.8589599357228
 20
-128.0469644862174
 10
101.1972683123743
 20
-128.0469644862174
 10
101.3643554434089
 20
-128.3115478194846
 10
101.3643554434089
 20
-128.6078260312161
 97
        0
 97
        0
 75
     2
 76
     1
 98
        0
  0
ENDBLK
  5
83
330
80
100
AcDbEntity
  8
0
100
AcDbBlockEnd
  0
BLOCK
  5
93
330
91
100
AcDbEntity
  8
0
100
AcDbBlockBegin
  2
block 5
 70
     0
 10
0.0
 20
0.0
 30
0.0
  3
block 5
  1

  0
SPLINE
  5
95
330
91
100
AcDbEntity
  8
_U+30EC_U+30A4_U+30E4_U+30FC 1
370
     0
100
AcDbSpline
210
0.0
220
0.0
230
1.0
 70
    11
 71
     3
 72
    26
 73
    22
 74
     0
 42
0.0000000001
 43
0.0000000001
 12
1.0
 22
0.0
 32
0.0
 13
1.0
 23
0.0
 33
0.0
 40
0.0
 40
0.0
 40
0.0
 40
0.0
 40
1.0
 40
1.0
 40
1.0
 40
2.0
 40
2.0
 40
2.0
 40
3.0
 40
3.0
 40
3.0
 40
4.0
 40
4.0
 40
4.0
 40
5.0
 40
5.0
 40
5.0
 40
6.0
 40
6.0
 40
6.0
 40
7.0
 40
7.0
 40
7.0
 40
7.0
 10
101.3137125397758
 20
-136.2549044798252
 30
0.0
 10
101.3137125397758
 20
-136.2549044798252
 30
0.0
 10
100.2095594367532
 20
-136.2549044798252
 30
0.0
 10
100.2095594367532
 20
-136.2549044798252
 30
0.0
 10
100.2095594367532
 20
-136.2549044798252
 30
0.0
 10
100.2095594367532
 20
-136.6073377479662
 30
0.0
 10
100.2095594367532
 20
-136.6073377479662
 30
0.0
 10
100.2095594367532
 20
-136.6073377479662
 30
0.0
 10
100.0614203308874
 20
-136.6073377479662
 30
0.0
 10
100.0614203308874
 20
-136.6073377479662
 30
0.0
 10
100.0466064203008
 20
-136.2524929129855
 30
0.0
 10
99.88365340384854
 20
-136.2028835379979
 30
0.0
 10
99.76927623373824
 20
-136.1711886595336
 30
0.0
 10
99.76927623373824
 20
-136.1711886595336
 30
0.0
 10
99.76927623373824
 20
-136.0151258340518
 30
0.0
 10
99.76927623373824
 20
-136.0151258340518
 30
0.0
 10
99.76927623373824
 20
-136.0151258340518
 30
0.0
 10
101.3137125397758
 20
-136.0151258340518
 30
0.0
 10
101.3137125397758
 20
-136.0151258340518
 30
0.0
 10
101.3137125397758
 20
-136.0151258340518
 30
0.0
 10
101.3137125397758
 20
-136.2549044798252
 30
0.0
 10
101.3137125397758
 20
-136.2549044798252
 30
0.0
  0
HATCH
  5
96
330
91
100
AcDbEntity
  8
_U+30EC_U+30A4_U+30E4_U+30FC 1
 62
     7
420
 16777215
100
AcDbHatch
 10
0.0
 20
0.0
 30
0.0
210
0.0
220
0.0
230
1.0
  2
SOLID
 70
     1
 71
     0
 91
        1
 92
        1
 93
        1
 72
     4
 94
        3
 73
     0
 74
     1
 95
       26
 96
       22
 40
0.0
 40
0.0
 40
0.0
 40
0.0
 40
1.0
 40
1.0
 40
1.0
 40
2.0
 40
2.0
 40
2.0
 40
3.0
 40
3.0
 40
3.0
 40
4.0
 40
4.0
 40
4.0
 40
5.0
 40
5.0
 40
5.0
 40
6.0
 40
6.0
 40
6.0
 40
7.0
 40
7.0
 40
7.0
 40
7.0
 10
101.3137125397758
 20
-136.2549044798252
 10
101.3137125397758
 20
-136.2549044798252
 10
100.2095594367532
 20
-136.2549044798252
 10
100.2095594367532
 20
-136.2549044798252
 10
100.2095594367532
 20
-136.2549044798252
 10
100.2095594367532
 20
-136.6073377479662
 10
100.2095594367532
 20
-136.6073377479662
 10
100.2095594367532
 20
-136.6073377479662
 10
100.0614203308874
 20
-136.6073377479662
 10
100.0614203308874
 20
-136.6073377479662
 10
100.0466064203008
 20
-136.2524929129855
 10
99.88365340384854
 20
-136.2028835379979
 10
99.76927623373824
 20
-136.1711886595336
 10
99.76927623373824
 20
-136.1711886595336
 10
99.76927623373824
 20
-136.0151258340518
 10
99.76927623373824
 20
-136.0151258340518
 10
99.76927623373824
 20
-136.0151258340518
 10
101.3137125397758
 20
-136.0151258340518
 10
101.3137125397758
 20
-136.0151258340518
 10
101.3137125397758
 20
-136.0151258340518
 10
101.3137125397758
 20
-136.2549044798252
 10
101.3137125397758
 20
-136.2549044798252
 97
        0
 97
        0
 75
     2
 76
     1
 98
        0
  0
ENDBLK
  5
94
330
91
100
AcDbEntity
  8
0
100
AcDbBlockEnd
  0
BLOCK
  5
9B
330
99
100
AcDbEntity
  8
0
100
AcDbBlockBegin
  2
block 6
 70
     0
 10
0.0
 20
0.0
 30
0.0
  3
block 6
  1

  0
SPLINE
  5
9D
330
99
100
AcDbEntity
  8
_U+30EC_U+30A4_U+30E4_U+30FC 1
370
     0
100
AcDbSpline
210
0.0
220
0.0
230
1.0
 70
    11
 71
     3
 72
    26
 73
    22
 74
     0
 42
0.0000000001
 43
0.0000000001
 12
1.0
 22
0.0
 32
0.0
 13
1.0
 23
0.0
 33
0.0
 40
0.0
 40
0.0
 40
0.0
 40
0.0
 40
1.0
 40
1.0
 40
1.0
 40
2.0
 40
2.0
 40
2.0
 40
3.0
 40
3.0
 40
3.0
 40
4.0
 40
4.0
 40
4.0
 40
5.0
 40
5.0
 40
5.0
 40
6.0
 40
6.0
 40
6.0
 40
7.0
 40
7.0
 40
7.0
 40
7.0
 10
78.9321329555274
 20
-128.5759588979776
 30
0.0
 10
78.9321329555274
 20
-128.5759588979776
 30
0.0
 10
78.9321329555274
 20
-127.4716335401807
 30
0.0
 10
78.9321329555274
 20
-127.4716335401807
 30
0.0
 10
78.9321329555274
 20
-127.4716335401807
 30
0.0
 10
78.60209280804045
 20
-127.4716335401807
 30
0.0
 10
78.60209280804045
 20
-127.4716335401807
 30
0.0
 10
78.60209280804045
 20
-127.4716335401807
 30
0.0
 10
78.60209280804045
 20
-127.323494434315
 30
0.0
 10
78.60209280804045
 20
-127.323494434315
 30
0.0
 10
78.93420001281854
 20
-127.3088527785027
 30
0.0
 10
78.98070880186941
 20
-127.1458997620503
 30
0.0
 10
79.01033662304256
 20
-127.0316948467143
 30
0.0
 10
79.01033662304256
 20
-127.0316948467143
 30
0.0
 10
79.15640867161716
 20
-127.0316948467143
 30
0.0
 10
79.15640867161716
 20
-127.0316948467143
 30
0.0
 10
79.15640867161716
 20
-127.0316948467143
 30
0.0
 10
79.15640867161716
 20
-128.5759588979776
 30
0.0
 10
79.15640867161716
 20
-128.5759588979776
 30
0.0
 10
79.15640867161716
 20
-128.5759588979776
 30
0.0
 10
78.9321329555274
 20
-128.5759588979776
 30
0.0
 10
78.9321329555274
 20
-128.5759588979776
 30
0.0
  0
HATCH
  5
9E
330
99
100
AcDbEntity
  8
_U+30EC_U+30A4_U+30E4_U+30FC 1
 62
     7
420
 16777215
100
AcDbHatch
 10
0.0
 20
0.0
 30
0.0
210
0.0
220
0.0
230
1.0
  2
SOLID
 70
     1
 71
     0
 91
        1
 92
        1
 93
        1
 72
     4
 94
        3
 73
     0
 74
     1
 95
       26
 96
       22
 40
0.0
 40
0.0
 40
0.0
 40
0.0
 40
1.0
 40
1.0
 40
1.0
 40
2.0
 40
2.0
 40
2.0
 40
3.0
 40
3.0
 40
3.0
 40
4.0
 40
4.0
 40
4.0
 40
5.0
 40
5.0
 40
5.0
 40
6.0
 40
6.0
 40
6.0
 40
7.0
 40
7.0
 40
7.0
 40
7.0
 10
78.9321329555274
 20
-128.5759588979776
 10
78.9321329555274
 20
-128.5759588979776
 10
78.9321329555274
 20
-127.4716335401807
 10
78.9321329555274
 20
-127.4716335401807
 10
78.9321329555274
 20
-127.4716335401807
 10
78.60209280804045
 20
-127.4716335401807
 10
78.60209280804045
 20
-127.4716335401807
 10
78.60209280804045
 20
-127.4716335401807
 10
78.60209280804045
 20
-127.323494434315
 10
78.60209280804045
 20
-127.323494434315
 10
78.93420001281854
 20
-127.3088527785027
 10
78.98070880186941
 20
-127.1458997620503
 10
79.01033662304256
 20
-127.0316948467143
 10
79.01033662304256
 20
-127.0316948467143
 10
79.15640867161716
 20
-127.0316948467143
 10
79.15640867161716
 20
-127.0316948467143
 10
79.15640867161716
 20
-127.0316948467143
 10
79.15640867161716
 20
-128.5759588979776
 10
79.15640867161716
 20
-128.5759588979776
 10
79.15640867161716
 20
-128.5759588979776
 10
78.9321329555274
 20
-128.5759588979776
 10
78.9321329555274
 20
-128.5759588979776
 97
        0
 97
        0
 75
     2
 76
     1
 98
        0
  0
ENDBLK
  5
9C
330
99
100
AcDbEntity
  8
0
100
AcDbBlockEnd
  0
ENDSEC
  0
SECTION
  2
ENTITIES
  0
SPLINE
  5
41
330
1F
100
AcDbEntity
  8
_U+30EC_U+30A4_U+30E4_U+30FC 1
370
     0
100
AcDbSpline
210
0.0
220
0.0
230
1.0
 70
    11
 71
     3
 72
    44
 73
    40
 74
     0
 42
0.0000000001
 43
0.0000000001
 12
1.0
 22
0.0
 32
0.0
 13
1.0
 23
0.0
 33
0.0
 40
0.0
 40
0.0
 40
0.0
 40
0.0
 40
1.0
 40
1.0
 40
1.0
 40
2.0
 40
2.0
 40
2.0
 40
3.0
 40
3.0
 40
3.0
 40
4.0
 40
4.0
 40
4.0
 40
5.0
 40
5.0
 40
5.0
 40
6.0
 40
6.0
 40
6.0
 40
7.0
 40
7.0
 40
7.0
 40
8.0
 40
8.0
 40
8.0
 40
9.0
 40
9.0
 40
9.0
 40
10.0
 40
10.0
 40
10.0
 40
11.0
 40
11.0
 40
11.0
 40
12.0
 40
12.0
 40
12.0
 40
13.0
 40
13.0
 40
13.0
 40
13.0
 10
98.28995415908102
 20
-136.232511910386
 30
0.0
 10
98.28995415908102
 20
-136.232511910386
 30
0.0
 10
88.7899333111359
 20
-136.232511910386
 30
0.0
 10
88.7899333111359
 20
-136.232511910386
 30
0.0
 10
88.61146079488886
 20
-135.9231257993528
 30
0.0
 10
88.28143719219734
 20
-135.7329785771778
 30
0.0
 10
87.92453192352498
 20
-135.7329785771778
 30
0.0
 10
87.92453192352498
 20
-135.7329785771778
 30
0.0
 10
81.79018513558076
 20
-135.7329785771778
 30
0.0
 10
81.79018513558076
 20
-135.7329785771778
 30
0.0
 10
81.79018513558076
 20
-135.7329785771778
 30
0.0
 10
81.79018513558076
 20
-122.7325530248724
 30
0.0
 10
81.79018513558076
 20
-122.7325530248724
 30
0.0
 10
81.79018513558076
 20
-122.7325530248724
 30
0.0
 10
88.7899333111359
 20
-122.7325530248724
 30
0.0
 10
88.7899333111359
 20
-122.7325530248724
 30
0.0
 10
88.7899333111359
 20
-122.7325530248724
 30
0.0
 10
88.7899333111359
 20
-122.1324074694671
 30
0.0
 10
88.7899333111359
 20
-122.1324074694671
 30
0.0
 10
88.7899333111359
 20
-122.1324074694671
 30
0.0
 10
86.78005028605646
 20
-121.9319238584058
 30
0.0
 10
86.78005028605646
 20
-121.9319238584058
 30
0.0
 10
85.45438198654375
 20
-121.798926636217
 30
0.0
 10
84.12250479830055
 20
-121.7327808029002
 30
0.0
 10
82.79062761005734
 20
-121.7327808029002
 30
0.0
 10
82.79062761005734
 20
-121.7327808029002
 30
0.0
 10
80.79041293886485
 20
-121.7327808029002
 30
0.0
 10
80.79041293886485
 20
-121.7327808029002
 30
0.0
 10
80.79041293886485
 20
-121.7327808029002
 30
0.0
 10
80.79041293886485
 20
-135.9327919104611
 30
0.0
 10
80.79041293886485
 20
-135.9327919104611
 30
0.0
 10
80.79041293886485
 20
-136.3744344103511
 30
0.0
 10
81.14869404083545
 20
-136.7327507991504
 30
0.0
 10
81.5903718073451
 20
-136.7327507991504
 30
0.0
 10
81.5903718073451
 20
-136.7327507991504
 30
0.0
 10
98.7894874796702
 20
-136.7327507991504
 30
0.0
 10
98.7894874796702
 20
-136.7327507991504
 30
0.0
 10
98.7894874796702
 20
-136.456455243664
 30
0.0
 10
98.56554415205014
 20
-136.232511910386
 30
0.0
 10
98.28995415908102
 20
-136.232511910386
 30
0.0
  0
HATCH
  5
42
330
1F
100
AcDbEntity
  8
_U+30EC_U+30A4_U+30E4_U+30FC 1
 62
   253
420
 11711154
100
AcDbHatch
 10
0.0
 20
0.0
 30
0.0
210
0.0
220
0.0
230
1.0
  2
SOLID
 70
     1
 71
     0
 91
        1
 92
        1
 93
        1
 72
     4
 94
        3
 73
     0
 74
     1
 95
       44
 96
       40
 40
0.0
 40
0.0
 40
0.0
 40
0.0
 40
1.0
 40
1.0
 40
1.0
 40
2.0
 40
2.0
 40
2.0
 40
3.0
 40
3.0
 40
3.0
 40
4.0
 40
4.0
 40
4.0
 40
5.0
 40
5.0
 40
5.0
 40
6.0
 40
6.0
 40
6.0
 40
7.0
 40
7.0
 40
7.0
 40
8.0
 40
8.0
 40
8.0
 40
9.0
 40
9.0
 40
9.0
 40
10.0
 40
10.0
 40
10.0
 40
11.0
 40
11.0
 40
11.0
 40
12.0
 40
12.0
 40
12.0
 40
13.0
 40
13.0
 40
13.0
 40
13.0
 10
98.28995415908102
 20
-136.232511910386
 10
98.28995415908102
 20
-136.232511910386
 10
88.7899333111359
 20
-136.232511910386
 10
88.7899333111359
 20
-136.232511910386
 10
88.61146079488886
 20
-135.9231257993528
 10
88.28143719219734
 20
-135.7329785771778
 10
87.92453192352498
 20
-135.7329785771778
 10
87.92453192352498
 20
-135.7329785771778
 10
81.79018513558076
 20
-135.7329785771778
 10
81.79018513558076
 20
-135.7329785771778
 10
81.79018513558076
 20
-135.7329785771778
 10
81.79018513558076
 20
-122.7325530248724
 10
81.79018513558076
 20
-122.7325530248724
 10
81.79018513558076
 20
-122.7325530248724
 10
88.7899333111359
 20
-122.7325530248724
 10
88.7899333111359
 20
-122.7325530248724
 10
88.7899333111359
 20
-122.7325530248724
 10
88.7899333111359
 20
-122.1324074694671
 10
88.7899333111359
 20
-122.1324074694671
 10
88.7899333111359
 20
-122.1324074694671
 10
86.78005028605646
 20
-121.9319238584058
 10
86.78005028605646
 20
-121.9319238584058
 10
85.45438198654375
 20
-121.798926636217
 10
84.12250479830055
 20
-121.7327808029002
 10
82.79062761005734
 20
-121.7327808029002
 10
82.79062761005734
 20
-121.7327808029002
 10
80.79041293886485
 20
-121.7327808029002
 10
80.79041293886485
 20
-121.7327808029002
 10
80.79041293886485
 20
-121.7327808029002
 10
80.79041293886485
 20
-135.9327919104611
 10
80.79041293886485
 20
-135.9327919104611
 10
80.79041293886485
 20
-136.3744344103511
 10
81.14869404083545
 20
-136.7327507991504
 10
81.5903718073451
 20
-136.7327507991504
 10
81.5903718073451
 20
-136.7327507991504
 10
98.7894874796702
 20
-136.7327507991504
 10
98.7894874796702
 20
-136.7327507991504
 10
98.7894874796702
 20
-136.456455243664
 10
98.56554415205014
 20
-136.232511910386
 10
98.28995415908102
 20
-136.232511910386
 97
        0
 97
        0
 75
     2
 76
     1
 98
        0
  0
SPLINE
  5
43
330
1F
100
AcDbEntity
  8
_U+30EC_U+30A4_U+30E4_U+30FC 1
 62
     7
420
 16777215
370
    25
100
AcDbSpline
210
0.0
220
0.0
230
1.0
 70
    11
 71
     3
 72
    44
 73
    40
 74
     0
 42
0.0000000001
 43
0.0000000001
 12
1.0
 22
0.0
 32
0.0
 13
1.0
 23
0.0
 33
0.0
 40
0.0
 40
0.0
 40
0.0
 40
0.0
 40
1.0
 40
1.0
 40
1.0
 40
2.0
 40
2.0
 40
2.0
 40
3.0
 40
3.0
 40
3.0
 40
4.0
 40
4.0
 40
4.0
 40
5.0
 40
5.0
 40
5.0
 40
6.0
 40
6.0
 40
6.0
 40
7.0
 40
7.0
 40
7.0
 40
8.0
 40
8.0
 40
8.0
 40
9.0
 40
9.0
 40
9.0
 40
10.0
 40
10.0
 40
10.0
 40
11.0
 40
11.0
 40
11.0
 40
12.0
 40
12.0
 40
12.0
 40
13.0
 40
13.0
 40
13.0
 40
13.0
 10
86.78005028605646
 20
-121.9319238584058
 30
0.0
 10
85.45438198654375
 20
-121.798926636217
 30
0.0
 10
84.12250479830055
 20
-121.7327808029002
 30
0.0
 10
82.79062761005734
 20
-121.7327808029002
 30
0.0
 10
82.79062761005734
 20
-121.7327808029002
 30
0.0
 10
80.79041293886485
 20
-121.7327808029002
 30
0.0
 10
80.79041293886485
 20
-121.7327808029002
 30
0.0
 10
80.79041293886485
 20
-121.7327808029002
 30
0.0
 10
80.79041293886485
 20
-135.9327919104611
 30
0.0
 10
80.79041293886485
 20
-135.9327919104611
 30
0.0
 10
80.79041293886485
 20
-136.3744344103511
 30
0.0
 10
81.14869404083545
 20
-136.7327507991504
 30
0.0
 10
81.5903718073451
 20
-136.7327507991504
 30
0.0
 10
81.5903718073451
 20
-136.7327507991504
 30
0.0
 10
98.7894874796702
 20
-136.7327507991504
 30
0.0
 10
98.7894874796702
 20
-136.7327507991504
 30
0.0
 10
98.7894874796702
 20
-136.456455243664
 30
0.0
 10
98.56554415205014
 20
-136.232511910386
 30
0.0
 10
98.28995415908102
 20
-136.232511910386
 30
0.0
 10
98.28995415908102
 20
-136.232511910386
 30
0.0
 10
88.7899333111359
 20
-136.232511910386
 30
0.0
 10
88.7899333111359
 20
-136.232511910386
 30
0.0
 10
88.61146079488886
 20
-135.9231257993528
 30
0.0
 10
88.28143719219734
 20
-135.7329785771778
 30
0.0
 10
87.92453192352498
 20
-135.7329785771778
 30
0.0
 10
87.92453192352498
 20
-135.7329785771778
 30
0.0
 10
81.79018513558076
 20
-135.7329785771778
 30
0.0
 10
81.79018513558076
 20
-135.7329785771778
 30
0.0
 10
81.79018513558076
 20
-135.7329785771778
 30
0.0
 10
81.79018513558076
 20
-122.7325530248724
 30
0.0
 10
81.79018513558076
 20
-122.7325530248724
 30
0.0
 10
81.79018513558076
 20
-122.7325530248724
 30
0.0
 10
88.7899333111359
 20
-122.7325530248724
 30
0.0
 10
88.7899333111359
 20
-122.7325530248724
 30
0.0
 10
88.7899333111359
 20
-122.7325530248724
 30
0.0
 10
88.7899333111359
 20
-122.1324074694671
 30
0.0
 10
88.7899333111359
 20
-122.1324074694671
 30
0.0
 10
88.7899333111359
 20
-122.1324074694671
 30
0.0
 10
86.78005028605646
 20
-121.9319238584058
 30
0.0
 10
86.78005028605646
 20
-121.9319238584058
 30
0.0
  0
SPLINE
  5
44
330
1F
100
AcDbEntity
  8
_U+30EC_U+30A4_U+30E4_U+30FC 1
 62
     7
420
 16777215
370
     9
100
AcDbSpline
210
0.0
220
0.0
230
1.0
 70
    11
 71
     3
 72
    17
 73
    13
 74
     0
 42
0.0000000001
 43
0.0000000001
 12
1.0
 22
0.0
 32
0.0
 13
1.0
 23
0.0
 33
0.0
 40
0.0
 40
0.0
 40
0.0
 40
0.0
 40
1.0
 40
1.0
 40
1.0
 40
2.0
 40
2.0
 40
2.0
 40
3.0
 40
3.0
 40
3.0
 40
4.0
 40
4.0
 40
4.0
 40
4.0
 10
80.89031960298269
 20
-117.7323513594559
 30
0.0
 10
80.89031960298269
 20
-117.6772121928029
 30
0.0
 10
80.8455521041248
 20
-117.632444692814
 30
0.0
 10
80.79041293886485
 20
-117.632444692814
 30
0.0
 10
80.73531109092721
 20
-117.632444692814
 30
0.0
 10
80.6905083131608
 20
-117.6772121928029
 30
0.0
 10
80.6905083131608
 20
-117.7323513594559
 30
0.0
 10
80.6905083131608
 20
-117.7881608038864
 30
0.0
 10
80.73531109092721
 20
-117.8329283038753
 30
0.0
 10
80.79041293886485
 20
-117.8329283038753
 30
0.0
 10
80.8455521041248
 20
-117.8329283038753
 30
0.0
 10
80.89031960298269
 20
-117.7881608038864
 30
0.0
 10
80.89031960298269
 20
-117.7323513594559
 30
0.0
  0
SPLINE
  5
45
330
1F
100
AcDbEntity
  8
_U+30EC_U+30A4_U+30E4_U+30FC 1
 62
     7
420
 16777215
370
     9
100
AcDbSpline
210
0.0
220
0.0
230
1.0
 70
    11
 71
     3
 72
    17
 73
    13
 74
     0
 42
0.0000000001
 43
0.0000000001
 12
1.0
 22
0.0
 32
0.0
 13
1.0
 23
0.0
 33
0.0
 40
0.0
 40
0.0
 40
0.0
 40
0.0
 40
1.0
 40
1.0
 40
1.0
 40
2.0
 40
2.0
 40
2.0
 40
3.0
 40
3.0
 40
3.0
 40
4.0
 40
4.0
 40
4.0
 40
4.0
 10
88.89050800999199
 20
-117.7323513594559
 30
0.0
 10
88.89050800999199
 20
-117.6772121928029
 30
0.0
 10
88.8457405111341
 20
-117.632444692814
 30
0.0
 10
88.7899333111359
 20
-117.632444692814
 30
0.0
 10
88.73479190285353
 20
-117.632444692814
 30
0.0
 10
88.69002440399564
 20
-117.6772121928029
 30
0.0
 10
88.69002440399564
 20
-117.7323513594559
 30
0.0
 10
88.69002440399564
 20
-117.7881608038864
 30
0.0
 10
88.73479190285353
 20
-117.8329283038753
 30
0.0
 10
88.7899333111359
 20
-117.8329283038753
 30
0.0
 10
88.8457405111341
 20
-117.8329283038753
 30
0.0
 10
88.89050800999199
 20
-117.7881608038864
 30
0.0
 10
88.89050800999199
 20
-117.7323513594559
 30
0.0
  0
SPLINE
  5
46
330
1F
100
AcDbEntity
  8
_U+30EC_U+30A4_U+30E4_U+30FC 1
 62
     7
420
 16777215
370
     9
100
AcDbSpline
210
0.0
220
0.0
230
1.0
 70
    11
 71
     3
 72
    17
 73
    13
 74
     0
 42
0.0000000001
 43
0.0000000001
 12
1.0
 22
0.0
 32
0.0
 13
1.0
 23
0.0
 33
0.0
 40
0.0
 40
0.0
 40
0.0
 40
0.0
 40
1.0
 40
1.0
 40
1.0
 40
2.0
 40
2.0
 40
2.0
 40
3.0
 40
3.0
 40
3.0
 40
4.0
 40
4.0
 40
4.0
 40
4.0
 10
102.7148457128593
 20
-122.7325530248724
 30
0.0
 10
102.7148457128593
 20
-122.6774491359972
 30
0.0
 10
102.6700429362245
 20
-122.6326463582308
 30
0.0
 10
102.6149416410131
 20
-122.6326463582308
 30
0.0
 10
102.5597998834815
 20
-122.6326463582308
 30
0.0
 10
102.5150323846236
 20
-122.6774491359972
 30
0.0
 10
102.5150323846236
 20
-122.7325530248724
 30
0.0
 10
102.5150323846236
 20
-122.7876921915252
 30
0.0
 10
102.5597998834815
 20
-122.832459691514
 30
0.0
 10
102.6149416410131
 20
-122.832459691514
 30
0.0
 10
102.6700429362245
 20
-122.832459691514
 30
0.0
 10
102.7148457128593
 20
-122.7876921915252
 30
0.0
 10
102.7148457128593
 20
-122.7325530248724
 30
0.0
  0
SPLINE
  5
47
330
1F
100
AcDbEntity
  8
_U+30EC_U+30A4_U+30E4_U+30FC 1
 62
     7
420
 16777215
370
     9
100
AcDbSpline
210
0.0
220
0.0
230
1.0
 70
    11
 71
     3
 72
    17
 73
    13
 74
     0
 42
0.0000000001
 43
0.0000000001
 12
1.0
 22
0.0
 32
0.0
 13
1.0
 23
0.0
 33
0.0
 40
0.0
 40
0.0
 40
0.0
 40
0.0
 40
1.0
 40
1.0
 40
1.0
 40
2.0
 40
2.0
 40
2.0
 40
3.0
 40
3.0
 40
3.0
 40
4.0
 40
4.0
 40
4.0
 40
4.0
 10
102.7148457128593
 20
-135.7329785771778
 30
0.0
 10
102.7148457128593
 20
-135.6771691327474
 30
0.0
 10
102.6700429362245
 20
-135.6323663549807
 30
0.0
 10
102.6149416410131
 20
-135.6323663549807
 30
0.0
 10
102.5597998834815
 20
-135.6323663549807
 30
0.0
 10
102.5150323846236
 20
-135.6771691327474
 30
0.0
 10
102.5150323846236
 20
-135.7329785771778
 30
0.0
 10
102.5150323846236
 20
-135.7880824660528
 30
0.0
 10
102.5597998834815
 20
-135.8328852438195
 30
0.0
 10
102.6149416410131
 20
-135.8328852438195
 30
0.0
 10
102.6700429362245
 20
-135.8328852438195
 30
0.0
 10
102.7148457128593
 20
-135.7880824660528
 30
0.0
 10
102.7148457128593
 20
-135.7329785771778
 30
0.0
  0
SPLINE
  5
48
330
1F
100
AcDbEntity
  8
_U+30EC_U+30A4_U+30E4_U+30FC 1
 62
     7
420
 16777215
370
     9
100
AcDbSpline
210
0.0
220
0.0
230
1.0
 70
    11
 71
     3
 72
    17
 73
    13
 74
     0
 42
0.0000000001
 43
0.0000000001
 12
1.0
 22
0.0
 32
0.0
 13
1.0
 23
0.0
 33
0.0
 40
0.0
 40
0.0
 40
0.0
 40
0.0
 40
1.0
 40
1.0
 40
1.0
 40
2.0
 40
2.0
 40
2.0
 40
3.0
 40
3.0
 40
3.0
 40
4.0
 40
4.0
 40
4.0
 40
4.0
 10
80.89031960298269
 20
-140.7325099648166
 30
0.0
 10
80.89031960298269
 20
-140.6773707981642
 30
0.0
 10
80.8455521041248
 20
-140.632603298175
 30
0.0
 10
80.79041293886485
 20
-140.632603298175
 30
0.0
 10
80.73531109092721
 20
-140.632603298175
 30
0.0
 10
80.6905083131608
 20
-140.6773707981642
 30
0.0
 10
80.6905083131608
 20
-140.7325099648166
 30
0.0
 10
80.6905083131608
 20
-140.7876138536922
 30
0.0
 10
80.73531109092721
 20
-140.8324166314583
 30
0.0
 10
80.79041293886485
 20
-140.8324166314583
 30
0.0
 10
80.8455521041248
 20
-140.8324166314583
 30
0.0
 10
80.89031960298269
 20
-140.7876138536922
 30
0.0
 10
80.89031960298269
 20
-140.7325099648166
 30
0.0
  0
SPLINE
  5
49
330
1F
100
AcDbEntity
  8
_U+30EC_U+30A4_U+30E4_U+30FC 1
 62
     7
420
 16777215
370
     9
100
AcDbSpline
210
0.0
220
0.0
230
1.0
 70
    11
 71
     3
 72
    17
 73
    13
 74
     0
 42
0.0000000001
 43
0.0000000001
 12
1.0
 22
0.0
 32
0.0
 13
1.0
 23
0.0
 33
0.0
 40
0.0
 40
0.0
 40
0.0
 40
0.0
 40
1.0
 40
1.0
 40
1.0
 40
2.0
 40
2.0
 40
2.0
 40
3.0
 40
3.0
 40
3.0
 40
4.0
 40
4.0
 40
4.0
 40
4.0
 10
98.88939414378804
 20
-140.7325099648166
 30
0.0
 10
98.88939414378804
 20
-140.6773707981642
 30
0.0
 10
98.84462664493016
 20
-140.632603298175
 30
0.0
 10
98.7894874796702
 20
-140.632603298175
 30
0.0
 10
98.73438608642766
 20
-140.632603298175
 30
0.0
 10
98.68958330866094
 20
-140.6773707981642
 30
0.0
 10
98.68958330866094
 20
-140.7325099648166
 30
0.0
 10
98.68958330866094
 20
-140.7876138536922
 30
0.0
 10
98.73438608642766
 20
-140.8324166314583
 30
0.0
 10
98.7894874796702
 20
-140.8324166314583
 30
0.0
 10
98.84462664493016
 20
-140.8324166314583
 30
0.0
 10
98.88939414378804
 20
-140.7876138536922
 30
0.0
 10
98.88939414378804
 20
-140.7325099648166
 30
0.0
  0
POLYLINE
  5
4A
330
1F
100
AcDbEntity
  8
_U+30EC_U+30A4_U+30E4_U+30FC 1
 62
     7
420
 16777215
370
     9
100
AcDb2dPolyline
 66
     1
 10
0.0
 20
0.0
 30
0.0
  0
VERTEX
  5
4B
330
4A
100
AcDbEntity
  8
_U+30EC_U+30A4_U+30E4_U+30FC 1
 62
     7
420
 16777215
370
     9
100
AcDbVertex
100
AcDb2dVertex
 10
80.79041293886485
 20
-117.7323513594559
 30
0.0
  0
VERTEX
  5
4C
330
4A
100
AcDbEntity
  8
_U+30EC_U+30A4_U+30E4_U+30FC 1
 62
     7
420
 16777215
370
     9
100
AcDbVertex
100
AcDb2dVertex
 10
88.7899333111359
 20
-117.7323513594559
 30
0.0
  0
SEQEND
  5
4D
330
4A
100
AcDbEntity
  8
_U+30EC_U+30A4_U+30E4_U+30FC 1
 62
     7
420
 16777215
370
     9
  0
POLYLINE
  5
4E
330
1F
100
AcDbEntity
  8
_U+30EC_U+30A4_U+30E4_U+30FC 1
 62
     7
420
 16777215
370
     9
100
AcDb2dPolyline
 66
     1
 10
0.0
 20
0.0
 30
0.0
  0
VERTEX
  5
4F
330
4E
100
AcDbEntity
  8
_U+30EC_U+30A4_U+30E4_U+30FC 1
 62
     7
420
 16777215
370
     9
100
AcDbVertex
100
AcDb2dVertex
 10
80.79041293886485
 20
-119.1923927479796
 30
0.0
  0
VERTEX
  5
50
330
4E
100
AcDbEntity
  8
_U+30EC_U+30A4_U+30E4_U+30FC 1
 62
     7
420
 16777215
370
     9
100
AcDbVertex
100
AcDb2dVertex
 10
80.79041293886485
 20
-116.7325791374834
 30
0.0
  0
SEQEND
  5
51
330
4E
100
AcDbEntity
  8
_U+30EC_U+30A4_U+30E4_U+30FC 1
 62
     7
420
 16777215
370
     9
  0
POLYLINE
  5
52
330
1F
100
AcDbEntity
  8
_U+30EC_U+30A4_U+30E4_U+30FC 1
 62
     7
420
 16777215
370
     9
100
AcDb2dPolyline
 66
     1
 10
0.0
 20
0.0
 30
0.0
  0
VERTEX
  5
53
330
52
100
AcDbEntity
  8
_U+30EC_U+30A4_U+30E4_U+30FC 1
 62
     7
420
 16777215
370
     9
100
AcDbVertex
100
AcDb2dVertex
 10
88.7899333111359
 20
-119.5926896923242
 30
0.0
  0
VERTEX
  5
54
330
52
100
AcDbEntity
  8
_U+30EC_U+30A4_U+30E4_U+30FC 1
 62
     7
420
 16777215
370
     9
100
AcDbVertex
100
AcDb2dVertex
 10
88.7899333111359
 20
-116.7325791374834
 30
0.0
  0
SEQEND
  5
55
330
52
100
AcDbEntity
  8
_U+30EC_U+30A4_U+30E4_U+30FC 1
 62
     7
420
 16777215
370
     9
  0
INSERT
  5
57
330
1F
100
AcDbEntity
  8
_U+30EC_U+30A4_U+30E4_U+30FC 1
100
AcDbBlockReference
  2
block 2
 10
0.0
 20
0.0
 30
0.0
  0
POLYLINE
  5
5E
330
1F
100
AcDbEntity
  8
_U+30EC_U+30A4_U+30E4_U+30FC 1
 62
     7
420
 16777215
370
     9
100
AcDb2dPolyline
 66
     1
 10
0.0
 20
0.0
 30
0.0
  0
VERTEX
  5
5F
330
5E
100
AcDbEntity
  8
_U+30EC_U+30A4_U+30E4_U+30FC 1
 62
     7
420
 16777215
370
     9
100
AcDbVertex
100
AcDb2dVertex
 10
80.79041293886485
 20
-140.7325099648166
 30
0.0
  0
VERTEX
  5
60
330
5E
100
AcDbEntity
  8
_U+30EC_U+30A4_U+30E4_U+30FC 1
 62
     7
420
 16777215
370
     9
100
AcDbVertex
100
AcDb2dVertex
 10
98.7894874796702
 20
-140.7325099648166
 30
0.0
  0
SEQEND
  5
61
330
5E
100
AcDbEntity
  8
_U+30EC_U+30A4_U+30E4_U+30FC 1
 62
     7
420
 16777215
370
     9
  0
POLYLINE
  5
62
330
1F
100
AcDbEntity
  8
_U+30EC_U+30A4_U+30E4_U+30FC 1
 62
     7
420
 16777215
370
     9
100
AcDb2dPolyline
 66
     1
 10
0.0
 20
0.0
 30
0.0
  0
VERTEX
  5
63
330
62
100
AcDbEntity
  8
_U+30EC_U+30A4_U+30E4_U+30FC 1
 62
     7
420
 16777215
370
     9
100
AcDbVertex
100
AcDb2dVertex
 10
80.79041293886485
 20
-138.4725096876043
 30
0.0
  0
VERTEX
  5
64
330
62
100
AcDbEntity
  8
_U+30EC_U+30A4_U+30E4_U+30FC 1
 62
     7
420
 16777215
370
     9
100
AcDbVertex
100
AcDb2dVertex
 10
80.79041293886485
 20
-141.7322469090116
 30
0.0
  0
SEQEND
  5
65
330
62
100
AcDbEntity
  8
_U+30EC_U+30A4_U+30E4_U+30FC 1
 62
     7
420
 16777215
370
     9
  0
POLYLINE
  5
66
330
1F
100
AcDbEntity
  8
_U+30EC_U+30A4_U+30E4_U+30FC 1
 62
     7
420
 16777215
370
     9
100
AcDb2dPolyline
 66
     1
 10
0.0
 20
0.0
 30
0.0
  0
VERTEX
  5
67
330
66
100
AcDbEntity
  8
_U+30EC_U+30A4_U+30E4_U+30FC 1
 62
     7
420
 16777215
370
     9
100
AcDbVertex
100
AcDb2dVertex
 10
98.7894874796702
 20
-139.2724685762929
 30
0.0
  0
VERTEX
  5
68
330
66
100
AcDbEntity
  8
_U+30EC_U+30A4_U+30E4_U+30FC 1
 62
     7
420
 16777215
370
     9
100
AcDbVertex
100
AcDb2dVertex
 10
98.7894874796702
 20
-141.7322469090116
 30
0.0
  0
SEQEND
  5
69
330
66
100
AcDbEntity
  8
_U+30EC_U+30A4_U+30E4_U+30FC 1
 62
     7
420
 16777215
370
     9
  0
INSERT
  5
6B
330
1F
100
AcDbEntity
  8
_U+30EC_U+30A4_U+30E4_U+30FC 1
100
AcDbBlockReference
  2
block 3
 10
0.0
 20
0.0
 30
0.0
  0
POLYLINE
  5
74
330
1F
100
AcDbEntity
  8
_U+30EC_U+30A4_U+30E4_U+30FC 1
 62
     7
420
 16777215
370
     9
100
AcDb2dPolyline
 66
     1
 10
0.0
 20
0.0
 30
0.0
  0
VERTEX
  5
75
330
74
100
AcDbEntity
  8
_U+30EC_U+30A4_U+30E4_U+30FC 1
 62
     7
420
 16777215
370
     9
100
AcDbVertex
100
AcDb2dVertex
 10
102.6149416410131
 20
-135.7329785771778
 30
0.0
  0
VERTEX
  5
76
330
74
100
AcDbEntity
  8
_U+30EC_U+30A4_U+30E4_U+30FC 1
 62
     7
420
 16777215
370
     9
100
AcDbVertex
100
AcDb2dVertex
 10
102.6149416410131
 20
-122.7325530248724
 30
0.0
  0
SEQEND
  5
77
330
74
100
AcDbEntity
  8
_U+30EC_U+30A4_U+30E4_U+30FC 1
 62
     7
420
 16777215
370
     9
  0
POLYLINE
  5
78
330
1F
100
AcDbEntity
  8
_U+30EC_U+30A4_U+30E4_U+30FC 1
 62
     7
420
 16777215
370
     9
100
AcDb2dPolyline
 66
     1
 10
0.0
 20
0.0
 30
0.0
  0
VERTEX
  5
79
330
78
100
AcDbEntity
  8
_U+30EC_U+30A4_U+30E4_U+30FC 1
 62
     7
420
 16777215
370
     9
100
AcDbVertex
100
AcDb2dVertex
 10
101.4876729663893
 20
-135.7329785771778
 30
0.0
  0
VERTEX
  5
7A
330
78
100
AcDbEntity
  8
_U+30EC_U+30A4_U+30E4_U+30FC 1
 62
     7
420
 16777215
370
     9
100
AcDbVertex
100
AcDb2dVertex
 10
103.6153815232181
 20
-135.7329785771778
 30
0.0
  0
SEQEND
  5
7B
330
78
100
AcDbEntity
  8
_U+30EC_U+30A4_U+30E4_U+30FC 1
 62
     7
420
 16777215
370
     9
  0
POLYLINE
  5
7C
330
1F
100
AcDbEntity
  8
_U+30EC_U+30A4_U+30E4_U+30FC 1
 62
     7
420
 16777215
370
     9
100
AcDb2dPolyline
 66
     1
 10
0.0
 20
0.0
 30
0.0
  0
VERTEX
  5
7D
330
7C
100
AcDbEntity
  8
_U+30EC_U+30A4_U+30E4_U+30FC 1
 62
     7
420
 16777215
370
     9
100
AcDbVertex
100
AcDb2dVertex
 10
101.4876729663893
 20
-122.7325530248724
 30
0.0
  0
VERTEX
  5
7E
330
7C
100
AcDbEntity
  8
_U+30EC_U+30A4_U+30E4_U+30FC 1
 62
     7
420
 16777215
370
     9
100
AcDbVertex
100
AcDb2dVertex
 10
103.6153815232181
 20
-122.7325530248724
 30
0.0
  0
SEQEND
  5
7F
330
7C
100
AcDbEntity
  8
_U+30EC_U+30A4_U+30E4_U+30FC 1
 62
     7
420
 16777215
370
     9
  0
INSERT
  5
81
330
1F
100
AcDbEntity
  8
_U+30EC_U+30A4_U+30E4_U+30FC 1
100
AcDbBlockReference
  2
block 4
 10
0.0
 20
0.0
 30
0.0
  0
SPLINE
  5
88
330
1F
100
AcDbEntity
  8
_U+30EC_U+30A4_U+30E4_U+30FC 1
 62
     7
420
 16777215
370
     9
100
AcDbSpline
210
0.0
220
0.0
230
1.0
 70
    11
 71
     3
 72
    17
 73
    13
 74
     0
 42
0.0000000001
 43
0.0000000001
 12
1.0
 22
0.0
 32
0.0
 13
1.0
 23
0.0
 33
0.0
 40
0.0
 40
0.0
 40
0.0
 40
0.0
 40
1.0
 40
1.0
 40
1.0
 40
2.0
 40
2.0
 40
2.0
 40
3.0
 40
3.0
 40
3.0
 40
4.0
 40
4.0
 40
4.0
 40
4.0
 10
102.71551599062
 20
-136.7320452435949
 30
0.0
 10
102.71551599062
 20
-136.6762357991644
 30
0.0
 10
102.6707484917621
 20
-136.6314682991752
 30
0.0
 10
102.6156093265022
 20
-136.6314682991752
 30
0.0
 10
102.5605054390191
 20
-136.6314682991752
 30
0.0
 10
102.5157026623843
 20
-136.6762357991644
 30
0.0
 10
102.5157026623843
 20
-136.7320452435949
 30
0.0
 10
102.5157026623843
 20
-136.7871844102479
 30
0.0
 10
102.5605054390191
 20
-136.8319519102365
 30
0.0
 10
102.6156093265022
 20
-136.8319519102365
 30
0.0
 10
102.6707484917621
 20
-136.8319519102365
 30
0.0
 10
102.71551599062
 20
-136.7871844102479
 30
0.0
 10
102.71551599062
 20
-136.7320452435949
 30
0.0
  0
POLYLINE
  5
89
330
1F
100
AcDbEntity
  8
_U+30EC_U+30A4_U+30E4_U+30FC 1
 62
     7
420
 16777215
370
     9
100
AcDb2dPolyline
 66
     1
 10
0.0
 20
0.0
 30
0.0
  0
VERTEX
  5
8A
330
89
100
AcDbEntity
  8
_U+30EC_U+30A4_U+30E4_U+30FC 1
 62
     7
420
 16777215
370
     9
100
AcDbVertex
100
AcDb2dVertex
 10
102.6156093265022
 20
-136.7313749658169
 30
0.0
  0
VERTEX
  5
8B
330
89
100
AcDbEntity
  8
_U+30EC_U+30A4_U+30E4_U+30FC 1
 62
     7
420
 16777215
370
     9
100
AcDbVertex
100
AcDb2dVertex
 10
102.6156093265022
 20
-133.9298255220729
 30
0.0
  0
SEQEND
  5
8C
330
89
100
AcDbEntity
  8
_U+30EC_U+30A4_U+30E4_U+30FC 1
 62
     7
420
 16777215
370
     9
  0
POLYLINE
  5
8D
330
1F
100
AcDbEntity
  8
_U+30EC_U+30A4_U+30E4_U+30FC 1
 62
     7
420
 16777215
370
     9
100
AcDb2dPolyline
 66
     1
 10
0.0
 20
0.0
 30
0.0
  0
VERTEX
  5
8E
330
8D
100
AcDbEntity
  8
_U+30EC_U+30A4_U+30E4_U+30FC 1
 62
     7
420
 16777215
370
     9
100
AcDbVertex
100
AcDb2dVertex
 10
101.4876729663893
 20
-136.7313749658169
 30
0.0
  0
VERTEX
  5
8F
330
8D
100
AcDbEntity
  8
_U+30EC_U+30A4_U+30E4_U+30FC 1
 62
     7
420
 16777215
370
     9
100
AcDbVertex
100
AcDb2dVertex
 10
103.6153815232181
 20
-136.7313749658169
 30
0.0
  0
SEQEND
  5
90
330
8D
100
AcDbEntity
  8
_U+30EC_U+30A4_U+30E4_U+30FC 1
 62
     7
420
 16777215
370
     9
  0
INSERT
  5
92
330
1F
100
AcDbEntity
  8
_U+30EC_U+30A4_U+30E4_U+30FC 1
100
AcDbBlockReference
  2
block 5
 10
0.0
 20
0.0
 30
0.0
  0
SPLINE
  5
97
330
1F
100
AcDbEntity
  8
_U+30EC_U+30A4_U+30E4_U+30FC 1
 62
     7
420
 16777215
370
     9
100
AcDbSpline
210
0.0
220
0.0
230
1.0
 70
    11
 71
     3
 72
    17
 73
    13
 74
     0
 42
0.0000000001
 43
0.0000000001
 12
1.0
 22
0.0
 32
0.0
 13
1.0
 23
0.0
 33
0.0
 40
0.0
 40
0.0
 40
0.0
 40
0.0
 40
1.0
 40
1.0
 40
1.0
 40
2.0
 40
2.0
 40
2.0
 40
3.0
 40
3.0
 40
3.0
 40
4.0
 40
4.0
 40
4.0
 40
4.0
 10
80.89444710287738
 20
-129.1652441343751
 30
0.0
 10
80.89444710287738
 20
-129.1101049677227
 30
0.0
 10
80.8496796040195
 20
-129.0653374677335
 30
0.0
 10
80.79454043875955
 20
-129.0653374677335
 30
0.0
 10
80.73943655127648
 20
-129.0653374677335
 30
0.0
 10
80.69463377464172
 20
-129.1101049677227
 30
0.0
 10
80.69463377464172
 20
-129.1652441343751
 30
0.0
 10
80.69463377464172
 20
-129.2203480232507
 30
0.0
 10
80.73943655127648
 20
-129.2651508010167
 30
0.0
 10
80.79454043875955
 20
-129.2651508010167
 30
0.0
 10
80.8496796040195
 20
-129.2651508010167
 30
0.0
 10
80.89444710287738
 20
-129.2203480232507
 30
0.0
 10
80.89444710287738
 20
-129.1652441343751
 30
0.0
  0
SPLINE
  5
98
330
1F
100
AcDbEntity
  8
_U+30EC_U+30A4_U+30E4_U+30FC 1
 62
     7
420
 16777215
370
     9
100
AcDbSpline
210
0.0
220
0.0
230
1.0
 70
    11
 71
     3
 72
    17
 73
    13
 74
     0
 42
0.0000000001
 43
0.0000000001
 12
1.0
 22
0.0
 32
0.0
 13
1.0
 23
0.0
 33
0.0
 40
0.0
 40
0.0
 40
0.0
 40
0.0
 40
1.0
 40
1.0
 40
1.0
 40
2.0
 40
2.0
 40
2.0
 40
3.0
 40
3.0
 40
3.0
 40
4.0
 40
4.0
 40
4.0
 40
4.0
 10
81.89421929959329
 20
-129.1652441343751
 30
0.0
 10
81.89421929959329
 20
-129.1101049677227
 30
0.0
 10
81.84945180073541
 20
-129.0653374677335
 30
0.0
 10
81.79431263547546
 20
-129.0653374677335
 30
0.0
 10
81.7392087479924
 20
-129.0653374677335
 30
0.0
 10
81.69440597135763
 20
-129.1101049677227
 30
0.0
 10
81.69440597135763
 20
-129.1652441343751
 30
0.0
 10
81.69440597135763
 20
-129.2203480232507
 30
0.0
 10
81.7392087479924
 20
-129.2651508010167
 30
0.0
 10
81.79431263547546
 20
-129.2651508010167
 30
0.0
 10
81.84945180073541
 20
-129.2651508010167
 30
0.0
 10
81.89421929959329
 20
-129.2203480232507
 30
0.0
 10
81.89421929959329
 20
-129.1652441343751
 30
0.0
  0
INSERT
  5
9A
330
1F
100
AcDbEntity
  8
_U+30EC_U+30A4_U+30E4_U+30FC 1
100
AcDbBlockReference
  2
block 6
 10
0.0
 20
0.0
 30
0.0
  0
POLYLINE
  5
9F
330
1F
100
AcDbEntity
  8
_U+30EC_U+30A4_U+30E4_U+30FC 1
 62
     7
420
 16777215
370
     9
100
AcDb2dPolyline
 66
     1
 10
0.0
 20
0.0
 30
0.0
  0
VERTEX
  5
A0
330
9F
100
AcDbEntity
  8
_U+30EC_U+30A4_U+30E4_U+30FC 1
 62
     7
420
 16777215
370
     9
100
AcDbVertex
100
AcDb2dVertex
 10
82.65558428016925
 20
-129.1652441343751
 30
0.0
  0
VERTEX
  5
A1
330
9F
100
AcDbEntity
  8
_U+30EC_U+30A4_U+30E4_U+30FC 1
 62
     7
420
 16777215
370
     9
100
AcDbVertex
100
AcDb2dVertex
 10
78.1556216171951
 20
-129.1652441343751
 30
0.0
  0
SEQEND
  5
A2
330
9F
100
AcDbEntity
  8
_U+30EC_U+30A4_U+30E4_U+30FC 1
 62
     7
420
 16777215
370
     9
  0
POLYLINE
  5
A3
330
1F
100
AcDbEntity
  8
_U+30EC_U+30A4_U+30E4_U+30FC 1
  6
AI-Linetype-1
 62
   251
420
  5855577
370
    25
100
AcDb2dPolyline
 66
     1
 10
0.0
 20
0.0
 30
0.0
  0
VERTEX
  5
A4
330
A3
100
AcDbEntity
  8
_U+30EC_U+30A4_U+30E4_U+30FC 1
  6
AI-Linetype-1
 62
   251
420
  5855577
370
    25
100
AcDbVertex
100
AcDb2dVertex
 10
89.35077716491621
 20
-122.7911141359689
 30
0.0
  0
VERTEX
  5
A5
330
A3
100
AcDbEntity
  8
_U+30EC_U+30A4_U+30E4_U+30FC 1
  6
AI-Linetype-1
 62
   251
420
  5855577
370
    25
100
AcDbVertex
100
AcDb2dVertex
 10
89.35077716491621
 20
-121.1595169141546
 30
0.0
  0
VERTEX
  5
A6
330
A3
100
AcDbEntity
  8
_U+30EC_U+30A4_U+30E4_U+30FC 1
  6
AI-Linetype-1
 62
   251
420
  5855577
370
    25
100
AcDbVertex
100
AcDb2dVertex
 10
80.17855517669686
 20
-121.1595169141546
 30
0.0
  0
VERTEX
  5
A7
330
A3
100
AcDbEntity
  8
_U+30EC_U+30A4_U+30E4_U+30FC 1
  6
AI-Linetype-1
 62
   251
420
  5855577
370
    25
100
AcDbVertex
100
AcDb2dVertex
 10
80.17855517669686
 20
-136.7327507991504
 30
0.0
  0
SEQEND
  5
A9
330
A3
100
AcDbEntity
  8
_U+30EC_U+30A4_U+30E4_U+30FC 1
  6
AI-Linetype-1
 62
   251
420
  5855577
370
    25
  0
ENDSEC
  0
SECTION
  2
OBJECTS
  0
DICTIONARY
  5
C
330
0
100
AcDbDictionary
281
     1
  3
ACAD_GROUP
350
D
  3
ACAD_LAYOUT
350
1A
  3
ACAD_MATERIAL
350
3B
  3
ACAD_MLEADERSTYLE
350
AB
  3
ACAD_MLINESTYLE
350
17
  3
ACAD_PLOTSETTINGS
350
19
  3
ACAD_PLOTSTYLENAME
350
E
  3
ACAD_TABLESTYLE
350
AA
  3
ACAD_VISUALSTYLE
350
2A
  0
SUN
  5
3F
330
29
100
AcDbSun
 90
        1
290
     0
 63
     7
421
 16777215
 40
1.0
291
     1
 91
  2455826
 92
 54000000
292
     0
 70
     2
 71
   256
280
     1
  0
DICTIONARY
  5
D
102
{ACAD_REACTORS
330
C
102
}
330
C
100
AcDbDictionary
281
     1
  0
DICTIONARY
  5
1A
102
{ACAD_REACTORS
330
C
102
}
330
C
100
AcDbDictionary
281
     1
  3
Layout1
350
1E
  3
Layout2
350
26
  3
Model
350
22
  0
DICTIONARY
  5
3B
102
{ACAD_REACTORS
330
C
102
}
330
C
100
AcDbDictionary
281
     1
  3
ByBlock
350
3D
  3
ByLayer
350
3C
  3
Global
350
3E
  0
DICTIONARY
  5
AB
102
{ACAD_REACTORS
330
C
102
}
330
C
100
AcDbDictionary
281
     1
  0
DICTIONARY
  5
17
102
{ACAD_REACTORS
330
C
102
}
330
C
100
AcDbDictionary
281
     1
  3
Standard
350
18
  0
DICTIONARY
  5
19
102
{ACAD_REACTORS
330
C
102
}
330
C
100
AcDbDictionary
281
     1
  0
ACDBDICTIONARYWDFLT
  5
E
102
{ACAD_REACTORS
330
C
102
}
330
C
100
AcDbDictionary
281
     1
  3
Normal
350
F
100
AcDbDictionaryWithDefault
340
F
  0
DICTIONARY
  5
AA
102
{ACAD_REACTORS
330
C
102
}
330
C
100
AcDbDictionary
281
     1
  0
DICTIONARY
  5
2A
102
{ACAD_REACTORS
330
C
102
}
330
C
100
AcDbDictionary
281
     1
  3
2dWireframe
350
2F
  3
3D Hidden
350
31
  3
3dWireframe
350
30
  3
Basic
350
32
  3
Brighten
350
36
  3
ColorChange
350
3A
  3
Conceptual
350
34
  3
Dim
350
35
  3
Facepattern
350
39
  3
Flat
350
2B
  3
FlatWithEdges
350
2C
  3
Gouraud
350
2D
  3
GouraudWithEdges
350
2E
  3
Linepattern
350
38
  3
Realistic
350
33
  3
Thicken
350
37
  0
LAYOUT
  5
1E
102
{ACAD_REACTORS
330
1A
102
}
330
1A
100
AcDbPlotSettings
  1

  2
none_device
  4

  6

 40
0.0
 41
0.0
 42
0.0
 43
0.0
 44
0.0
 45
0.0
 46
0.0
 47
0.0
 48
0.0
 49
0.0
140
0.0
141
0.0
142
1.0
143
1.0
 70
   688
 72
     0
 73
     0
 74
     5
  7

 75
    16
 76
     0
 77
     2
 78
   300
147
1.0
148
0.0
149
0.0
100
AcDbLayout
  1
Layout1
 70
     1
 71
     1
 10
0.0
 20
0.0
 11
12.0
 21
9.0
 12
0.0
 22
0.0
 32
0.0
 14
1.000000000000000E+20
 24
1.000000000000000E+20
 34
1.000000000000000E+20
 15
-1.000000000000000E+20
 25
-1.000000000000000E+20
 35
-1.000000000000000E+20
146
0.0
 13
0.0
 23
0.0
 33
0.0
 16
1.0
 26
0.0
 36
0.0
 17
0.0
 27
1.0
 37
0.0
 76
     0
330
1B
  0
LAYOUT
  5
26
102
{ACAD_REACTORS
330
1A
102
}
330
1A
100
AcDbPlotSettings
  1

  2
none_device
  4

  6

 40
0.0
 41
0.0
 42
0.0
 43
0.0
 44
0.0
 45
0.0
 46
0.0
 47
0.0
 48
0.0
 49
0.0
140
0.0
141
0.0
142
1.0
143
1.0
 70
   688
 72
     0
 73
     0
 74
     5
  7

 75
    16
 76
     0
 77
     2
 78
   300
147
1.0
148
0.0
149
0.0
100
AcDbLayout
  1
Layout2
 70
     1
 71
     2
 10
0.0
 20
0.0
 11
0.0
 21
0.0
 12
0.0
 22
0.0
 32
0.0
 14
0.0
 24
0.0
 34
0.0
 15
0.0
 25
0.0
 35
0.0
146
0.0
 13
0.0
 23
0.0
 33
0.0
 16
1.0
 26
0.0
 36
0.0
 17
0.0
 27
1.0
 37
0.0
 76
     0
330
23
  0
LAYOUT
  5
22
102
{ACAD_REACTORS
330
1A
102
}
330
1A
100
AcDbPlotSettings
  1

  2
none_device
  4

  6

 40
0.0
 41
0.0
 42
0.0
 43
0.0
 44
0.0
 45
0.0
 46
0.0
 47
0.0
 48
0.0
 49
0.0
140
0.0
141
0.0
142
1.0
143
1.0
 70
  1712
 72
     0
 73
     0
 74
     0
  7

 75
     0
 76
     0
 77
     2
 78
   300
147
1.0
148
0.0
149
0.0
100
AcDbLayout
  1
Model
 70
     1
 71
     0
 10
0.0
 20
0.0
 11
12.0
 21
9.0
 12
0.0
 22
0.0
 32
0.0
 14
1.000000000000000E+20
 24
1.000000000000000E+20
 34
1.000000000000000E+20
 15
-1.000000000000000E+20
 25
-1.000000000000000E+20
 35
-1.000000000000000E+20
146
0.0
 13
0.0
 23
0.0
 33
0.0
 16
1.0
 26
0.0
 36
0.0
 17
0.0
 27
1.0
 37
0.0
 76
     0
330
1F
331
29
  0
MATERIAL
  5
3D
102
{ACAD_REACTORS
330
3B
102
}
330
3B
100
AcDbMaterial
  1
ByBlock
 72
     1
 94
      127
  0
MATERIAL
  5
3C
102
{ACAD_REACTORS
330
3B
102
}
330
3B
100
AcDbMaterial
  1
ByLayer
 72
     1
 94
      127
  0
MATERIAL
  5
3E
102
{ACAD_REACTORS
330
3B
102
}
330
3B
100
AcDbMaterial
  1
Global
 72
     1
 94
      127
  0
MLINESTYLE
  5
18
102
{ACAD_REACTORS
330
17
102
}
330
17
100
AcDbMlineStyle
  2
Standard
 70
     0
  3

 62
   256
 51
90.0
 52
90.0
 71
     2
 49
0.5
 62
   256
  6
BYLAYER
 49
-0.5
 62
   256
  6
BYLAYER
  0
ACDBPLACEHOLDER
  5
F
102
{ACAD_REACTORS
330
E
102
}
330
E
  0
VISUALSTYLE
  5
2F
102
{ACAD_REACTORS
330
2A
102
}
330
2A
100
AcDbVisualStyle
  2
2dWireframe
 70
     4
177
     2
291
     0
 71
     0
176
     1
 72
     2
176
     1
 73
     0
176
     1
 90
        0
176
     1
 40
-0.6
176
     1
 41
-30.0
176
     1
 62
     5
 63
     7
421
 16777215
176
     1
 74
     1
176
     1
 91
        4
176
     1
 64
     7
176
     1
 65
   257
176
     1
 75
     1
176
     1
175
     1
176
     1
 42
1.0
176
     1
 92
        0
176
     1
 66
   257
176
     1
 43
1.0
176
     1
 76
     1
176
     1
 77
     6
176
     1
 78
     2
176
     1
 67
     7
176
     1
 79
     5
176
     1
170
     0
176
     1
171
     0
176
     1
290
     0
176
     1
 93
        1
176
     1
 44
0.0
176
     1
173
     0
176
     1
  0
VISUALSTYLE
  5
31
102
{ACAD_REACTORS
330
2A
102
}
330
2A
100
AcDbVisualStyle
  2
3D Hidden
 70
     6
177
     2
291
     0
 71
     1
176
     1
 72
     2
176
     1
 73
     2
176
     1
 90
        0
176
     1
 40
-0.6
176
     1
 41
-30.0
176
     1
 62
     5
 63
     7
421
 16777215
176
     1
 74
     2
176
     1
 91
        2
176
     1
 64
     7
176
     1
 65
   257
176
     1
 75
     2
176
     1
175
     1
176
     1
 42
40.0
176
     1
 92
        0
176
     1
 66
   257
176
     1
 43
1.0
176
     1
 76
     1
176
     1
 77
     6
176
     1
 78
     2
176
     1
 67
     7
176
     1
 79
     3
176
     1
170
     0
176
     1
171
     0
176
     1
290
     0
176
     1
 93
        1
176
     1
 44
0.0
176
     1
173
     0
176
     1
  0
VISUALSTYLE
  5
30
102
{ACAD_REACTORS
330
2A
102
}
330
2A
100
AcDbVisualStyle
  2
3dWireframe
 70
     5
177
     2
291
     0
 71
     0
176
     1
 72
     2
176
     1
 73
     0
176
     1
 90
        0
176
     1
 40
-0.6
176
     1
 41
-30.0
176
     1
 62
     5
 63
     7
421
 16777215
176
     1
 74
     1
176
     1
 91
        4
176
     1
 64
     7
176
     1
 65
   257
176
     1
 75
     1
176
     1
175
     1
176
     1
 42
1.0
176
     1
 92
        0
176
     1
 66
   257
176
     1
 43
1.0
176
     1
 76
     1
176
     1
 77
     6
176
     1
 78
     2
176
     1
 67
     7
176
     1
 79
     5
176
     1
170
     0
176
     1
171
     0
176
     1
290
     0
176
     1
 93
        1
176
     1
 44
0.0
176
     1
173
     0
176
     1
  0
VISUALSTYLE
  5
32
102
{ACAD_REACTORS
330
2A
102
}
330
2A
100
AcDbVisualStyle
  2
Basic
 70
     7
177
     2
291
     1
 71
     1
176
     1
 72
     0
176
     1
 73
     1
176
     1
 90
        0
176
     1
 40
-0.6
176
     1
 41
-30.0
176
     1
 62
     5
 63
     7
421
 16777215
176
     1
 74
     0
176
     1
 91
        4
176
     1
 64
     7
176
     1
 65
   257
176
     1
 75
     1
176
     1
175
     1
176
     1
 42
1.0
176
     1
 92
        8
176
     1
 66
     7
176
     1
 43
1.0
176
     1
 76
     1
176
     1
 77
     6
176
     1
 78
     2
176
     1
 67
     7
176
     1
 79
     5
176
     1
170
     0
176
     1
171
     0
176
     1
290
     0
176
     1
 93
        1
176
     1
 44
0.0
176
     1
173
     0
176
     1
  0
VISUALSTYLE
  5
36
102
{ACAD_REACTORS
330
2A
102
}
330
2A
100
AcDbVisualStyle
  2
Brighten
 70
    12
177
     2
291
     1
 71
     2
176
     1
 72
     2
176
     1
 73
     0
176
     1
 90
        0
176
     1
 40
-0.6
176
     1
 41
-30.0
176
     1
 62
     5
 63
     7
421
 16777215
176
     1
 74
     1
176
     1
 91
        4
176
     1
 64
     7
176
     1
 65
   257
176
     1
 75
     1
176
     1
175
     1
176
     1
 42
1.0
176
     1
 92
        8
176
     1
 66
     7
176
     1
 43
1.0
176
     1
 76
     1
176
     1
 77
     6
176
     1
 78
     2
176
     1
 67
     7
176
     1
 79
     5
176
     1
170
     0
176
     1
171
     0
176
     1
290
     0
176
     1
 93
        1
176
     1
 44
50.0
176
     1
173
     0
176
     1
  0
VISUALSTYLE
  5
3A
102
{ACAD_REACTORS
330
2A
102
}
330
2A
100
AcDbVisualStyle
  2
ColorChange
 70
    16
177
     2
291
     1
 71
     2
176
     1
 72
     2
176
     1
 73
     3
176
     1
 90
        0
176
     1
 40
-0.6
176
     1
 41
-30.0
176
     1
 62
     5
 63
     8
421
  8421504
176
     1
 74
     1
176
     1
 91
        4
176
     1
 64
     7
176
     1
 65
   257
176
     1
 75
     1
176
     1
175
     1
176
     1
 42
1.0
176
     1
 92
        8
176
     1
 66
     8
424
  8421504
176
     1
 43
1.0
176
     1
 76
     1
176
     1
 77
     6
176
     1
 78
     2
176
     1
 67
     7
176
     1
 79
     5
176
     1
170
     0
176
     1
171
     0
176
     1
290
     0
176
     1
 93
        1
176
     1
 44
0.0
176
     1
173
     0
176
     1
  0
VISUALSTYLE
  5
34
102
{ACAD_REACTORS
330
2A
102
}
330
2A
100
AcDbVisualStyle
  2
Conceptual
 70
     9
177
     2
291
     0
 71
     3
176
     1
 72
     2
176
     1
 73
     0
176
     1
 90
        0
176
     1
 40
-0.6
176
     1
 41
-30.0
176
     1
 62
     5
 63
     7
421
 16777215
176
     1
 74
     2
176
     1
 91
        2
176
     1
 64
     7
176
     1
 65
   257
176
     1
 75
     1
176
     1
175
     1
176
     1
 42
40.0
176
     1
 92
        8
176
     1
 66
     7
176
     1
 43
1.0
176
     1
 76
     1
176
     1
 77
     6
176
     1
 78
     2
176
     1
 67
     7
176
     1
 79
     3
176
     1
170
     0
176
     1
171
     0
176
     1
290
     0
176
     1
 93
        1
176
     1
 44
0.0
176
     1
173
     0
176
     1
  0
VISUALSTYLE
  5
35
102
{ACAD_REACTORS
330
2A
102
}
330
2A
100
AcDbVisualStyle
  2
Dim
 70
    11
177
     2
291
     1
 71
     2
176
     1
 72
     2
176
     1
 73
     0
176
     1
 90
        0
176
     1
 40
-0.6
176
     1
 41
-30.0
176
     1
 62
     5
 63
     7
421
 16777215
176
     1
 74
     1
176
     1
 91
        4
176
     1
 64
     7
176
     1
 65
   257
176
     1
 75
     1
176
     1
175
     1
176
     1
 42
1.0
176
     1
 92
        8
176
     1
 66
     7
176
     1
 43
1.0
176
     1
 76
     1
176
     1
 77
     6
176
     1
 78
     2
176
     1
 67
     7
176
     1
 79
     5
176
     1
170
     0
176
     1
171
     0
176
     1
290
     0
176
     1
 93
        1
176
     1
 44
-50.0
176
     1
173
     0
176
     1
  0
VISUALSTYLE
  5
39
102
{ACAD_REACTORS
330
2A
102
}
330
2A
100
AcDbVisualStyle
  2
Facepattern
 70
    15
177
     2
291
     1
 71
     2
176
     1
 72
     2
176
     1
 73
     0
176
     1
 90
        0
176
     1
 40
-0.6
176
     1
 41
-30.0
176
     1
 62
     5
 63
     7
421
 16777215
176
     1
 74
     1
176
     1
 91
        4
176
     1
 64
     7
176
     1
 65
   257
176
     1
 75
     1
176
     1
175
     1
176
     1
 42
1.0
176
     1
 92
        8
176
     1
 66
     7
176
     1
 43
1.0
176
     1
 76
     1
176
     1
 77
     6
176
     1
 78
     2
176
     1
 67
     7
176
     1
 79
     5
176
     1
170
     0
176
     1
171
     0
176
     1
290
     0
176
     1
 93
        1
176
     1
 44
0.0
176
     1
173
     0
176
     1
  0
VISUALSTYLE
  5
2B
102
{ACAD_REACTORS
330
2A
102
}
330
2A
100
AcDbVisualStyle
  2
Flat
 70
     0
177
     2
291
     1
 71
     2
176
     1
 72
     1
176
     1
 73
     1
176
     1
 90
        2
176
     1
 40
-0.6
176
     1
 41
30.0
176
     1
 62
     5
 63
     7
421
 16777215
176
     1
 74
     0
176
     1
 91
        4
176
     1
 64
     7
176
     1
 65
   257
176
     1
 75
     1
176
     1
175
     1
176
     1
 42
1.0
176
     1
 92
        8
176
     1
 66
     7
176
     1
 43
1.0
176
     1
 76
     1
176
     1
 77
     6
176
     1
 78
     2
176
     1
 67
     7
176
     1
 79
     5
176
     1
170
     0
176
     1
171
     0
176
     1
290
     0
176
     1
 93
       13
176
     1
 44
0.0
176
     1
173
     0
176
     1
  0
VISUALSTYLE
  5
2C
102
{ACAD_REACTORS
330
2A
102
}
330
2A
100
AcDbVisualStyle
  2
FlatWithEdges
 70
     1
177
     2
291
     1
 71
     2
176
     1
 72
     1
176
     1
 73
     1
176
     1
 90
        2
176
     1
 40
-0.6
176
     1
 41
30.0
176
     1
 62
     5
 63
     7
421
 16777215
176
     1
 74
     1
176
     1
 91
        4
176
     1
 64
     7
176
     1
 65
   257
176
     1
 75
     1
176
     1
175
     1
176
     1
 42
1.0
176
     1
 92
        0
176
     1
 66
   257
176
     1
 43
1.0
176
     1
 76
     1
176
     1
 77
     6
176
     1
 78
     2
176
     1
 67
     7
176
     1
 79
     5
176
     1
170
     0
176
     1
171
     0
176
     1
290
     0
176
     1
 93
       13
176
     1
 44
0.0
176
     1
173
     0
176
     1
  0
VISUALSTYLE
  5
2D
102
{ACAD_REACTORS
330
2A
102
}
330
2A
100
AcDbVisualStyle
  2
Gouraud
 70
     2
177
     2
291
     1
 71
     2
176
     1
 72
     2
176
     1
 73
     1
176
     1
 90
        2
176
     1
 40
-0.6
176
     1
 41
30.0
176
     1
 62
     5
 63
     7
421
 16777215
176
     1
 74
     0
176
     1
 91
        4
176
     1
 64
     7
176
     1
 65
   257
176
     1
 75
     1
176
     1
175
     1
176
     1
 42
1.0
176
     1
 92
        0
176
     1
 66
     7
176
     1
 43
1.0
176
     1
 76
     1
176
     1
 77
     6
176
     1
 78
     2
176
     1
 67
     7
176
     1
 79
     5
176
     1
170
     0
176
     1
171
     0
176
     1
290
     0
176
     1
 93
       13
176
     1
 44
0.0
176
     1
173
     0
176
     1
  0
VISUALSTYLE
  5
2E
102
{ACAD_REACTORS
330
2A
102
}
330
2A
100
AcDbVisualStyle
  2
GouraudWithEdges
 70
     3
177
     2
291
     1
 71
     2
176
     1
 72
     2
176
     1
 73
     1
176
     1
 90
        2
176
     1
 40
-0.6
176
     1
 41
30.0
176
     1
 62
     5
 63
     7
421
 16777215
176
     1
 74
     1
176
     1
 91
        4
176
     1
 64
     7
176
     1
 65
   257
176
     1
 75
     1
176
     1
175
     1
176
     1
 42
1.0
176
     1
 92
        0
176
     1
 66
   257
176
     1
 43
1.0
176
     1
 76
     1
176
     1
 77
     6
176
     1
 78
     2
176
     1
 67
     7
176
     1
 79
     5
176
     1
170
     0
176
     1
171
     0
176
     1
290
     0
176
     1
 93
       13
176
     1
 44
0.0
176
     1
173
     0
176
     1
  0
VISUALSTYLE
  5
38
102
{ACAD_REACTORS
330
2A
102
}
330
2A
100
AcDbVisualStyle
  2
Linepattern
 70
    14
177
     2
291
     1
 71
     2
176
     1
 72
     2
176
     1
 73
     0
176
     1
 90
        0
176
     1
 40
-0.6
176
     1
 41
-30.0
176
     1
 62
     5
 63
     7
421
 16777215
176
     1
 74
     1
176
     1
 91
        4
176
     1
 64
     7
176
     1
 65
   257
176
     1
 75
     7
176
     1
175
     7
176
     1
 42
1.0
176
     1
 92
        8
176
     1
 66
     7
176
     1
 43
1.0
176
     1
 76
     1
176
     1
 77
     6
176
     1
 78
     2
176
     1
 67
     7
176
     1
 79
     5
176
     1
170
     0
176
     1
171
     0
176
     1
290
     0
176
     1
 93
        1
176
     1
 44
0.0
176
     1
173
     0
176
     1
  0
VISUALSTYLE
  5
33
102
{ACAD_REACTORS
330
2A
102
}
330
2A
100
AcDbVisualStyle
  2
Realistic
 70
     8
177
     2
291
     0
 71
     2
176
     1
 72
     2
176
     1
 73
     0
176
     1
 90
        0
176
     1
 40
-0.6
176
     1
 41
-30.0
176
     1
 62
     5
 63
     7
421
 16777215
176
     1
 74
     1
176
     1
 91
        0
176
     1
 64
     7
176
     1
 65
   257
176
     1
 75
     1
176
     1
175
     1
176
     1
 42
1.0
176
     1
 92
        8
176
     1
 66
     8
424
  7895160
176
     1
 43
1.0
176
     1
 76
     1
176
     1
 77
     6
176
     1
 78
     2
176
     1
 67
     7
176
     1
 79
     5
176
     1
170
     0
176
     1
171
     0
176
     1
290
     0
176
     1
 93
       13
176
     1
 44
0.0
176
     1
173
     0
176
     1
  0
VISUALSTYLE
  5
37
102
{ACAD_REACTORS
330
2A
102
}
330
2A
100
AcDbVisualStyle
  2
Thicken
 70
    13
177
     2
291
     1
 71
     2
176
     1
 72
     2
176
     1
 73
     0
176
     1
 90
        0
176
     1
 40
-0.6
176
     1
 41
-30.0
176
     1
 62
     5
 63
     7
421
 16777215
176
     1
 74
     1
176
     1
 91
        4
176
     1
 64
     7
176
     1
 65
   257
176
     1
 75
     1
176
     1
175
     1
176
     1
 42
1.0
176
     1
 92
       12
176
     1
 66
     7
176
     1
 43
1.0
176
     1
 76
     1
176
     1
 77
     6
176
     1
 78
     2
176
     1
 67
     7
176
     1
 79
     5
176
     1
170
     0
176
     1
171
     0
176
     1
290
     0
176
     1
 93
        1
176
     1
 44
0.0
176
     1
173
     0
176
     1
  0
ENDSEC
  0
EOF
