  0
SECTION
  2
HEADER
  9
$ACADVER
  1
AC1024
  9
$ACADMAINTVER
 70
     6
  9
$DWGCODEPAGE
  3
UNDEFINED
  9
$INSBASE
 10
0.0
 20
0.0
 30
0.0
  9
$EXTMIN
 10
1.000000000000000E+20
 20
1.000000000000000E+20
 30
1.000000000000000E+20
  9
$EXTMAX
 10
-1.000000000000000E+20
 20
-1.000000000000000E+20
 30
-1.000000000000000E+20
  9
$LIMMIN
 10
0.0
 20
0.0
  9
$LIMMAX
 10
12.0
 20
9.0
  9
$ORTHOMODE
 70
     0
  9
$REGENMODE
 70
     1
  9
$FILLMODE
 70
     1
  9
$QTEXTMODE
 70
     0
  9
$MIRRTEXT
 70
     1
  9
$LTSCALE
 40
1.0
  9
$ATTMODE
 70
     1
  9
$TEXTSIZE
 40
0.2
  9
$TRACEWID
 40
0.05
  9
$TEXTSTYLE
  7
Standard
  9
$CLAYER
  8
0
  9
$CELTYPE
  6
ByLayer
  9
$CECOLOR
 62
   256
  9
$CELTSCALE
 40
1.0
  9
$DISPSILH
 70
     0
  9
$DIMSCALE
 40
1.0
  9
$DIMASZ
 40
0.18
  9
$DIMEXO
 40
0.0625
  9
$DIMDLI
 40
0.38
  9
$DIMRND
 40
0.0
  9
$DIMDLE
 40
0.0
  9
$DIMEXE
 40
0.18
  9
$DIMTP
 40
0.0
  9
$DIMTM
 40
0.0
  9
$DIMTXT
 40
0.18
  9
$DIMCEN
 40
0.09
  9
$DIMTSZ
 40
0.0
  9
$DIMTOL
 70
     0
  9
$DIMLIM
 70
     0
  9
$DIMTIH
 70
     1
  9
$DIMTOH
 70
     1
  9
$DIMSE1
 70
     0
  9
$DIMSE2
 70
     0
  9
$DIMTAD
 70
     0
  9
$DIMZIN
 70
     0
  9
$DIMBLK
  1

  9
$DIMASO
 70
     1
  9
$DIMSHO
 70
     1
  9
$DIMPOST
  1

  9
$DIMAPOST
  1

  9
$DIMALT
 70
     0
  9
$DIMALTD
 70
     2
  9
$DIMALTF
 40
25.4
  9
$DIMLFAC
 40
1.0
  9
$DIMTOFL
 70
     0
  9
$DIMTVP
 40
0.0
  9
$DIMTIX
 70
     0
  9
$DIMSOXD
 70
     0
  9
$DIMSAH
 70
     0
  9
$DIMBLK1
  1

  9
$DIMBLK2
  1

  9
$DIMSTYLE
  2
Standard
  9
$DIMCLRD
 70
     0
  9
$DIMCLRE
 70
     0
  9
$DIMCLRT
 70
     0
  9
$DIMTFAC
 40
1.0
  9
$DIMGAP
 40
0.09
  9
$DIMJUST
 70
     0
  9
$DIMSD1
 70
     0
  9
$DIMSD2
 70
     0
  9
$DIMTOLJ
 70
     1
  9
$DIMTZIN
 70
     0
  9
$DIMALTZ
 70
     0
  9
$DIMALTTZ
 70
     0
  9
$DIMUPT
 70
     0
  9
$DIMDEC
 70
     4
  9
$DIMTDEC
 70
     4
  9
$DIMALTU
 70
     2
  9
$DIMALTTD
 70
     2
  9
$DIMTXSTY
  7
Standard
  9
$DIMAUNIT
 70
     0
  9
$DIMADEC
 70
     0
  9
$DIMALTRND
 40
0.0
  9
$DIMAZIN
 70
     0
  9
$DIMDSEP
 70
    46
  9
$DIMATFIT
 70
     3
  9
$DIMFRAC
 70
     0
  9
$DIMLDRBLK
  1

  9
$DIMLUNIT
 70
     2
  9
$DIMLWD
 70
    -2
  9
$DIMLWE
 70
    -2
  9
$DIMTMOVE
 70
     0
  9
$DIMFXL
 40
1.0
  9
$DIMFXLON
 70
     0
  9
$DIMJOGANG
 40
0.7853981633974483
  9
$DIMTFILL
 70
     0
  9
$DIMTFILLCLR
 70
     0
  9
$DIMARCSYM
 70
     0
  9
$DIMLTYPE
  6

  9
$DIMLTEX1
  6

  9
$DIMLTEX2
  6

  9
$DIMTXTDIRECTION
 70
     0
  9
$LUNITS
 70
     2
  9
$LUPREC
 70
     4
  9
$SKETCHINC
 40
0.1
  9
$FILLETRAD
 40
0.5
  9
$AUNITS
 70
     0
  9
$AUPREC
 70
     0
  9
$MENU
  1
.
  9
$ELEVATION
 40
0.0
  9
$PELEVATION
 40
0.0
  9
$THICKNESS
 40
0.0
  9
$LIMCHECK
 70
     0
  9
$CHAMFERA
 40
0.5
  9
$CHAMFERB
 40
0.5
  9
$CHAMFERC
 40
1.0
  9
$CHAMFERD
 40
0.0
  9
$SKPOLY
 70
     0
  9
$TDCREATE
 40
2457917.617986099
  9
$TDUCREATE
 40
2457917.242986111
  9
$TDUPDATE
 40
2457917.617986099
  9
$TDUUPDATE
 40
2457917.242986111
  9
$TDINDWG
 40
0.0000000116
  9
$TDUSRTIMER
 40
0.0000000116
  9
$USRTIMER
 70
     1
  9
$ANGBASE
 50
0.0
  9
$ANGDIR
 70
     0
  9
$PDMODE
 70
     0
  9
$PDSIZE
 40
0.0
  9
$PLINEWID
 40
0.0
  9
$SPLFRAME
 70
     0
  9
$SPLINETYPE
 70
     6
  9
$SPLINESEGS
 70
     8
  9
$HANDSEED
  5
CC
  9
$SURFTAB1
 70
     6
  9
$SURFTAB2
 70
     6
  9
$SURFTYPE
 70
     6
  9
$SURFU
 70
     6
  9
$SURFV
 70
     6
  9
$UCSBASE
  2

  9
$UCSNAME
  2

  9
$UCSORG
 10
0.0
 20
0.0
 30
0.0
  9
$UCSXDIR
 10
1.0
 20
0.0
 30
0.0
  9
$UCSYDIR
 10
0.0
 20
1.0
 30
0.0
  9
$UCSORTHOREF
  2

  9
$UCSORTHOVIEW
 70
     0
  9
$UCSORGTOP
 10
0.0
 20
0.0
 30
0.0
  9
$UCSORGBOTTOM
 10
0.0
 20
0.0
 30
0.0
  9
$UCSORGLEFT
 10
0.0
 20
0.0
 30
0.0
  9
$UCSORGRIGHT
 10
0.0
 20
0.0
 30
0.0
  9
$UCSORGFRONT
 10
0.0
 20
0.0
 30
0.0
  9
$UCSORGBACK
 10
0.0
 20
0.0
 30
0.0
  9
$PUCSBASE
  2

  9
$PUCSNAME
  2

  9
$PUCSORG
 10
0.0
 20
0.0
 30
0.0
  9
$PUCSXDIR
 10
1.0
 20
0.0
 30
0.0
  9
$PUCSYDIR
 10
0.0
 20
1.0
 30
0.0
  9
$PUCSORTHOREF
  2

  9
$PUCSORTHOVIEW
 70
     0
  9
$PUCSORGTOP
 10
0.0
 20
0.0
 30
0.0
  9
$PUCSORGBOTTOM
 10
0.0
 20
0.0
 30
0.0
  9
$PUCSORGLEFT
 10
0.0
 20
0.0
 30
0.0
  9
$PUCSORGRIGHT
 10
0.0
 20
0.0
 30
0.0
  9
$PUCSORGFRONT
 10
0.0
 20
0.0
 30
0.0
  9
$PUCSORGBACK
 10
0.0
 20
0.0
 30
0.0
  9
$USERI1
 70
     0
  9
$USERI2
 70
     0
  9
$USERI3
 70
     0
  9
$USERI4
 70
     0
  9
$USERI5
 70
     0
  9
$USERR1
 40
0.0
  9
$USERR2
 40
0.0
  9
$USERR3
 40
0.0
  9
$USERR4
 40
0.0
  9
$USERR5
 40
0.0
  9
$WORLDVIEW
 70
     1
  9
$SHADEDGE
 70
     3
  9
$SHADEDIF
 70
    70
  9
$TILEMODE
 70
     1
  9
$MAXACTVP
 70
    64
  9
$PINSBASE
 10
0.0
 20
0.0
 30
0.0
  9
$PLIMCHECK
 70
     0
  9
$PEXTMIN
 10
1.000000000000000E+20
 20
1.000000000000000E+20
 30
1.000000000000000E+20
  9
$PEXTMAX
 10
-1.000000000000000E+20
 20
-1.000000000000000E+20
 30
-1.000000000000000E+20
  9
$PLIMMIN
 10
0.0
 20
0.0
  9
$PLIMMAX
 10
12.0
 20
9.0
  9
$UNITMODE
 70
     0
  9
$VISRETAIN
 70
     1
  9
$PLINEGEN
 70
     0
  9
$PSLTSCALE
 70
     1
  9
$TREEDEPTH
 70
  3020
  9
$CMLSTYLE
  2
Standard
  9
$CMLJUST
 70
     0
  9
$CMLSCALE
 40
1.0
  9
$PROXYGRAPHICS
 70
     1
  9
$MEASUREMENT
 70
     0
  9
$CELWEIGHT
370
    -1
  9
$ENDCAPS
280
     0
  9
$JOINSTYLE
280
     0
  9
$LWDISPLAY
290
     1
  9
$INSUNITS
 70
     1
  9
$HYPERLINKBASE
  1

  9
$STYLESHEET
  1

  9
$XEDIT
290
     1
  9
$CEPSNTYPE
380
     0
  9
$PSTYLEMODE
290
     1
  9
$FINGERPRINTGUID
  2
{64B3EC56-DF04-712B-2F9A-4D7841595346}
  9
$VERSIONGUID
  2
{FAEB1C32-E019-11D5-929B-00C0DF256EC4}
  9
$EXTNAMES
290
     1
  9
$PSVPSCALE
 40
0.0
  9
$OLESTARTUP
290
     0
  9
$SORTENTS
280
   127
  9
$INDEXCTL
280
     0
  9
$HIDETEXT
280
     1
  9
$XCLIPFRAME
280
     2
  9
$HALOGAP
280
     0
  9
$OBSCOLOR
 70
   257
  9
$OBSLTYPE
280
     0
  9
$INTERSECTIONDISPLAY
280
     0
  9
$INTERSECTIONCOLOR
 70
   257
  9
$DIMASSOC
280
     2
  9
$PROJECTNAME
  1

  9
$CAMERADISPLAY
290
     0
  9
$LENSLENGTH
 40
50.0
  9
$CAMERAHEIGHT
 40
0.0
  9
$STEPSPERSEC
 40
2.0
  9
$STEPSIZE
 40
6.0
  9
$3DDWFPREC
 40
2.0
  9
$PSOLWIDTH
 40
0.25
  9
$PSOLHEIGHT
 40
4.0
  9
$LOFTANG1
 40
1.570796326794897
  9
$LOFTANG2
 40
1.570796326794897
  9
$LOFTMAG1
 40
0.0
  9
$LOFTMAG2
 40
0.0
  9
$LOFTPARAM
 70
     7
  9
$LOFTNORMALS
280
     1
  9
$LATITUDE
 40
37.795
  9
$LONGITUDE
 40
-122.394
  9
$NORTHDIRECTION
 40
0.0
  9
$TIMEZONE
 70
 -8000
  9
$LIGHTGLYPHDISPLAY
280
     1
  9
$TILEMODELIGHTSYNCH
280
     1
  9
$CMATERIAL
347
3C
  9
$SOLIDHIST
280
     1
  9
$SHOWHIST
280
     1
  9
$DWFFRAME
280
     2
  9
$DGNFRAME
280
     2
  9
$REALWORLDSCALE
290
     1
  9
$INTERFERECOLOR
 62
   256
  9
$CSHADOW
280
     0
  9
$SHADOWPLANELOCATION
 40
0.0
  0
ENDSEC
  0
SECTION
  2
CLASSES
  0
CLASS
  1
ACDBDICTIONARYWDFLT
  2
AcDbDictionaryWithDefault
  3
ObjectDBX Classes
 90
        0
 91
        4
280
     0
281
     0
  0
CLASS
  1
VISUALSTYLE
  2
AcDbVisualStyle
  3
ObjectDBX Classes
 90
     4095
 91
        4
280
     0
281
     0
  0
CLASS
  1
MATERIAL
  2
AcDbMaterial
  3
ObjectDBX Classes
 90
     1153
 91
        4
280
     0
281
     0
  0
CLASS
  1
SUN
  2
AcDbSun
  3
SCENEOE
 90
     1024
 91
        4
280
     0
281
     0
  0
ENDSEC
  0
SECTION
  2
TABLES
  0
TABLE
  2
VPORT
  5
8
330
0
100
AcDbSymbolTable
 70
     1
  0
VPORT
  5
29
330
8
100
AcDbSymbolTableRecord
100
AcDbViewportTableRecord
  2
*Active
 70
     0
 10
0.0
 20
0.0
 11
1.0
 21
1.0
 12
0.0
 22
0.0
 13
0.0
 23
0.0
 14
0.5
 24
0.5
 15
0.5
 25
0.5
 16
0.0
 26
0.0
 36
1.0
 17
91.00082462281999
 27
-128.4993055234307
 37
0.0
 40
256.9986110468615
 41
0.7081814508812795
 42
50.0
 43
0.0
 44
0.0
 50
0.0
 51
0.0
 71
     0
 72
   100
 73
     1
 74
     3
 75
     0
 76
     0
 77
     0
 78
     0
281
     0
 65
     1
110
0.0
120
0.0
130
0.0
111
1.0
121
0.0
131
0.0
112
0.0
122
1.0
132
0.0
 79
     0
146
0.0
 60
     3
 61
     5
292
     1
282
     1
141
0.0
142
0.0
 63
   250
361
3F
  0
ENDTAB
  0
TABLE
  2
LTYPE
  5
5
330
0
100
AcDbSymbolTable
 70
     1
  0
LTYPE
  5
14
330
5
100
AcDbSymbolTableRecord
100
AcDbLinetypeTableRecord
  2
ByBlock
 70
     0
  3

 72
    65
 73
     0
 40
0.0
  0
LTYPE
  5
15
330
5
100
AcDbSymbolTableRecord
100
AcDbLinetypeTableRecord
  2
ByLayer
 70
     0
  3

 72
    65
 73
     0
 40
0.0
  0
LTYPE
  5
16
330
5
100
AcDbSymbolTableRecord
100
AcDbLinetypeTableRecord
  2
Continuous
 70
     0
  3
Solid line
 72
    65
 73
     0
 40
0.0
  0
ENDTAB
  0
TABLE
  2
LAYER
  5
2
330
0
100
AcDbSymbolTable
 70
     2
  0
LAYER
  5
10
330
2
100
AcDbSymbolTableRecord
100
AcDbLayerTableRecord
  2
0
 70
     0
 62
     7
  6
Continuous
370
    -3
390
F
347
3E
  0
LAYER
  5
40
330
2
100
AcDbSymbolTableRecord
100
AcDbLayerTableRecord
  2
_U+30EC_U+30A4_U+30E4_U+30FC 1
 70
     0
 62
     7
  6
Continuous
370
    -3
390
F
347
3E
  0
ENDTAB
  0
TABLE
  2
STYLE
  5
3
330
0
100
AcDbSymbolTable
 70
     1
  0
STYLE
  5
11
330
3
100
AcDbSymbolTableRecord
100
AcDbTextStyleTableRecord
  2
Standard
 70
     0
 40
0.0
 41
1.0
 50
0.0
 71
     0
 42
0.2
  3
txt
  4

  0
ENDTAB
  0
TABLE
  2
VIEW
  5
6
330
0
100
AcDbSymbolTable
 70
     0
  0
ENDTAB
  0
TABLE
  2
UCS
  5
7
330
0
100
AcDbSymbolTable
 70
     0
  0
ENDTAB
  0
TABLE
  2
APPID
  5
9
330
0
100
AcDbSymbolTable
 70
     1
  0
APPID
  5
12
330
9
100
AcDbSymbolTableRecord
100
AcDbRegAppTableRecord
  2
ACAD
 70
     0
  0
ENDTAB
  0
TABLE
  2
DIMSTYLE
  5
A
330
0
100
AcDbSymbolTable
 70
     1
100
AcDbDimStyleTable
  0
DIMSTYLE
105
27
330
A
100
AcDbSymbolTableRecord
100
AcDbDimStyleTableRecord
  2
Standard
 70
     0
178
     0
340
11
  0
ENDTAB
  0
TABLE
  2
BLOCK_RECORD
  5
1
330
0
100
AcDbSymbolTable
 70
     6
  0
BLOCK_RECORD
  5
1F
330
1
100
AcDbSymbolTableRecord
100
AcDbBlockTableRecord
  2
*Model_Space
340
22
 70
     0
280
     1
281
     0
  0
BLOCK_RECORD
  5
1B
330
1
100
AcDbSymbolTableRecord
100
AcDbBlockTableRecord
  2
*Paper_Space
340
1E
 70
     0
280
     1
281
     0
  0
BLOCK_RECORD
  5
23
330
1
100
AcDbSymbolTableRecord
100
AcDbBlockTableRecord
  2
*Paper_Space0
340
26
 70
     0
280
     1
281
     0
  0
BLOCK_RECORD
  5
7D
330
1
100
AcDbSymbolTableRecord
100
AcDbBlockTableRecord
  2
block 2
340
0
102
{BLKREFS
331
7E
102
}
 70
     0
280
     1
281
     0
  0
BLOCK_RECORD
  5
91
330
1
100
AcDbSymbolTableRecord
100
AcDbBlockTableRecord
  2
block 3
340
0
102
{BLKREFS
331
92
102
}
 70
     0
280
     1
281
     0
  0
BLOCK_RECORD
  5
A7
330
1
100
AcDbSymbolTableRecord
100
AcDbBlockTableRecord
  2
block 4
340
0
102
{BLKREFS
331
A8
102
}
 70
     0
280
     1
281
     0
  0
BLOCK_RECORD
  5
B8
330
1
100
AcDbSymbolTableRecord
100
AcDbBlockTableRecord
  2
block 5
340
0
102
{BLKREFS
331
B9
102
}
 70
     0
280
     1
281
     0
  0
BLOCK_RECORD
  5
C0
330
1
100
AcDbSymbolTableRecord
100
AcDbBlockTableRecord
  2
block 6
340
0
102
{BLKREFS
331
C1
102
}
 70
     0
280
     1
281
     0
  0
ENDTAB
  0
ENDSEC
  0
SECTION
  2
BLOCKS
  0
BLOCK
  5
20
330
1F
100
AcDbEntity
  8
0
100
AcDbBlockBegin
  2
*Model_Space
 70
     0
 10
0.0
 20
0.0
 30
0.0
  3
*Model_Space
  1

  0
ENDBLK
  5
21
330
1F
100
AcDbEntity
  8
0
100
AcDbBlockEnd
  0
BLOCK
  5
1C
330
1B
100
AcDbEntity
 67
     1
  8
0
100
AcDbBlockBegin
  2
*Paper_Space
 70
     0
 10
0.0
 20
0.0
 30
0.0
  3
*Paper_Space
  1

  0
ENDBLK
  5
1D
330
1B
100
AcDbEntity
 67
     1
  8
0
100
AcDbBlockEnd
  0
BLOCK
  5
24
330
23
100
AcDbEntity
  8
0
100
AcDbBlockBegin
  2
*Paper_Space0
 70
     0
 10
0.0
 20
0.0
 30
0.0
  3
*Paper_Space0
  1

  0
ENDBLK
  5
25
330
23
100
AcDbEntity
  8
0
100
AcDbBlockEnd
  0
BLOCK
  5
7F
330
7D
100
AcDbEntity
  8
0
100
AcDbBlockBegin
  2
block 2
 70
     0
 10
0.0
 20
0.0
 30
0.0
  3
block 2
  1

  0
SPLINE
  5
81
330
7D
100
AcDbEntity
  8
_U+30EC_U+30A4_U+30E4_U+30FC 1
370
     0
100
AcDbSpline
210
0.0
220
0.0
230
1.0
 70
    11
 71
     3
 72
    29
 73
    25
 74
     0
 42
0.0000000001
 43
0.0000000001
 12
1.0
 22
0.0
 32
0.0
 13
1.0
 23
0.0
 33
0.0
 40
0.0
 40
0.0
 40
0.0
 40
0.0
 40
1.0
 40
1.0
 40
1.0
 40
2.0
 40
2.0
 40
2.0
 40
3.0
 40
3.0
 40
3.0
 40
4.0
 40
4.0
 40
4.0
 40
5.0
 40
5.0
 40
5.0
 40
6.0
 40
6.0
 40
6.0
 40
7.0
 40
7.0
 40
7.0
 40
8.0
 40
8.0
 40
8.0
 40
8.0
 10
84.53041311905837
 20
-117.0969007411251
 30
0.0
 10
84.24550372242821
 20
-117.0969007411251
 30
0.0
 10
83.97420245296479
 20
-116.9592691764894
 30
0.0
 10
83.97420245296479
 20
-116.6102810038335
 30
0.0
 10
83.97420245296479
 20
-116.3543104092795
 30
0.0
 10
84.12561439954152
 20
-116.2590535191123
 30
0.0
 10
84.23878578623197
 20
-116.1977308194749
 30
0.0
 10
84.10528833617855
 20
-116.1384751771286
 30
0.0
 10
84.02398408272664
 20
-116.0242702617926
 30
0.0
 10
84.02398408272664
 20
-115.8635565574056
 30
0.0
 10
84.02398408272664
 20
-115.5884656829084
 30
0.0
 10
84.2363742193923
 20
-115.4530734303381
 30
0.0
 10
84.53041311905837
 20
-115.4530734303381
 30
0.0
 10
84.8334092669861
 20
-115.4530734303381
 30
0.0
 10
85.0368421553901
 20
-115.5969061668473
 30
0.0
 10
85.0368421553901
 20
-115.8635565574056
 30
0.0
 10
85.0368421553901
 20
-116.0242702617926
 30
0.0
 10
84.95312633509853
 20
-116.1384751771286
 30
0.0
 10
84.81980113981936
 20
-116.1977308194749
 30
0.0
 10
84.914713520438
 20
-116.2485459778823
 30
0.0
 10
85.08421221831229
 20
-116.3438028680495
 30
0.0
 10
85.08421221831229
 20
-116.6061468892512
 30
0.0
 10
85.08421221831229
 20
-116.9804565137236
 30
0.0
 10
84.78586694928966
 20
-117.0969007411251
 30
0.0
 10
84.53041311905837
 20
-117.0969007411251
 30
0.0
  0
SPLINE
  5
82
330
7D
100
AcDbEntity
  8
_U+30EC_U+30A4_U+30E4_U+30FC 1
370
     0
100
AcDbSpline
210
0.0
220
0.0
230
1.0
 70
    11
 71
     3
 72
    17
 73
    13
 74
     0
 42
0.0000000001
 43
0.0000000001
 12
1.0
 22
0.0
 32
0.0
 13
1.0
 23
0.0
 33
0.0
 40
0.0
 40
0.0
 40
0.0
 40
0.0
 40
1.0
 40
1.0
 40
1.0
 40
2.0
 40
2.0
 40
2.0
 40
3.0
 40
3.0
 40
3.0
 40
4.0
 40
4.0
 40
4.0
 40
4.0
 10
84.53041311905837
 20
-116.3057345629375
 30
0.0
 10
84.37658960564197
 20
-116.3057345629375
 30
0.0
 10
84.21380884396392
 20
-116.3923787143915
 30
0.0
 10
84.21380884396392
 20
-116.595467093247
 30
0.0
 10
84.21380884396392
 20
-116.8006225293936
 30
0.0
 10
84.34954560608276
 20
-116.9022528462085
 30
0.0
 10
84.53041311905837
 20
-116.9022528462085
 30
0.0
 10
84.72936738333155
 20
-116.9022528462085
 30
0.0
 10
84.84684513937857
 20
-116.7796074469336
 30
0.0
 10
84.84684513937857
 20
-116.6018405198947
 30
0.0
 10
84.84684513937857
 20
-116.3796318610961
 30
0.0
 10
84.67286781737346
 20
-116.3057345629375
 30
0.0
 10
84.53041311905837
 20
-116.3057345629375
 30
0.0
  0
SPLINE
  5
83
330
7D
100
AcDbEntity
  8
_U+30EC_U+30A4_U+30E4_U+30FC 1
370
     0
100
AcDbSpline
210
0.0
220
0.0
230
1.0
 70
    11
 71
     3
 72
    17
 73
    13
 74
     0
 42
0.0000000001
 43
0.0000000001
 12
1.0
 22
0.0
 32
0.0
 13
1.0
 23
0.0
 33
0.0
 40
0.0
 40
0.0
 40
0.0
 40
0.0
 40
1.0
 40
1.0
 40
1.0
 40
2.0
 40
2.0
 40
2.0
 40
3.0
 40
3.0
 40
3.0
 40
4.0
 40
4.0
 40
4.0
 40
4.0
 10
84.53041311905837
 20
-115.6456542679636
 30
0.0
 10
84.35402423021358
 20
-115.6456542679636
 30
0.0
 10
84.26359047372577
 20
-115.7407389033565
 30
0.0
 10
84.26359047372577
 20
-115.8761311559268
 30
0.0
 10
84.26359047372577
 20
-115.998948809976
 30
0.0
 10
84.34041610304685
 20
-116.1174600946686
 30
0.0
 10
84.53041311905837
 20
-116.1174600946686
 30
0.0
 10
84.72023788029564
 20
-116.1174600946686
 30
0.0
 10
84.79723576439098
 20
-115.998948809976
 30
0.0
 10
84.79723576439098
 20
-115.8761311559268
 30
0.0
 10
84.79723576439098
 20
-115.7407389033565
 30
0.0
 10
84.7043904410635
 20
-115.6456542679636
 30
0.0
 10
84.53041311905837
 20
-115.6456542679636
 30
0.0
  0
HATCH
  5
84
330
7D
100
AcDbEntity
  8
_U+30EC_U+30A4_U+30E4_U+30FC 1
 62
   179
420
  2234388
100
AcDbHatch
 10
0.0
 20
0.0
 30
0.0
210
0.0
220
0.0
230
1.0
  2
SOLID
 70
     1
 71
     0
 91
        3
 92
        1
 93
        1
 72
     4
 94
        3
 73
     0
 74
     1
 95
       29
 96
       25
 40
0.0
 40
0.0
 40
0.0
 40
0.0
 40
1.0
 40
1.0
 40
1.0
 40
2.0
 40
2.0
 40
2.0
 40
3.0
 40
3.0
 40
3.0
 40
4.0
 40
4.0
 40
4.0
 40
5.0
 40
5.0
 40
5.0
 40
6.0
 40
6.0
 40
6.0
 40
7.0
 40
7.0
 40
7.0
 40
8.0
 40
8.0
 40
8.0
 40
8.0
 10
84.53041311905837
 20
-117.0969007411251
 10
84.24550372242821
 20
-117.0969007411251
 10
83.97420245296479
 20
-116.9592691764894
 10
83.97420245296479
 20
-116.6102810038335
 10
83.97420245296479
 20
-116.3543104092795
 10
84.12561439954152
 20
-116.2590535191123
 10
84.23878578623197
 20
-116.1977308194749
 10
84.10528833617855
 20
-116.1384751771286
 10
84.02398408272664
 20
-116.0242702617926
 10
84.02398408272664
 20
-115.8635565574056
 10
84.02398408272664
 20
-115.5884656829084
 10
84.2363742193923
 20
-115.4530734303381
 10
84.53041311905837
 20
-115.4530734303381
 10
84.8334092669861
 20
-115.4530734303381
 10
85.0368421553901
 20
-115.5969061668473
 10
85.0368421553901
 20
-115.8635565574056
 10
85.0368421553901
 20
-116.0242702617926
 10
84.95312633509853
 20
-116.1384751771286
 10
84.81980113981936
 20
-116.1977308194749
 10
84.914713520438
 20
-116.2485459778823
 10
85.08421221831229
 20
-116.3438028680495
 10
85.08421221831229
 20
-116.6061468892512
 10
85.08421221831229
 20
-116.9804565137236
 10
84.78586694928966
 20
-117.0969007411251
 10
84.53041311905837
 20
-117.0969007411251
 97
        0
 97
        0
 92
        1
 93
        1
 72
     4
 94
        3
 73
     0
 74
     1
 95
       17
 96
       13
 40
0.0
 40
0.0
 40
0.0
 40
0.0
 40
1.0
 40
1.0
 40
1.0
 40
2.0
 40
2.0
 40
2.0
 40
3.0
 40
3.0
 40
3.0
 40
4.0
 40
4.0
 40
4.0
 40
4.0
 10
84.53041311905837
 20
-116.3057345629375
 10
84.37658960564197
 20
-116.3057345629375
 10
84.21380884396392
 20
-116.3923787143915
 10
84.21380884396392
 20
-116.595467093247
 10
84.21380884396392
 20
-116.8006225293936
 10
84.34954560608276
 20
-116.9022528462085
 10
84.53041311905837
 20
-116.9022528462085
 10
84.72936738333155
 20
-116.9022528462085
 10
84.84684513937857
 20
-116.7796074469336
 10
84.84684513937857
 20
-116.6018405198947
 10
84.84684513937857
 20
-116.3796318610961
 10
84.67286781737346
 20
-116.3057345629375
 10
84.53041311905837
 20
-116.3057345629375
 97
        0
 97
        0
 92
        1
 93
        1
 72
     4
 94
        3
 73
     0
 74
     1
 95
       17
 96
       13
 40
0.0
 40
0.0
 40
0.0
 40
0.0
 40
1.0
 40
1.0
 40
1.0
 40
2.0
 40
2.0
 40
2.0
 40
3.0
 40
3.0
 40
3.0
 40
4.0
 40
4.0
 40
4.0
 40
4.0
 10
84.53041311905837
 20
-115.6456542679636
 10
84.35402423021358
 20
-115.6456542679636
 10
84.26359047372577
 20
-115.7407389033565
 10
84.26359047372577
 20
-115.8761311559268
 10
84.26359047372577
 20
-115.998948809976
 10
84.34041610304685
 20
-116.1174600946686
 10
84.53041311905837
 20
-116.1174600946686
 10
84.72023788029564
 20
-116.1174600946686
 10
84.79723576439098
 20
-115.998948809976
 10
84.79723576439098
 20
-115.8761311559268
 10
84.79723576439098
 20
-115.7407389033565
 10
84.7043904410635
 20
-115.6456542679636
 10
84.53041311905837
 20
-115.6456542679636
 97
        0
 97
        0
 75
     2
 76
     1
 98
        0
  0
ENDBLK
  5
80
330
7D
100
AcDbEntity
  8
0
100
AcDbBlockEnd
  0
BLOCK
  5
93
330
91
100
AcDbEntity
  8
0
100
AcDbBlockBegin
  2
block 3
 70
     0
 10
0.0
 20
0.0
 30
0.0
  3
block 3
  1

  0
SPLINE
  5
95
330
91
100
AcDbEntity
  8
_U+30EC_U+30A4_U+30E4_U+30FC 1
370
     0
100
AcDbSpline
210
0.0
220
0.0
230
1.0
 70
    11
 71
     3
 72
    26
 73
    22
 74
     0
 42
0.0000000001
 43
0.0000000001
 12
1.0
 22
0.0
 32
0.0
 13
1.0
 23
0.0
 33
0.0
 40
0.0
 40
0.0
 40
0.0
 40
0.0
 40
1.0
 40
1.0
 40
1.0
 40
2.0
 40
2.0
 40
2.0
 40
3.0
 40
3.0
 40
3.0
 40
4.0
 40
4.0
 40
4.0
 40
5.0
 40
5.0
 40
5.0
 40
6.0
 40
6.0
 40
6.0
 40
7.0
 40
7.0
 40
7.0
 40
7.0
 10
88.81128876902982
 20
-140.0455430422456
 30
0.0
 10
88.81128876902982
 20
-140.0455430422456
 30
0.0
 10
88.81128876902982
 20
-138.941389939223
 30
0.0
 10
88.81128876902982
 20
-138.941389939223
 30
0.0
 10
88.81128876902982
 20
-138.941389939223
 30
0.0
 10
88.45885550088876
 20
-138.941389939223
 30
0.0
 10
88.45885550088876
 20
-138.941389939223
 30
0.0
 10
88.45885550088876
 20
-138.941389939223
 30
0.0
 10
88.45885550088876
 20
-138.7932508333573
 30
0.0
 10
88.45885550088876
 20
-138.7932508333573
 30
0.0
 10
88.8137003358695
 20
-138.7784369227707
 30
0.0
 10
88.8633097108571
 20
-138.6154839063184
 30
0.0
 10
88.89500458932139
 20
-138.5011067362081
 30
0.0
 10
88.89500458932139
 20
-138.5011067362081
 30
0.0
 10
89.05106741480321
 20
-138.5011067362081
 30
0.0
 10
89.05106741480321
 20
-138.5011067362081
 30
0.0
 10
89.05106741480321
 20
-138.5011067362081
 30
0.0
 10
89.05106741480321
 20
-140.0455430422456
 30
0.0
 10
89.05106741480321
 20
-140.0455430422456
 30
0.0
 10
89.05106741480321
 20
-140.0455430422456
 30
0.0
 10
88.81128876902982
 20
-140.0455430422456
 30
0.0
 10
88.81128876902982
 20
-140.0455430422456
 30
0.0
  0
HATCH
  5
96
330
91
100
AcDbEntity
  8
_U+30EC_U+30A4_U+30E4_U+30FC 1
 62
   179
420
  2234388
100
AcDbHatch
 10
0.0
 20
0.0
 30
0.0
210
0.0
220
0.0
230
1.0
  2
SOLID
 70
     1
 71
     0
 91
        1
 92
        1
 93
        1
 72
     4
 94
        3
 73
     0
 74
     1
 95
       26
 96
       22
 40
0.0
 40
0.0
 40
0.0
 40
0.0
 40
1.0
 40
1.0
 40
1.0
 40
2.0
 40
2.0
 40
2.0
 40
3.0
 40
3.0
 40
3.0
 40
4.0
 40
4.0
 40
4.0
 40
5.0
 40
5.0
 40
5.0
 40
6.0
 40
6.0
 40
6.0
 40
7.0
 40
7.0
 40
7.0
 40
7.0
 10
88.81128876902982
 20
-140.0455430422456
 10
88.81128876902982
 20
-140.0455430422456
 10
88.81128876902982
 20
-138.941389939223
 10
88.81128876902982
 20
-138.941389939223
 10
88.81128876902982
 20
-138.941389939223
 10
88.45885550088876
 20
-138.941389939223
 10
88.45885550088876
 20
-138.941389939223
 10
88.45885550088876
 20
-138.941389939223
 10
88.45885550088876
 20
-138.7932508333573
 10
88.45885550088876
 20
-138.7932508333573
 10
88.8137003358695
 20
-138.7784369227707
 10
88.8633097108571
 20
-138.6154839063184
 10
88.89500458932139
 20
-138.5011067362081
 10
88.89500458932139
 20
-138.5011067362081
 10
89.05106741480321
 20
-138.5011067362081
 10
89.05106741480321
 20
-138.5011067362081
 10
89.05106741480321
 20
-138.5011067362081
 10
89.05106741480321
 20
-140.0455430422456
 10
89.05106741480321
 20
-140.0455430422456
 10
89.05106741480321
 20
-140.0455430422456
 10
88.81128876902982
 20
-140.0455430422456
 10
88.81128876902982
 20
-140.0455430422456
 97
        0
 97
        0
 75
     2
 76
     1
 98
        0
  0
SPLINE
  5
97
330
91
100
AcDbEntity
  8
_U+30EC_U+30A4_U+30E4_U+30FC 1
370
     0
100
AcDbSpline
210
0.0
220
0.0
230
1.0
 70
    11
 71
     3
 72
    29
 73
    25
 74
     0
 42
0.0000000001
 43
0.0000000001
 12
1.0
 22
0.0
 32
0.0
 13
1.0
 23
0.0
 33
0.0
 40
0.0
 40
0.0
 40
0.0
 40
0.0
 40
1.0
 40
1.0
 40
1.0
 40
2.0
 40
2.0
 40
2.0
 40
3.0
 40
3.0
 40
3.0
 40
4.0
 40
4.0
 40
4.0
 40
5.0
 40
5.0
 40
5.0
 40
6.0
 40
6.0
 40
6.0
 40
7.0
 40
7.0
 40
7.0
 40
8.0
 40
8.0
 40
8.0
 40
8.0
 10
90.1211140725218
 20
-140.0961859458787
 30
0.0
 10
89.83620467589165
 20
-140.0961859458787
 30
0.0
 10
89.56507566120248
 20
-139.9587266360173
 30
0.0
 10
89.56507566120248
 20
-139.6097384633615
 30
0.0
 10
89.56507566120248
 20
-139.3537678688074
 30
0.0
 10
89.71665986255348
 20
-139.2586832334145
 30
0.0
 10
89.82965899446967
 20
-139.197360533777
 30
0.0
 10
89.6963337991905
 20
-139.1381048914308
 30
0.0
 10
89.61468503619008
 20
-139.0237277213205
 30
0.0
 10
89.61468503619008
 20
-138.8628417621593
 30
0.0
 10
89.61468503619008
 20
-138.5879231424364
 30
0.0
 10
89.82724742763
 20
-138.452530889866
 30
0.0
 10
90.1211140725218
 20
-138.452530889866
 30
0.0
 10
90.42428247522379
 20
-138.452530889866
 30
0.0
 10
90.62754310885353
 20
-138.5965358811495
 30
0.0
 10
90.62754310885353
 20
-138.8628417621593
 30
0.0
 10
90.62754310885353
 20
-139.0237277213205
 30
0.0
 10
90.54417179811048
 20
-139.1381048914308
 30
0.0
 10
90.4105020932828
 20
-139.197360533777
 30
0.0
 10
90.5055867286757
 20
-139.2480034374102
 30
0.0
 10
90.67508542654998
 20
-139.3430880728031
 30
0.0
 10
90.67508542654998
 20
-139.6056043487792
 30
0.0
 10
90.67508542654998
 20
-139.9800862280258
 30
0.0
 10
90.37674015752735
 20
-140.0961859458787
 30
0.0
 10
90.1211140725218
 20
-140.0961859458787
 30
0.0
  0
SPLINE
  5
98
330
91
100
AcDbEntity
  8
_U+30EC_U+30A4_U+30E4_U+30FC 1
370
     0
100
AcDbSpline
210
0.0
220
0.0
230
1.0
 70
    11
 71
     3
 72
    17
 73
    13
 74
     0
 42
0.0000000001
 43
0.0000000001
 12
1.0
 22
0.0
 32
0.0
 13
1.0
 23
0.0
 33
0.0
 40
0.0
 40
0.0
 40
0.0
 40
0.0
 40
1.0
 40
1.0
 40
1.0
 40
2.0
 40
2.0
 40
2.0
 40
3.0
 40
3.0
 40
3.0
 40
4.0
 40
4.0
 40
4.0
 40
4.0
 10
90.1211140725218
 20
-139.3051920224654
 30
0.0
 10
89.96746281387966
 20
-139.3051920224654
 30
0.0
 10
89.80485430697587
 20
-139.3920084286937
 30
0.0
 10
89.80485430697587
 20
-139.5949245527749
 30
0.0
 10
89.80485430697587
 20
-139.8002522436958
 30
0.0
 10
89.9402465595462
 20
-139.9015380509621
 30
0.0
 10
90.1211140725218
 20
-139.9015380509621
 30
0.0
 10
90.32024059156925
 20
-139.9015380509621
 30
0.0
 10
90.43771834761627
 20
-139.7788926516872
 30
0.0
 10
90.43771834761627
 20
-139.6011257246483
 30
0.0
 10
90.43771834761627
 20
-139.3792615753983
 30
0.0
 10
90.26374102561115
 20
-139.3051920224654
 30
0.0
 10
90.1211140725218
 20
-139.3051920224654
 30
0.0
  0
SPLINE
  5
99
330
91
100
AcDbEntity
  8
_U+30EC_U+30A4_U+30E4_U+30FC 1
370
     0
100
AcDbSpline
210
0.0
220
0.0
230
1.0
 70
    11
 71
     3
 72
    17
 73
    13
 74
     0
 42
0.0000000001
 43
0.0000000001
 12
1.0
 22
0.0
 32
0.0
 13
1.0
 23
0.0
 33
0.0
 40
0.0
 40
0.0
 40
0.0
 40
0.0
 40
1.0
 40
1.0
 40
1.0
 40
2.0
 40
2.0
 40
2.0
 40
3.0
 40
3.0
 40
3.0
 40
4.0
 40
4.0
 40
4.0
 40
4.0
 10
90.1211140725218
 20
-138.6451117274915
 30
0.0
 10
89.94506969322555
 20
-138.6451117274915
 30
0.0
 10
89.85446368196347
 20
-138.7401963628844
 30
0.0
 10
89.85446368196347
 20
-138.8755886154547
 30
0.0
 10
89.85446368196347
 20
-138.9982340147296
 30
0.0
 10
89.93128931128454
 20
-139.1167452994222
 30
0.0
 10
90.1211140725218
 20
-139.1167452994222
 30
0.0
 10
90.3112833433076
 20
-139.1167452994222
 30
0.0
 10
90.38810897262867
 20
-138.9982340147296
 30
0.0
 10
90.38810897262867
 20
-138.8755886154547
 30
0.0
 10
90.38810897262867
 20
-138.7401963628844
 30
0.0
 10
90.29543590407545
 20
-138.6451117274915
 30
0.0
 10
90.1211140725218
 20
-138.6451117274915
 30
0.0
  0
HATCH
  5
9A
330
91
100
AcDbEntity
  8
_U+30EC_U+30A4_U+30E4_U+30FC 1
 62
   179
420
  2234388
100
AcDbHatch
 10
0.0
 20
0.0
 30
0.0
210
0.0
220
0.0
230
1.0
  2
SOLID
 70
     1
 71
     0
 91
        3
 92
        1
 93
        1
 72
     4
 94
        3
 73
     0
 74
     1
 95
       29
 96
       25
 40
0.0
 40
0.0
 40
0.0
 40
0.0
 40
1.0
 40
1.0
 40
1.0
 40
2.0
 40
2.0
 40
2.0
 40
3.0
 40
3.0
 40
3.0
 40
4.0
 40
4.0
 40
4.0
 40
5.0
 40
5.0
 40
5.0
 40
6.0
 40
6.0
 40
6.0
 40
7.0
 40
7.0
 40
7.0
 40
8.0
 40
8.0
 40
8.0
 40
8.0
 10
90.1211140725218
 20
-140.0961859458787
 10
89.83620467589165
 20
-140.0961859458787
 10
89.56507566120248
 20
-139.9587266360173
 10
89.56507566120248
 20
-139.6097384633615
 10
89.56507566120248
 20
-139.3537678688074
 10
89.71665986255348
 20
-139.2586832334145
 10
89.82965899446967
 20
-139.197360533777
 10
89.6963337991905
 20
-139.1381048914308
 10
89.61468503619008
 20
-139.0237277213205
 10
89.61468503619008
 20
-138.8628417621593
 10
89.61468503619008
 20
-138.5879231424364
 10
89.82724742763
 20
-138.452530889866
 10
90.1211140725218
 20
-138.452530889866
 10
90.42428247522379
 20
-138.452530889866
 10
90.62754310885353
 20
-138.5965358811495
 10
90.62754310885353
 20
-138.8628417621593
 10
90.62754310885353
 20
-139.0237277213205
 10
90.54417179811048
 20
-139.1381048914308
 10
90.4105020932828
 20
-139.197360533777
 10
90.5055867286757
 20
-139.2480034374102
 10
90.67508542654998
 20
-139.3430880728031
 10
90.67508542654998
 20
-139.6056043487792
 10
90.67508542654998
 20
-139.9800862280258
 10
90.37674015752735
 20
-140.0961859458787
 10
90.1211140725218
 20
-140.0961859458787
 97
        0
 97
        0
 92
        1
 93
        1
 72
     4
 94
        3
 73
     0
 74
     1
 95
       17
 96
       13
 40
0.0
 40
0.0
 40
0.0
 40
0.0
 40
1.0
 40
1.0
 40
1.0
 40
2.0
 40
2.0
 40
2.0
 40
3.0
 40
3.0
 40
3.0
 40
4.0
 40
4.0
 40
4.0
 40
4.0
 10
90.1211140725218
 20
-139.3051920224654
 10
89.96746281387966
 20
-139.3051920224654
 10
89.80485430697587
 20
-139.3920084286937
 10
89.80485430697587
 20
-139.5949245527749
 10
89.80485430697587
 20
-139.8002522436958
 10
89.9402465595462
 20
-139.9015380509621
 10
90.1211140725218
 20
-139.9015380509621
 10
90.32024059156925
 20
-139.9015380509621
 10
90.43771834761627
 20
-139.7788926516872
 10
90.43771834761627
 20
-139.6011257246483
 10
90.43771834761627
 20
-139.3792615753983
 10
90.26374102561115
 20
-139.3051920224654
 10
90.1211140725218
 20
-139.3051920224654
 97
        0
 97
        0
 92
        1
 93
        1
 72
     4
 94
        3
 73
     0
 74
     1
 95
       17
 96
       13
 40
0.0
 40
0.0
 40
0.0
 40
0.0
 40
1.0
 40
1.0
 40
1.0
 40
2.0
 40
2.0
 40
2.0
 40
3.0
 40
3.0
 40
3.0
 40
4.0
 40
4.0
 40
4.0
 40
4.0
 10
90.1211140725218
 20
-138.6451117274915
 10
89.94506969322555
 20
-138.6451117274915
 10
89.85446368196347
 20
-138.7401963628844
 10
89.85446368196347
 20
-138.8755886154547
 10
89.85446368196347
 20
-138.9982340147296
 10
89.93128931128454
 20
-139.1167452994222
 10
90.1211140725218
 20
-139.1167452994222
 10
90.3112833433076
 20
-139.1167452994222
 10
90.38810897262867
 20
-138.9982340147296
 10
90.38810897262867
 20
-138.8755886154547
 10
90.38810897262867
 20
-138.7401963628844
 10
90.29543590407545
 20
-138.6451117274915
 10
90.1211140725218
 20
-138.6451117274915
 97
        0
 97
        0
 75
     2
 76
     1
 98
        0
  0
ENDBLK
  5
94
330
91
100
AcDbEntity
  8
0
100
AcDbBlockEnd
  0
BLOCK
  5
A9
330
A7
100
AcDbEntity
  8
0
100
AcDbBlockBegin
  2
block 4
 70
     0
 10
0.0
 20
0.0
 30
0.0
  3
block 4
  1

  0
SPLINE
  5
AB
330
A7
100
AcDbEntity
  8
_U+30EC_U+30A4_U+30E4_U+30FC 1
370
     0
100
AcDbSpline
210
0.0
220
0.0
230
1.0
 70
    11
 71
     3
 72
    26
 73
    22
 74
     0
 42
0.0000000001
 43
0.0000000001
 12
1.0
 22
0.0
 32
0.0
 13
1.0
 23
0.0
 33
0.0
 40
0.0
 40
0.0
 40
0.0
 40
0.0
 40
1.0
 40
1.0
 40
1.0
 40
2.0
 40
2.0
 40
2.0
 40
3.0
 40
3.0
 40
3.0
 40
4.0
 40
4.0
 40
4.0
 40
5.0
 40
5.0
 40
5.0
 40
6.0
 40
6.0
 40
6.0
 40
7.0
 40
7.0
 40
7.0
 40
7.0
 10
101.0108886466223
 20
-129.8180880751844
 30
0.0
 10
101.0108886466223
 20
-129.8180880751844
 30
0.0
 10
99.90673554359971
 20
-129.8180880751844
 30
0.0
 10
99.90673554359971
 20
-129.8180880751844
 30
0.0
 10
99.90673554359971
 20
-129.8180880751844
 30
0.0
 10
99.90673554359971
 20
-130.1705213433254
 30
0.0
 10
99.90673554359971
 20
-130.1705213433254
 30
0.0
 10
99.90673554359971
 20
-130.1705213433254
 30
0.0
 10
99.75859643773397
 20
-130.1705213433254
 30
0.0
 10
99.75859643773397
 20
-130.1705213433254
 30
0.0
 10
99.74378252714739
 20
-129.8156765083447
 30
0.0
 10
99.58082951069507
 20
-129.7660671333571
 30
0.0
 10
99.46645234058478
 20
-129.7343722548928
 30
0.0
 10
99.46645234058478
 20
-129.7343722548928
 30
0.0
 10
99.46645234058478
 20
-129.578309429411
 30
0.0
 10
99.46645234058478
 20
-129.578309429411
 30
0.0
 10
99.46645234058478
 20
-129.578309429411
 30
0.0
 10
101.0108886466223
 20
-129.578309429411
 30
0.0
 10
101.0108886466223
 20
-129.578309429411
 30
0.0
 10
101.0108886466223
 20
-129.578309429411
 30
0.0
 10
101.0108886466223
 20
-129.8180880751844
 30
0.0
 10
101.0108886466223
 20
-129.8180880751844
 30
0.0
  0
HATCH
  5
AC
330
A7
100
AcDbEntity
  8
_U+30EC_U+30A4_U+30E4_U+30FC 1
 62
   179
420
  2234388
100
AcDbHatch
 10
0.0
 20
0.0
 30
0.0
210
0.0
220
0.0
230
1.0
  2
SOLID
 70
     1
 71
     0
 91
        1
 92
        1
 93
        1
 72
     4
 94
        3
 73
     0
 74
     1
 95
       26
 96
       22
 40
0.0
 40
0.0
 40
0.0
 40
0.0
 40
1.0
 40
1.0
 40
1.0
 40
2.0
 40
2.0
 40
2.0
 40
3.0
 40
3.0
 40
3.0
 40
4.0
 40
4.0
 40
4.0
 40
5.0
 40
5.0
 40
5.0
 40
6.0
 40
6.0
 40
6.0
 40
7.0
 40
7.0
 40
7.0
 40
7.0
 10
101.0108886466223
 20
-129.8180880751844
 10
101.0108886466223
 20
-129.8180880751844
 10
99.90673554359971
 20
-129.8180880751844
 10
99.90673554359971
 20
-129.8180880751844
 10
99.90673554359971
 20
-129.8180880751844
 10
99.90673554359971
 20
-130.1705213433254
 10
99.90673554359971
 20
-130.1705213433254
 10
99.90673554359971
 20
-130.1705213433254
 10
99.75859643773397
 20
-130.1705213433254
 10
99.75859643773397
 20
-130.1705213433254
 10
99.74378252714739
 20
-129.8156765083447
 10
99.58082951069507
 20
-129.7660671333571
 10
99.46645234058478
 20
-129.7343722548928
 10
99.46645234058478
 20
-129.7343722548928
 10
99.46645234058478
 20
-129.578309429411
 10
99.46645234058478
 20
-129.578309429411
 10
99.46645234058478
 20
-129.578309429411
 10
101.0108886466223
 20
-129.578309429411
 10
101.0108886466223
 20
-129.578309429411
 10
101.0108886466223
 20
-129.578309429411
 10
101.0108886466223
 20
-129.8180880751844
 10
101.0108886466223
 20
-129.8180880751844
 97
        0
 97
        0
 75
     2
 76
     1
 98
        0
  0
SPLINE
  5
AD
330
A7
100
AcDbEntity
  8
_U+30EC_U+30A4_U+30E4_U+30FC 1
370
     0
100
AcDbSpline
210
0.0
220
0.0
230
1.0
 70
    11
 71
     3
 72
    62
 73
    58
 74
     0
 42
0.0000000001
 43
0.0000000001
 12
1.0
 22
0.0
 32
0.0
 13
1.0
 23
0.0
 33
0.0
 40
0.0
 40
0.0
 40
0.0
 40
0.0
 40
1.0
 40
1.0
 40
1.0
 40
2.0
 40
2.0
 40
2.0
 40
3.0
 40
3.0
 40
3.0
 40
4.0
 40
4.0
 40
4.0
 40
5.0
 40
5.0
 40
5.0
 40
6.0
 40
6.0
 40
6.0
 40
7.0
 40
7.0
 40
7.0
 40
8.0
 40
8.0
 40
8.0
 40
9.0
 40
9.0
 40
9.0
 40
10.0
 40
10.0
 40
10.0
 40
11.0
 40
11.0
 40
11.0
 40
12.0
 40
12.0
 40
12.0
 40
13.0
 40
13.0
 40
13.0
 40
14.0
 40
14.0
 40
14.0
 40
15.0
 40
15.0
 40
15.0
 40
16.0
 40
16.0
 40
16.0
 40
17.0
 40
17.0
 40
17.0
 40
18.0
 40
18.0
 40
18.0
 40
19.0
 40
19.0
 40
19.0
 40
19.0
 10
101.0615315502555
 20
-128.517220019954
 30
0.0
 10
101.0615315502555
 20
-128.6188503367689
 30
0.0
 10
101.0405164677954
 20
-128.8517387915718
 30
0.0
 10
100.8544813115919
 20
-128.985063986851
 30
0.0
 10
100.7421711987728
 20
-129.0643011830117
 30
0.0
 10
100.6429524487976
 20
-129.0687798071425
 30
0.0
 10
100.5582030998604
 20
-129.0732584312734
 30
0.0
 10
100.5582030998604
 20
-129.0732584312734
 30
0.0
 10
100.5582030998604
 20
-128.8383029191793
 30
0.0
 10
100.5582030998604
 20
-128.8383029191793
 30
0.0
 10
100.6322726527933
 20
-128.8358913523396
 30
0.0
 10
100.8668836553388
 20
-128.8245225372383
 30
0.0
 10
100.8668836553388
 20
-128.5216986440849
 30
0.0
 10
100.8668836553388
 20
-128.3745930668647
 30
0.0
 10
100.7972927265368
 20
-128.2119845599609
 30
0.0
 10
100.5688828958647
 20
-128.2119845599609
 30
0.0
 10
100.4524386684633
 20
-128.2119845599609
 30
0.0
 10
100.4038628221213
 20
-128.2526366866869
 30
0.0
 10
100.372167943657
 20
-128.2867431319908
 30
0.0
 10
100.2980983907241
 20
-128.365635818603
 30
0.0
 10
100.2853515374287
 20
-128.4900037656206
 30
0.0
 10
100.2853515374287
 20
-128.5489148984183
 30
0.0
 10
100.2853515374287
 20
-128.5692409617813
 30
0.0
 10
100.2874185947198
 20
-128.6074815216676
 30
0.0
 10
100.2915527093021
 20
-128.6371093428407
 30
0.0
 10
100.2915527093021
 20
-128.6371093428407
 30
0.0
 10
100.0969048143855
 20
-128.6371093428407
 30
0.0
 10
100.0969048143855
 20
-128.6371093428407
 30
0.0
 10
100.1034504958075
 20
-128.5964572161148
 30
0.0
 10
100.1055175530986
 20
-128.5509819557095
 30
0.0
 10
100.1055175530986
 20
-128.5444362742875
 30
0.0
 10
100.1055175530986
 20
-128.4741563263884
 30
0.0
 10
100.0841579610901
 20
-128.2615939349485
 30
0.0
 10
99.84747990125341
 20
-128.2615939349485
 30
0.0
 10
99.66971297421452
 20
-128.2615939349485
 30
0.0
 10
99.61459144645052
 20
-128.4018093211982
 30
0.0
 10
99.61459144645052
 20
-128.5192870772452
 30
0.0
 10
99.61459144645052
 20
-128.8021294165842
 30
0.0
 10
99.84747990125341
 20
-128.8110866648458
 30
0.0
 10
99.91913788734661
 20
-128.8155652889767
 30
0.0
 10
99.91913788734661
 20
-128.8155652889767
 30
0.0
 10
99.91913788734661
 20
-129.0326063045474
 30
0.0
 10
99.91913788734661
 20
-129.0326063045474
 30
0.0
 10
99.79442543078056
 20
-129.0236490562858
 30
0.0
 10
99.41787649424276
 20
-128.9943657446611
 30
0.0
 10
99.41787649424276
 20
-128.5058512048527
 30
0.0
 10
99.41787649424276
 20
-128.2660725590793
 30
0.0
 10
99.54500051764848
 20
-128.0083794167826
 30
0.0
 10
99.84093421983144
 20
-128.0083794167826
 30
0.0
 10
100.0273138855835
 20
-128.0083794167826
 30
0.0
 10
100.1096516676809
 20
-128.110354243146
 30
0.0
 10
100.1709743673184
 20
-128.2164631840917
 30
0.0
 10
100.1985351312004
 20
-128.151006369872
 30
0.0
 10
100.2788058560067
 20
-127.9563584749554
 30
0.0
 10
100.5561360425693
 20
-127.9563584749554
 30
0.0
 10
100.8944444192208
 20
-127.9563584749554
 30
0.0
 10
101.0615315502555
 20
-128.2209418082225
 30
0.0
 10
101.0615315502555
 20
-128.517220019954
 30
0.0
  0
HATCH
  5
AE
330
A7
100
AcDbEntity
  8
_U+30EC_U+30A4_U+30E4_U+30FC 1
 62
   179
420
  2234388
100
AcDbHatch
 10
0.0
 20
0.0
 30
0.0
210
0.0
220
0.0
230
1.0
  2
SOLID
 70
     1
 71
     0
 91
        1
 92
        1
 93
        1
 72
     4
 94
        3
 73
     0
 74
     1
 95
       62
 96
       58
 40
0.0
 40
0.0
 40
0.0
 40
0.0
 40
1.0
 40
1.0
 40
1.0
 40
2.0
 40
2.0
 40
2.0
 40
3.0
 40
3.0
 40
3.0
 40
4.0
 40
4.0
 40
4.0
 40
5.0
 40
5.0
 40
5.0
 40
6.0
 40
6.0
 40
6.0
 40
7.0
 40
7.0
 40
7.0
 40
8.0
 40
8.0
 40
8.0
 40
9.0
 40
9.0
 40
9.0
 40
10.0
 40
10.0
 40
10.0
 40
11.0
 40
11.0
 40
11.0
 40
12.0
 40
12.0
 40
12.0
 40
13.0
 40
13.0
 40
13.0
 40
14.0
 40
14.0
 40
14.0
 40
15.0
 40
15.0
 40
15.0
 40
16.0
 40
16.0
 40
16.0
 40
17.0
 40
17.0
 40
17.0
 40
18.0
 40
18.0
 40
18.0
 40
19.0
 40
19.0
 40
19.0
 40
19.0
 10
101.0615315502555
 20
-128.517220019954
 10
101.0615315502555
 20
-128.6188503367689
 10
101.0405164677954
 20
-128.8517387915718
 10
100.8544813115919
 20
-128.985063986851
 10
100.7421711987728
 20
-129.0643011830117
 10
100.6429524487976
 20
-129.0687798071425
 10
100.5582030998604
 20
-129.0732584312734
 10
100.5582030998604
 20
-129.0732584312734
 10
100.5582030998604
 20
-128.8383029191793
 10
100.5582030998604
 20
-128.8383029191793
 10
100.6322726527933
 20
-128.8358913523396
 10
100.8668836553388
 20
-128.8245225372383
 10
100.8668836553388
 20
-128.5216986440849
 10
100.8668836553388
 20
-128.3745930668647
 10
100.7972927265368
 20
-128.2119845599609
 10
100.5688828958647
 20
-128.2119845599609
 10
100.4524386684633
 20
-128.2119845599609
 10
100.4038628221213
 20
-128.2526366866869
 10
100.372167943657
 20
-128.2867431319908
 10
100.2980983907241
 20
-128.365635818603
 10
100.2853515374287
 20
-128.4900037656206
 10
100.2853515374287
 20
-128.5489148984183
 10
100.2853515374287
 20
-128.5692409617813
 10
100.2874185947198
 20
-128.6074815216676
 10
100.2915527093021
 20
-128.6371093428407
 10
100.2915527093021
 20
-128.6371093428407
 10
100.0969048143855
 20
-128.6371093428407
 10
100.0969048143855
 20
-128.6371093428407
 10
100.1034504958075
 20
-128.5964572161148
 10
100.1055175530986
 20
-128.5509819557095
 10
100.1055175530986
 20
-128.5444362742875
 10
100.1055175530986
 20
-128.4741563263884
 10
100.0841579610901
 20
-128.2615939349485
 10
99.84747990125341
 20
-128.2615939349485
 10
99.66971297421452
 20
-128.2615939349485
 10
99.61459144645052
 20
-128.4018093211982
 10
99.61459144645052
 20
-128.5192870772452
 10
99.61459144645052
 20
-128.8021294165842
 10
99.84747990125341
 20
-128.8110866648458
 10
99.91913788734661
 20
-128.8155652889767
 10
99.91913788734661
 20
-128.8155652889767
 10
99.91913788734661
 20
-129.0326063045474
 10
99.91913788734661
 20
-129.0326063045474
 10
99.79442543078056
 20
-129.0236490562858
 10
99.41787649424276
 20
-128.9943657446611
 10
99.41787649424276
 20
-128.5058512048527
 10
99.41787649424276
 20
-128.2660725590793
 10
99.54500051764848
 20
-128.0083794167826
 10
99.84093421983144
 20
-128.0083794167826
 10
100.0273138855835
 20
-128.0083794167826
 10
100.1096516676809
 20
-128.110354243146
 10
100.1709743673184
 20
-128.2164631840917
 10
100.1985351312004
 20
-128.151006369872
 10
100.2788058560067
 20
-127.9563584749554
 10
100.5561360425693
 20
-127.9563584749554
 10
100.8944444192208
 20
-127.9563584749554
 10
101.0615315502555
 20
-128.2209418082225
 10
101.0615315502555
 20
-128.517220019954
 97
        0
 97
        0
 75
     2
 76
     1
 98
        0
  0
ENDBLK
  5
AA
330
A7
100
AcDbEntity
  8
0
100
AcDbBlockEnd
  0
BLOCK
  5
BA
330
B8
100
AcDbEntity
  8
0
100
AcDbBlockBegin
  2
block 5
 70
     0
 10
0.0
 20
0.0
 30
0.0
  3
block 5
  1

  0
SPLINE
  5
BC
330
B8
100
AcDbEntity
  8
_U+30EC_U+30A4_U+30E4_U+30FC 1
370
     0
100
AcDbSpline
210
0.0
220
0.0
230
1.0
 70
    11
 71
     3
 72
    26
 73
    22
 74
     0
 42
0.0000000001
 43
0.0000000001
 12
1.0
 22
0.0
 32
0.0
 13
1.0
 23
0.0
 33
0.0
 40
0.0
 40
0.0
 40
0.0
 40
0.0
 40
1.0
 40
1.0
 40
1.0
 40
2.0
 40
2.0
 40
2.0
 40
3.0
 40
3.0
 40
3.0
 40
4.0
 40
4.0
 40
4.0
 40
5.0
 40
5.0
 40
5.0
 40
6.0
 40
6.0
 40
6.0
 40
7.0
 40
7.0
 40
7.0
 40
7.0
 10
101.0108886466223
 20
-136.1646429781116
 30
0.0
 10
101.0108886466223
 20
-136.1646429781116
 30
0.0
 10
99.90673554359971
 20
-136.1646429781116
 30
0.0
 10
99.90673554359971
 20
-136.1646429781116
 30
0.0
 10
99.90673554359971
 20
-136.1646429781116
 30
0.0
 10
99.90673554359971
 20
-136.5170762462527
 30
0.0
 10
99.90673554359971
 20
-136.5170762462527
 30
0.0
 10
99.90673554359971
 20
-136.5170762462527
 30
0.0
 10
99.75859643773397
 20
-136.5170762462527
 30
0.0
 10
99.75859643773397
 20
-136.5170762462527
 30
0.0
 10
99.74378252714739
 20
-136.162231411272
 30
0.0
 10
99.58082951069507
 20
-136.1126220362844
 30
0.0
 10
99.46645234058478
 20
-136.08092715782
 30
0.0
 10
99.46645234058478
 20
-136.08092715782
 30
0.0
 10
99.46645234058478
 20
-135.9248643323382
 30
0.0
 10
99.46645234058478
 20
-135.9248643323382
 30
0.0
 10
99.46645234058478
 20
-135.9248643323382
 30
0.0
 10
101.0108886466223
 20
-135.9248643323382
 30
0.0
 10
101.0108886466223
 20
-135.9248643323382
 30
0.0
 10
101.0108886466223
 20
-135.9248643323382
 30
0.0
 10
101.0108886466223
 20
-136.1646429781116
 30
0.0
 10
101.0108886466223
 20
-136.1646429781116
 30
0.0
  0
HATCH
  5
BD
330
B8
100
AcDbEntity
  8
_U+30EC_U+30A4_U+30E4_U+30FC 1
 62
   179
420
  2234388
100
AcDbHatch
 10
0.0
 20
0.0
 30
0.0
210
0.0
220
0.0
230
1.0
  2
SOLID
 70
     1
 71
     0
 91
        1
 92
        1
 93
        1
 72
     4
 94
        3
 73
     0
 74
     1
 95
       26
 96
       22
 40
0.0
 40
0.0
 40
0.0
 40
0.0
 40
1.0
 40
1.0
 40
1.0
 40
2.0
 40
2.0
 40
2.0
 40
3.0
 40
3.0
 40
3.0
 40
4.0
 40
4.0
 40
4.0
 40
5.0
 40
5.0
 40
5.0
 40
6.0
 40
6.0
 40
6.0
 40
7.0
 40
7.0
 40
7.0
 40
7.0
 10
101.0108886466223
 20
-136.1646429781116
 10
101.0108886466223
 20
-136.1646429781116
 10
99.90673554359971
 20
-136.1646429781116
 10
99.90673554359971
 20
-136.1646429781116
 10
99.90673554359971
 20
-136.1646429781116
 10
99.90673554359971
 20
-136.5170762462527
 10
99.90673554359971
 20
-136.5170762462527
 10
99.90673554359971
 20
-136.5170762462527
 10
99.75859643773397
 20
-136.5170762462527
 10
99.75859643773397
 20
-136.5170762462527
 10
99.74378252714739
 20
-136.162231411272
 10
99.58082951069507
 20
-136.1126220362844
 10
99.46645234058478
 20
-136.08092715782
 10
99.46645234058478
 20
-136.08092715782
 10
99.46645234058478
 20
-135.9248643323382
 10
99.46645234058478
 20
-135.9248643323382
 10
99.46645234058478
 20
-135.9248643323382
 10
101.0108886466223
 20
-135.9248643323382
 10
101.0108886466223
 20
-135.9248643323382
 10
101.0108886466223
 20
-135.9248643323382
 10
101.0108886466223
 20
-136.1646429781116
 10
101.0108886466223
 20
-136.1646429781116
 97
        0
 97
        0
 75
     2
 76
     1
 98
        0
  0
ENDBLK
  5
BB
330
B8
100
AcDbEntity
  8
0
100
AcDbBlockEnd
  0
BLOCK
  5
C2
330
C0
100
AcDbEntity
  8
0
100
AcDbBlockBegin
  2
block 6
 70
     0
 10
0.0
 20
0.0
 30
0.0
  3
block 6
  1

  0
SPLINE
  5
C4
330
C0
100
AcDbEntity
  8
_U+30EC_U+30A4_U+30E4_U+30FC 1
370
     0
100
AcDbSpline
210
0.0
220
0.0
230
1.0
 70
    11
 71
     3
 72
    26
 73
    22
 74
     0
 42
0.0000000001
 43
0.0000000001
 12
1.0
 22
0.0
 32
0.0
 13
1.0
 23
0.0
 33
0.0
 40
0.0
 40
0.0
 40
0.0
 40
0.0
 40
1.0
 40
1.0
 40
1.0
 40
2.0
 40
2.0
 40
2.0
 40
3.0
 40
3.0
 40
3.0
 40
4.0
 40
4.0
 40
4.0
 40
5.0
 40
5.0
 40
5.0
 40
6.0
 40
6.0
 40
6.0
 40
7.0
 40
7.0
 40
7.0
 40
7.0
 10
79.31591659258422
 20
-128.485697396264
 30
0.0
 10
79.31591659258422
 20
-128.485697396264
 30
0.0
 10
79.31591659258422
 20
-127.3813720384672
 30
0.0
 10
79.31591659258422
 20
-127.3813720384672
 30
0.0
 10
79.31591659258422
 20
-127.3813720384672
 30
0.0
 10
78.98587644509729
 20
-127.3813720384672
 30
0.0
 10
78.98587644509729
 20
-127.3813720384672
 30
0.0
 10
78.98587644509729
 20
-127.3813720384672
 30
0.0
 10
78.98587644509729
 20
-127.2332329326014
 30
0.0
 10
78.98587644509729
 20
-127.2332329326014
 30
0.0
 10
79.31798364987537
 20
-127.2185912767891
 30
0.0
 10
79.36449243892625
 20
-127.0556382603368
 30
0.0
 10
79.39412026009938
 20
-126.9414333450008
 30
0.0
 10
79.39412026009938
 20
-126.9414333450008
 30
0.0
 10
79.54019230867398
 20
-126.9414333450008
 30
0.0
 10
79.54019230867398
 20
-126.9414333450008
 30
0.0
 10
79.54019230867398
 20
-126.9414333450008
 30
0.0
 10
79.54019230867398
 20
-128.485697396264
 30
0.0
 10
79.54019230867398
 20
-128.485697396264
 30
0.0
 10
79.54019230867398
 20
-128.485697396264
 30
0.0
 10
79.31591659258422
 20
-128.485697396264
 30
0.0
 10
79.31591659258422
 20
-128.485697396264
 30
0.0
  0
HATCH
  5
C5
330
C0
100
AcDbEntity
  8
_U+30EC_U+30A4_U+30E4_U+30FC 1
 62
   179
420
  2234388
100
AcDbHatch
 10
0.0
 20
0.0
 30
0.0
210
0.0
220
0.0
230
1.0
  2
SOLID
 70
     1
 71
     0
 91
        1
 92
        1
 93
        1
 72
     4
 94
        3
 73
     0
 74
     1
 95
       26
 96
       22
 40
0.0
 40
0.0
 40
0.0
 40
0.0
 40
1.0
 40
1.0
 40
1.0
 40
2.0
 40
2.0
 40
2.0
 40
3.0
 40
3.0
 40
3.0
 40
4.0
 40
4.0
 40
4.0
 40
5.0
 40
5.0
 40
5.0
 40
6.0
 40
6.0
 40
6.0
 40
7.0
 40
7.0
 40
7.0
 40
7.0
 10
79.31591659258422
 20
-128.485697396264
 10
79.31591659258422
 20
-128.485697396264
 10
79.31591659258422
 20
-127.3813720384672
 10
79.31591659258422
 20
-127.3813720384672
 10
79.31591659258422
 20
-127.3813720384672
 10
78.98587644509729
 20
-127.3813720384672
 10
78.98587644509729
 20
-127.3813720384672
 10
78.98587644509729
 20
-127.3813720384672
 10
78.98587644509729
 20
-127.2332329326014
 10
78.98587644509729
 20
-127.2332329326014
 10
79.31798364987537
 20
-127.2185912767891
 10
79.36449243892625
 20
-127.0556382603368
 10
79.39412026009938
 20
-126.9414333450008
 10
79.39412026009938
 20
-126.9414333450008
 10
79.54019230867398
 20
-126.9414333450008
 10
79.54019230867398
 20
-126.9414333450008
 10
79.54019230867398
 20
-126.9414333450008
 10
79.54019230867398
 20
-128.485697396264
 10
79.54019230867398
 20
-128.485697396264
 10
79.54019230867398
 20
-128.485697396264
 10
79.31591659258422
 20
-128.485697396264
 10
79.31591659258422
 20
-128.485697396264
 97
        0
 97
        0
 75
     2
 76
     1
 98
        0
  0
ENDBLK
  5
C3
330
C0
100
AcDbEntity
  8
0
100
AcDbBlockEnd
  0
ENDSEC
  0
SECTION
  2
ENTITIES
  0
SPLINE
  5
41
330
1F
100
AcDbEntity
  8
_U+30EC_U+30A4_U+30E4_U+30FC 1
370
     0
100
AcDbSpline
210
0.0
220
0.0
230
1.0
 70
    11
 71
     3
 72
    44
 73
    40
 74
     0
 42
0.0000000001
 43
0.0000000001
 12
1.0
 22
0.0
 32
0.0
 13
1.0
 23
0.0
 33
0.0
 40
0.0
 40
0.0
 40
0.0
 40
0.0
 40
1.0
 40
1.0
 40
1.0
 40
2.0
 40
2.0
 40
2.0
 40
3.0
 40
3.0
 40
3.0
 40
4.0
 40
4.0
 40
4.0
 40
5.0
 40
5.0
 40
5.0
 40
6.0
 40
6.0
 40
6.0
 40
7.0
 40
7.0
 40
7.0
 40
8.0
 40
8.0
 40
8.0
 40
9.0
 40
9.0
 40
9.0
 40
10.0
 40
10.0
 40
10.0
 40
11.0
 40
11.0
 40
11.0
 40
12.0
 40
12.0
 40
12.0
 40
13.0
 40
13.0
 40
13.0
 40
13.0
 10
97.98748250013105
 20
-136.1422360770759
 30
0.0
 10
97.98748250013105
 20
-136.1422360770759
 30
0.0
 10
88.48728302027911
 20
-136.1422360770759
 30
0.0
 10
88.48728302027911
 20
-136.1422360770759
 30
0.0
 10
88.30881274705449
 20
-135.8328852438195
 30
0.0
 10
87.97878914436299
 20
-135.642702743867
 30
0.0
 10
87.62188608920579
 20
-135.642702743867
 30
0.0
 10
87.62188608920579
 20
-135.642702743867
 30
0.0
 10
81.4875370877464
 20
-135.642702743867
 30
0.0
 10
81.4875370877464
 20
-135.642702743867
 30
0.0
 10
81.4875370877464
 20
-135.642702743867
 30
0.0
 10
81.4875370877464
 20
-122.6423124693394
 30
0.0
 10
81.4875370877464
 20
-122.6423124693394
 30
0.0
 10
81.4875370877464
 20
-122.6423124693394
 30
0.0
 10
88.48728302027911
 20
-122.6423124693394
 30
0.0
 10
88.48728302027911
 20
-122.6423124693394
 30
0.0
 10
88.48728302027911
 20
-122.6423124693394
 30
0.0
 10
88.48728302027911
 20
-122.0421669139338
 30
0.0
 10
88.48728302027911
 20
-122.0421669139338
 30
0.0
 10
88.48728302027911
 20
-122.0421669139338
 30
0.0
 10
86.47740223822211
 20
-121.8416480250953
 30
0.0
 10
86.47740223822211
 20
-121.8416480250953
 30
0.0
 10
85.15173608982317
 20
-121.708686080684
 30
0.0
 10
83.81985675046619
 20
-121.6425402473672
 30
0.0
 10
82.48797956222299
 20
-121.6425402473672
 30
0.0
 10
82.48797956222299
 20
-121.6425402473672
 30
0.0
 10
80.4877648910305
 20
-121.6425402473672
 30
0.0
 10
80.4877648910305
 20
-121.6425402473672
 30
0.0
 10
80.4877648910305
 20
-121.6425402473672
 30
0.0
 10
80.4877648910305
 20
-135.8425160771503
 30
0.0
 10
80.4877648910305
 20
-135.8425160771503
 30
0.0
 10
80.4877648910305
 20
-136.2841938548178
 30
0.0
 10
80.84604599300108
 20
-136.6424749658396
 30
0.0
 10
81.28772375951073
 20
-136.6424749658396
 30
0.0
 10
81.28772375951073
 20
-136.6424749658396
 30
0.0
 10
98.48701582072023
 20
-136.6424749658396
 30
0.0
 10
98.48701582072023
 20
-136.6424749658396
 30
0.0
 10
98.48701582072023
 20
-136.3661794103531
 30
0.0
 10
98.26307497543398
 20
-136.1422360770759
 30
0.0
 10
97.98748250013105
 20
-136.1422360770759
 30
0.0
  0
HATCH
  5
42
330
1F
100
AcDbEntity
  8
_U+30EC_U+30A4_U+30E4_U+30FC 1
 62
   253
420
 11711154
100
AcDbHatch
 10
0.0
 20
0.0
 30
0.0
210
0.0
220
0.0
230
1.0
  2
SOLID
 70
     1
 71
     0
 91
        1
 92
        1
 93
        1
 72
     4
 94
        3
 73
     0
 74
     1
 95
       44
 96
       40
 40
0.0
 40
0.0
 40
0.0
 40
0.0
 40
1.0
 40
1.0
 40
1.0
 40
2.0
 40
2.0
 40
2.0
 40
3.0
 40
3.0
 40
3.0
 40
4.0
 40
4.0
 40
4.0
 40
5.0
 40
5.0
 40
5.0
 40
6.0
 40
6.0
 40
6.0
 40
7.0
 40
7.0
 40
7.0
 40
8.0
 40
8.0
 40
8.0
 40
9.0
 40
9.0
 40
9.0
 40
10.0
 40
10.0
 40
10.0
 40
11.0
 40
11.0
 40
11.0
 40
12.0
 40
12.0
 40
12.0
 40
13.0
 40
13.0
 40
13.0
 40
13.0
 10
97.98748250013105
 20
-136.1422360770759
 10
97.98748250013105
 20
-136.1422360770759
 10
88.48728302027911
 20
-136.1422360770759
 10
88.48728302027911
 20
-136.1422360770759
 10
88.30881274705449
 20
-135.8328852438195
 10
87.97878914436299
 20
-135.642702743867
 10
87.62188608920579
 20
-135.642702743867
 10
87.62188608920579
 20
-135.642702743867
 10
81.4875370877464
 20
-135.642702743867
 10
81.4875370877464
 20
-135.642702743867
 10
81.4875370877464
 20
-135.642702743867
 10
81.4875370877464
 20
-122.6423124693394
 10
81.4875370877464
 20
-122.6423124693394
 10
81.4875370877464
 20
-122.6423124693394
 10
88.48728302027911
 20
-122.6423124693394
 10
88.48728302027911
 20
-122.6423124693394
 10
88.48728302027911
 20
-122.6423124693394
 10
88.48728302027911
 20
-122.0421669139338
 10
88.48728302027911
 20
-122.0421669139338
 10
88.48728302027911
 20
-122.0421669139338
 10
86.47740223822211
 20
-121.8416480250953
 10
86.47740223822211
 20
-121.8416480250953
 10
85.15173608982317
 20
-121.708686080684
 10
83.81985675046619
 20
-121.6425402473672
 10
82.48797956222299
 20
-121.6425402473672
 10
82.48797956222299
 20
-121.6425402473672
 10
80.4877648910305
 20
-121.6425402473672
 10
80.4877648910305
 20
-121.6425402473672
 10
80.4877648910305
 20
-121.6425402473672
 10
80.4877648910305
 20
-135.8425160771503
 10
80.4877648910305
 20
-135.8425160771503
 10
80.4877648910305
 20
-136.2841938548178
 10
80.84604599300108
 20
-136.6424749658396
 10
81.28772375951073
 20
-136.6424749658396
 10
81.28772375951073
 20
-136.6424749658396
 10
98.48701582072023
 20
-136.6424749658396
 10
98.48701582072023
 20
-136.6424749658396
 10
98.48701582072023
 20
-136.3661794103531
 10
98.26307497543398
 20
-136.1422360770759
 10
97.98748250013105
 20
-136.1422360770759
 97
        0
 97
        0
 75
     2
 76
     1
 98
        0
  0
POLYLINE
  5
43
330
1F
100
AcDbEntity
  8
_U+30EC_U+30A4_U+30E4_U+30FC 1
 62
   179
420
  2234388
370
    25
100
AcDb2dPolyline
 66
     1
 10
0.0
 20
0.0
 30
0.0
  0
VERTEX
  5
44
330
43
100
AcDbEntity
  8
_U+30EC_U+30A4_U+30E4_U+30FC 1
 62
   179
420
  2234388
370
    25
100
AcDbVertex
100
AcDb2dVertex
 10
81.4875370877464
 20
-122.6423124693394
 30
0.0
  0
VERTEX
  5
45
330
43
100
AcDbEntity
  8
_U+30EC_U+30A4_U+30E4_U+30FC 1
 62
   179
420
  2234388
370
    25
100
AcDbVertex
100
AcDb2dVertex
 10
88.48728302027911
 20
-122.6423124693394
 30
0.0
  0
SEQEND
  5
46
330
43
100
AcDbEntity
  8
_U+30EC_U+30A4_U+30E4_U+30FC 1
 62
   179
420
  2234388
370
    25
  0
POLYLINE
  5
47
330
1F
100
AcDbEntity
  8
_U+30EC_U+30A4_U+30E4_U+30FC 1
 62
   179
420
  2234388
370
    25
100
AcDb2dPolyline
 66
     1
 10
0.0
 20
0.0
 30
0.0
  0
VERTEX
  5
48
330
47
100
AcDbEntity
  8
_U+30EC_U+30A4_U+30E4_U+30FC 1
 62
   179
420
  2234388
370
    25
100
AcDbVertex
100
AcDb2dVertex
 10
80.4877648910305
 20
-121.6425402473672
 30
0.0
  0
VERTEX
  5
49
330
47
100
AcDbEntity
  8
_U+30EC_U+30A4_U+30E4_U+30FC 1
 62
   179
420
  2234388
370
    25
100
AcDbVertex
100
AcDb2dVertex
 10
82.48797956222299
 20
-121.6425402473672
 30
0.0
  0
SEQEND
  5
4A
330
47
100
AcDbEntity
  8
_U+30EC_U+30A4_U+30E4_U+30FC 1
 62
   179
420
  2234388
370
    25
  0
POLYLINE
  5
4B
330
1F
100
AcDbEntity
  8
_U+30EC_U+30A4_U+30E4_U+30FC 1
 62
   179
420
  2234388
370
    25
100
AcDb2dPolyline
 66
     1
 10
0.0
 20
0.0
 30
0.0
  0
VERTEX
  5
4C
330
4B
100
AcDbEntity
  8
_U+30EC_U+30A4_U+30E4_U+30FC 1
 62
   179
420
  2234388
370
    25
100
AcDbVertex
100
AcDb2dVertex
 10
81.4875370877464
 20
-135.642702743867
 30
0.0
  0
VERTEX
  5
4D
330
4B
100
AcDbEntity
  8
_U+30EC_U+30A4_U+30E4_U+30FC 1
 62
   179
420
  2234388
370
    25
100
AcDbVertex
100
AcDb2dVertex
 10
87.62188608920579
 20
-135.642702743867
 30
0.0
  0
SEQEND
  5
4E
330
4B
100
AcDbEntity
  8
_U+30EC_U+30A4_U+30E4_U+30FC 1
 62
   179
420
  2234388
370
    25
  0
POLYLINE
  5
4F
330
1F
100
AcDbEntity
  8
_U+30EC_U+30A4_U+30E4_U+30FC 1
 62
   179
420
  2234388
370
    25
100
AcDb2dPolyline
 66
     1
 10
0.0
 20
0.0
 30
0.0
  0
VERTEX
  5
50
330
4F
100
AcDbEntity
  8
_U+30EC_U+30A4_U+30E4_U+30FC 1
 62
   179
420
  2234388
370
    25
100
AcDbVertex
100
AcDb2dVertex
 10
81.28772375951073
 20
-136.6424749658396
 30
0.0
  0
VERTEX
  5
51
330
4F
100
AcDbEntity
  8
_U+30EC_U+30A4_U+30E4_U+30FC 1
 62
   179
420
  2234388
370
    25
100
AcDbVertex
100
AcDb2dVertex
 10
98.48701582072023
 20
-136.6424749658396
 30
0.0
  0
SEQEND
  5
52
330
4F
100
AcDbEntity
  8
_U+30EC_U+30A4_U+30E4_U+30FC 1
 62
   179
420
  2234388
370
    25
  0
POLYLINE
  5
53
330
1F
100
AcDbEntity
  8
_U+30EC_U+30A4_U+30E4_U+30FC 1
 62
   179
420
  2234388
370
    25
100
AcDb2dPolyline
 66
     1
 10
0.0
 20
0.0
 30
0.0
  0
VERTEX
  5
54
330
53
100
AcDbEntity
  8
_U+30EC_U+30A4_U+30E4_U+30FC 1
 62
   179
420
  2234388
370
    25
100
AcDbVertex
100
AcDb2dVertex
 10
88.48728302027911
 20
-122.0421669139338
 30
0.0
  0
VERTEX
  5
55
330
53
100
AcDbEntity
  8
_U+30EC_U+30A4_U+30E4_U+30FC 1
 62
   179
420
  2234388
370
    25
100
AcDbVertex
100
AcDb2dVertex
 10
88.48728302027911
 20
-122.6423124693394
 30
0.0
  0
SEQEND
  5
56
330
53
100
AcDbEntity
  8
_U+30EC_U+30A4_U+30E4_U+30FC 1
 62
   179
420
  2234388
370
    25
  0
POLYLINE
  5
57
330
1F
100
AcDbEntity
  8
_U+30EC_U+30A4_U+30E4_U+30FC 1
 62
   179
420
  2234388
370
    25
100
AcDb2dPolyline
 66
     1
 10
0.0
 20
0.0
 30
0.0
  0
VERTEX
  5
58
330
57
100
AcDbEntity
  8
_U+30EC_U+30A4_U+30E4_U+30FC 1
 62
   179
420
  2234388
370
    25
100
AcDbVertex
100
AcDb2dVertex
 10
80.4877648910305
 20
-121.6425402473672
 30
0.0
  0
VERTEX
  5
59
330
57
100
AcDbEntity
  8
_U+30EC_U+30A4_U+30E4_U+30FC 1
 62
   179
420
  2234388
370
    25
100
AcDbVertex
100
AcDb2dVertex
 10
80.4877648910305
 20
-135.8425160771503
 30
0.0
  0
SEQEND
  5
5A
330
57
100
AcDbEntity
  8
_U+30EC_U+30A4_U+30E4_U+30FC 1
 62
   179
420
  2234388
370
    25
  0
POLYLINE
  5
5B
330
1F
100
AcDbEntity
  8
_U+30EC_U+30A4_U+30E4_U+30FC 1
 62
   179
420
  2234388
370
    25
100
AcDb2dPolyline
 66
     1
 10
0.0
 20
0.0
 30
0.0
  0
VERTEX
  5
5C
330
5B
100
AcDbEntity
  8
_U+30EC_U+30A4_U+30E4_U+30FC 1
 62
   179
420
  2234388
370
    25
100
AcDbVertex
100
AcDb2dVertex
 10
81.4875370877464
 20
-122.6423124693394
 30
0.0
  0
VERTEX
  5
5D
330
5B
100
AcDbEntity
  8
_U+30EC_U+30A4_U+30E4_U+30FC 1
 62
   179
420
  2234388
370
    25
100
AcDbVertex
100
AcDb2dVertex
 10
81.4875370877464
 20
-135.642702743867
 30
0.0
  0
SEQEND
  5
5E
330
5B
100
AcDbEntity
  8
_U+30EC_U+30A4_U+30E4_U+30FC 1
 62
   179
420
  2234388
370
    25
  0
POLYLINE
  5
5F
330
1F
100
AcDbEntity
  8
_U+30EC_U+30A4_U+30E4_U+30FC 1
 62
   179
420
  2234388
370
    25
100
AcDb2dPolyline
 66
     1
 10
0.0
 20
0.0
 30
0.0
  0
VERTEX
  5
60
330
5F
100
AcDbEntity
  8
_U+30EC_U+30A4_U+30E4_U+30FC 1
 62
   179
420
  2234388
370
    25
100
AcDbVertex
100
AcDb2dVertex
 10
86.47740223822211
 20
-121.8416480250953
 30
0.0
  0
VERTEX
  5
61
330
5F
100
AcDbEntity
  8
_U+30EC_U+30A4_U+30E4_U+30FC 1
 62
   179
420
  2234388
370
    25
100
AcDbVertex
100
AcDb2dVertex
 10
88.48728302027911
 20
-122.0421669139338
 30
0.0
  0
SEQEND
  5
62
330
5F
100
AcDbEntity
  8
_U+30EC_U+30A4_U+30E4_U+30FC 1
 62
   179
420
  2234388
370
    25
  0
POLYLINE
  5
63
330
1F
100
AcDbEntity
  8
_U+30EC_U+30A4_U+30E4_U+30FC 1
 62
   179
420
  2234388
370
    25
100
AcDb2dPolyline
 66
     1
 10
0.0
 20
0.0
 30
0.0
  0
VERTEX
  5
64
330
63
100
AcDbEntity
  8
_U+30EC_U+30A4_U+30E4_U+30FC 1
 62
   179
420
  2234388
370
    25
100
AcDbVertex
100
AcDb2dVertex
 10
88.48728302027911
 20
-136.1422360770759
 30
0.0
  0
VERTEX
  5
65
330
63
100
AcDbEntity
  8
_U+30EC_U+30A4_U+30E4_U+30FC 1
 62
   179
420
  2234388
370
    25
100
AcDbVertex
100
AcDb2dVertex
 10
97.98748250013105
 20
-136.1422360770759
 30
0.0
  0
SEQEND
  5
66
330
63
100
AcDbEntity
  8
_U+30EC_U+30A4_U+30E4_U+30FC 1
 62
   179
420
  2234388
370
    25
  0
SPLINE
  5
67
330
1F
100
AcDbEntity
  8
_U+30EC_U+30A4_U+30E4_U+30FC 1
 62
   179
420
  2234388
370
    25
100
AcDbSpline
210
0.0
220
0.0
230
1.0
 70
     8
 71
     3
 72
     8
 73
     4
 74
     0
 42
0.0000000001
 43
0.0000000001
 12
1.0
 22
0.0
 32
0.0
 13
1.0
 23
0.0
 33
0.0
 40
0.0
 40
0.0
 40
0.0
 40
0.0
 40
1.0
 40
1.0
 40
1.0
 40
1.0
 10
80.4877648910305
 20
-135.8425160771503
 30
0.0
 10
80.4877648910305
 20
-136.2841938548178
 30
0.0
 10
80.84604599300108
 20
-136.6424749658396
 30
0.0
 10
81.28772375951073
 20
-136.6424749658396
 30
0.0
  0
SPLINE
  5
68
330
1F
100
AcDbEntity
  8
_U+30EC_U+30A4_U+30E4_U+30FC 1
 62
   179
420
  2234388
370
    25
100
AcDbSpline
210
0.0
220
0.0
230
1.0
 70
     8
 71
     3
 72
     8
 73
     4
 74
     0
 42
0.0000000001
 43
0.0000000001
 12
1.0
 22
0.0
 32
0.0
 13
1.0
 23
0.0
 33
0.0
 40
0.0
 40
0.0
 40
0.0
 40
0.0
 40
1.0
 40
1.0
 40
1.0
 40
1.0
 10
98.48701582072023
 20
-136.6424749658396
 30
0.0
 10
98.48701582072023
 20
-136.3661794103531
 30
0.0
 10
98.26307497543398
 20
-136.1422360770759
 30
0.0
 10
97.98748250013105
 20
-136.1422360770759
 30
0.0
  0
SPLINE
  5
69
330
1F
100
AcDbEntity
  8
_U+30EC_U+30A4_U+30E4_U+30FC 1
 62
   179
420
  2234388
370
    25
100
AcDbSpline
210
0.0
220
0.0
230
1.0
 70
     8
 71
     3
 72
     8
 73
     4
 74
     0
 42
0.0000000001
 43
0.0000000001
 12
1.0
 22
0.0
 32
0.0
 13
1.0
 23
0.0
 33
0.0
 40
0.0
 40
0.0
 40
0.0
 40
0.0
 40
1.0
 40
1.0
 40
1.0
 40
1.0
 10
88.48728302027911
 20
-136.1422360770759
 30
0.0
 10
88.30881274705449
 20
-135.8328852438195
 30
0.0
 10
87.97878914436299
 20
-135.642702743867
 30
0.0
 10
87.62188608920579
 20
-135.642702743867
 30
0.0
  0
SPLINE
  5
6A
330
1F
100
AcDbEntity
  8
_U+30EC_U+30A4_U+30E4_U+30FC 1
 62
   179
420
  2234388
370
    25
100
AcDbSpline
210
0.0
220
0.0
230
1.0
 70
     8
 71
     3
 72
     8
 73
     4
 74
     0
 42
0.0000000001
 43
0.0000000001
 12
1.0
 22
0.0
 32
0.0
 13
1.0
 23
0.0
 33
0.0
 40
0.0
 40
0.0
 40
0.0
 40
0.0
 40
1.0
 40
1.0
 40
1.0
 40
1.0
 10
86.47740223822211
 20
-121.8416480250953
 30
0.0
 10
85.15173608982317
 20
-121.708686080684
 30
0.0
 10
83.81985675046619
 20
-121.6425402473672
 30
0.0
 10
82.48797956222299
 20
-121.6425402473672
 30
0.0
  0
SPLINE
  5
6B
330
1F
100
AcDbEntity
  8
_U+30EC_U+30A4_U+30E4_U+30FC 1
 62
   179
420
  2234388
370
     9
100
AcDbSpline
210
0.0
220
0.0
230
1.0
 70
    11
 71
     3
 72
    17
 73
    13
 74
     0
 42
0.0000000001
 43
0.0000000001
 12
1.0
 22
0.0
 32
0.0
 13
1.0
 23
0.0
 33
0.0
 40
0.0
 40
0.0
 40
0.0
 40
0.0
 40
1.0
 40
1.0
 40
1.0
 40
2.0
 40
2.0
 40
2.0
 40
3.0
 40
3.0
 40
3.0
 40
4.0
 40
4.0
 40
4.0
 40
4.0
 10
80.58767155514833
 20
-117.6420755261451
 30
0.0
 10
80.58767155514833
 20
-117.5869716372699
 30
0.0
 10
80.54286877851357
 20
-117.5421688595035
 30
0.0
 10
80.4877648910305
 20
-117.5421688595035
 30
0.0
 10
80.43262775766948
 20
-117.5421688595035
 30
0.0
 10
80.38785822691266
 20
-117.5869716372699
 30
0.0
 10
80.38785822691266
 20
-117.6420755261451
 30
0.0
 10
80.38785822691266
 20
-117.6978849705756
 30
0.0
 10
80.43262775766948
 20
-117.742687748342
 30
0.0
 10
80.4877648910305
 20
-117.742687748342
 30
0.0
 10
80.54286877851357
 20
-117.742687748342
 30
0.0
 10
80.58767155514833
 20
-117.6978849705756
 30
0.0
 10
80.58767155514833
 20
-117.6420755261451
 30
0.0
  0
SPLINE
  5
6C
330
1F
100
AcDbEntity
  8
_U+30EC_U+30A4_U+30E4_U+30FC 1
 62
   179
420
  2234388
370
     9
100
AcDbSpline
210
0.0
220
0.0
230
1.0
 70
    11
 71
     3
 72
    17
 73
    13
 74
     0
 42
0.0000000001
 43
0.0000000001
 12
1.0
 22
0.0
 32
0.0
 13
1.0
 23
0.0
 33
0.0
 40
0.0
 40
0.0
 40
0.0
 40
0.0
 40
1.0
 40
1.0
 40
1.0
 40
2.0
 40
2.0
 40
2.0
 40
3.0
 40
3.0
 40
3.0
 40
4.0
 40
4.0
 40
4.0
 40
4.0
 10
88.58785996215762
 20
-117.6420755261451
 30
0.0
 10
88.58785996215762
 20
-117.5869716372699
 30
0.0
 10
88.54309246329974
 20
-117.5421688595035
 30
0.0
 10
88.48728302027911
 20
-117.5421688595035
 30
0.0
 10
88.43214385501916
 20
-117.5421688595035
 30
0.0
 10
88.38737635616128
 20
-117.5869716372699
 30
0.0
 10
88.38737635616128
 20
-117.6420755261451
 30
0.0
 10
88.38737635616128
 20
-117.6978849705756
 30
0.0
 10
88.43214385501916
 20
-117.742687748342
 30
0.0
 10
88.48728302027911
 20
-117.742687748342
 30
0.0
 10
88.54309246329974
 20
-117.742687748342
 30
0.0
 10
88.58785996215762
 20
-117.6978849705756
 30
0.0
 10
88.58785996215762
 20
-117.6420755261451
 30
0.0
  0
SPLINE
  5
6D
330
1F
100
AcDbEntity
  8
_U+30EC_U+30A4_U+30E4_U+30FC 1
 62
   179
420
  2234388
370
     9
100
AcDbSpline
210
0.0
220
0.0
230
1.0
 70
    11
 71
     3
 72
    17
 73
    13
 74
     0
 42
0.0000000001
 43
0.0000000001
 12
1.0
 22
0.0
 32
0.0
 13
1.0
 23
0.0
 33
0.0
 40
0.0
 40
0.0
 40
0.0
 40
0.0
 40
1.0
 40
1.0
 40
1.0
 40
2.0
 40
2.0
 40
2.0
 40
3.0
 40
3.0
 40
3.0
 40
4.0
 40
4.0
 40
4.0
 40
4.0
 10
102.4123387761325
 20
-122.6423124693394
 30
0.0
 10
102.4123387761325
 20
-122.5871733026867
 30
0.0
 10
102.3675712772746
 20
-122.5424058026978
 30
0.0
 10
102.3124321120146
 20
-122.5424058026978
 30
0.0
 10
102.2573282245315
 20
-122.5424058026978
 30
0.0
 10
102.2125254478968
 20
-122.5871733026867
 30
0.0
 10
102.2125254478968
 20
-122.6423124693394
 30
0.0
 10
102.2125254478968
 20
-122.6974163582147
 30
0.0
 10
102.2573282245315
 20
-122.7422191359811
 30
0.0
 10
102.3124321120146
 20
-122.7422191359811
 30
0.0
 10
102.3675712772746
 20
-122.7422191359811
 30
0.0
 10
102.4123387761325
 20
-122.6974163582147
 30
0.0
 10
102.4123387761325
 20
-122.6423124693394
 30
0.0
  0
SPLINE
  5
6E
330
1F
100
AcDbEntity
  8
_U+30EC_U+30A4_U+30E4_U+30FC 1
 62
   179
420
  2234388
370
     9
100
AcDbSpline
210
0.0
220
0.0
230
1.0
 70
    11
 71
     3
 72
    17
 73
    13
 74
     0
 42
0.0000000001
 43
0.0000000001
 12
1.0
 22
0.0
 32
0.0
 13
1.0
 23
0.0
 33
0.0
 40
0.0
 40
0.0
 40
0.0
 40
0.0
 40
1.0
 40
1.0
 40
1.0
 40
2.0
 40
2.0
 40
2.0
 40
3.0
 40
3.0
 40
3.0
 40
4.0
 40
4.0
 40
4.0
 40
4.0
 10
102.4123387761325
 20
-135.642702743867
 30
0.0
 10
102.4123387761325
 20
-135.5868932994366
 30
0.0
 10
102.3675712772746
 20
-135.542125799448
 30
0.0
 10
102.3124321120146
 20
-135.542125799448
 30
0.0
 10
102.2573282245315
 20
-135.542125799448
 30
0.0
 10
102.2125254478968
 20
-135.5868932994366
 30
0.0
 10
102.2125254478968
 20
-135.642702743867
 30
0.0
 10
102.2125254478968
 20
-135.6978419105201
 30
0.0
 10
102.2573282245315
 20
-135.7426094105087
 30
0.0
 10
102.3124321120146
 20
-135.7426094105087
 30
0.0
 10
102.3675712772746
 20
-135.7426094105087
 30
0.0
 10
102.4123387761325
 20
-135.6978419105201
 30
0.0
 10
102.4123387761325
 20
-135.642702743867
 30
0.0
  0
SPLINE
  5
6F
330
1F
100
AcDbEntity
  8
_U+30EC_U+30A4_U+30E4_U+30FC 1
 62
   179
420
  2234388
370
     9
100
AcDbSpline
210
0.0
220
0.0
230
1.0
 70
    11
 71
     3
 72
    17
 73
    13
 74
     0
 42
0.0000000001
 43
0.0000000001
 12
1.0
 22
0.0
 32
0.0
 13
1.0
 23
0.0
 33
0.0
 40
0.0
 40
0.0
 40
0.0
 40
0.0
 40
1.0
 40
1.0
 40
1.0
 40
2.0
 40
2.0
 40
2.0
 40
3.0
 40
3.0
 40
3.0
 40
4.0
 40
4.0
 40
4.0
 40
4.0
 10
80.58767155514833
 20
-140.6422341315058
 30
0.0
 10
80.58767155514833
 20
-140.5870949648534
 30
0.0
 10
80.54286877851357
 20
-140.5423274648642
 30
0.0
 10
80.4877648910305
 20
-140.5423274648642
 30
0.0
 10
80.43262775766948
 20
-140.5423274648642
 30
0.0
 10
80.38785822691266
 20
-140.5870949648534
 30
0.0
 10
80.38785822691266
 20
-140.6422341315058
 30
0.0
 10
80.38785822691266
 20
-140.6973380203814
 30
0.0
 10
80.43262775766948
 20
-140.7421407981481
 30
0.0
 10
80.4877648910305
 20
-140.7421407981481
 30
0.0
 10
80.54286877851357
 20
-140.7421407981481
 30
0.0
 10
80.58767155514833
 20
-140.6973380203814
 30
0.0
 10
80.58767155514833
 20
-140.6422341315058
 30
0.0
  0
SPLINE
  5
70
330
1F
100
AcDbEntity
  8
_U+30EC_U+30A4_U+30E4_U+30FC 1
 62
   179
420
  2234388
370
     9
100
AcDbSpline
210
0.0
220
0.0
230
1.0
 70
    11
 71
     3
 72
    17
 73
    13
 74
     0
 42
0.0000000001
 43
0.0000000001
 12
1.0
 22
0.0
 32
0.0
 13
1.0
 23
0.0
 33
0.0
 40
0.0
 40
0.0
 40
0.0
 40
0.0
 40
1.0
 40
1.0
 40
1.0
 40
2.0
 40
2.0
 40
2.0
 40
3.0
 40
3.0
 40
3.0
 40
4.0
 40
4.0
 40
4.0
 40
4.0
 10
98.58692497535354
 20
-140.6422341315058
 30
0.0
 10
98.58692497535354
 20
-140.5870949648534
 30
0.0
 10
98.54212219758682
 20
-140.5423274648642
 30
0.0
 10
98.48701582072023
 20
-140.5423274648642
 30
0.0
 10
98.43187665546029
 20
-140.5423274648642
 30
0.0
 10
98.38710915660239
 20
-140.5870949648534
 30
0.0
 10
98.38710915660239
 20
-140.6422341315058
 30
0.0
 10
98.38710915660239
 20
-140.6973380203814
 30
0.0
 10
98.43187665546029
 20
-140.7421407981481
 30
0.0
 10
98.48701582072023
 20
-140.7421407981481
 30
0.0
 10
98.54212219758682
 20
-140.7421407981481
 30
0.0
 10
98.58692497535354
 20
-140.6973380203814
 30
0.0
 10
98.58692497535354
 20
-140.6422341315058
 30
0.0
  0
POLYLINE
  5
71
330
1F
100
AcDbEntity
  8
_U+30EC_U+30A4_U+30E4_U+30FC 1
 62
   179
420
  2234388
370
     9
100
AcDb2dPolyline
 66
     1
 10
0.0
 20
0.0
 30
0.0
  0
VERTEX
  5
72
330
71
100
AcDbEntity
  8
_U+30EC_U+30A4_U+30E4_U+30FC 1
 62
   179
420
  2234388
370
     9
100
AcDbVertex
100
AcDb2dVertex
 10
80.4877648910305
 20
-117.6420755261451
 30
0.0
  0
VERTEX
  5
73
330
71
100
AcDbEntity
  8
_U+30EC_U+30A4_U+30E4_U+30FC 1
 62
   179
420
  2234388
370
     9
100
AcDbVertex
100
AcDb2dVertex
 10
88.48728302027911
 20
-117.6420755261451
 30
0.0
  0
SEQEND
  5
74
330
71
100
AcDbEntity
  8
_U+30EC_U+30A4_U+30E4_U+30FC 1
 62
   179
420
  2234388
370
     9
  0
POLYLINE
  5
75
330
1F
100
AcDbEntity
  8
_U+30EC_U+30A4_U+30E4_U+30FC 1
 62
   179
420
  2234388
370
     9
100
AcDb2dPolyline
 66
     1
 10
0.0
 20
0.0
 30
0.0
  0
VERTEX
  5
76
330
75
100
AcDbEntity
  8
_U+30EC_U+30A4_U+30E4_U+30FC 1
 62
   179
420
  2234388
370
     9
100
AcDbVertex
100
AcDb2dVertex
 10
80.4877648910305
 20
-119.1021169146688
 30
0.0
  0
VERTEX
  5
77
330
75
100
AcDbEntity
  8
_U+30EC_U+30A4_U+30E4_U+30FC 1
 62
   179
420
  2234388
370
     9
100
AcDbVertex
100
AcDb2dVertex
 10
80.4877648910305
 20
-116.6423033041729
 30
0.0
  0
SEQEND
  5
78
330
75
100
AcDbEntity
  8
_U+30EC_U+30A4_U+30E4_U+30FC 1
 62
   179
420
  2234388
370
     9
  0
POLYLINE
  5
79
330
1F
100
AcDbEntity
  8
_U+30EC_U+30A4_U+30E4_U+30FC 1
 62
   179
420
  2234388
370
     9
100
AcDb2dPolyline
 66
     1
 10
0.0
 20
0.0
 30
0.0
  0
VERTEX
  5
7A
330
79
100
AcDbEntity
  8
_U+30EC_U+30A4_U+30E4_U+30FC 1
 62
   179
420
  2234388
370
     9
100
AcDbVertex
100
AcDb2dVertex
 10
88.48728302027911
 20
-119.5024491367909
 30
0.0
  0
VERTEX
  5
7B
330
79
100
AcDbEntity
  8
_U+30EC_U+30A4_U+30E4_U+30FC 1
 62
   179
420
  2234388
370
     9
100
AcDbVertex
100
AcDb2dVertex
 10
88.48728302027911
 20
-116.6423033041729
 30
0.0
  0
SEQEND
  5
7C
330
79
100
AcDbEntity
  8
_U+30EC_U+30A4_U+30E4_U+30FC 1
 62
   179
420
  2234388
370
     9
  0
INSERT
  5
7E
330
1F
100
AcDbEntity
  8
_U+30EC_U+30A4_U+30E4_U+30FC 1
100
AcDbBlockReference
  2
block 2
 10
0.0
 20
0.0
 30
0.0
  0
POLYLINE
  5
85
330
1F
100
AcDbEntity
  8
_U+30EC_U+30A4_U+30E4_U+30FC 1
 62
   179
420
  2234388
370
     9
100
AcDb2dPolyline
 66
     1
 10
0.0
 20
0.0
 30
0.0
  0
VERTEX
  5
86
330
85
100
AcDbEntity
  8
_U+30EC_U+30A4_U+30E4_U+30FC 1
 62
   179
420
  2234388
370
     9
100
AcDbVertex
100
AcDb2dVertex
 10
80.4877648910305
 20
-140.6422341315058
 30
0.0
  0
VERTEX
  5
87
330
85
100
AcDbEntity
  8
_U+30EC_U+30A4_U+30E4_U+30FC 1
 62
   179
420
  2234388
370
     9
100
AcDbVertex
100
AcDb2dVertex
 10
98.48701582072023
 20
-140.6422341315058
 30
0.0
  0
SEQEND
  5
88
330
85
100
AcDbEntity
  8
_U+30EC_U+30A4_U+30E4_U+30FC 1
 62
   179
420
  2234388
370
     9
  0
POLYLINE
  5
89
330
1F
100
AcDbEntity
  8
_U+30EC_U+30A4_U+30E4_U+30FC 1
 62
   179
420
  2234388
370
     9
100
AcDb2dPolyline
 66
     1
 10
0.0
 20
0.0
 30
0.0
  0
VERTEX
  5
8A
330
89
100
AcDbEntity
  8
_U+30EC_U+30A4_U+30E4_U+30FC 1
 62
   179
420
  2234388
370
     9
100
AcDbVertex
100
AcDb2dVertex
 10
80.4877648910305
 20
-138.3822338542935
 30
0.0
  0
VERTEX
  5
8B
330
89
100
AcDbEntity
  8
_U+30EC_U+30A4_U+30E4_U+30FC 1
 62
   179
420
  2234388
370
     9
100
AcDbVertex
100
AcDb2dVertex
 10
80.4877648910305
 20
-141.6420063534784
 30
0.0
  0
SEQEND
  5
8C
330
89
100
AcDbEntity
  8
_U+30EC_U+30A4_U+30E4_U+30FC 1
 62
   179
420
  2234388
370
     9
  0
POLYLINE
  5
8D
330
1F
100
AcDbEntity
  8
_U+30EC_U+30A4_U+30E4_U+30FC 1
 62
   179
420
  2234388
370
     9
100
AcDb2dPolyline
 66
     1
 10
0.0
 20
0.0
 30
0.0
  0
VERTEX
  5
8E
330
8D
100
AcDbEntity
  8
_U+30EC_U+30A4_U+30E4_U+30FC 1
 62
   179
420
  2234388
370
     9
100
AcDbVertex
100
AcDb2dVertex
 10
98.48701582072023
 20
-139.1821927429821
 30
0.0
  0
VERTEX
  5
8F
330
8D
100
AcDbEntity
  8
_U+30EC_U+30A4_U+30E4_U+30FC 1
 62
   179
420
  2234388
370
     9
100
AcDbVertex
100
AcDb2dVertex
 10
98.48701582072023
 20
-141.6420063534784
 30
0.0
  0
SEQEND
  5
90
330
8D
100
AcDbEntity
  8
_U+30EC_U+30A4_U+30E4_U+30FC 1
 62
   179
420
  2234388
370
     9
  0
INSERT
  5
92
330
1F
100
AcDbEntity
  8
_U+30EC_U+30A4_U+30E4_U+30FC 1
100
AcDbBlockReference
  2
block 3
 10
0.0
 20
0.0
 30
0.0
  0
POLYLINE
  5
9B
330
1F
100
AcDbEntity
  8
_U+30EC_U+30A4_U+30E4_U+30FC 1
 62
   179
420
  2234388
370
     9
100
AcDb2dPolyline
 66
     1
 10
0.0
 20
0.0
 30
0.0
  0
VERTEX
  5
9C
330
9B
100
AcDbEntity
  8
_U+30EC_U+30A4_U+30E4_U+30FC 1
 62
   179
420
  2234388
370
     9
100
AcDbVertex
100
AcDb2dVertex
 10
102.3124321120146
 20
-135.642702743867
 30
0.0
  0
VERTEX
  5
9D
330
9B
100
AcDbEntity
  8
_U+30EC_U+30A4_U+30E4_U+30FC 1
 62
   179
420
  2234388
370
     9
100
AcDbVertex
100
AcDb2dVertex
 10
102.3124321120146
 20
-122.6423124693394
 30
0.0
  0
SEQEND
  5
9E
330
9B
100
AcDbEntity
  8
_U+30EC_U+30A4_U+30E4_U+30FC 1
 62
   179
420
  2234388
370
     9
  0
POLYLINE
  5
9F
330
1F
100
AcDbEntity
  8
_U+30EC_U+30A4_U+30E4_U+30FC 1
 62
   179
420
  2234388
370
     9
100
AcDb2dPolyline
 66
     1
 10
0.0
 20
0.0
 30
0.0
  0
VERTEX
  5
A0
330
9F
100
AcDbEntity
  8
_U+30EC_U+30A4_U+30E4_U+30FC 1
 62
   179
420
  2234388
370
     9
100
AcDbVertex
100
AcDb2dVertex
 10
101.1852013074393
 20
-135.642702743867
 30
0.0
  0
VERTEX
  5
A1
330
9F
100
AcDbEntity
  8
_U+30EC_U+30A4_U+30E4_U+30FC 1
 62
   179
420
  2234388
370
     9
100
AcDbVertex
100
AcDb2dVertex
 10
103.3129098642681
 20
-135.642702743867
 30
0.0
  0
SEQEND
  5
A2
330
9F
100
AcDbEntity
  8
_U+30EC_U+30A4_U+30E4_U+30FC 1
 62
   179
420
  2234388
370
     9
  0
POLYLINE
  5
A3
330
1F
100
AcDbEntity
  8
_U+30EC_U+30A4_U+30E4_U+30FC 1
 62
   179
420
  2234388
370
     9
100
AcDb2dPolyline
 66
     1
 10
0.0
 20
0.0
 30
0.0
  0
VERTEX
  5
A4
330
A3
100
AcDbEntity
  8
_U+30EC_U+30A4_U+30E4_U+30FC 1
 62
   179
420
  2234388
370
     9
100
AcDbVertex
100
AcDb2dVertex
 10
101.1852013074393
 20
-122.6423124693394
 30
0.0
  0
VERTEX
  5
A5
330
A3
100
AcDbEntity
  8
_U+30EC_U+30A4_U+30E4_U+30FC 1
 62
   179
420
  2234388
370
     9
100
AcDbVertex
100
AcDb2dVertex
 10
103.3129098642681
 20
-122.6423124693394
 30
0.0
  0
SEQEND
  5
A6
330
A3
100
AcDbEntity
  8
_U+30EC_U+30A4_U+30E4_U+30FC 1
 62
   179
420
  2234388
370
     9
  0
INSERT
  5
A8
330
1F
100
AcDbEntity
  8
_U+30EC_U+30A4_U+30E4_U+30FC 1
100
AcDbBlockReference
  2
block 4
 10
0.0
 20
0.0
 30
0.0
  0
SPLINE
  5
AF
330
1F
100
AcDbEntity
  8
_U+30EC_U+30A4_U+30E4_U+30FC 1
 62
   179
420
  2234388
370
     9
100
AcDbSpline
210
0.0
220
0.0
230
1.0
 70
    11
 71
     3
 72
    17
 73
    13
 74
     0
 42
0.0000000001
 43
0.0000000001
 12
1.0
 22
0.0
 32
0.0
 13
1.0
 23
0.0
 33
0.0
 40
0.0
 40
0.0
 40
0.0
 40
0.0
 40
1.0
 40
1.0
 40
1.0
 40
2.0
 40
2.0
 40
2.0
 40
3.0
 40
3.0
 40
3.0
 40
4.0
 40
4.0
 40
4.0
 40
4.0
 10
102.41304433167
 20
-136.6418046880616
 30
0.0
 10
102.41304433167
 20
-136.5859952436311
 30
0.0
 10
102.3682415550353
 20
-136.5411924658644
 30
0.0
 10
102.3131376675522
 20
-136.5411924658644
 30
0.0
 10
102.2579985022922
 20
-136.5411924658644
 30
0.0
 10
102.2132310034343
 20
-136.5859952436311
 30
0.0
 10
102.2132310034343
 20
-136.6418046880616
 30
0.0
 10
102.2132310034343
 20
-136.6969085769371
 30
0.0
 10
102.2579985022922
 20
-136.7417113547032
 30
0.0
 10
102.3131376675522
 20
-136.7417113547032
 30
0.0
 10
102.3682415550353
 20
-136.7417113547032
 30
0.0
 10
102.41304433167
 20
-136.6969085769371
 30
0.0
 10
102.41304433167
 20
-136.6418046880616
 30
0.0
  0
POLYLINE
  5
B0
330
1F
100
AcDbEntity
  8
_U+30EC_U+30A4_U+30E4_U+30FC 1
 62
   179
420
  2234388
370
     9
100
AcDb2dPolyline
 66
     1
 10
0.0
 20
0.0
 30
0.0
  0
VERTEX
  5
B1
330
B0
100
AcDbEntity
  8
_U+30EC_U+30A4_U+30E4_U+30FC 1
 62
   179
420
  2234388
370
     9
100
AcDbVertex
100
AcDb2dVertex
 10
102.3131376675522
 20
-136.6410991325067
 30
0.0
  0
VERTEX
  5
B2
330
B0
100
AcDbEntity
  8
_U+30EC_U+30A4_U+30E4_U+30FC 1
 62
   179
420
  2234388
370
     9
100
AcDbVertex
100
AcDb2dVertex
 10
102.3131376675522
 20
-133.8395496887621
 30
0.0
  0
SEQEND
  5
B3
330
B0
100
AcDbEntity
  8
_U+30EC_U+30A4_U+30E4_U+30FC 1
 62
   179
420
  2234388
370
     9
  0
POLYLINE
  5
B4
330
1F
100
AcDbEntity
  8
_U+30EC_U+30A4_U+30E4_U+30FC 1
 62
   179
420
  2234388
370
     9
100
AcDb2dPolyline
 66
     1
 10
0.0
 20
0.0
 30
0.0
  0
VERTEX
  5
B5
330
B4
100
AcDbEntity
  8
_U+30EC_U+30A4_U+30E4_U+30FC 1
 62
   179
420
  2234388
370
     9
100
AcDbVertex
100
AcDb2dVertex
 10
101.1852013074393
 20
-136.6410991325067
 30
0.0
  0
VERTEX
  5
B6
330
B4
100
AcDbEntity
  8
_U+30EC_U+30A4_U+30E4_U+30FC 1
 62
   179
420
  2234388
370
     9
100
AcDbVertex
100
AcDb2dVertex
 10
103.3129098642681
 20
-136.6410991325067
 30
0.0
  0
SEQEND
  5
B7
330
B4
100
AcDbEntity
  8
_U+30EC_U+30A4_U+30E4_U+30FC 1
 62
   179
420
  2234388
370
     9
  0
INSERT
  5
B9
330
1F
100
AcDbEntity
  8
_U+30EC_U+30A4_U+30E4_U+30FC 1
100
AcDbBlockReference
  2
block 5
 10
0.0
 20
0.0
 30
0.0
  0
SPLINE
  5
BE
330
1F
100
AcDbEntity
  8
_U+30EC_U+30A4_U+30E4_U+30FC 1
 62
   179
420
  2234388
370
     9
100
AcDbSpline
210
0.0
220
0.0
230
1.0
 70
    11
 71
     3
 72
    17
 73
    13
 74
     0
 42
0.0000000001
 43
0.0000000001
 12
1.0
 22
0.0
 32
0.0
 13
1.0
 23
0.0
 33
0.0
 40
0.0
 40
0.0
 40
0.0
 40
0.0
 40
1.0
 40
1.0
 40
1.0
 40
2.0
 40
2.0
 40
2.0
 40
3.0
 40
3.0
 40
3.0
 40
4.0
 40
4.0
 40
4.0
 40
4.0
 10
80.59179905504303
 20
-129.0749683010643
 30
0.0
 10
80.59179905504303
 20
-129.0198644121894
 30
0.0
 10
80.54703155618513
 20
-128.9750616344227
 30
0.0
 10
80.49189442432153
 20
-128.9750616344227
 30
0.0
 10
80.43678850344212
 20
-128.9750616344227
 30
0.0
 10
80.39198572680735
 20
-129.0198644121894
 30
0.0
 10
80.39198572680735
 20
-129.0749683010643
 30
0.0
 10
80.39198572680735
 20
-129.1301074677174
 30
0.0
 10
80.43678850344212
 20
-129.1748749677066
 30
0.0
 10
80.49189442432153
 20
-129.1748749677066
 30
0.0
 10
80.54703155618513
 20
-129.1748749677066
 30
0.0
 10
80.59179905504303
 20
-129.1301074677174
 30
0.0
 10
80.59179905504303
 20
-129.0749683010643
 30
0.0
  0
SPLINE
  5
BF
330
1F
100
AcDbEntity
  8
_U+30EC_U+30A4_U+30E4_U+30FC 1
 62
   179
420
  2234388
370
     9
100
AcDbSpline
210
0.0
220
0.0
230
1.0
 70
    11
 71
     3
 72
    17
 73
    13
 74
     0
 42
0.0000000001
 43
0.0000000001
 12
1.0
 22
0.0
 32
0.0
 13
1.0
 23
0.0
 33
0.0
 40
0.0
 40
0.0
 40
0.0
 40
0.0
 40
1.0
 40
1.0
 40
1.0
 40
2.0
 40
2.0
 40
2.0
 40
3.0
 40
3.0
 40
3.0
 40
4.0
 40
4.0
 40
4.0
 40
4.0
 10
81.59157125175894
 20
-129.0749683010643
 30
0.0
 10
81.59157125175894
 20
-129.0198644121894
 30
0.0
 10
81.54680375290104
 20
-128.9750616344227
 30
0.0
 10
81.49166664629375
 20
-128.9750616344227
 30
0.0
 10
81.43656070015803
 20
-128.9750616344227
 30
0.0
 10
81.39175792352326
 20
-129.0198644121894
 30
0.0
 10
81.39175792352326
 20
-129.0749683010643
 30
0.0
 10
81.39175792352326
 20
-129.1301074677174
 30
0.0
 10
81.43656070015803
 20
-129.1748749677066
 30
0.0
 10
81.49166664629375
 20
-129.1748749677066
 30
0.0
 10
81.54680375290104
 20
-129.1748749677066
 30
0.0
 10
81.59157125175894
 20
-129.1301074677174
 30
0.0
 10
81.59157125175894
 20
-129.0749683010643
 30
0.0
  0
INSERT
  5
C1
330
1F
100
AcDbEntity
  8
_U+30EC_U+30A4_U+30E4_U+30FC 1
100
AcDbBlockReference
  2
block 6
 10
0.0
 20
0.0
 30
0.0
  0
POLYLINE
  5
C6
330
1F
100
AcDbEntity
  8
_U+30EC_U+30A4_U+30E4_U+30FC 1
 62
   179
420
  2234388
370
     9
100
AcDb2dPolyline
 66
     1
 10
0.0
 20
0.0
 30
0.0
  0
VERTEX
  5
C7
330
C6
100
AcDbEntity
  8
_U+30EC_U+30A4_U+30E4_U+30FC 1
 62
   179
420
  2234388
370
     9
100
AcDbVertex
100
AcDb2dVertex
 10
82.3529362323349
 20
-129.0749683010643
 30
0.0
  0
VERTEX
  5
C8
330
C6
100
AcDbEntity
  8
_U+30EC_U+30A4_U+30E4_U+30FC 1
 62
   179
420
  2234388
370
     9
100
AcDbVertex
100
AcDb2dVertex
 10
78.5137263302813
 20
-129.0749683010643
 30
0.0
  0
SEQEND
  5
C9
330
C6
100
AcDbEntity
  8
_U+30EC_U+30A4_U+30E4_U+30FC 1
 62
   179
420
  2234388
370
     9
  0
ENDSEC
  0
SECTION
  2
OBJECTS
  0
DICTIONARY
  5
C
330
0
100
AcDbDictionary
281
     1
  3
ACAD_GROUP
350
D
  3
ACAD_LAYOUT
350
1A
  3
ACAD_MATERIAL
350
3B
  3
ACAD_MLEADERSTYLE
350
CB
  3
ACAD_MLINESTYLE
350
17
  3
ACAD_PLOTSETTINGS
350
19
  3
ACAD_PLOTSTYLENAME
350
E
  3
ACAD_TABLESTYLE
350
CA
  3
ACAD_VISUALSTYLE
350
2A
  0
SUN
  5
3F
330
29
100
AcDbSun
 90
        1
290
     0
 63
     7
421
 16777215
 40
1.0
291
     1
 91
  2455826
 92
 54000000
292
     0
 70
     2
 71
   256
280
     1
  0
DICTIONARY
  5
D
102
{ACAD_REACTORS
330
C
102
}
330
C
100
AcDbDictionary
281
     1
  0
DICTIONARY
  5
1A
102
{ACAD_REACTORS
330
C
102
}
330
C
100
AcDbDictionary
281
     1
  3
Layout1
350
1E
  3
Layout2
350
26
  3
Model
350
22
  0
DICTIONARY
  5
3B
102
{ACAD_REACTORS
330
C
102
}
330
C
100
AcDbDictionary
281
     1
  3
ByBlock
350
3D
  3
ByLayer
350
3C
  3
Global
350
3E
  0
DICTIONARY
  5
CB
102
{ACAD_REACTORS
330
C
102
}
330
C
100
AcDbDictionary
281
     1
  0
DICTIONARY
  5
17
102
{ACAD_REACTORS
330
C
102
}
330
C
100
AcDbDictionary
281
     1
  3
Standard
350
18
  0
DICTIONARY
  5
19
102
{ACAD_REACTORS
330
C
102
}
330
C
100
AcDbDictionary
281
     1
  0
ACDBDICTIONARYWDFLT
  5
E
102
{ACAD_REACTORS
330
C
102
}
330
C
100
AcDbDictionary
281
     1
  3
Normal
350
F
100
AcDbDictionaryWithDefault
340
F
  0
DICTIONARY
  5
CA
102
{ACAD_REACTORS
330
C
102
}
330
C
100
AcDbDictionary
281
     1
  0
DICTIONARY
  5
2A
102
{ACAD_REACTORS
330
C
102
}
330
C
100
AcDbDictionary
281
     1
  3
2dWireframe
350
2F
  3
3D Hidden
350
31
  3
3dWireframe
350
30
  3
Basic
350
32
  3
Brighten
350
36
  3
ColorChange
350
3A
  3
Conceptual
350
34
  3
Dim
350
35
  3
Facepattern
350
39
  3
Flat
350
2B
  3
FlatWithEdges
350
2C
  3
Gouraud
350
2D
  3
GouraudWithEdges
350
2E
  3
Linepattern
350
38
  3
Realistic
350
33
  3
Thicken
350
37
  0
LAYOUT
  5
1E
102
{ACAD_REACTORS
330
1A
102
}
330
1A
100
AcDbPlotSettings
  1

  2
none_device
  4

  6

 40
0.0
 41
0.0
 42
0.0
 43
0.0
 44
0.0
 45
0.0
 46
0.0
 47
0.0
 48
0.0
 49
0.0
140
0.0
141
0.0
142
1.0
143
1.0
 70
   688
 72
     0
 73
     0
 74
     5
  7

 75
    16
 76
     0
 77
     2
 78
   300
147
1.0
148
0.0
149
0.0
100
AcDbLayout
  1
Layout1
 70
     1
 71
     1
 10
0.0
 20
0.0
 11
12.0
 21
9.0
 12
0.0
 22
0.0
 32
0.0
 14
1.000000000000000E+20
 24
1.000000000000000E+20
 34
1.000000000000000E+20
 15
-1.000000000000000E+20
 25
-1.000000000000000E+20
 35
-1.000000000000000E+20
146
0.0
 13
0.0
 23
0.0
 33
0.0
 16
1.0
 26
0.0
 36
0.0
 17
0.0
 27
1.0
 37
0.0
 76
     0
330
1B
  0
LAYOUT
  5
26
102
{ACAD_REACTORS
330
1A
102
}
330
1A
100
AcDbPlotSettings
  1

  2
none_device
  4

  6

 40
0.0
 41
0.0
 42
0.0
 43
0.0
 44
0.0
 45
0.0
 46
0.0
 47
0.0
 48
0.0
 49
0.0
140
0.0
141
0.0
142
1.0
143
1.0
 70
   688
 72
     0
 73
     0
 74
     5
  7

 75
    16
 76
     0
 77
     2
 78
   300
147
1.0
148
0.0
149
0.0
100
AcDbLayout
  1
Layout2
 70
     1
 71
     2
 10
0.0
 20
0.0
 11
0.0
 21
0.0
 12
0.0
 22
0.0
 32
0.0
 14
0.0
 24
0.0
 34
0.0
 15
0.0
 25
0.0
 35
0.0
146
0.0
 13
0.0
 23
0.0
 33
0.0
 16
1.0
 26
0.0
 36
0.0
 17
0.0
 27
1.0
 37
0.0
 76
     0
330
23
  0
LAYOUT
  5
22
102
{ACAD_REACTORS
330
1A
102
}
330
1A
100
AcDbPlotSettings
  1

  2
none_device
  4

  6

 40
0.0
 41
0.0
 42
0.0
 43
0.0
 44
0.0
 45
0.0
 46
0.0
 47
0.0
 48
0.0
 49
0.0
140
0.0
141
0.0
142
1.0
143
1.0
 70
  1712
 72
     0
 73
     0
 74
     0
  7

 75
     0
 76
     0
 77
     2
 78
   300
147
1.0
148
0.0
149
0.0
100
AcDbLayout
  1
Model
 70
     1
 71
     0
 10
0.0
 20
0.0
 11
12.0
 21
9.0
 12
0.0
 22
0.0
 32
0.0
 14
1.000000000000000E+20
 24
1.000000000000000E+20
 34
1.000000000000000E+20
 15
-1.000000000000000E+20
 25
-1.000000000000000E+20
 35
-1.000000000000000E+20
146
0.0
 13
0.0
 23
0.0
 33
0.0
 16
1.0
 26
0.0
 36
0.0
 17
0.0
 27
1.0
 37
0.0
 76
     0
330
1F
331
29
  0
MATERIAL
  5
3D
102
{ACAD_REACTORS
330
3B
102
}
330
3B
100
AcDbMaterial
  1
ByBlock
 72
     1
 94
      127
  0
MATERIAL
  5
3C
102
{ACAD_REACTORS
330
3B
102
}
330
3B
100
AcDbMaterial
  1
ByLayer
 72
     1
 94
      127
  0
MATERIAL
  5
3E
102
{ACAD_REACTORS
330
3B
102
}
330
3B
100
AcDbMaterial
  1
Global
 72
     1
 94
      127
  0
MLINESTYLE
  5
18
102
{ACAD_REACTORS
330
17
102
}
330
17
100
AcDbMlineStyle
  2
Standard
 70
     0
  3

 62
   256
 51
90.0
 52
90.0
 71
     2
 49
0.5
 62
   256
  6
BYLAYER
 49
-0.5
 62
   256
  6
BYLAYER
  0
ACDBPLACEHOLDER
  5
F
102
{ACAD_REACTORS
330
E
102
}
330
E
  0
VISUALSTYLE
  5
2F
102
{ACAD_REACTORS
330
2A
102
}
330
2A
100
AcDbVisualStyle
  2
2dWireframe
 70
     4
177
     2
291
     0
 71
     0
176
     1
 72
     2
176
     1
 73
     0
176
     1
 90
        0
176
     1
 40
-0.6
176
     1
 41
-30.0
176
     1
 62
     5
 63
     7
421
 16777215
176
     1
 74
     1
176
     1
 91
        4
176
     1
 64
     7
176
     1
 65
   257
176
     1
 75
     1
176
     1
175
     1
176
     1
 42
1.0
176
     1
 92
        0
176
     1
 66
   257
176
     1
 43
1.0
176
     1
 76
     1
176
     1
 77
     6
176
     1
 78
     2
176
     1
 67
     7
176
     1
 79
     5
176
     1
170
     0
176
     1
171
     0
176
     1
290
     0
176
     1
 93
        1
176
     1
 44
0.0
176
     1
173
     0
176
     1
  0
VISUALSTYLE
  5
31
102
{ACAD_REACTORS
330
2A
102
}
330
2A
100
AcDbVisualStyle
  2
3D Hidden
 70
     6
177
     2
291
     0
 71
     1
176
     1
 72
     2
176
     1
 73
     2
176
     1
 90
        0
176
     1
 40
-0.6
176
     1
 41
-30.0
176
     1
 62
     5
 63
     7
421
 16777215
176
     1
 74
     2
176
     1
 91
        2
176
     1
 64
     7
176
     1
 65
   257
176
     1
 75
     2
176
     1
175
     1
176
     1
 42
40.0
176
     1
 92
        0
176
     1
 66
   257
176
     1
 43
1.0
176
     1
 76
     1
176
     1
 77
     6
176
     1
 78
     2
176
     1
 67
     7
176
     1
 79
     3
176
     1
170
     0
176
     1
171
     0
176
     1
290
     0
176
     1
 93
        1
176
     1
 44
0.0
176
     1
173
     0
176
     1
  0
VISUALSTYLE
  5
30
102
{ACAD_REACTORS
330
2A
102
}
330
2A
100
AcDbVisualStyle
  2
3dWireframe
 70
     5
177
     2
291
     0
 71
     0
176
     1
 72
     2
176
     1
 73
     0
176
     1
 90
        0
176
     1
 40
-0.6
176
     1
 41
-30.0
176
     1
 62
     5
 63
     7
421
 16777215
176
     1
 74
     1
176
     1
 91
        4
176
     1
 64
     7
176
     1
 65
   257
176
     1
 75
     1
176
     1
175
     1
176
     1
 42
1.0
176
     1
 92
        0
176
     1
 66
   257
176
     1
 43
1.0
176
     1
 76
     1
176
     1
 77
     6
176
     1
 78
     2
176
     1
 67
     7
176
     1
 79
     5
176
     1
170
     0
176
     1
171
     0
176
     1
290
     0
176
     1
 93
        1
176
     1
 44
0.0
176
     1
173
     0
176
     1
  0
VISUALSTYLE
  5
32
102
{ACAD_REACTORS
330
2A
102
}
330
2A
100
AcDbVisualStyle
  2
Basic
 70
     7
177
     2
291
     1
 71
     1
176
     1
 72
     0
176
     1
 73
     1
176
     1
 90
        0
176
     1
 40
-0.6
176
     1
 41
-30.0
176
     1
 62
     5
 63
     7
421
 16777215
176
     1
 74
     0
176
     1
 91
        4
176
     1
 64
     7
176
     1
 65
   257
176
     1
 75
     1
176
     1
175
     1
176
     1
 42
1.0
176
     1
 92
        8
176
     1
 66
     7
176
     1
 43
1.0
176
     1
 76
     1
176
     1
 77
     6
176
     1
 78
     2
176
     1
 67
     7
176
     1
 79
     5
176
     1
170
     0
176
     1
171
     0
176
     1
290
     0
176
     1
 93
        1
176
     1
 44
0.0
176
     1
173
     0
176
     1
  0
VISUALSTYLE
  5
36
102
{ACAD_REACTORS
330
2A
102
}
330
2A
100
AcDbVisualStyle
  2
Brighten
 70
    12
177
     2
291
     1
 71
     2
176
     1
 72
     2
176
     1
 73
     0
176
     1
 90
        0
176
     1
 40
-0.6
176
     1
 41
-30.0
176
     1
 62
     5
 63
     7
421
 16777215
176
     1
 74
     1
176
     1
 91
        4
176
     1
 64
     7
176
     1
 65
   257
176
     1
 75
     1
176
     1
175
     1
176
     1
 42
1.0
176
     1
 92
        8
176
     1
 66
     7
176
     1
 43
1.0
176
     1
 76
     1
176
     1
 77
     6
176
     1
 78
     2
176
     1
 67
     7
176
     1
 79
     5
176
     1
170
     0
176
     1
171
     0
176
     1
290
     0
176
     1
 93
        1
176
     1
 44
50.0
176
     1
173
     0
176
     1
  0
VISUALSTYLE
  5
3A
102
{ACAD_REACTORS
330
2A
102
}
330
2A
100
AcDbVisualStyle
  2
ColorChange
 70
    16
177
     2
291
     1
 71
     2
176
     1
 72
     2
176
     1
 73
     3
176
     1
 90
        0
176
     1
 40
-0.6
176
     1
 41
-30.0
176
     1
 62
     5
 63
     8
421
  8421504
176
     1
 74
     1
176
     1
 91
        4
176
     1
 64
     7
176
     1
 65
   257
176
     1
 75
     1
176
     1
175
     1
176
     1
 42
1.0
176
     1
 92
        8
176
     1
 66
     8
424
  8421504
176
     1
 43
1.0
176
     1
 76
     1
176
     1
 77
     6
176
     1
 78
     2
176
     1
 67
     7
176
     1
 79
     5
176
     1
170
     0
176
     1
171
     0
176
     1
290
     0
176
     1
 93
        1
176
     1
 44
0.0
176
     1
173
     0
176
     1
  0
VISUALSTYLE
  5
34
102
{ACAD_REACTORS
330
2A
102
}
330
2A
100
AcDbVisualStyle
  2
Conceptual
 70
     9
177
     2
291
     0
 71
     3
176
     1
 72
     2
176
     1
 73
     0
176
     1
 90
        0
176
     1
 40
-0.6
176
     1
 41
-30.0
176
     1
 62
     5
 63
     7
421
 16777215
176
     1
 74
     2
176
     1
 91
        2
176
     1
 64
     7
176
     1
 65
   257
176
     1
 75
     1
176
     1
175
     1
176
     1
 42
40.0
176
     1
 92
        8
176
     1
 66
     7
176
     1
 43
1.0
176
     1
 76
     1
176
     1
 77
     6
176
     1
 78
     2
176
     1
 67
     7
176
     1
 79
     3
176
     1
170
     0
176
     1
171
     0
176
     1
290
     0
176
     1
 93
        1
176
     1
 44
0.0
176
     1
173
     0
176
     1
  0
VISUALSTYLE
  5
35
102
{ACAD_REACTORS
330
2A
102
}
330
2A
100
AcDbVisualStyle
  2
Dim
 70
    11
177
     2
291
     1
 71
     2
176
     1
 72
     2
176
     1
 73
     0
176
     1
 90
        0
176
     1
 40
-0.6
176
     1
 41
-30.0
176
     1
 62
     5
 63
     7
421
 16777215
176
     1
 74
     1
176
     1
 91
        4
176
     1
 64
     7
176
     1
 65
   257
176
     1
 75
     1
176
     1
175
     1
176
     1
 42
1.0
176
     1
 92
        8
176
     1
 66
     7
176
     1
 43
1.0
176
     1
 76
     1
176
     1
 77
     6
176
     1
 78
     2
176
     1
 67
     7
176
     1
 79
     5
176
     1
170
     0
176
     1
171
     0
176
     1
290
     0
176
     1
 93
        1
176
     1
 44
-50.0
176
     1
173
     0
176
     1
  0
VISUALSTYLE
  5
39
102
{ACAD_REACTORS
330
2A
102
}
330
2A
100
AcDbVisualStyle
  2
Facepattern
 70
    15
177
     2
291
     1
 71
     2
176
     1
 72
     2
176
     1
 73
     0
176
     1
 90
        0
176
     1
 40
-0.6
176
     1
 41
-30.0
176
     1
 62
     5
 63
     7
421
 16777215
176
     1
 74
     1
176
     1
 91
        4
176
     1
 64
     7
176
     1
 65
   257
176
     1
 75
     1
176
     1
175
     1
176
     1
 42
1.0
176
     1
 92
        8
176
     1
 66
     7
176
     1
 43
1.0
176
     1
 76
     1
176
     1
 77
     6
176
     1
 78
     2
176
     1
 67
     7
176
     1
 79
     5
176
     1
170
     0
176
     1
171
     0
176
     1
290
     0
176
     1
 93
        1
176
     1
 44
0.0
176
     1
173
     0
176
     1
  0
VISUALSTYLE
  5
2B
102
{ACAD_REACTORS
330
2A
102
}
330
2A
100
AcDbVisualStyle
  2
Flat
 70
     0
177
     2
291
     1
 71
     2
176
     1
 72
     1
176
     1
 73
     1
176
     1
 90
        2
176
     1
 40
-0.6
176
     1
 41
30.0
176
     1
 62
     5
 63
     7
421
 16777215
176
     1
 74
     0
176
     1
 91
        4
176
     1
 64
     7
176
     1
 65
   257
176
     1
 75
     1
176
     1
175
     1
176
     1
 42
1.0
176
     1
 92
        8
176
     1
 66
     7
176
     1
 43
1.0
176
     1
 76
     1
176
     1
 77
     6
176
     1
 78
     2
176
     1
 67
     7
176
     1
 79
     5
176
     1
170
     0
176
     1
171
     0
176
     1
290
     0
176
     1
 93
       13
176
     1
 44
0.0
176
     1
173
     0
176
     1
  0
VISUALSTYLE
  5
2C
102
{ACAD_REACTORS
330
2A
102
}
330
2A
100
AcDbVisualStyle
  2
FlatWithEdges
 70
     1
177
     2
291
     1
 71
     2
176
     1
 72
     1
176
     1
 73
     1
176
     1
 90
        2
176
     1
 40
-0.6
176
     1
 41
30.0
176
     1
 62
     5
 63
     7
421
 16777215
176
     1
 74
     1
176
     1
 91
        4
176
     1
 64
     7
176
     1
 65
   257
176
     1
 75
     1
176
     1
175
     1
176
     1
 42
1.0
176
     1
 92
        0
176
     1
 66
   257
176
     1
 43
1.0
176
     1
 76
     1
176
     1
 77
     6
176
     1
 78
     2
176
     1
 67
     7
176
     1
 79
     5
176
     1
170
     0
176
     1
171
     0
176
     1
290
     0
176
     1
 93
       13
176
     1
 44
0.0
176
     1
173
     0
176
     1
  0
VISUALSTYLE
  5
2D
102
{ACAD_REACTORS
330
2A
102
}
330
2A
100
AcDbVisualStyle
  2
Gouraud
 70
     2
177
     2
291
     1
 71
     2
176
     1
 72
     2
176
     1
 73
     1
176
     1
 90
        2
176
     1
 40
-0.6
176
     1
 41
30.0
176
     1
 62
     5
 63
     7
421
 16777215
176
     1
 74
     0
176
     1
 91
        4
176
     1
 64
     7
176
     1
 65
   257
176
     1
 75
     1
176
     1
175
     1
176
     1
 42
1.0
176
     1
 92
        0
176
     1
 66
     7
176
     1
 43
1.0
176
     1
 76
     1
176
     1
 77
     6
176
     1
 78
     2
176
     1
 67
     7
176
     1
 79
     5
176
     1
170
     0
176
     1
171
     0
176
     1
290
     0
176
     1
 93
       13
176
     1
 44
0.0
176
     1
173
     0
176
     1
  0
VISUALSTYLE
  5
2E
102
{ACAD_REACTORS
330
2A
102
}
330
2A
100
AcDbVisualStyle
  2
GouraudWithEdges
 70
     3
177
     2
291
     1
 71
     2
176
     1
 72
     2
176
     1
 73
     1
176
     1
 90
        2
176
     1
 40
-0.6
176
     1
 41
30.0
176
     1
 62
     5
 63
     7
421
 16777215
176
     1
 74
     1
176
     1
 91
        4
176
     1
 64
     7
176
     1
 65
   257
176
     1
 75
     1
176
     1
175
     1
176
     1
 42
1.0
176
     1
 92
        0
176
     1
 66
   257
176
     1
 43
1.0
176
     1
 76
     1
176
     1
 77
     6
176
     1
 78
     2
176
     1
 67
     7
176
     1
 79
     5
176
     1
170
     0
176
     1
171
     0
176
     1
290
     0
176
     1
 93
       13
176
     1
 44
0.0
176
     1
173
     0
176
     1
  0
VISUALSTYLE
  5
38
102
{ACAD_REACTORS
330
2A
102
}
330
2A
100
AcDbVisualStyle
  2
Linepattern
 70
    14
177
     2
291
     1
 71
     2
176
     1
 72
     2
176
     1
 73
     0
176
     1
 90
        0
176
     1
 40
-0.6
176
     1
 41
-30.0
176
     1
 62
     5
 63
     7
421
 16777215
176
     1
 74
     1
176
     1
 91
        4
176
     1
 64
     7
176
     1
 65
   257
176
     1
 75
     7
176
     1
175
     7
176
     1
 42
1.0
176
     1
 92
        8
176
     1
 66
     7
176
     1
 43
1.0
176
     1
 76
     1
176
     1
 77
     6
176
     1
 78
     2
176
     1
 67
     7
176
     1
 79
     5
176
     1
170
     0
176
     1
171
     0
176
     1
290
     0
176
     1
 93
        1
176
     1
 44
0.0
176
     1
173
     0
176
     1
  0
VISUALSTYLE
  5
33
102
{ACAD_REACTORS
330
2A
102
}
330
2A
100
AcDbVisualStyle
  2
Realistic
 70
     8
177
     2
291
     0
 71
     2
176
     1
 72
     2
176
     1
 73
     0
176
     1
 90
        0
176
     1
 40
-0.6
176
     1
 41
-30.0
176
     1
 62
     5
 63
     7
421
 16777215
176
     1
 74
     1
176
     1
 91
        0
176
     1
 64
     7
176
     1
 65
   257
176
     1
 75
     1
176
     1
175
     1
176
     1
 42
1.0
176
     1
 92
        8
176
     1
 66
     8
424
  7895160
176
     1
 43
1.0
176
     1
 76
     1
176
     1
 77
     6
176
     1
 78
     2
176
     1
 67
     7
176
     1
 79
     5
176
     1
170
     0
176
     1
171
     0
176
     1
290
     0
176
     1
 93
       13
176
     1
 44
0.0
176
     1
173
     0
176
     1
  0
VISUALSTYLE
  5
37
102
{ACAD_REACTORS
330
2A
102
}
330
2A
100
AcDbVisualStyle
  2
Thicken
 70
    13
177
     2
291
     1
 71
     2
176
     1
 72
     2
176
     1
 73
     0
176
     1
 90
        0
176
     1
 40
-0.6
176
     1
 41
-30.0
176
     1
 62
     5
 63
     7
421
 16777215
176
     1
 74
     1
176
     1
 91
        4
176
     1
 64
     7
176
     1
 65
   257
176
     1
 75
     1
176
     1
175
     1
176
     1
 42
1.0
176
     1
 92
       12
176
     1
 66
     7
176
     1
 43
1.0
176
     1
 76
     1
176
     1
 77
     6
176
     1
 78
     2
176
     1
 67
     7
176
     1
 79
     5
176
     1
170
     0
176
     1
171
     0
176
     1
290
     0
176
     1
 93
        1
176
     1
 44
0.0
176
     1
173
     0
176
     1
  0
ENDSEC
  0
EOF
