  0
SECTION
  2
HEADER
  9
$ACADVER
  1
AC1024
  9
$ACADMAINTVER
 70
     6
  9
$DWGCODEPAGE
  3
UNDEFINED
  9
$INSBASE
 10
0.0
 20
0.0
 30
0.0
  9
$EXTMIN
 10
1.000000000000000E+20
 20
1.000000000000000E+20
 30
1.000000000000000E+20
  9
$EXTMAX
 10
-1.000000000000000E+20
 20
-1.000000000000000E+20
 30
-1.000000000000000E+20
  9
$LIMMIN
 10
0.0
 20
0.0
  9
$LIMMAX
 10
12.0
 20
9.0
  9
$ORTHOMODE
 70
     0
  9
$REGENMODE
 70
     1
  9
$FILLMODE
 70
     1
  9
$QTEXTMODE
 70
     0
  9
$MIRRTEXT
 70
     1
  9
$LTSCALE
 40
1.0
  9
$ATTMODE
 70
     1
  9
$TEXTSIZE
 40
0.2
  9
$TRACEWID
 40
0.05
  9
$TEXTSTYLE
  7
Standard
  9
$CLAYER
  8
0
  9
$CELTYPE
  6
ByLayer
  9
$CECOLOR
 62
   256
  9
$CELTSCALE
 40
1.0
  9
$DISPSILH
 70
     0
  9
$DIMSCALE
 40
1.0
  9
$DIMASZ
 40
0.18
  9
$DIMEXO
 40
0.0625
  9
$DIMDLI
 40
0.38
  9
$DIMRND
 40
0.0
  9
$DIMDLE
 40
0.0
  9
$DIMEXE
 40
0.18
  9
$DIMTP
 40
0.0
  9
$DIMTM
 40
0.0
  9
$DIMTXT
 40
0.18
  9
$DIMCEN
 40
0.09
  9
$DIMTSZ
 40
0.0
  9
$DIMTOL
 70
     0
  9
$DIMLIM
 70
     0
  9
$DIMTIH
 70
     1
  9
$DIMTOH
 70
     1
  9
$DIMSE1
 70
     0
  9
$DIMSE2
 70
     0
  9
$DIMTAD
 70
     0
  9
$DIMZIN
 70
     0
  9
$DIMBLK
  1

  9
$DIMASO
 70
     1
  9
$DIMSHO
 70
     1
  9
$DIMPOST
  1

  9
$DIMAPOST
  1

  9
$DIMALT
 70
     0
  9
$DIMALTD
 70
     2
  9
$DIMALTF
 40
25.4
  9
$DIMLFAC
 40
1.0
  9
$DIMTOFL
 70
     0
  9
$DIMTVP
 40
0.0
  9
$DIMTIX
 70
     0
  9
$DIMSOXD
 70
     0
  9
$DIMSAH
 70
     0
  9
$DIMBLK1
  1

  9
$DIMBLK2
  1

  9
$DIMSTYLE
  2
Standard
  9
$DIMCLRD
 70
     0
  9
$DIMCLRE
 70
     0
  9
$DIMCLRT
 70
     0
  9
$DIMTFAC
 40
1.0
  9
$DIMGAP
 40
0.09
  9
$DIMJUST
 70
     0
  9
$DIMSD1
 70
     0
  9
$DIMSD2
 70
     0
  9
$DIMTOLJ
 70
     1
  9
$DIMTZIN
 70
     0
  9
$DIMALTZ
 70
     0
  9
$DIMALTTZ
 70
     0
  9
$DIMUPT
 70
     0
  9
$DIMDEC
 70
     4
  9
$DIMTDEC
 70
     4
  9
$DIMALTU
 70
     2
  9
$DIMALTTD
 70
     2
  9
$DIMTXSTY
  7
Standard
  9
$DIMAUNIT
 70
     0
  9
$DIMADEC
 70
     0
  9
$DIMALTRND
 40
0.0
  9
$DIMAZIN
 70
     0
  9
$DIMDSEP
 70
    46
  9
$DIMATFIT
 70
     3
  9
$DIMFRAC
 70
     0
  9
$DIMLDRBLK
  1

  9
$DIMLUNIT
 70
     2
  9
$DIMLWD
 70
    -2
  9
$DIMLWE
 70
    -2
  9
$DIMTMOVE
 70
     0
  9
$DIMFXL
 40
1.0
  9
$DIMFXLON
 70
     0
  9
$DIMJOGANG
 40
0.7853981633974483
  9
$DIMTFILL
 70
     0
  9
$DIMTFILLCLR
 70
     0
  9
$DIMARCSYM
 70
     0
  9
$DIMLTYPE
  6

  9
$DIMLTEX1
  6

  9
$DIMLTEX2
  6

  9
$DIMTXTDIRECTION
 70
     0
  9
$LUNITS
 70
     2
  9
$LUPREC
 70
     4
  9
$SKETCHINC
 40
0.1
  9
$FILLETRAD
 40
0.5
  9
$AUNITS
 70
     0
  9
$AUPREC
 70
     0
  9
$MENU
  1
.
  9
$ELEVATION
 40
0.0
  9
$PELEVATION
 40
0.0
  9
$THICKNESS
 40
0.0
  9
$LIMCHECK
 70
     0
  9
$CHAMFERA
 40
0.5
  9
$CHAMFERB
 40
0.5
  9
$CHAMFERC
 40
1.0
  9
$CHAMFERD
 40
0.0
  9
$SKPOLY
 70
     0
  9
$TDCREATE
 40
2457917.617974525
  9
$TDUCREATE
 40
2457917.242974537
  9
$TDUPDATE
 40
2457917.617974525
  9
$TDUUPDATE
 40
2457917.242974537
  9
$TDINDWG
 40
0.0000000116
  9
$TDUSRTIMER
 40
0.0000000116
  9
$USRTIMER
 70
     1
  9
$ANGBASE
 50
0.0
  9
$ANGDIR
 70
     0
  9
$PDMODE
 70
     0
  9
$PDSIZE
 40
0.0
  9
$PLINEWID
 40
0.0
  9
$SPLFRAME
 70
     0
  9
$SPLINETYPE
 70
     6
  9
$SPLINESEGS
 70
     8
  9
$HANDSEED
  5
D3
  9
$SURFTAB1
 70
     6
  9
$SURFTAB2
 70
     6
  9
$SURFTYPE
 70
     6
  9
$SURFU
 70
     6
  9
$SURFV
 70
     6
  9
$UCSBASE
  2

  9
$UCSNAME
  2

  9
$UCSORG
 10
0.0
 20
0.0
 30
0.0
  9
$UCSXDIR
 10
1.0
 20
0.0
 30
0.0
  9
$UCSYDIR
 10
0.0
 20
1.0
 30
0.0
  9
$UCSORTHOREF
  2

  9
$UCSORTHOVIEW
 70
     0
  9
$UCSORGTOP
 10
0.0
 20
0.0
 30
0.0
  9
$UCSORGBOTTOM
 10
0.0
 20
0.0
 30
0.0
  9
$UCSORGLEFT
 10
0.0
 20
0.0
 30
0.0
  9
$UCSORGRIGHT
 10
0.0
 20
0.0
 30
0.0
  9
$UCSORGFRONT
 10
0.0
 20
0.0
 30
0.0
  9
$UCSORGBACK
 10
0.0
 20
0.0
 30
0.0
  9
$PUCSBASE
  2

  9
$PUCSNAME
  2

  9
$PUCSORG
 10
0.0
 20
0.0
 30
0.0
  9
$PUCSXDIR
 10
1.0
 20
0.0
 30
0.0
  9
$PUCSYDIR
 10
0.0
 20
1.0
 30
0.0
  9
$PUCSORTHOREF
  2

  9
$PUCSORTHOVIEW
 70
     0
  9
$PUCSORGTOP
 10
0.0
 20
0.0
 30
0.0
  9
$PUCSORGBOTTOM
 10
0.0
 20
0.0
 30
0.0
  9
$PUCSORGLEFT
 10
0.0
 20
0.0
 30
0.0
  9
$PUCSORGRIGHT
 10
0.0
 20
0.0
 30
0.0
  9
$PUCSORGFRONT
 10
0.0
 20
0.0
 30
0.0
  9
$PUCSORGBACK
 10
0.0
 20
0.0
 30
0.0
  9
$USERI1
 70
     0
  9
$USERI2
 70
     0
  9
$USERI3
 70
     0
  9
$USERI4
 70
     0
  9
$USERI5
 70
     0
  9
$USERR1
 40
0.0
  9
$USERR2
 40
0.0
  9
$USERR3
 40
0.0
  9
$USERR4
 40
0.0
  9
$USERR5
 40
0.0
  9
$WORLDVIEW
 70
     1
  9
$SHADEDGE
 70
     3
  9
$SHADEDIF
 70
    70
  9
$TILEMODE
 70
     1
  9
$MAXACTVP
 70
    64
  9
$PINSBASE
 10
0.0
 20
0.0
 30
0.0
  9
$PLIMCHECK
 70
     0
  9
$PEXTMIN
 10
1.000000000000000E+20
 20
1.000000000000000E+20
 30
1.000000000000000E+20
  9
$PEXTMAX
 10
-1.000000000000000E+20
 20
-1.000000000000000E+20
 30
-1.000000000000000E+20
  9
$PLIMMIN
 10
0.0
 20
0.0
  9
$PLIMMAX
 10
12.0
 20
9.0
  9
$UNITMODE
 70
     0
  9
$VISRETAIN
 70
     1
  9
$PLINEGEN
 70
     0
  9
$PSLTSCALE
 70
     1
  9
$TREEDEPTH
 70
  3020
  9
$CMLSTYLE
  2
Standard
  9
$CMLJUST
 70
     0
  9
$CMLSCALE
 40
1.0
  9
$PROXYGRAPHICS
 70
     1
  9
$MEASUREMENT
 70
     0
  9
$CELWEIGHT
370
    -1
  9
$ENDCAPS
280
     0
  9
$JOINSTYLE
280
     0
  9
$LWDISPLAY
290
     1
  9
$INSUNITS
 70
     1
  9
$HYPERLINKBASE
  1

  9
$STYLESHEET
  1

  9
$XEDIT
290
     1
  9
$CEPSNTYPE
380
     0
  9
$PSTYLEMODE
290
     1
  9
$FINGERPRINTGUID
  2
{318FD4C5-812D-A43F-43C6-AA1466E66D66}
  9
$VERSIONGUID
  2
{FAEB1C32-E019-11D5-929B-00C0DF256EC4}
  9
$EXTNAMES
290
     1
  9
$PSVPSCALE
 40
0.0
  9
$OLESTARTUP
290
     0
  9
$SORTENTS
280
   127
  9
$INDEXCTL
280
     0
  9
$HIDETEXT
280
     1
  9
$XCLIPFRAME
280
     2
  9
$HALOGAP
280
     0
  9
$OBSCOLOR
 70
   257
  9
$OBSLTYPE
280
     0
  9
$INTERSECTIONDISPLAY
280
     0
  9
$INTERSECTIONCOLOR
 70
   257
  9
$DIMASSOC
280
     2
  9
$PROJECTNAME
  1

  9
$CAMERADISPLAY
290
     0
  9
$LENSLENGTH
 40
50.0
  9
$CAMERAHEIGHT
 40
0.0
  9
$STEPSPERSEC
 40
2.0
  9
$STEPSIZE
 40
6.0
  9
$3DDWFPREC
 40
2.0
  9
$PSOLWIDTH
 40
0.25
  9
$PSOLHEIGHT
 40
4.0
  9
$LOFTANG1
 40
1.570796326794897
  9
$LOFTANG2
 40
1.570796326794897
  9
$LOFTMAG1
 40
0.0
  9
$LOFTMAG2
 40
0.0
  9
$LOFTPARAM
 70
     7
  9
$LOFTNORMALS
280
     1
  9
$LATITUDE
 40
37.795
  9
$LONGITUDE
 40
-122.394
  9
$NORTHDIRECTION
 40
0.0
  9
$TIMEZONE
 70
 -8000
  9
$LIGHTGLYPHDISPLAY
280
     1
  9
$TILEMODELIGHTSYNCH
280
     1
  9
$CMATERIAL
347
3C
  9
$SOLIDHIST
280
     1
  9
$SHOWHIST
280
     1
  9
$DWFFRAME
280
     2
  9
$DGNFRAME
280
     2
  9
$REALWORLDSCALE
290
     1
  9
$INTERFERECOLOR
 62
   256
  9
$CSHADOW
280
     0
  9
$SHADOWPLANELOCATION
 40
0.0
  0
ENDSEC
  0
SECTION
  2
CLASSES
  0
CLASS
  1
ACDBDICTIONARYWDFLT
  2
AcDbDictionaryWithDefault
  3
ObjectDBX Classes
 90
        0
 91
        4
280
     0
281
     0
  0
CLASS
  1
VISUALSTYLE
  2
AcDbVisualStyle
  3
ObjectDBX Classes
 90
     4095
 91
        4
280
     0
281
     0
  0
CLASS
  1
MATERIAL
  2
AcDbMaterial
  3
ObjectDBX Classes
 90
     1153
 91
        4
280
     0
281
     0
  0
CLASS
  1
SUN
  2
AcDbSun
  3
SCENEOE
 90
     1024
 91
        4
280
     0
281
     0
  0
ENDSEC
  0
SECTION
  2
TABLES
  0
TABLE
  2
VPORT
  5
8
330
0
100
AcDbSymbolTable
 70
     1
  0
VPORT
  5
29
330
8
100
AcDbSymbolTableRecord
100
AcDbViewportTableRecord
  2
*Active
 70
     0
 10
0.0
 20
0.0
 11
1.0
 21
1.0
 12
0.0
 22
0.0
 13
0.0
 23
0.0
 14
0.5
 24
0.5
 15
0.5
 25
0.5
 16
0.0
 26
0.0
 36
1.0
 17
91.00082462281999
 27
-128.4993055234307
 37
0.0
 40
256.9986110468615
 41
0.7081814508812795
 42
50.0
 43
0.0
 44
0.0
 50
0.0
 51
0.0
 71
     0
 72
   100
 73
     1
 74
     3
 75
     0
 76
     0
 77
     0
 78
     0
281
     0
 65
     1
110
0.0
120
0.0
130
0.0
111
1.0
121
0.0
131
0.0
112
0.0
122
1.0
132
0.0
 79
     0
146
0.0
 60
     3
 61
     5
292
     1
282
     1
141
0.0
142
0.0
 63
   250
361
3F
  0
ENDTAB
  0
TABLE
  2
LTYPE
  5
5
330
0
100
AcDbSymbolTable
 70
     1
  0
LTYPE
  5
14
330
5
100
AcDbSymbolTableRecord
100
AcDbLinetypeTableRecord
  2
ByBlock
 70
     0
  3

 72
    65
 73
     0
 40
0.0
  0
LTYPE
  5
15
330
5
100
AcDbSymbolTableRecord
100
AcDbLinetypeTableRecord
  2
ByLayer
 70
     0
  3

 72
    65
 73
     0
 40
0.0
  0
LTYPE
  5
16
330
5
100
AcDbSymbolTableRecord
100
AcDbLinetypeTableRecord
  2
Continuous
 70
     0
  3
Solid line
 72
    65
 73
     0
 40
0.0
  0
ENDTAB
  0
TABLE
  2
LAYER
  5
2
330
0
100
AcDbSymbolTable
 70
     2
  0
LAYER
  5
10
330
2
100
AcDbSymbolTableRecord
100
AcDbLayerTableRecord
  2
0
 70
     0
 62
     7
  6
Continuous
370
    -3
390
F
347
3E
  0
LAYER
  5
40
330
2
100
AcDbSymbolTableRecord
100
AcDbLayerTableRecord
  2
_U+30EC_U+30A4_U+30E4_U+30FC 1
 70
     0
 62
     7
  6
Continuous
370
    -3
390
F
347
3E
  0
ENDTAB
  0
TABLE
  2
STYLE
  5
3
330
0
100
AcDbSymbolTable
 70
     1
  0
STYLE
  5
11
330
3
100
AcDbSymbolTableRecord
100
AcDbTextStyleTableRecord
  2
Standard
 70
     0
 40
0.0
 41
1.0
 50
0.0
 71
     0
 42
0.2
  3
txt
  4

  0
ENDTAB
  0
TABLE
  2
VIEW
  5
6
330
0
100
AcDbSymbolTable
 70
     0
  0
ENDTAB
  0
TABLE
  2
UCS
  5
7
330
0
100
AcDbSymbolTable
 70
     0
  0
ENDTAB
  0
TABLE
  2
APPID
  5
9
330
0
100
AcDbSymbolTable
 70
     1
  0
APPID
  5
12
330
9
100
AcDbSymbolTableRecord
100
AcDbRegAppTableRecord
  2
ACAD
 70
     0
  0
ENDTAB
  0
TABLE
  2
DIMSTYLE
  5
A
330
0
100
AcDbSymbolTable
 70
     1
100
AcDbDimStyleTable
  0
DIMSTYLE
105
27
330
A
100
AcDbSymbolTableRecord
100
AcDbDimStyleTableRecord
  2
Standard
 70
     0
178
     0
340
11
  0
ENDTAB
  0
TABLE
  2
BLOCK_RECORD
  5
1
330
0
100
AcDbSymbolTable
 70
     6
  0
BLOCK_RECORD
  5
1F
330
1
100
AcDbSymbolTableRecord
100
AcDbBlockTableRecord
  2
*Model_Space
340
22
 70
     0
280
     1
281
     0
  0
BLOCK_RECORD
  5
1B
330
1
100
AcDbSymbolTableRecord
100
AcDbBlockTableRecord
  2
*Paper_Space
340
1E
 70
     0
280
     1
281
     0
  0
BLOCK_RECORD
  5
23
330
1
100
AcDbSymbolTableRecord
100
AcDbBlockTableRecord
  2
*Paper_Space0
340
26
 70
     0
280
     1
281
     0
  0
BLOCK_RECORD
  5
43
330
1
100
AcDbSymbolTableRecord
100
AcDbBlockTableRecord
  2
block 2
340
0
102
{BLKREFS
331
44
102
}
 70
     0
280
     1
281
     0
  0
BLOCK_RECORD
  5
84
330
1
100
AcDbSymbolTableRecord
100
AcDbBlockTableRecord
  2
block 3
340
0
102
{BLKREFS
331
85
102
}
 70
     0
280
     1
281
     0
  0
BLOCK_RECORD
  5
98
330
1
100
AcDbSymbolTableRecord
100
AcDbBlockTableRecord
  2
block 4
340
0
102
{BLKREFS
331
99
102
}
 70
     0
280
     1
281
     0
  0
BLOCK_RECORD
  5
B2
330
1
100
AcDbSymbolTableRecord
100
AcDbBlockTableRecord
  2
block 5
340
0
102
{BLKREFS
331
B3
102
}
 70
     0
280
     1
281
     0
  0
BLOCK_RECORD
  5
C7
330
1
100
AcDbSymbolTableRecord
100
AcDbBlockTableRecord
  2
block 6
340
0
102
{BLKREFS
331
C8
102
}
 70
     0
280
     1
281
     0
  0
ENDTAB
  0
ENDSEC
  0
SECTION
  2
BLOCKS
  0
BLOCK
  5
20
330
1F
100
AcDbEntity
  8
0
100
AcDbBlockBegin
  2
*Model_Space
 70
     0
 10
0.0
 20
0.0
 30
0.0
  3
*Model_Space
  1

  0
ENDBLK
  5
21
330
1F
100
AcDbEntity
  8
0
100
AcDbBlockEnd
  0
BLOCK
  5
1C
330
1B
100
AcDbEntity
 67
     1
  8
0
100
AcDbBlockBegin
  2
*Paper_Space
 70
     0
 10
0.0
 20
0.0
 30
0.0
  3
*Paper_Space
  1

  0
ENDBLK
  5
1D
330
1B
100
AcDbEntity
 67
     1
  8
0
100
AcDbBlockEnd
  0
BLOCK
  5
24
330
23
100
AcDbEntity
  8
0
100
AcDbBlockBegin
  2
*Paper_Space0
 70
     0
 10
0.0
 20
0.0
 30
0.0
  3
*Paper_Space0
  1

  0
ENDBLK
  5
25
330
23
100
AcDbEntity
  8
0
100
AcDbBlockEnd
  0
BLOCK
  5
45
330
43
100
AcDbEntity
  8
0
100
AcDbBlockBegin
  2
block 2
 70
     0
 10
0.0
 20
0.0
 30
0.0
  3
block 2
  1

  0
SPLINE
  5
47
330
43
100
AcDbEntity
  8
_U+30EC_U+30A4_U+30E4_U+30FC 1
370
     0
100
AcDbSpline
210
0.0
220
0.0
230
1.0
 70
    11
 71
     3
 72
    26
 73
    22
 74
     0
 42
0.0000000001
 43
0.0000000001
 12
1.0
 22
0.0
 32
0.0
 13
1.0
 23
0.0
 33
0.0
 40
0.0
 40
0.0
 40
0.0
 40
0.0
 40
1.0
 40
1.0
 40
1.0
 40
2.0
 40
2.0
 40
2.0
 40
3.0
 40
3.0
 40
3.0
 40
4.0
 40
4.0
 40
4.0
 40
5.0
 40
5.0
 40
5.0
 40
6.0
 40
6.0
 40
6.0
 40
7.0
 40
7.0
 40
7.0
 40
7.0
 10
100.9419867369173
 20
-135.0914957344563
 30
0.0
 10
100.9419867369173
 20
-135.0914957344563
 30
0.0
 10
99.83783363389472
 20
-135.0914957344563
 30
0.0
 10
99.83783363389472
 20
-135.0914957344563
 30
0.0
 10
99.83783363389472
 20
-135.0914957344563
 30
0.0
 10
99.83783363389472
 20
-135.4439290025973
 30
0.0
 10
99.83783363389472
 20
-135.4439290025973
 30
0.0
 10
99.83783363389472
 20
-135.4439290025973
 30
0.0
 10
99.68969452802897
 20
-135.4439290025973
 30
0.0
 10
99.68969452802897
 20
-135.4439290025973
 30
0.0
 10
99.6748806174424
 20
-135.0890841676166
 30
0.0
 10
99.51192760099008
 20
-135.039474792629
 30
0.0
 10
99.39755043087979
 20
-135.0077799141647
 30
0.0
 10
99.39755043087979
 20
-135.0077799141647
 30
0.0
 10
99.39755043087979
 20
-134.8517170886829
 30
0.0
 10
99.39755043087979
 20
-134.8517170886829
 30
0.0
 10
99.39755043087979
 20
-134.8517170886829
 30
0.0
 10
100.9419867369173
 20
-134.8517170886829
 30
0.0
 10
100.9419867369173
 20
-134.8517170886829
 30
0.0
 10
100.9419867369173
 20
-134.8517170886829
 30
0.0
 10
100.9419867369173
 20
-135.0914957344563
 30
0.0
 10
100.9419867369173
 20
-135.0914957344563
 30
0.0
  0
HATCH
  5
48
330
43
100
AcDbEntity
  8
_U+30EC_U+30A4_U+30E4_U+30FC 1
 62
   179
420
  2234388
100
AcDbHatch
 10
0.0
 20
0.0
 30
0.0
210
0.0
220
0.0
230
1.0
  2
SOLID
 70
     1
 71
     0
 91
        1
 92
        1
 93
        1
 72
     4
 94
        3
 73
     0
 74
     1
 95
       26
 96
       22
 40
0.0
 40
0.0
 40
0.0
 40
0.0
 40
1.0
 40
1.0
 40
1.0
 40
2.0
 40
2.0
 40
2.0
 40
3.0
 40
3.0
 40
3.0
 40
4.0
 40
4.0
 40
4.0
 40
5.0
 40
5.0
 40
5.0
 40
6.0
 40
6.0
 40
6.0
 40
7.0
 40
7.0
 40
7.0
 40
7.0
 10
100.9419867369173
 20
-135.0914957344563
 10
100.9419867369173
 20
-135.0914957344563
 10
99.83783363389472
 20
-135.0914957344563
 10
99.83783363389472
 20
-135.0914957344563
 10
99.83783363389472
 20
-135.0914957344563
 10
99.83783363389472
 20
-135.4439290025973
 10
99.83783363389472
 20
-135.4439290025973
 10
99.83783363389472
 20
-135.4439290025973
 10
99.68969452802897
 20
-135.4439290025973
 10
99.68969452802897
 20
-135.4439290025973
 10
99.6748806174424
 20
-135.0890841676166
 10
99.51192760099008
 20
-135.039474792629
 10
99.39755043087979
 20
-135.0077799141647
 10
99.39755043087979
 20
-135.0077799141647
 10
99.39755043087979
 20
-134.8517170886829
 10
99.39755043087979
 20
-134.8517170886829
 10
99.39755043087979
 20
-134.8517170886829
 10
100.9419867369173
 20
-134.8517170886829
 10
100.9419867369173
 20
-134.8517170886829
 10
100.9419867369173
 20
-134.8517170886829
 10
100.9419867369173
 20
-135.0914957344563
 10
100.9419867369173
 20
-135.0914957344563
 97
        0
 97
        0
 75
     2
 76
     1
 98
        0
  0
ENDBLK
  5
46
330
43
100
AcDbEntity
  8
0
100
AcDbBlockEnd
  0
BLOCK
  5
86
330
84
100
AcDbEntity
  8
0
100
AcDbBlockBegin
  2
block 3
 70
     0
 10
0.0
 20
0.0
 30
0.0
  3
block 3
  1

  0
SPLINE
  5
88
330
84
100
AcDbEntity
  8
_U+30EC_U+30A4_U+30E4_U+30FC 1
370
     0
100
AcDbSpline
210
0.0
220
0.0
230
1.0
 70
    11
 71
     3
 72
    29
 73
    25
 74
     0
 42
0.0000000001
 43
0.0000000001
 12
1.0
 22
0.0
 32
0.0
 13
1.0
 23
0.0
 33
0.0
 40
0.0
 40
0.0
 40
0.0
 40
0.0
 40
1.0
 40
1.0
 40
1.0
 40
2.0
 40
2.0
 40
2.0
 40
3.0
 40
3.0
 40
3.0
 40
4.0
 40
4.0
 40
4.0
 40
5.0
 40
5.0
 40
5.0
 40
6.0
 40
6.0
 40
6.0
 40
7.0
 40
7.0
 40
7.0
 40
8.0
 40
8.0
 40
8.0
 40
8.0
 10
84.56228025229693
 20
-118.5273043866008
 30
0.0
 10
84.27737085566677
 20
-118.5273043866008
 30
0.0
 10
84.00606958620335
 20
-118.3896728219651
 30
0.0
 10
84.00606958620335
 20
-118.0406846493093
 30
0.0
 10
84.00606958620335
 20
-117.7847140547552
 30
0.0
 10
84.15748153278008
 20
-117.6894571645881
 30
0.0
 10
84.27065291947054
 20
-117.6281344649506
 30
0.0
 10
84.13715546941711
 20
-117.5688788226043
 30
0.0
 10
84.0558512159652
 20
-117.4546739072683
 30
0.0
 10
84.0558512159652
 20
-117.2939602028814
 30
0.0
 10
84.0558512159652
 20
-117.0188693283842
 30
0.0
 10
84.26841360740512
 20
-116.8834770758139
 30
0.0
 10
84.56228025229693
 20
-116.8834770758139
 30
0.0
 10
84.86510414545039
 20
-116.8834770758139
 30
0.0
 10
85.06870928862865
 20
-117.027309812323
 30
0.0
 10
85.06870928862865
 20
-117.2939602028814
 30
0.0
 10
85.06870928862865
 20
-117.4546739072683
 30
0.0
 10
84.9849934683371
 20
-117.5688788226043
 30
0.0
 10
84.85166827305792
 20
-117.6281344649506
 30
0.0
 10
84.94658065367655
 20
-117.6789496233581
 30
0.0
 10
85.11607935155085
 20
-117.7742065135252
 30
0.0
 10
85.11607935155085
 20
-118.036550534727
 30
0.0
 10
85.11607935155085
 20
-118.4108601591994
 30
0.0
 10
84.8177340825282
 20
-118.5273043866008
 30
0.0
 10
84.56228025229693
 20
-118.5273043866008
 30
0.0
  0
SPLINE
  5
89
330
84
100
AcDbEntity
  8
_U+30EC_U+30A4_U+30E4_U+30FC 1
370
     0
100
AcDbSpline
210
0.0
220
0.0
230
1.0
 70
    11
 71
     3
 72
    17
 73
    13
 74
     0
 42
0.0000000001
 43
0.0000000001
 12
1.0
 22
0.0
 32
0.0
 13
1.0
 23
0.0
 33
0.0
 40
0.0
 40
0.0
 40
0.0
 40
0.0
 40
1.0
 40
1.0
 40
1.0
 40
2.0
 40
2.0
 40
2.0
 40
3.0
 40
3.0
 40
3.0
 40
4.0
 40
4.0
 40
4.0
 40
4.0
 10
84.56228025229693
 20
-117.7361382084132
 30
0.0
 10
84.40845673888053
 20
-117.7361382084132
 30
0.0
 10
84.24567597720247
 20
-117.8227823598672
 30
0.0
 10
84.24567597720247
 20
-118.0258707387227
 30
0.0
 10
84.24567597720247
 20
-118.2310261748693
 30
0.0
 10
84.38141273932132
 20
-118.3326564916842
 30
0.0
 10
84.56228025229693
 20
-118.3326564916842
 30
0.0
 10
84.76123451657011
 20
-118.3326564916842
 30
0.0
 10
84.87871227261714
 20
-118.2100110924093
 30
0.0
 10
84.87871227261714
 20
-118.0322441653704
 30
0.0
 10
84.87871227261714
 20
-117.8100355065718
 30
0.0
 10
84.70473495061202
 20
-117.7361382084132
 30
0.0
 10
84.56228025229693
 20
-117.7361382084132
 30
0.0
  0
SPLINE
  5
8A
330
84
100
AcDbEntity
  8
_U+30EC_U+30A4_U+30E4_U+30FC 1
370
     0
100
AcDbSpline
210
0.0
220
0.0
230
1.0
 70
    11
 71
     3
 72
    17
 73
    13
 74
     0
 42
0.0000000001
 43
0.0000000001
 12
1.0
 22
0.0
 32
0.0
 13
1.0
 23
0.0
 33
0.0
 40
0.0
 40
0.0
 40
0.0
 40
0.0
 40
1.0
 40
1.0
 40
1.0
 40
2.0
 40
2.0
 40
2.0
 40
3.0
 40
3.0
 40
3.0
 40
4.0
 40
4.0
 40
4.0
 40
4.0
 10
84.56228025229693
 20
-117.0760579134393
 30
0.0
 10
84.38589136345215
 20
-117.0760579134393
 30
0.0
 10
84.29545760696433
 20
-117.1711425488322
 30
0.0
 10
84.29545760696433
 20
-117.3065348014025
 30
0.0
 10
84.29545760696433
 20
-117.4293524554517
 30
0.0
 10
84.37228323628541
 20
-117.5478637401443
 30
0.0
 10
84.56228025229693
 20
-117.5478637401443
 30
0.0
 10
84.7521050135342
 20
-117.5478637401443
 30
0.0
 10
84.82893064285527
 20
-117.4293524554517
 30
0.0
 10
84.82893064285527
 20
-117.3065348014025
 30
0.0
 10
84.82893064285527
 20
-117.1711425488322
 30
0.0
 10
84.73625757430204
 20
-117.0760579134393
 30
0.0
 10
84.56228025229693
 20
-117.0760579134393
 30
0.0
  0
HATCH
  5
8B
330
84
100
AcDbEntity
  8
_U+30EC_U+30A4_U+30E4_U+30FC 1
 62
   179
420
  2234388
100
AcDbHatch
 10
0.0
 20
0.0
 30
0.0
210
0.0
220
0.0
230
1.0
  2
SOLID
 70
     1
 71
     0
 91
        3
 92
        1
 93
        1
 72
     4
 94
        3
 73
     0
 74
     1
 95
       29
 96
       25
 40
0.0
 40
0.0
 40
0.0
 40
0.0
 40
1.0
 40
1.0
 40
1.0
 40
2.0
 40
2.0
 40
2.0
 40
3.0
 40
3.0
 40
3.0
 40
4.0
 40
4.0
 40
4.0
 40
5.0
 40
5.0
 40
5.0
 40
6.0
 40
6.0
 40
6.0
 40
7.0
 40
7.0
 40
7.0
 40
8.0
 40
8.0
 40
8.0
 40
8.0
 10
84.56228025229693
 20
-118.5273043866008
 10
84.27737085566677
 20
-118.5273043866008
 10
84.00606958620335
 20
-118.3896728219651
 10
84.00606958620335
 20
-118.0406846493093
 10
84.00606958620335
 20
-117.7847140547552
 10
84.15748153278008
 20
-117.6894571645881
 10
84.27065291947054
 20
-117.6281344649506
 10
84.13715546941711
 20
-117.5688788226043
 10
84.0558512159652
 20
-117.4546739072683
 10
84.0558512159652
 20
-117.2939602028814
 10
84.0558512159652
 20
-117.0188693283842
 10
84.26841360740512
 20
-116.8834770758139
 10
84.56228025229693
 20
-116.8834770758139
 10
84.86510414545039
 20
-116.8834770758139
 10
85.06870928862865
 20
-117.027309812323
 10
85.06870928862865
 20
-117.2939602028814
 10
85.06870928862865
 20
-117.4546739072683
 10
84.9849934683371
 20
-117.5688788226043
 10
84.85166827305792
 20
-117.6281344649506
 10
84.94658065367655
 20
-117.6789496233581
 10
85.11607935155085
 20
-117.7742065135252
 10
85.11607935155085
 20
-118.036550534727
 10
85.11607935155085
 20
-118.4108601591994
 10
84.8177340825282
 20
-118.5273043866008
 10
84.56228025229693
 20
-118.5273043866008
 97
        0
 97
        0
 92
        1
 93
        1
 72
     4
 94
        3
 73
     0
 74
     1
 95
       17
 96
       13
 40
0.0
 40
0.0
 40
0.0
 40
0.0
 40
1.0
 40
1.0
 40
1.0
 40
2.0
 40
2.0
 40
2.0
 40
3.0
 40
3.0
 40
3.0
 40
4.0
 40
4.0
 40
4.0
 40
4.0
 10
84.56228025229693
 20
-117.7361382084132
 10
84.40845673888053
 20
-117.7361382084132
 10
84.24567597720247
 20
-117.8227823598672
 10
84.24567597720247
 20
-118.0258707387227
 10
84.24567597720247
 20
-118.2310261748693
 10
84.38141273932132
 20
-118.3326564916842
 10
84.56228025229693
 20
-118.3326564916842
 10
84.76123451657011
 20
-118.3326564916842
 10
84.87871227261714
 20
-118.2100110924093
 10
84.87871227261714
 20
-118.0322441653704
 10
84.87871227261714
 20
-117.8100355065718
 10
84.70473495061202
 20
-117.7361382084132
 10
84.56228025229693
 20
-117.7361382084132
 97
        0
 97
        0
 92
        1
 93
        1
 72
     4
 94
        3
 73
     0
 74
     1
 95
       17
 96
       13
 40
0.0
 40
0.0
 40
0.0
 40
0.0
 40
1.0
 40
1.0
 40
1.0
 40
2.0
 40
2.0
 40
2.0
 40
3.0
 40
3.0
 40
3.0
 40
4.0
 40
4.0
 40
4.0
 40
4.0
 10
84.56228025229693
 20
-117.0760579134393
 10
84.38589136345215
 20
-117.0760579134393
 10
84.29545760696433
 20
-117.1711425488322
 10
84.29545760696433
 20
-117.3065348014025
 10
84.29545760696433
 20
-117.4293524554517
 10
84.37228323628541
 20
-117.5478637401443
 10
84.56228025229693
 20
-117.5478637401443
 10
84.7521050135342
 20
-117.5478637401443
 10
84.82893064285527
 20
-117.4293524554517
 10
84.82893064285527
 20
-117.3065348014025
 10
84.82893064285527
 20
-117.1711425488322
 10
84.73625757430204
 20
-117.0760579134393
 10
84.56228025229693
 20
-117.0760579134393
 97
        0
 97
        0
 75
     2
 76
     1
 98
        0
  0
ENDBLK
  5
87
330
84
100
AcDbEntity
  8
0
100
AcDbBlockEnd
  0
BLOCK
  5
9A
330
98
100
AcDbEntity
  8
0
100
AcDbBlockBegin
  2
block 4
 70
     0
 10
0.0
 20
0.0
 30
0.0
  3
block 4
  1

  0
SPLINE
  5
9C
330
98
100
AcDbEntity
  8
_U+30EC_U+30A4_U+30E4_U+30FC 1
370
     0
100
AcDbSpline
210
0.0
220
0.0
230
1.0
 70
    11
 71
     3
 72
    26
 73
    22
 74
     0
 42
0.0000000001
 43
0.0000000001
 12
1.0
 22
0.0
 32
0.0
 13
1.0
 23
0.0
 33
0.0
 40
0.0
 40
0.0
 40
0.0
 40
0.0
 40
1.0
 40
1.0
 40
1.0
 40
2.0
 40
2.0
 40
2.0
 40
3.0
 40
3.0
 40
3.0
 40
4.0
 40
4.0
 40
4.0
 40
5.0
 40
5.0
 40
5.0
 40
6.0
 40
6.0
 40
6.0
 40
7.0
 40
7.0
 40
7.0
 40
7.0
 10
88.8435004118169
 20
-138.976185403624
 30
0.0
 10
88.8435004118169
 20
-138.976185403624
 30
0.0
 10
88.8435004118169
 20
-137.8720323006014
 30
0.0
 10
88.8435004118169
 20
-137.8720323006014
 30
0.0
 10
88.8435004118169
 20
-137.8720323006014
 30
0.0
 10
88.49106714367585
 20
-137.8720323006014
 30
0.0
 10
88.49106714367585
 20
-137.8720323006014
 30
0.0
 10
88.49106714367585
 20
-137.8720323006014
 30
0.0
 10
88.49106714367585
 20
-137.7238931947357
 30
0.0
 10
88.49106714367585
 20
-137.7238931947357
 30
0.0
 10
88.84591197865659
 20
-137.7090792841491
 30
0.0
 10
88.89552135364418
 20
-137.5461262676968
 30
0.0
 10
88.92721623210848
 20
-137.4317490975865
 30
0.0
 10
88.92721623210848
 20
-137.4317490975865
 30
0.0
 10
89.08327905759029
 20
-137.4317490975865
 30
0.0
 10
89.08327905759029
 20
-137.4317490975865
 30
0.0
 10
89.08327905759029
 20
-137.4317490975865
 30
0.0
 10
89.08327905759029
 20
-138.976185403624
 30
0.0
 10
89.08327905759029
 20
-138.976185403624
 30
0.0
 10
89.08327905759029
 20
-138.976185403624
 30
0.0
 10
88.8435004118169
 20
-138.976185403624
 30
0.0
 10
88.8435004118169
 20
-138.976185403624
 30
0.0
  0
HATCH
  5
9D
330
98
100
AcDbEntity
  8
_U+30EC_U+30A4_U+30E4_U+30FC 1
 62
   179
420
  2234388
100
AcDbHatch
 10
0.0
 20
0.0
 30
0.0
210
0.0
220
0.0
230
1.0
  2
SOLID
 70
     1
 71
     0
 91
        1
 92
        1
 93
        1
 72
     4
 94
        3
 73
     0
 74
     1
 95
       26
 96
       22
 40
0.0
 40
0.0
 40
0.0
 40
0.0
 40
1.0
 40
1.0
 40
1.0
 40
2.0
 40
2.0
 40
2.0
 40
3.0
 40
3.0
 40
3.0
 40
4.0
 40
4.0
 40
4.0
 40
5.0
 40
5.0
 40
5.0
 40
6.0
 40
6.0
 40
6.0
 40
7.0
 40
7.0
 40
7.0
 40
7.0
 10
88.8435004118169
 20
-138.976185403624
 10
88.8435004118169
 20
-138.976185403624
 10
88.8435004118169
 20
-137.8720323006014
 10
88.8435004118169
 20
-137.8720323006014
 10
88.8435004118169
 20
-137.8720323006014
 10
88.49106714367585
 20
-137.8720323006014
 10
88.49106714367585
 20
-137.8720323006014
 10
88.49106714367585
 20
-137.8720323006014
 10
88.49106714367585
 20
-137.7238931947357
 10
88.49106714367585
 20
-137.7238931947357
 10
88.84591197865659
 20
-137.7090792841491
 10
88.89552135364418
 20
-137.5461262676968
 10
88.92721623210848
 20
-137.4317490975865
 10
88.92721623210848
 20
-137.4317490975865
 10
89.08327905759029
 20
-137.4317490975865
 10
89.08327905759029
 20
-137.4317490975865
 10
89.08327905759029
 20
-137.4317490975865
 10
89.08327905759029
 20
-138.976185403624
 10
89.08327905759029
 20
-138.976185403624
 10
89.08327905759029
 20
-138.976185403624
 10
88.8435004118169
 20
-138.976185403624
 10
88.8435004118169
 20
-138.976185403624
 97
        0
 97
        0
 75
     2
 76
     1
 98
        0
  0
SPLINE
  5
9E
330
98
100
AcDbEntity
  8
_U+30EC_U+30A4_U+30E4_U+30FC 1
370
     0
100
AcDbSpline
210
0.0
220
0.0
230
1.0
 70
    11
 71
     3
 72
    29
 73
    25
 74
     0
 42
0.0000000001
 43
0.0000000001
 12
1.0
 22
0.0
 32
0.0
 13
1.0
 23
0.0
 33
0.0
 40
0.0
 40
0.0
 40
0.0
 40
0.0
 40
1.0
 40
1.0
 40
1.0
 40
2.0
 40
2.0
 40
2.0
 40
3.0
 40
3.0
 40
3.0
 40
4.0
 40
4.0
 40
4.0
 40
5.0
 40
5.0
 40
5.0
 40
6.0
 40
6.0
 40
6.0
 40
7.0
 40
7.0
 40
7.0
 40
8.0
 40
8.0
 40
8.0
 40
8.0
 10
90.1533257153089
 20
-139.0268283072572
 30
0.0
 10
89.86841631867874
 20
-139.0268283072572
 30
0.0
 10
89.59728730398957
 20
-138.8893689973957
 30
0.0
 10
89.59728730398957
 20
-138.5403808247399
 30
0.0
 10
89.59728730398957
 20
-138.2844102301858
 30
0.0
 10
89.74887150534056
 20
-138.189325594793
 30
0.0
 10
89.86187063725676
 20
-138.1280028951555
 30
0.0
 10
89.72854544197759
 20
-138.0687472528092
 30
0.0
 10
89.64689667897717
 20
-137.9543700826989
 30
0.0
 10
89.64689667897717
 20
-137.7934841235378
 30
0.0
 10
89.64689667897717
 20
-137.5185655038148
 30
0.0
 10
89.85945907041709
 20
-137.3831732512445
 30
0.0
 10
90.1533257153089
 20
-137.3831732512445
 30
0.0
 10
90.45649411801088
 20
-137.3831732512445
 30
0.0
 10
90.65975475164062
 20
-137.5271782425279
 30
0.0
 10
90.65975475164062
 20
-137.7934841235378
 30
0.0
 10
90.65975475164062
 20
-137.9543700826989
 30
0.0
 10
90.57638344089757
 20
-138.0687472528092
 30
0.0
 10
90.44271373606988
 20
-138.1280028951555
 30
0.0
 10
90.53779837146277
 20
-138.1786457987887
 30
0.0
 10
90.70729706933707
 20
-138.2737304341816
 30
0.0
 10
90.70729706933707
 20
-138.5362467101576
 30
0.0
 10
90.70729706933707
 20
-138.9107285894043
 30
0.0
 10
90.40895180031443
 20
-139.0268283072572
 30
0.0
 10
90.1533257153089
 20
-139.0268283072572
 30
0.0
  0
SPLINE
  5
9F
330
98
100
AcDbEntity
  8
_U+30EC_U+30A4_U+30E4_U+30FC 1
370
     0
100
AcDbSpline
210
0.0
220
0.0
230
1.0
 70
    11
 71
     3
 72
    17
 73
    13
 74
     0
 42
0.0000000001
 43
0.0000000001
 12
1.0
 22
0.0
 32
0.0
 13
1.0
 23
0.0
 33
0.0
 40
0.0
 40
0.0
 40
0.0
 40
0.0
 40
1.0
 40
1.0
 40
1.0
 40
2.0
 40
2.0
 40
2.0
 40
3.0
 40
3.0
 40
3.0
 40
4.0
 40
4.0
 40
4.0
 40
4.0
 10
90.1533257153089
 20
-138.2358343838438
 30
0.0
 10
89.99967445666675
 20
-138.2358343838438
 30
0.0
 10
89.83706594976296
 20
-138.3226507900721
 30
0.0
 10
89.83706594976296
 20
-138.5255669141533
 30
0.0
 10
89.83706594976296
 20
-138.7308946050742
 30
0.0
 10
89.97245820233327
 20
-138.8321804123406
 30
0.0
 10
90.1533257153089
 20
-138.8321804123406
 30
0.0
 10
90.35245223435633
 20
-138.8321804123406
 30
0.0
 10
90.46992999040336
 20
-138.7095350130657
 30
0.0
 10
90.46992999040336
 20
-138.5317680860268
 30
0.0
 10
90.46992999040336
 20
-138.3099039367767
 30
0.0
 10
90.29595266839824
 20
-138.2358343838438
 30
0.0
 10
90.1533257153089
 20
-138.2358343838438
 30
0.0
  0
SPLINE
  5
A0
330
98
100
AcDbEntity
  8
_U+30EC_U+30A4_U+30E4_U+30FC 1
370
     0
100
AcDbSpline
210
0.0
220
0.0
230
1.0
 70
    11
 71
     3
 72
    17
 73
    13
 74
     0
 42
0.0000000001
 43
0.0000000001
 12
1.0
 22
0.0
 32
0.0
 13
1.0
 23
0.0
 33
0.0
 40
0.0
 40
0.0
 40
0.0
 40
0.0
 40
1.0
 40
1.0
 40
1.0
 40
2.0
 40
2.0
 40
2.0
 40
3.0
 40
3.0
 40
3.0
 40
4.0
 40
4.0
 40
4.0
 40
4.0
 10
90.1533257153089
 20
-137.57575408887
 30
0.0
 10
89.97728133601262
 20
-137.57575408887
 30
0.0
 10
89.88667532475056
 20
-137.6708387242629
 30
0.0
 10
89.88667532475056
 20
-137.8062309768332
 30
0.0
 10
89.88667532475056
 20
-137.9288763761081
 30
0.0
 10
89.96350095407163
 20
-138.0473876608007
 30
0.0
 10
90.1533257153089
 20
-138.0473876608007
 30
0.0
 10
90.34349498609468
 20
-138.0473876608007
 30
0.0
 10
90.42032061541576
 20
-137.9288763761081
 30
0.0
 10
90.42032061541576
 20
-137.8062309768332
 30
0.0
 10
90.42032061541576
 20
-137.6708387242629
 30
0.0
 10
90.32764754686254
 20
-137.57575408887
 30
0.0
 10
90.1533257153089
 20
-137.57575408887
 30
0.0
  0
HATCH
  5
A1
330
98
100
AcDbEntity
  8
_U+30EC_U+30A4_U+30E4_U+30FC 1
 62
   179
420
  2234388
100
AcDbHatch
 10
0.0
 20
0.0
 30
0.0
210
0.0
220
0.0
230
1.0
  2
SOLID
 70
     1
 71
     0
 91
        3
 92
        1
 93
        1
 72
     4
 94
        3
 73
     0
 74
     1
 95
       29
 96
       25
 40
0.0
 40
0.0
 40
0.0
 40
0.0
 40
1.0
 40
1.0
 40
1.0
 40
2.0
 40
2.0
 40
2.0
 40
3.0
 40
3.0
 40
3.0
 40
4.0
 40
4.0
 40
4.0
 40
5.0
 40
5.0
 40
5.0
 40
6.0
 40
6.0
 40
6.0
 40
7.0
 40
7.0
 40
7.0
 40
8.0
 40
8.0
 40
8.0
 40
8.0
 10
90.1533257153089
 20
-139.0268283072572
 10
89.86841631867874
 20
-139.0268283072572
 10
89.59728730398957
 20
-138.8893689973957
 10
89.59728730398957
 20
-138.5403808247399
 10
89.59728730398957
 20
-138.2844102301858
 10
89.74887150534056
 20
-138.189325594793
 10
89.86187063725676
 20
-138.1280028951555
 10
89.72854544197759
 20
-138.0687472528092
 10
89.64689667897717
 20
-137.9543700826989
 10
89.64689667897717
 20
-137.7934841235378
 10
89.64689667897717
 20
-137.5185655038148
 10
89.85945907041709
 20
-137.3831732512445
 10
90.1533257153089
 20
-137.3831732512445
 10
90.45649411801088
 20
-137.3831732512445
 10
90.65975475164062
 20
-137.5271782425279
 10
90.65975475164062
 20
-137.7934841235378
 10
90.65975475164062
 20
-137.9543700826989
 10
90.57638344089757
 20
-138.0687472528092
 10
90.44271373606988
 20
-138.1280028951555
 10
90.53779837146277
 20
-138.1786457987887
 10
90.70729706933707
 20
-138.2737304341816
 10
90.70729706933707
 20
-138.5362467101576
 10
90.70729706933707
 20
-138.9107285894043
 10
90.40895180031443
 20
-139.0268283072572
 10
90.1533257153089
 20
-139.0268283072572
 97
        0
 97
        0
 92
        1
 93
        1
 72
     4
 94
        3
 73
     0
 74
     1
 95
       17
 96
       13
 40
0.0
 40
0.0
 40
0.0
 40
0.0
 40
1.0
 40
1.0
 40
1.0
 40
2.0
 40
2.0
 40
2.0
 40
3.0
 40
3.0
 40
3.0
 40
4.0
 40
4.0
 40
4.0
 40
4.0
 10
90.1533257153089
 20
-138.2358343838438
 10
89.99967445666675
 20
-138.2358343838438
 10
89.83706594976296
 20
-138.3226507900721
 10
89.83706594976296
 20
-138.5255669141533
 10
89.83706594976296
 20
-138.7308946050742
 10
89.97245820233327
 20
-138.8321804123406
 10
90.1533257153089
 20
-138.8321804123406
 10
90.35245223435633
 20
-138.8321804123406
 10
90.46992999040336
 20
-138.7095350130657
 10
90.46992999040336
 20
-138.5317680860268
 10
90.46992999040336
 20
-138.3099039367767
 10
90.29595266839824
 20
-138.2358343838438
 10
90.1533257153089
 20
-138.2358343838438
 97
        0
 97
        0
 92
        1
 93
        1
 72
     4
 94
        3
 73
     0
 74
     1
 95
       17
 96
       13
 40
0.0
 40
0.0
 40
0.0
 40
0.0
 40
1.0
 40
1.0
 40
1.0
 40
2.0
 40
2.0
 40
2.0
 40
3.0
 40
3.0
 40
3.0
 40
4.0
 40
4.0
 40
4.0
 40
4.0
 10
90.1533257153089
 20
-137.57575408887
 10
89.97728133601262
 20
-137.57575408887
 10
89.88667532475056
 20
-137.6708387242629
 10
89.88667532475056
 20
-137.8062309768332
 10
89.88667532475056
 20
-137.9288763761081
 10
89.96350095407163
 20
-138.0473876608007
 10
90.1533257153089
 20
-138.0473876608007
 10
90.34349498609468
 20
-138.0473876608007
 10
90.42032061541576
 20
-137.9288763761081
 10
90.42032061541576
 20
-137.8062309768332
 10
90.42032061541576
 20
-137.6708387242629
 10
90.32764754686254
 20
-137.57575408887
 10
90.1533257153089
 20
-137.57575408887
 97
        0
 97
        0
 75
     2
 76
     1
 98
        0
  0
ENDBLK
  5
9B
330
98
100
AcDbEntity
  8
0
100
AcDbBlockEnd
  0
BLOCK
  5
B4
330
B2
100
AcDbEntity
  8
0
100
AcDbBlockBegin
  2
block 5
 70
     0
 10
0.0
 20
0.0
 30
0.0
  3
block 5
  1

  0
SPLINE
  5
B6
330
B2
100
AcDbEntity
  8
_U+30EC_U+30A4_U+30E4_U+30FC 1
370
     0
100
AcDbSpline
210
0.0
220
0.0
230
1.0
 70
    11
 71
     3
 72
    26
 73
    22
 74
     0
 42
0.0000000001
 43
0.0000000001
 12
1.0
 22
0.0
 32
0.0
 13
1.0
 23
0.0
 33
0.0
 40
0.0
 40
0.0
 40
0.0
 40
0.0
 40
1.0
 40
1.0
 40
1.0
 40
2.0
 40
2.0
 40
2.0
 40
3.0
 40
3.0
 40
3.0
 40
4.0
 40
4.0
 40
4.0
 40
5.0
 40
5.0
 40
5.0
 40
6.0
 40
6.0
 40
6.0
 40
7.0
 40
7.0
 40
7.0
 40
7.0
 10
100.9419867369173
 20
-130.6669596027499
 30
0.0
 10
100.9419867369173
 20
-130.6669596027499
 30
0.0
 10
99.83783363389472
 20
-130.6669596027499
 30
0.0
 10
99.83783363389472
 20
-130.6669596027499
 30
0.0
 10
99.83783363389472
 20
-130.6669596027499
 30
0.0
 10
99.83783363389472
 20
-131.019392870891
 30
0.0
 10
99.83783363389472
 20
-131.019392870891
 30
0.0
 10
99.83783363389472
 20
-131.019392870891
 30
0.0
 10
99.68969452802897
 20
-131.019392870891
 30
0.0
 10
99.68969452802897
 20
-131.019392870891
 30
0.0
 10
99.6748806174424
 20
-130.6645480359103
 30
0.0
 10
99.51192760099008
 20
-130.6149386609227
 30
0.0
 10
99.39755043087979
 20
-130.5832437824584
 30
0.0
 10
99.39755043087979
 20
-130.5832437824584
 30
0.0
 10
99.39755043087979
 20
-130.4271809569765
 30
0.0
 10
99.39755043087979
 20
-130.4271809569765
 30
0.0
 10
99.39755043087979
 20
-130.4271809569765
 30
0.0
 10
100.9419867369173
 20
-130.4271809569765
 30
0.0
 10
100.9419867369173
 20
-130.4271809569765
 30
0.0
 10
100.9419867369173
 20
-130.4271809569765
 30
0.0
 10
100.9419867369173
 20
-130.6669596027499
 30
0.0
 10
100.9419867369173
 20
-130.6669596027499
 30
0.0
  0
HATCH
  5
B7
330
B2
100
AcDbEntity
  8
_U+30EC_U+30A4_U+30E4_U+30FC 1
 62
   179
420
  2234388
100
AcDbHatch
 10
0.0
 20
0.0
 30
0.0
210
0.0
220
0.0
230
1.0
  2
SOLID
 70
     1
 71
     0
 91
        1
 92
        1
 93
        1
 72
     4
 94
        3
 73
     0
 74
     1
 95
       26
 96
       22
 40
0.0
 40
0.0
 40
0.0
 40
0.0
 40
1.0
 40
1.0
 40
1.0
 40
2.0
 40
2.0
 40
2.0
 40
3.0
 40
3.0
 40
3.0
 40
4.0
 40
4.0
 40
4.0
 40
5.0
 40
5.0
 40
5.0
 40
6.0
 40
6.0
 40
6.0
 40
7.0
 40
7.0
 40
7.0
 40
7.0
 10
100.9419867369173
 20
-130.6669596027499
 10
100.9419867369173
 20
-130.6669596027499
 10
99.83783363389472
 20
-130.6669596027499
 10
99.83783363389472
 20
-130.6669596027499
 10
99.83783363389472
 20
-130.6669596027499
 10
99.83783363389472
 20
-131.019392870891
 10
99.83783363389472
 20
-131.019392870891
 10
99.83783363389472
 20
-131.019392870891
 10
99.68969452802897
 20
-131.019392870891
 10
99.68969452802897
 20
-131.019392870891
 10
99.6748806174424
 20
-130.6645480359103
 10
99.51192760099008
 20
-130.6149386609227
 10
99.39755043087979
 20
-130.5832437824584
 10
99.39755043087979
 20
-130.5832437824584
 10
99.39755043087979
 20
-130.4271809569765
 10
99.39755043087979
 20
-130.4271809569765
 10
99.39755043087979
 20
-130.4271809569765
 10
100.9419867369173
 20
-130.4271809569765
 10
100.9419867369173
 20
-130.4271809569765
 10
100.9419867369173
 20
-130.4271809569765
 10
100.9419867369173
 20
-130.6669596027499
 10
100.9419867369173
 20
-130.6669596027499
 97
        0
 97
        0
 75
     2
 76
     1
 98
        0
  0
SPLINE
  5
B8
330
B2
100
AcDbEntity
  8
_U+30EC_U+30A4_U+30E4_U+30FC 1
370
     0
100
AcDbSpline
210
0.0
220
0.0
230
1.0
 70
    11
 71
     3
 72
    29
 73
    25
 74
     0
 42
0.0000000001
 43
0.0000000001
 12
1.0
 22
0.0
 32
0.0
 13
1.0
 23
0.0
 33
0.0
 40
0.0
 40
0.0
 40
0.0
 40
0.0
 40
1.0
 40
1.0
 40
1.0
 40
2.0
 40
2.0
 40
2.0
 40
3.0
 40
3.0
 40
3.0
 40
4.0
 40
4.0
 40
4.0
 40
5.0
 40
5.0
 40
5.0
 40
6.0
 40
6.0
 40
6.0
 40
7.0
 40
7.0
 40
7.0
 40
8.0
 40
8.0
 40
8.0
 40
8.0
 10
100.7642198098784
 20
-128.9320095163781
 30
0.0
 10
100.9736816153816
 20
-129.047420215134
 30
0.0
 10
100.9926296405505
 20
-129.2327663522404
 30
0.0
 10
100.9926296405505
 20
-129.357134299258
 30
0.0
 10
100.9926296405505
 20
-129.5287000544234
 30
0.0
 10
100.9461208514996
 20
-129.6802842557744
 30
0.0
 10
100.7642198098784
 20
-129.7819145725892
 30
0.0
 10
100.5695719149618
 20
-129.8928466472143
 30
0.0
 10
100.3325493455766
 20
-129.9131727105773
 30
0.0
 10
100.1699408386728
 20
-129.9131727105773
 30
0.0
 10
100.0259358473893
 20
-129.9131727105773
 30
0.0
 10
99.77409936741759
 20
-129.8949137045055
 30
0.0
 10
99.57531735791868
 20
-129.7819145725892
 30
0.0
 10
99.37240123383746
 20
-129.6668483833819
 30
0.0
 10
99.34897458453776
 20
-129.4949381186679
 30
0.0
 10
99.34897458453776
 20
-129.357134299258
 30
0.0
 10
99.34897458453776
 20
-129.1872910918351
 30
0.0
 10
99.39341631629749
 20
-129.033639833193
 30
0.0
 10
99.57531735791868
 20
-128.9320095163781
 30
0.0
 10
99.76789819554413
 20
-128.8255560658839
 30
0.0
 10
99.99630802621621
 20
-128.8007513783901
 30
0.0
 10
100.1699408386728
 20
-128.8007513783901
 30
0.0
 10
100.3411620842897
 20
-128.8007513783901
 30
0.0
 10
100.5716389722529
 20
-128.8234890085928
 30
0.0
 10
100.7642198098784
 20
-128.9320095163781
 30
0.0
  0
SPLINE
  5
B9
330
B2
100
AcDbEntity
  8
_U+30EC_U+30A4_U+30E4_U+30FC 1
370
     0
100
AcDbSpline
210
0.0
220
0.0
230
1.0
 70
    11
 71
     3
 72
    17
 73
    13
 74
     0
 42
0.0000000001
 43
0.0000000001
 12
1.0
 22
0.0
 32
0.0
 13
1.0
 23
0.0
 33
0.0
 40
0.0
 40
0.0
 40
0.0
 40
0.0
 40
1.0
 40
1.0
 40
1.0
 40
2.0
 40
2.0
 40
2.0
 40
3.0
 40
3.0
 40
3.0
 40
4.0
 40
4.0
 40
4.0
 40
4.0
 10
99.54155542216323
 20
-129.357134299258
 30
0.0
 10
99.54155542216323
 20
-129.6237846898163
 30
0.0
 10
99.82508678059929
 20
-129.6733940648039
 30
0.0
 10
100.1699408386728
 20
-129.6733940648039
 30
0.0
 10
100.4893011901555
 20
-129.6733940648039
 30
0.0
 10
100.7979817456338
 20
-129.6351535049176
 30
0.0
 10
100.7979817456338
 20
-129.357134299258
 30
0.0
 10
100.7979817456338
 20
-129.0925509659908
 30
0.0
 10
100.5168619540375
 20
-129.0405300241635
 30
0.0
 10
100.1699408386728
 20
-129.0405300241635
 30
0.0
 10
99.85023597764162
 20
-129.0405300241635
 30
0.0
 10
99.54155542216323
 20
-129.0811821508894
 30
0.0
 10
99.54155542216323
 20
-129.357134299258
 30
0.0
  0
HATCH
  5
BA
330
B2
100
AcDbEntity
  8
_U+30EC_U+30A4_U+30E4_U+30FC 1
 62
   179
420
  2234388
100
AcDbHatch
 10
0.0
 20
0.0
 30
0.0
210
0.0
220
0.0
230
1.0
  2
SOLID
 70
     1
 71
     0
 91
        2
 92
        1
 93
        1
 72
     4
 94
        3
 73
     0
 74
     1
 95
       29
 96
       25
 40
0.0
 40
0.0
 40
0.0
 40
0.0
 40
1.0
 40
1.0
 40
1.0
 40
2.0
 40
2.0
 40
2.0
 40
3.0
 40
3.0
 40
3.0
 40
4.0
 40
4.0
 40
4.0
 40
5.0
 40
5.0
 40
5.0
 40
6.0
 40
6.0
 40
6.0
 40
7.0
 40
7.0
 40
7.0
 40
8.0
 40
8.0
 40
8.0
 40
8.0
 10
100.7642198098784
 20
-128.9320095163781
 10
100.9736816153816
 20
-129.047420215134
 10
100.9926296405505
 20
-129.2327663522404
 10
100.9926296405505
 20
-129.357134299258
 10
100.9926296405505
 20
-129.5287000544234
 10
100.9461208514996
 20
-129.6802842557744
 10
100.7642198098784
 20
-129.7819145725892
 10
100.5695719149618
 20
-129.8928466472143
 10
100.3325493455766
 20
-129.9131727105773
 10
100.1699408386728
 20
-129.9131727105773
 10
100.0259358473893
 20
-129.9131727105773
 10
99.77409936741759
 20
-129.8949137045055
 10
99.57531735791868
 20
-129.7819145725892
 10
99.37240123383746
 20
-129.6668483833819
 10
99.34897458453776
 20
-129.4949381186679
 10
99.34897458453776
 20
-129.357134299258
 10
99.34897458453776
 20
-129.1872910918351
 10
99.39341631629749
 20
-129.033639833193
 10
99.57531735791868
 20
-128.9320095163781
 10
99.76789819554413
 20
-128.8255560658839
 10
99.99630802621621
 20
-128.8007513783901
 10
100.1699408386728
 20
-128.8007513783901
 10
100.3411620842897
 20
-128.8007513783901
 10
100.5716389722529
 20
-128.8234890085928
 10
100.7642198098784
 20
-128.9320095163781
 97
        0
 97
        0
 92
        1
 93
        1
 72
     4
 94
        3
 73
     0
 74
     1
 95
       17
 96
       13
 40
0.0
 40
0.0
 40
0.0
 40
0.0
 40
1.0
 40
1.0
 40
1.0
 40
2.0
 40
2.0
 40
2.0
 40
3.0
 40
3.0
 40
3.0
 40
4.0
 40
4.0
 40
4.0
 40
4.0
 10
99.54155542216323
 20
-129.357134299258
 10
99.54155542216323
 20
-129.6237846898163
 10
99.82508678059929
 20
-129.6733940648039
 10
100.1699408386728
 20
-129.6733940648039
 10
100.4893011901555
 20
-129.6733940648039
 10
100.7979817456338
 20
-129.6351535049176
 10
100.7979817456338
 20
-129.357134299258
 10
100.7979817456338
 20
-129.0925509659908
 10
100.5168619540375
 20
-129.0405300241635
 10
100.1699408386728
 20
-129.0405300241635
 10
99.85023597764162
 20
-129.0405300241635
 10
99.54155542216323
 20
-129.0811821508894
 10
99.54155542216323
 20
-129.357134299258
 97
        0
 97
        0
 75
     2
 76
     1
 98
        0
  0
POLYLINE
  5
BB
330
B2
100
AcDbEntity
  8
_U+30EC_U+30A4_U+30E4_U+30FC 1
370
     0
100
AcDb2dPolyline
 66
     1
 10
0.0
 20
0.0
 30
0.0
  0
VERTEX
  5
BC
330
BB
100
AcDbEntity
  8
_U+30EC_U+30A4_U+30E4_U+30FC 1
370
     0
100
AcDbVertex
100
AcDb2dVertex
 10
100.9419867369173
 20
-128.5695854713298
 30
0.0
  0
VERTEX
  5
BD
330
BB
100
AcDbEntity
  8
_U+30EC_U+30A4_U+30E4_U+30FC 1
370
     0
100
AcDbVertex
100
AcDb2dVertex
 10
100.6901502569455
 20
-128.5695854713298
 30
0.0
  0
VERTEX
  5
BE
330
BB
100
AcDbEntity
  8
_U+30EC_U+30A4_U+30E4_U+30FC 1
370
     0
100
AcDbVertex
100
AcDb2dVertex
 10
100.6901502569455
 20
-128.3005235139318
 30
0.0
  0
VERTEX
  5
BF
330
BB
100
AcDbEntity
  8
_U+30EC_U+30A4_U+30E4_U+30FC 1
370
     0
100
AcDbVertex
100
AcDb2dVertex
 10
100.9419867369173
 20
-128.3005235139318
 30
0.0
  0
VERTEX
  5
C0
330
BB
100
AcDbEntity
  8
_U+30EC_U+30A4_U+30E4_U+30FC 1
370
     0
100
AcDbVertex
100
AcDb2dVertex
 10
100.9419867369173
 20
-128.5695854713298
 30
0.0
  0
SEQEND
  5
C1
330
BB
100
AcDbEntity
  8
_U+30EC_U+30A4_U+30E4_U+30FC 1
370
     0
  0
HATCH
  5
C2
330
B2
100
AcDbEntity
  8
_U+30EC_U+30A4_U+30E4_U+30FC 1
 62
   179
420
  2234388
100
AcDbHatch
 10
0.0
 20
0.0
 30
0.0
210
0.0
220
0.0
230
1.0
  2
SOLID
 70
     1
 71
     0
 91
        1
 92
        1
 93
        4
 72
     1
 10
100.9419867369173
 20
-128.5695854713298
 11
100.6901502569455
 21
-128.5695854713298
 72
     1
 10
100.6901502569455
 20
-128.5695854713298
 11
100.6901502569455
 21
-128.3005235139318
 72
     1
 10
100.6901502569455
 20
-128.3005235139318
 11
100.9419867369173
 21
-128.3005235139318
 72
     1
 10
100.9419867369173
 20
-128.3005235139318
 11
100.9419867369173
 21
-128.5695854713298
 97
        0
 75
     2
 76
     1
 98
        0
  0
SPLINE
  5
C3
330
B2
100
AcDbEntity
  8
_U+30EC_U+30A4_U+30E4_U+30FC 1
370
     0
100
AcDbSpline
210
0.0
220
0.0
230
1.0
 70
    11
 71
     3
 72
    53
 73
    49
 74
     0
 42
0.0000000001
 43
0.0000000001
 12
1.0
 22
0.0
 32
0.0
 13
1.0
 23
0.0
 33
0.0
 40
0.0
 40
0.0
 40
0.0
 40
0.0
 40
1.0
 40
1.0
 40
1.0
 40
2.0
 40
2.0
 40
2.0
 40
3.0
 40
3.0
 40
3.0
 40
4.0
 40
4.0
 40
4.0
 40
5.0
 40
5.0
 40
5.0
 40
6.0
 40
6.0
 40
6.0
 40
7.0
 40
7.0
 40
7.0
 40
8.0
 40
8.0
 40
8.0
 40
9.0
 40
9.0
 40
9.0
 40
10.0
 40
10.0
 40
10.0
 40
11.0
 40
11.0
 40
11.0
 40
12.0
 40
12.0
 40
12.0
 40
13.0
 40
13.0
 40
13.0
 40
14.0
 40
14.0
 40
14.0
 40
15.0
 40
15.0
 40
15.0
 40
16.0
 40
16.0
 40
16.0
 40
16.0
 10
100.9926296405505
 20
-127.5339897684637
 30
0.0
 10
100.9926296405505
 20
-127.6177055887553
 30
0.0
 10
100.9757486726727
 20
-127.7258815869921
 30
0.0
 10
100.9123589157441
 20
-127.834746604326
 30
0.0
 10
100.8024603697647
 20
-128.0200927414325
 30
0.0
 10
100.6712022317766
 20
-128.0424858620866
 30
0.0
 10
100.5633707430883
 20
-128.0628119254496
 30
0.0
 10
100.5633707430883
 20
-128.0628119254496
 30
0.0
 10
100.5633707430883
 20
-127.8254448465159
 30
0.0
 10
100.5633707430883
 20
-127.8254448465159
 30
0.0
 10
100.7621527525872
 20
-127.7668782232666
 30
0.0
 10
100.7917805737604
 20
-127.6311414611478
 30
0.0
 10
100.7917805737604
 20
-127.5315782016241
 30
0.0
 10
100.7917805737604
 20
-127.3824055671127
 30
0.0
 10
100.6922173142367
 20
-127.2194525506604
 30
0.0
 10
100.4596733689823
 20
-127.2194525506604
 30
0.0
 10
100.2037027744283
 20
-127.2194525506604
 30
0.0
 10
100.1337673360777
 20
-127.4116888787374
 30
0.0
 10
100.1337673360777
 20
-127.5405354498857
 30
0.0
 10
100.1337673360777
 20
-127.5746418951897
 30
0.0
 10
100.1337673360777
 20
-127.7258815869921
 30
0.0
 10
100.2629584167745
 20
-127.820966222385
 30
0.0
 10
100.2629584167745
 20
-127.820966222385
 30
0.0
 10
100.2440103916057
 20
-128.0087239263312
 30
0.0
 10
100.2440103916057
 20
-128.0087239263312
 30
0.0
 10
100.2440103916057
 20
-128.0087239263312
 30
0.0
 10
99.39755043087979
 20
-127.8798773551828
 30
0.0
 10
99.39755043087979
 20
-127.8798773551828
 30
0.0
 10
99.39755043087979
 20
-127.8798773551828
 30
0.0
 10
99.39755043087979
 20
-127.047886795495
 30
0.0
 10
99.39755043087979
 20
-127.047886795495
 30
0.0
 10
99.39755043087979
 20
-127.047886795495
 30
0.0
 10
99.5921983257964
 20
-127.047886795495
 30
0.0
 10
99.5921983257964
 20
-127.047886795495
 30
0.0
 10
99.5921983257964
 20
-127.047886795495
 30
0.0
 10
99.5921983257964
 20
-127.7055555236292
 30
0.0
 10
99.5921983257964
 20
-127.7055555236292
 30
0.0
 10
99.5921983257964
 20
-127.7055555236292
 30
0.0
 10
100.0152560513851
 20
-127.7758354715283
 30
0.0
 10
100.0152560513851
 20
-127.7758354715283
 30
0.0
 10
99.98149411562963
 20
-127.7103786573085
 30
0.0
 10
99.94118649845221
 20
-127.6221842128861
 30
0.0
 10
99.94118649845221
 20
-127.4954046990289
 30
0.0
 10
99.94118649845221
 20
-127.2242756843398
 30
0.0
 10
100.1275661642042
 20
-126.9710611661739
 30
0.0
 10
100.4407253438134
 20
-126.9710611661739
 30
0.0
 10
100.7580186380049
 20
-126.9710611661739
 30
0.0
 10
100.9926296405505
 20
-127.2104953023988
 30
0.0
 10
100.9926296405505
 20
-127.5339897684637
 30
0.0
  0
HATCH
  5
C4
330
B2
100
AcDbEntity
  8
_U+30EC_U+30A4_U+30E4_U+30FC 1
 62
   179
420
  2234388
100
AcDbHatch
 10
0.0
 20
0.0
 30
0.0
210
0.0
220
0.0
230
1.0
  2
SOLID
 70
     1
 71
     0
 91
        1
 92
        1
 93
        1
 72
     4
 94
        3
 73
     0
 74
     1
 95
       53
 96
       49
 40
0.0
 40
0.0
 40
0.0
 40
0.0
 40
1.0
 40
1.0
 40
1.0
 40
2.0
 40
2.0
 40
2.0
 40
3.0
 40
3.0
 40
3.0
 40
4.0
 40
4.0
 40
4.0
 40
5.0
 40
5.0
 40
5.0
 40
6.0
 40
6.0
 40
6.0
 40
7.0
 40
7.0
 40
7.0
 40
8.0
 40
8.0
 40
8.0
 40
9.0
 40
9.0
 40
9.0
 40
10.0
 40
10.0
 40
10.0
 40
11.0
 40
11.0
 40
11.0
 40
12.0
 40
12.0
 40
12.0
 40
13.0
 40
13.0
 40
13.0
 40
14.0
 40
14.0
 40
14.0
 40
15.0
 40
15.0
 40
15.0
 40
16.0
 40
16.0
 40
16.0
 40
16.0
 10
100.9926296405505
 20
-127.5339897684637
 10
100.9926296405505
 20
-127.6177055887553
 10
100.9757486726727
 20
-127.7258815869921
 10
100.9123589157441
 20
-127.834746604326
 10
100.8024603697647
 20
-128.0200927414325
 10
100.6712022317766
 20
-128.0424858620866
 10
100.5633707430883
 20
-128.0628119254496
 10
100.5633707430883
 20
-128.0628119254496
 10
100.5633707430883
 20
-127.8254448465159
 10
100.5633707430883
 20
-127.8254448465159
 10
100.7621527525872
 20
-127.7668782232666
 10
100.7917805737604
 20
-127.6311414611478
 10
100.7917805737604
 20
-127.5315782016241
 10
100.7917805737604
 20
-127.3824055671127
 10
100.6922173142367
 20
-127.2194525506604
 10
100.4596733689823
 20
-127.2194525506604
 10
100.2037027744283
 20
-127.2194525506604
 10
100.1337673360777
 20
-127.4116888787374
 10
100.1337673360777
 20
-127.5405354498857
 10
100.1337673360777
 20
-127.5746418951897
 10
100.1337673360777
 20
-127.7258815869921
 10
100.2629584167745
 20
-127.820966222385
 10
100.2629584167745
 20
-127.820966222385
 10
100.2440103916057
 20
-128.0087239263312
 10
100.2440103916057
 20
-128.0087239263312
 10
100.2440103916057
 20
-128.0087239263312
 10
99.39755043087979
 20
-127.8798773551828
 10
99.39755043087979
 20
-127.8798773551828
 10
99.39755043087979
 20
-127.8798773551828
 10
99.39755043087979
 20
-127.047886795495
 10
99.39755043087979
 20
-127.047886795495
 10
99.39755043087979
 20
-127.047886795495
 10
99.5921983257964
 20
-127.047886795495
 10
99.5921983257964
 20
-127.047886795495
 10
99.5921983257964
 20
-127.047886795495
 10
99.5921983257964
 20
-127.7055555236292
 10
99.5921983257964
 20
-127.7055555236292
 10
99.5921983257964
 20
-127.7055555236292
 10
100.0152560513851
 20
-127.7758354715283
 10
100.0152560513851
 20
-127.7758354715283
 10
99.98149411562963
 20
-127.7103786573085
 10
99.94118649845221
 20
-127.6221842128861
 10
99.94118649845221
 20
-127.4954046990289
 10
99.94118649845221
 20
-127.2242756843398
 10
100.1275661642042
 20
-126.9710611661739
 10
100.4407253438134
 20
-126.9710611661739
 10
100.7580186380049
 20
-126.9710611661739
 10
100.9926296405505
 20
-127.2104953023988
 10
100.9926296405505
 20
-127.5339897684637
 97
        0
 97
        0
 75
     2
 76
     1
 98
        0
  0
ENDBLK
  5
B5
330
B2
100
AcDbEntity
  8
0
100
AcDbBlockEnd
  0
BLOCK
  5
C9
330
C7
100
AcDbEntity
  8
0
100
AcDbBlockBegin
  2
block 6
 70
     0
 10
0.0
 20
0.0
 30
0.0
  3
block 6
  1

  0
SPLINE
  5
CB
330
C7
100
AcDbEntity
  8
_U+30EC_U+30A4_U+30E4_U+30FC 1
370
     0
100
AcDbSpline
210
0.0
220
0.0
230
1.0
 70
    11
 71
     3
 72
    26
 73
    22
 74
     0
 42
0.0000000001
 43
0.0000000001
 12
1.0
 22
0.0
 32
0.0
 13
1.0
 23
0.0
 33
0.0
 40
0.0
 40
0.0
 40
0.0
 40
0.0
 40
1.0
 40
1.0
 40
1.0
 40
2.0
 40
2.0
 40
2.0
 40
3.0
 40
3.0
 40
3.0
 40
4.0
 40
4.0
 40
4.0
 40
5.0
 40
5.0
 40
5.0
 40
6.0
 40
6.0
 40
6.0
 40
7.0
 40
7.0
 40
7.0
 40
7.0
 10
79.32900795542817
 20
-128.6341810116783
 30
0.0
 10
79.32900795542817
 20
-128.6341810116783
 30
0.0
 10
79.32900795542817
 20
-127.5298556538814
 30
0.0
 10
79.32900795542817
 20
-127.5298556538814
 30
0.0
 10
79.32900795542817
 20
-127.5298556538814
 30
0.0
 10
78.99896780794123
 20
-127.5298556538814
 30
0.0
 10
78.99896780794123
 20
-127.5298556538814
 30
0.0
 10
78.99896780794123
 20
-127.5298556538814
 30
0.0
 10
78.99896780794123
 20
-127.3817165480157
 30
0.0
 10
78.99896780794123
 20
-127.3817165480157
 30
0.0
 10
79.33107501271932
 20
-127.3670748922034
 30
0.0
 10
79.37758380177019
 20
-127.2041218757511
 30
0.0
 10
79.40721162294334
 20
-127.089916960415
 30
0.0
 10
79.40721162294334
 20
-127.089916960415
 30
0.0
 10
79.55328367151793
 20
-127.089916960415
 30
0.0
 10
79.55328367151793
 20
-127.089916960415
 30
0.0
 10
79.55328367151793
 20
-127.089916960415
 30
0.0
 10
79.55328367151793
 20
-128.6341810116783
 30
0.0
 10
79.55328367151793
 20
-128.6341810116783
 30
0.0
 10
79.55328367151793
 20
-128.6341810116783
 30
0.0
 10
79.32900795542817
 20
-128.6341810116783
 30
0.0
 10
79.32900795542817
 20
-128.6341810116783
 30
0.0
  0
HATCH
  5
CC
330
C7
100
AcDbEntity
  8
_U+30EC_U+30A4_U+30E4_U+30FC 1
 62
   179
420
  2234388
100
AcDbHatch
 10
0.0
 20
0.0
 30
0.0
210
0.0
220
0.0
230
1.0
  2
SOLID
 70
     1
 71
     0
 91
        1
 92
        1
 93
        1
 72
     4
 94
        3
 73
     0
 74
     1
 95
       26
 96
       22
 40
0.0
 40
0.0
 40
0.0
 40
0.0
 40
1.0
 40
1.0
 40
1.0
 40
2.0
 40
2.0
 40
2.0
 40
3.0
 40
3.0
 40
3.0
 40
4.0
 40
4.0
 40
4.0
 40
5.0
 40
5.0
 40
5.0
 40
6.0
 40
6.0
 40
6.0
 40
7.0
 40
7.0
 40
7.0
 40
7.0
 10
79.32900795542817
 20
-128.6341810116783
 10
79.32900795542817
 20
-128.6341810116783
 10
79.32900795542817
 20
-127.5298556538814
 10
79.32900795542817
 20
-127.5298556538814
 10
79.32900795542817
 20
-127.5298556538814
 10
78.99896780794123
 20
-127.5298556538814
 10
78.99896780794123
 20
-127.5298556538814
 10
78.99896780794123
 20
-127.5298556538814
 10
78.99896780794123
 20
-127.3817165480157
 10
78.99896780794123
 20
-127.3817165480157
 10
79.33107501271932
 20
-127.3670748922034
 10
79.37758380177019
 20
-127.2041218757511
 10
79.40721162294334
 20
-127.089916960415
 10
79.40721162294334
 20
-127.089916960415
 10
79.55328367151793
 20
-127.089916960415
 10
79.55328367151793
 20
-127.089916960415
 10
79.55328367151793
 20
-127.089916960415
 10
79.55328367151793
 20
-128.6341810116783
 10
79.55328367151793
 20
-128.6341810116783
 10
79.55328367151793
 20
-128.6341810116783
 10
79.32900795542817
 20
-128.6341810116783
 10
79.32900795542817
 20
-128.6341810116783
 97
        0
 97
        0
 75
     2
 76
     1
 98
        0
  0
ENDBLK
  5
CA
330
C7
100
AcDbEntity
  8
0
100
AcDbBlockEnd
  0
ENDSEC
  0
SECTION
  2
ENTITIES
  0
SPLINE
  5
41
330
1F
100
AcDbEntity
  8
_U+30EC_U+30A4_U+30E4_U+30FC 1
370
     0
100
AcDbSpline
210
0.0
220
0.0
230
1.0
 70
    11
 71
     3
 72
    44
 73
    40
 74
     0
 42
0.0000000001
 43
0.0000000001
 12
1.0
 22
0.0
 32
0.0
 13
1.0
 23
0.0
 33
0.0
 40
0.0
 40
0.0
 40
0.0
 40
0.0
 40
1.0
 40
1.0
 40
1.0
 40
2.0
 40
2.0
 40
2.0
 40
3.0
 40
3.0
 40
3.0
 40
4.0
 40
4.0
 40
4.0
 40
5.0
 40
5.0
 40
5.0
 40
6.0
 40
6.0
 40
6.0
 40
7.0
 40
7.0
 40
7.0
 40
8.0
 40
8.0
 40
8.0
 40
9.0
 40
9.0
 40
9.0
 40
10.0
 40
10.0
 40
10.0
 40
11.0
 40
11.0
 40
11.0
 40
12.0
 40
12.0
 40
12.0
 40
13.0
 40
13.0
 40
13.0
 40
13.0
 10
98.01986749930485
 20
-135.0728960773428
 30
0.0
 10
98.01986749930485
 20
-135.0728960773428
 30
0.0
 10
88.51984440833729
 20
-135.0728960773428
 30
0.0
 10
88.51984440833729
 20
-135.0728960773428
 30
0.0
 10
88.34137413511267
 20
-134.7635099663088
 30
0.0
 10
88.01135275577487
 20
-134.5733627441346
 30
0.0
 10
87.65373970821125
 20
-134.5733627441346
 30
0.0
 10
87.65373970821125
 20
-134.5733627441346
 30
0.0
 10
81.51939292026702
 20
-134.5733627441346
 30
0.0
 10
81.51939292026702
 20
-134.5733627441346
 30
0.0
 10
81.51939292026702
 20
-134.5733627441346
 30
0.0
 10
81.51939292026702
 20
-124.0726852467598
 30
0.0
 10
81.51939292026702
 20
-124.0726852467598
 30
0.0
 10
81.51939292026702
 20
-124.0726852467598
 30
0.0
 10
88.51984440833729
 20
-124.0726852467598
 30
0.0
 10
88.51984440833729
 20
-124.0726852467598
 30
0.0
 10
88.51984440833729
 20
-124.0726852467598
 30
0.0
 10
88.51984440833729
 20
-123.4732452469096
 30
0.0
 10
88.51984440833729
 20
-123.4732452469096
 30
0.0
 10
88.51984440833729
 20
-123.4732452469096
 30
0.0
 10
86.5099636262803
 20
-123.2720560802931
 30
0.0
 10
86.5099636262803
 20
-123.2720560802931
 30
0.0
 10
85.18358977123002
 20
-123.1397644136595
 30
0.0
 10
83.85241813852437
 20
-123.0729483025651
 30
0.0
 10
82.51987067252048
 20
-123.0729483025651
 30
0.0
 10
82.51987067252048
 20
-123.0729483025651
 30
0.0
 10
80.51962072355111
 20
-123.0729483025651
 30
0.0
 10
80.51962072355111
 20
-123.0729483025651
 30
0.0
 10
80.51962072355111
 20
-123.0729483025651
 30
0.0
 10
80.51962072355111
 20
-134.7731760774178
 30
0.0
 10
80.51962072355111
 20
-134.7731760774178
 30
0.0
 10
80.51962072355111
 20
-135.2148185773072
 30
0.0
 10
80.87793710329859
 20
-135.5731349661065
 30
0.0
 10
81.31957959203135
 20
-135.5731349661065
 30
0.0
 10
81.31957959203135
 20
-135.5731349661065
 30
0.0
 10
98.51940081989402
 20
-135.5731349661065
 30
0.0
 10
98.51940081989402
 20
-135.5731349661065
 30
0.0
 10
98.51940081989402
 20
-135.29683941062
 30
0.0
 10
98.29545749227395
 20
-135.0728960773428
 30
0.0
 10
98.01986749930485
 20
-135.0728960773428
 30
0.0
  0
HATCH
  5
42
330
1F
100
AcDbEntity
  8
_U+30EC_U+30A4_U+30E4_U+30FC 1
 62
   253
420
 11711154
100
AcDbHatch
 10
0.0
 20
0.0
 30
0.0
210
0.0
220
0.0
230
1.0
  2
SOLID
 70
     1
 71
     0
 91
        1
 92
        1
 93
        1
 72
     4
 94
        3
 73
     0
 74
     1
 95
       44
 96
       40
 40
0.0
 40
0.0
 40
0.0
 40
0.0
 40
1.0
 40
1.0
 40
1.0
 40
2.0
 40
2.0
 40
2.0
 40
3.0
 40
3.0
 40
3.0
 40
4.0
 40
4.0
 40
4.0
 40
5.0
 40
5.0
 40
5.0
 40
6.0
 40
6.0
 40
6.0
 40
7.0
 40
7.0
 40
7.0
 40
8.0
 40
8.0
 40
8.0
 40
9.0
 40
9.0
 40
9.0
 40
10.0
 40
10.0
 40
10.0
 40
11.0
 40
11.0
 40
11.0
 40
12.0
 40
12.0
 40
12.0
 40
13.0
 40
13.0
 40
13.0
 40
13.0
 10
98.01986749930485
 20
-135.0728960773428
 10
98.01986749930485
 20
-135.0728960773428
 10
88.51984440833729
 20
-135.0728960773428
 10
88.51984440833729
 20
-135.0728960773428
 10
88.34137413511267
 20
-134.7635099663088
 10
88.01135275577487
 20
-134.5733627441346
 10
87.65373970821125
 20
-134.5733627441346
 10
87.65373970821125
 20
-134.5733627441346
 10
81.51939292026702
 20
-134.5733627441346
 10
81.51939292026702
 20
-134.5733627441346
 10
81.51939292026702
 20
-134.5733627441346
 10
81.51939292026702
 20
-124.0726852467598
 10
81.51939292026702
 20
-124.0726852467598
 10
81.51939292026702
 20
-124.0726852467598
 10
88.51984440833729
 20
-124.0726852467598
 10
88.51984440833729
 20
-124.0726852467598
 10
88.51984440833729
 20
-124.0726852467598
 10
88.51984440833729
 20
-123.4732452469096
 10
88.51984440833729
 20
-123.4732452469096
 10
88.51984440833729
 20
-123.4732452469096
 10
86.5099636262803
 20
-123.2720560802931
 10
86.5099636262803
 20
-123.2720560802931
 10
85.18358977123002
 20
-123.1397644136595
 10
83.85241813852437
 20
-123.0729483025651
 10
82.51987067252048
 20
-123.0729483025651
 10
82.51987067252048
 20
-123.0729483025651
 10
80.51962072355111
 20
-123.0729483025651
 10
80.51962072355111
 20
-123.0729483025651
 10
80.51962072355111
 20
-123.0729483025651
 10
80.51962072355111
 20
-134.7731760774178
 10
80.51962072355111
 20
-134.7731760774178
 10
80.51962072355111
 20
-135.2148185773072
 10
80.87793710329859
 20
-135.5731349661065
 10
81.31957959203135
 20
-135.5731349661065
 10
81.31957959203135
 20
-135.5731349661065
 10
98.51940081989402
 20
-135.5731349661065
 10
98.51940081989402
 20
-135.5731349661065
 10
98.51940081989402
 20
-135.29683941062
 10
98.29545749227395
 20
-135.0728960773428
 10
98.01986749930485
 20
-135.0728960773428
 97
        0
 97
        0
 75
     2
 76
     1
 98
        0
  0
INSERT
  5
44
330
1F
100
AcDbEntity
  8
_U+30EC_U+30A4_U+30E4_U+30FC 1
100
AcDbBlockReference
  2
block 2
 10
0.0
 20
0.0
 30
0.0
  0
POLYLINE
  5
49
330
1F
100
AcDbEntity
  8
_U+30EC_U+30A4_U+30E4_U+30FC 1
 62
   179
420
  2234388
370
    25
100
AcDb2dPolyline
 66
     1
 10
0.0
 20
0.0
 30
0.0
  0
VERTEX
  5
4A
330
49
100
AcDbEntity
  8
_U+30EC_U+30A4_U+30E4_U+30FC 1
 62
   179
420
  2234388
370
    25
100
AcDbVertex
100
AcDb2dVertex
 10
81.51939292026702
 20
-124.0726852467598
 30
0.0
  0
VERTEX
  5
4B
330
49
100
AcDbEntity
  8
_U+30EC_U+30A4_U+30E4_U+30FC 1
 62
   179
420
  2234388
370
    25
100
AcDbVertex
100
AcDb2dVertex
 10
88.51984440833729
 20
-124.0726852467598
 30
0.0
  0
SEQEND
  5
4C
330
49
100
AcDbEntity
  8
_U+30EC_U+30A4_U+30E4_U+30FC 1
 62
   179
420
  2234388
370
    25
  0
POLYLINE
  5
4D
330
1F
100
AcDbEntity
  8
_U+30EC_U+30A4_U+30E4_U+30FC 1
 62
   179
420
  2234388
370
    25
100
AcDb2dPolyline
 66
     1
 10
0.0
 20
0.0
 30
0.0
  0
VERTEX
  5
4E
330
4D
100
AcDbEntity
  8
_U+30EC_U+30A4_U+30E4_U+30FC 1
 62
   179
420
  2234388
370
    25
100
AcDbVertex
100
AcDb2dVertex
 10
80.51962072355111
 20
-123.0729483025651
 30
0.0
  0
VERTEX
  5
4F
330
4D
100
AcDbEntity
  8
_U+30EC_U+30A4_U+30E4_U+30FC 1
 62
   179
420
  2234388
370
    25
100
AcDbVertex
100
AcDb2dVertex
 10
82.51987067252048
 20
-123.0729483025651
 30
0.0
  0
SEQEND
  5
50
330
4D
100
AcDbEntity
  8
_U+30EC_U+30A4_U+30E4_U+30FC 1
 62
   179
420
  2234388
370
    25
  0
POLYLINE
  5
51
330
1F
100
AcDbEntity
  8
_U+30EC_U+30A4_U+30E4_U+30FC 1
 62
   179
420
  2234388
370
    25
100
AcDb2dPolyline
 66
     1
 10
0.0
 20
0.0
 30
0.0
  0
VERTEX
  5
52
330
51
100
AcDbEntity
  8
_U+30EC_U+30A4_U+30E4_U+30FC 1
 62
   179
420
  2234388
370
    25
100
AcDbVertex
100
AcDb2dVertex
 10
81.51939292026702
 20
-134.5733627441346
 30
0.0
  0
VERTEX
  5
53
330
51
100
AcDbEntity
  8
_U+30EC_U+30A4_U+30E4_U+30FC 1
 62
   179
420
  2234388
370
    25
100
AcDbVertex
100
AcDb2dVertex
 10
87.65373970821125
 20
-134.5733627441346
 30
0.0
  0
SEQEND
  5
54
330
51
100
AcDbEntity
  8
_U+30EC_U+30A4_U+30E4_U+30FC 1
 62
   179
420
  2234388
370
    25
  0
POLYLINE
  5
55
330
1F
100
AcDbEntity
  8
_U+30EC_U+30A4_U+30E4_U+30FC 1
 62
   179
420
  2234388
370
    25
100
AcDb2dPolyline
 66
     1
 10
0.0
 20
0.0
 30
0.0
  0
VERTEX
  5
56
330
55
100
AcDbEntity
  8
_U+30EC_U+30A4_U+30E4_U+30FC 1
 62
   179
420
  2234388
370
    25
100
AcDbVertex
100
AcDb2dVertex
 10
81.31957959203135
 20
-135.5731349661065
 30
0.0
  0
VERTEX
  5
57
330
55
100
AcDbEntity
  8
_U+30EC_U+30A4_U+30E4_U+30FC 1
 62
   179
420
  2234388
370
    25
100
AcDbVertex
100
AcDb2dVertex
 10
98.51940081989402
 20
-135.5731349661065
 30
0.0
  0
SEQEND
  5
58
330
55
100
AcDbEntity
  8
_U+30EC_U+30A4_U+30E4_U+30FC 1
 62
   179
420
  2234388
370
    25
  0
POLYLINE
  5
59
330
1F
100
AcDbEntity
  8
_U+30EC_U+30A4_U+30E4_U+30FC 1
 62
   179
420
  2234388
370
    25
100
AcDb2dPolyline
 66
     1
 10
0.0
 20
0.0
 30
0.0
  0
VERTEX
  5
5A
330
59
100
AcDbEntity
  8
_U+30EC_U+30A4_U+30E4_U+30FC 1
 62
   179
420
  2234388
370
    25
100
AcDbVertex
100
AcDb2dVertex
 10
88.51984440833729
 20
-123.4732452469096
 30
0.0
  0
VERTEX
  5
5B
330
59
100
AcDbEntity
  8
_U+30EC_U+30A4_U+30E4_U+30FC 1
 62
   179
420
  2234388
370
    25
100
AcDbVertex
100
AcDb2dVertex
 10
88.51984440833729
 20
-124.0726852467598
 30
0.0
  0
SEQEND
  5
5C
330
59
100
AcDbEntity
  8
_U+30EC_U+30A4_U+30E4_U+30FC 1
 62
   179
420
  2234388
370
    25
  0
POLYLINE
  5
5D
330
1F
100
AcDbEntity
  8
_U+30EC_U+30A4_U+30E4_U+30FC 1
 62
   179
420
  2234388
370
    25
100
AcDb2dPolyline
 66
     1
 10
0.0
 20
0.0
 30
0.0
  0
VERTEX
  5
5E
330
5D
100
AcDbEntity
  8
_U+30EC_U+30A4_U+30E4_U+30FC 1
 62
   179
420
  2234388
370
    25
100
AcDbVertex
100
AcDb2dVertex
 10
80.51962072355111
 20
-123.0729483025651
 30
0.0
  0
VERTEX
  5
5F
330
5D
100
AcDbEntity
  8
_U+30EC_U+30A4_U+30E4_U+30FC 1
 62
   179
420
  2234388
370
    25
100
AcDbVertex
100
AcDb2dVertex
 10
80.51962072355111
 20
-134.7731760774178
 30
0.0
  0
SEQEND
  5
60
330
5D
100
AcDbEntity
  8
_U+30EC_U+30A4_U+30E4_U+30FC 1
 62
   179
420
  2234388
370
    25
  0
POLYLINE
  5
61
330
1F
100
AcDbEntity
  8
_U+30EC_U+30A4_U+30E4_U+30FC 1
 62
   179
420
  2234388
370
    25
100
AcDb2dPolyline
 66
     1
 10
0.0
 20
0.0
 30
0.0
  0
VERTEX
  5
62
330
61
100
AcDbEntity
  8
_U+30EC_U+30A4_U+30E4_U+30FC 1
 62
   179
420
  2234388
370
    25
100
AcDbVertex
100
AcDb2dVertex
 10
81.51939292026702
 20
-124.0726852467598
 30
0.0
  0
VERTEX
  5
63
330
61
100
AcDbEntity
  8
_U+30EC_U+30A4_U+30E4_U+30FC 1
 62
   179
420
  2234388
370
    25
100
AcDbVertex
100
AcDb2dVertex
 10
81.51939292026702
 20
-134.5733627441346
 30
0.0
  0
SEQEND
  5
64
330
61
100
AcDbEntity
  8
_U+30EC_U+30A4_U+30E4_U+30FC 1
 62
   179
420
  2234388
370
    25
  0
POLYLINE
  5
65
330
1F
100
AcDbEntity
  8
_U+30EC_U+30A4_U+30E4_U+30FC 1
 62
   179
420
  2234388
370
    25
100
AcDb2dPolyline
 66
     1
 10
0.0
 20
0.0
 30
0.0
  0
VERTEX
  5
66
330
65
100
AcDbEntity
  8
_U+30EC_U+30A4_U+30E4_U+30FC 1
 62
   179
420
  2234388
370
    25
100
AcDbVertex
100
AcDb2dVertex
 10
86.5099636262803
 20
-123.2720560802931
 30
0.0
  0
VERTEX
  5
67
330
65
100
AcDbEntity
  8
_U+30EC_U+30A4_U+30E4_U+30FC 1
 62
   179
420
  2234388
370
    25
100
AcDbVertex
100
AcDb2dVertex
 10
88.51984440833729
 20
-123.4732452469096
 30
0.0
  0
SEQEND
  5
68
330
65
100
AcDbEntity
  8
_U+30EC_U+30A4_U+30E4_U+30FC 1
 62
   179
420
  2234388
370
    25
  0
POLYLINE
  5
69
330
1F
100
AcDbEntity
  8
_U+30EC_U+30A4_U+30E4_U+30FC 1
 62
   179
420
  2234388
370
    25
100
AcDb2dPolyline
 66
     1
 10
0.0
 20
0.0
 30
0.0
  0
VERTEX
  5
6A
330
69
100
AcDbEntity
  8
_U+30EC_U+30A4_U+30E4_U+30FC 1
 62
   179
420
  2234388
370
    25
100
AcDbVertex
100
AcDb2dVertex
 10
88.51984440833729
 20
-135.0728960773428
 30
0.0
  0
VERTEX
  5
6B
330
69
100
AcDbEntity
  8
_U+30EC_U+30A4_U+30E4_U+30FC 1
 62
   179
420
  2234388
370
    25
100
AcDbVertex
100
AcDb2dVertex
 10
98.01986749930485
 20
-135.0728960773428
 30
0.0
  0
SEQEND
  5
6C
330
69
100
AcDbEntity
  8
_U+30EC_U+30A4_U+30E4_U+30FC 1
 62
   179
420
  2234388
370
    25
  0
SPLINE
  5
6D
330
1F
100
AcDbEntity
  8
_U+30EC_U+30A4_U+30E4_U+30FC 1
 62
   179
420
  2234388
370
    25
100
AcDbSpline
210
0.0
220
0.0
230
1.0
 70
     8
 71
     3
 72
     8
 73
     4
 74
     0
 42
0.0000000001
 43
0.0000000001
 12
1.0
 22
0.0
 32
0.0
 13
1.0
 23
0.0
 33
0.0
 40
0.0
 40
0.0
 40
0.0
 40
0.0
 40
1.0
 40
1.0
 40
1.0
 40
1.0
 10
80.51962072355111
 20
-134.7731760774178
 30
0.0
 10
80.51962072355111
 20
-135.2148185773072
 30
0.0
 10
80.87793710329859
 20
-135.5731349661065
 30
0.0
 10
81.31957959203135
 20
-135.5731349661065
 30
0.0
  0
SPLINE
  5
6E
330
1F
100
AcDbEntity
  8
_U+30EC_U+30A4_U+30E4_U+30FC 1
 62
   179
420
  2234388
370
    25
100
AcDbSpline
210
0.0
220
0.0
230
1.0
 70
     8
 71
     3
 72
     8
 73
     4
 74
     0
 42
0.0000000001
 43
0.0000000001
 12
1.0
 22
0.0
 32
0.0
 13
1.0
 23
0.0
 33
0.0
 40
0.0
 40
0.0
 40
0.0
 40
0.0
 40
1.0
 40
1.0
 40
1.0
 40
1.0
 10
98.51940081989402
 20
-135.5731349661065
 30
0.0
 10
98.51940081989402
 20
-135.29683941062
 30
0.0
 10
98.29545749227395
 20
-135.0728960773428
 30
0.0
 10
98.01986749930485
 20
-135.0728960773428
 30
0.0
  0
SPLINE
  5
6F
330
1F
100
AcDbEntity
  8
_U+30EC_U+30A4_U+30E4_U+30FC 1
 62
   179
420
  2234388
370
    25
100
AcDbSpline
210
0.0
220
0.0
230
1.0
 70
     8
 71
     3
 72
     8
 73
     4
 74
     0
 42
0.0000000001
 43
0.0000000001
 12
1.0
 22
0.0
 32
0.0
 13
1.0
 23
0.0
 33
0.0
 40
0.0
 40
0.0
 40
0.0
 40
0.0
 40
1.0
 40
1.0
 40
1.0
 40
1.0
 10
88.51984440833729
 20
-135.0728960773428
 30
0.0
 10
88.34137413511267
 20
-134.7635099663088
 30
0.0
 10
88.01135275577487
 20
-134.5733627441346
 30
0.0
 10
87.65373970821125
 20
-134.5733627441346
 30
0.0
  0
SPLINE
  5
70
330
1F
100
AcDbEntity
  8
_U+30EC_U+30A4_U+30E4_U+30FC 1
 62
   179
420
  2234388
370
    25
100
AcDbSpline
210
0.0
220
0.0
230
1.0
 70
     8
 71
     3
 72
     8
 73
     4
 74
     0
 42
0.0000000001
 43
0.0000000001
 12
1.0
 22
0.0
 32
0.0
 13
1.0
 23
0.0
 33
0.0
 40
0.0
 40
0.0
 40
0.0
 40
0.0
 40
1.0
 40
1.0
 40
1.0
 40
1.0
 10
86.5099636262803
 20
-123.2720560802931
 30
0.0
 10
85.18358977123002
 20
-123.1397644136595
 30
0.0
 10
83.85241813852437
 20
-123.0729483025651
 30
0.0
 10
82.51987067252048
 20
-123.0729483025651
 30
0.0
  0
SPLINE
  5
71
330
1F
100
AcDbEntity
  8
_U+30EC_U+30A4_U+30E4_U+30FC 1
 62
   179
420
  2234388
370
     9
100
AcDbSpline
210
0.0
220
0.0
230
1.0
 70
    11
 71
     3
 72
    17
 73
    13
 74
     0
 42
0.0000000001
 43
0.0000000001
 12
1.0
 22
0.0
 32
0.0
 13
1.0
 23
0.0
 33
0.0
 40
0.0
 40
0.0
 40
0.0
 40
0.0
 40
1.0
 40
1.0
 40
1.0
 40
2.0
 40
2.0
 40
2.0
 40
3.0
 40
3.0
 40
3.0
 40
4.0
 40
4.0
 40
4.0
 40
4.0
 10
80.61952738766895
 20
-119.0731891368985
 30
0.0
 10
80.61952738766895
 20
-119.0180499702454
 30
0.0
 10
80.57475988881106
 20
-118.9732824702565
 30
0.0
 10
80.51962072355111
 20
-118.9732824702565
 30
0.0
 10
80.46451683606804
 20
-118.9732824702565
 30
0.0
 10
80.41971405943328
 20
-119.0180499702454
 30
0.0
 10
80.41971405943328
 20
-119.0731891368985
 30
0.0
 10
80.41971405943328
 20
-119.1282930257734
 30
0.0
 10
80.46451683606804
 20
-119.1730958035401
 30
0.0
 10
80.51962072355111
 20
-119.1730958035401
 30
0.0
 10
80.57475988881106
 20
-119.1730958035401
 30
0.0
 10
80.61952738766895
 20
-119.1282930257734
 30
0.0
 10
80.61952738766895
 20
-119.0731891368985
 30
0.0
  0
SPLINE
  5
72
330
1F
100
AcDbEntity
  8
_U+30EC_U+30A4_U+30E4_U+30FC 1
 62
   179
420
  2234388
370
     9
100
AcDbSpline
210
0.0
220
0.0
230
1.0
 70
    11
 71
     3
 72
    17
 73
    13
 74
     0
 42
0.0000000001
 43
0.0000000001
 12
1.0
 22
0.0
 32
0.0
 13
1.0
 23
0.0
 33
0.0
 40
0.0
 40
0.0
 40
0.0
 40
0.0
 40
1.0
 40
1.0
 40
1.0
 40
2.0
 40
2.0
 40
2.0
 40
3.0
 40
3.0
 40
3.0
 40
4.0
 40
4.0
 40
4.0
 40
4.0
 10
88.61975107245513
 20
-119.0731891368985
 30
0.0
 10
88.61975107245513
 20
-119.0180499702454
 30
0.0
 10
88.57494829582036
 20
-118.9732824702565
 30
0.0
 10
88.51984440833729
 20
-118.9732824702565
 30
0.0
 10
88.46470524307735
 20
-118.9732824702565
 30
0.0
 10
88.41993774421945
 20
-119.0180499702454
 30
0.0
 10
88.41993774421945
 20
-119.0731891368985
 30
0.0
 10
88.41993774421945
 20
-119.1282930257734
 30
0.0
 10
88.46470524307735
 20
-119.1730958035401
 30
0.0
 10
88.51984440833729
 20
-119.1730958035401
 30
0.0
 10
88.57494829582036
 20
-119.1730958035401
 30
0.0
 10
88.61975107245513
 20
-119.1282930257734
 30
0.0
 10
88.61975107245513
 20
-119.0731891368985
 30
0.0
  0
SPLINE
  5
73
330
1F
100
AcDbEntity
  8
_U+30EC_U+30A4_U+30E4_U+30FC 1
 62
   179
420
  2234388
370
     9
100
AcDbSpline
210
0.0
220
0.0
230
1.0
 70
    11
 71
     3
 72
    17
 73
    13
 74
     0
 42
0.0000000001
 43
0.0000000001
 12
1.0
 22
0.0
 32
0.0
 13
1.0
 23
0.0
 33
0.0
 40
0.0
 40
0.0
 40
0.0
 40
0.0
 40
1.0
 40
1.0
 40
1.0
 40
2.0
 40
2.0
 40
2.0
 40
3.0
 40
3.0
 40
3.0
 40
4.0
 40
4.0
 40
4.0
 40
4.0
 10
102.4971138632645
 20
-124.0726852467598
 30
0.0
 10
102.4971138632645
 20
-124.0175813578845
 30
0.0
 10
102.4523110854978
 20
-123.9727785801178
 30
0.0
 10
102.3972046098519
 20
-123.9727785801178
 30
0.0
 10
102.3420654445919
 20
-123.9727785801178
 30
0.0
 10
102.2972979457341
 20
-124.0175813578845
 30
0.0
 10
102.2972979457341
 20
-124.0726852467598
 30
0.0
 10
102.2972979457341
 20
-124.1285299689677
 30
0.0
 10
102.3420654445919
 20
-124.1732974689566
 30
0.0
 10
102.3972046098519
 20
-124.1732974689566
 30
0.0
 10
102.4523110854978
 20
-124.1732974689566
 30
0.0
 10
102.4971138632645
 20
-124.1285299689677
 30
0.0
 10
102.4971138632645
 20
-124.0726852467598
 30
0.0
  0
SPLINE
  5
74
330
1F
100
AcDbEntity
  8
_U+30EC_U+30A4_U+30E4_U+30FC 1
 62
   179
420
  2234388
370
     9
100
AcDbSpline
210
0.0
220
0.0
230
1.0
 70
    11
 71
     3
 72
    17
 73
    13
 74
     0
 42
0.0000000001
 43
0.0000000001
 12
1.0
 22
0.0
 32
0.0
 13
1.0
 23
0.0
 33
0.0
 40
0.0
 40
0.0
 40
0.0
 40
0.0
 40
1.0
 40
1.0
 40
1.0
 40
2.0
 40
2.0
 40
2.0
 40
3.0
 40
3.0
 40
3.0
 40
4.0
 40
4.0
 40
4.0
 40
4.0
 10
102.4971138632645
 20
-134.5733627441346
 30
0.0
 10
102.4971138632645
 20
-134.5175532997041
 30
0.0
 10
102.4523110854978
 20
-134.4727505219374
 30
0.0
 10
102.3972046098519
 20
-134.4727505219374
 30
0.0
 10
102.3420654445919
 20
-134.4727505219374
 30
0.0
 10
102.2972979457341
 20
-134.5175532997041
 30
0.0
 10
102.2972979457341
 20
-134.5733627441346
 30
0.0
 10
102.2972979457341
 20
-134.6284666330095
 30
0.0
 10
102.3420654445919
 20
-134.6732694107762
 30
0.0
 10
102.3972046098519
 20
-134.6732694107762
 30
0.0
 10
102.4523110854978
 20
-134.6732694107762
 30
0.0
 10
102.4971138632645
 20
-134.6284666330095
 30
0.0
 10
102.4971138632645
 20
-134.5733627441346
 30
0.0
  0
SPLINE
  5
75
330
1F
100
AcDbEntity
  8
_U+30EC_U+30A4_U+30E4_U+30FC 1
 62
   179
420
  2234388
370
     9
100
AcDbSpline
210
0.0
220
0.0
230
1.0
 70
    11
 71
     3
 72
    17
 73
    13
 74
     0
 42
0.0000000001
 43
0.0000000001
 12
1.0
 22
0.0
 32
0.0
 13
1.0
 23
0.0
 33
0.0
 40
0.0
 40
0.0
 40
0.0
 40
0.0
 40
1.0
 40
1.0
 40
1.0
 40
2.0
 40
2.0
 40
2.0
 40
3.0
 40
3.0
 40
3.0
 40
4.0
 40
4.0
 40
4.0
 40
4.0
 10
102.4971138632645
 20
-135.5683019105523
 30
0.0
 10
102.4971138632645
 20
-135.5124924661218
 30
0.0
 10
102.4523110854978
 20
-135.4676896883551
 30
0.0
 10
102.3972046098519
 20
-135.4676896883551
 30
0.0
 10
102.3420654445919
 20
-135.4676896883551
 30
0.0
 10
102.2972979457341
 20
-135.5124924661218
 30
0.0
 10
102.2972979457341
 20
-135.5683019105523
 30
0.0
 10
102.2972979457341
 20
-135.6234057994272
 30
0.0
 10
102.3420654445919
 20
-135.6682085771939
 30
0.0
 10
102.3972046098519
 20
-135.6682085771939
 30
0.0
 10
102.4523110854978
 20
-135.6682085771939
 30
0.0
 10
102.4971138632645
 20
-135.6234057994272
 30
0.0
 10
102.4971138632645
 20
-135.5683019105523
 30
0.0
  0
SPLINE
  5
76
330
1F
100
AcDbEntity
  8
_U+30EC_U+30A4_U+30E4_U+30FC 1
 62
   179
420
  2234388
370
     9
100
AcDbSpline
210
0.0
220
0.0
230
1.0
 70
    11
 71
     3
 72
    17
 73
    13
 74
     0
 42
0.0000000001
 43
0.0000000001
 12
1.0
 22
0.0
 32
0.0
 13
1.0
 23
0.0
 33
0.0
 40
0.0
 40
0.0
 40
0.0
 40
0.0
 40
1.0
 40
1.0
 40
1.0
 40
2.0
 40
2.0
 40
2.0
 40
3.0
 40
3.0
 40
3.0
 40
4.0
 40
4.0
 40
4.0
 40
4.0
 10
80.61952738766895
 20
-139.5728588539958
 30
0.0
 10
80.61952738766895
 20
-139.5177549651203
 30
0.0
 10
80.57475988881106
 20
-139.4729521873542
 30
0.0
 10
80.51962072355111
 20
-139.4729521873542
 30
0.0
 10
80.46451683606804
 20
-139.4729521873542
 30
0.0
 10
80.41971405943328
 20
-139.5177549651203
 30
0.0
 10
80.41971405943328
 20
-139.5728588539958
 30
0.0
 10
80.41971405943328
 20
-139.6279980206483
 30
0.0
 10
80.46451683606804
 20
-139.672800798415
 30
0.0
 10
80.51962072355111
 20
-139.672800798415
 30
0.0
 10
80.57475988881106
 20
-139.672800798415
 30
0.0
 10
80.61952738766895
 20
-139.6279980206483
 30
0.0
 10
80.61952738766895
 20
-139.5728588539958
 30
0.0
  0
SPLINE
  5
77
330
1F
100
AcDbEntity
  8
_U+30EC_U+30A4_U+30E4_U+30FC 1
 62
   179
420
  2234388
370
     9
100
AcDbSpline
210
0.0
220
0.0
230
1.0
 70
    11
 71
     3
 72
    17
 73
    13
 74
     0
 42
0.0000000001
 43
0.0000000001
 12
1.0
 22
0.0
 32
0.0
 13
1.0
 23
0.0
 33
0.0
 40
0.0
 40
0.0
 40
0.0
 40
0.0
 40
1.0
 40
1.0
 40
1.0
 40
2.0
 40
2.0
 40
2.0
 40
3.0
 40
3.0
 40
3.0
 40
4.0
 40
4.0
 40
4.0
 40
4.0
 10
98.61930748401186
 20
-139.5728588539958
 30
0.0
 10
98.61930748401186
 20
-139.5177549651203
 30
0.0
 10
98.57450470737709
 20
-139.4729521873542
 30
0.0
 10
98.51940081989402
 20
-139.4729521873542
 30
0.0
 10
98.46426165463407
 20
-139.4729521873542
 30
0.0
 10
98.41949415577619
 20
-139.5177549651203
 30
0.0
 10
98.41949415577619
 20
-139.5728588539958
 30
0.0
 10
98.41949415577619
 20
-139.6279980206483
 30
0.0
 10
98.46426165463407
 20
-139.672800798415
 30
0.0
 10
98.51940081989402
 20
-139.672800798415
 30
0.0
 10
98.57450470737709
 20
-139.672800798415
 30
0.0
 10
98.61930748401186
 20
-139.6279980206483
 30
0.0
 10
98.61930748401186
 20
-139.5728588539958
 30
0.0
  0
POLYLINE
  5
78
330
1F
100
AcDbEntity
  8
_U+30EC_U+30A4_U+30E4_U+30FC 1
 62
   179
420
  2234388
370
     9
100
AcDb2dPolyline
 66
     1
 10
0.0
 20
0.0
 30
0.0
  0
VERTEX
  5
79
330
78
100
AcDbEntity
  8
_U+30EC_U+30A4_U+30E4_U+30FC 1
 62
   179
420
  2234388
370
     9
100
AcDbVertex
100
AcDb2dVertex
 10
80.51962072355111
 20
-119.0731891368985
 30
0.0
  0
VERTEX
  5
7A
330
78
100
AcDbEntity
  8
_U+30EC_U+30A4_U+30E4_U+30FC 1
 62
   179
420
  2234388
370
     9
100
AcDbVertex
100
AcDb2dVertex
 10
88.51984440833729
 20
-119.0731891368985
 30
0.0
  0
SEQEND
  5
7B
330
78
100
AcDbEntity
  8
_U+30EC_U+30A4_U+30E4_U+30FC 1
 62
   179
420
  2234388
370
     9
  0
POLYLINE
  5
7C
330
1F
100
AcDbEntity
  8
_U+30EC_U+30A4_U+30E4_U+30FC 1
 62
   179
420
  2234388
370
     9
100
AcDb2dPolyline
 66
     1
 10
0.0
 20
0.0
 30
0.0
  0
VERTEX
  5
7D
330
7C
100
AcDbEntity
  8
_U+30EC_U+30A4_U+30E4_U+30FC 1
 62
   179
420
  2234388
370
     9
100
AcDbVertex
100
AcDb2dVertex
 10
80.51962072355111
 20
-120.5331952476444
 30
0.0
  0
VERTEX
  5
7E
330
7C
100
AcDbEntity
  8
_U+30EC_U+30A4_U+30E4_U+30FC 1
 62
   179
420
  2234388
370
     9
100
AcDbVertex
100
AcDb2dVertex
 10
80.51962072355111
 20
-118.0727113593708
 30
0.0
  0
SEQEND
  5
7F
330
7C
100
AcDbEntity
  8
_U+30EC_U+30A4_U+30E4_U+30FC 1
 62
   179
420
  2234388
370
     9
  0
POLYLINE
  5
80
330
1F
100
AcDbEntity
  8
_U+30EC_U+30A4_U+30E4_U+30FC 1
 62
   179
420
  2234388
370
     9
100
AcDb2dPolyline
 66
     1
 10
0.0
 20
0.0
 30
0.0
  0
VERTEX
  5
81
330
80
100
AcDbEntity
  8
_U+30EC_U+30A4_U+30E4_U+30FC 1
 62
   179
420
  2234388
370
     9
100
AcDbVertex
100
AcDb2dVertex
 10
88.51984440833729
 20
-120.9328571919891
 30
0.0
  0
VERTEX
  5
82
330
80
100
AcDbEntity
  8
_U+30EC_U+30A4_U+30E4_U+30FC 1
 62
   179
420
  2234388
370
     9
100
AcDbVertex
100
AcDb2dVertex
 10
88.51984440833729
 20
-118.0727113593708
 30
0.0
  0
SEQEND
  5
83
330
80
100
AcDbEntity
  8
_U+30EC_U+30A4_U+30E4_U+30FC 1
 62
   179
420
  2234388
370
     9
  0
INSERT
  5
85
330
1F
100
AcDbEntity
  8
_U+30EC_U+30A4_U+30E4_U+30FC 1
100
AcDbBlockReference
  2
block 3
 10
0.0
 20
0.0
 30
0.0
  0
POLYLINE
  5
8C
330
1F
100
AcDbEntity
  8
_U+30EC_U+30A4_U+30E4_U+30FC 1
 62
   179
420
  2234388
370
     9
100
AcDb2dPolyline
 66
     1
 10
0.0
 20
0.0
 30
0.0
  0
VERTEX
  5
8D
330
8C
100
AcDbEntity
  8
_U+30EC_U+30A4_U+30E4_U+30FC 1
 62
   179
420
  2234388
370
     9
100
AcDbVertex
100
AcDb2dVertex
 10
80.51962072355111
 20
-139.5728588539958
 30
0.0
  0
VERTEX
  5
8E
330
8C
100
AcDbEntity
  8
_U+30EC_U+30A4_U+30E4_U+30FC 1
 62
   179
420
  2234388
370
     9
100
AcDbVertex
100
AcDb2dVertex
 10
98.51940081989402
 20
-139.5728588539958
 30
0.0
  0
SEQEND
  5
8F
330
8C
100
AcDbEntity
  8
_U+30EC_U+30A4_U+30E4_U+30FC 1
 62
   179
420
  2234388
370
     9
  0
POLYLINE
  5
90
330
1F
100
AcDbEntity
  8
_U+30EC_U+30A4_U+30E4_U+30FC 1
 62
   179
420
  2234388
370
     9
100
AcDb2dPolyline
 66
     1
 10
0.0
 20
0.0
 30
0.0
  0
VERTEX
  5
91
330
90
100
AcDbEntity
  8
_U+30EC_U+30A4_U+30E4_U+30FC 1
 62
   179
420
  2234388
370
     9
100
AcDbVertex
100
AcDb2dVertex
 10
80.51962072355111
 20
-137.3128938545604
 30
0.0
  0
VERTEX
  5
92
330
90
100
AcDbEntity
  8
_U+30EC_U+30A4_U+30E4_U+30FC 1
 62
   179
420
  2234388
370
     9
100
AcDbVertex
100
AcDb2dVertex
 10
80.51962072355111
 20
-140.5726310759677
 30
0.0
  0
SEQEND
  5
93
330
90
100
AcDbEntity
  8
_U+30EC_U+30A4_U+30E4_U+30FC 1
 62
   179
420
  2234388
370
     9
  0
POLYLINE
  5
94
330
1F
100
AcDbEntity
  8
_U+30EC_U+30A4_U+30E4_U+30FC 1
 62
   179
420
  2234388
370
     9
100
AcDb2dPolyline
 66
     1
 10
0.0
 20
0.0
 30
0.0
  0
VERTEX
  5
95
330
94
100
AcDbEntity
  8
_U+30EC_U+30A4_U+30E4_U+30FC 1
 62
   179
420
  2234388
370
     9
100
AcDbVertex
100
AcDb2dVertex
 10
98.51940081989402
 20
-138.1128527432496
 30
0.0
  0
VERTEX
  5
96
330
94
100
AcDbEntity
  8
_U+30EC_U+30A4_U+30E4_U+30FC 1
 62
   179
420
  2234388
370
     9
100
AcDbVertex
100
AcDb2dVertex
 10
98.51940081989402
 20
-140.5726310759677
 30
0.0
  0
SEQEND
  5
97
330
94
100
AcDbEntity
  8
_U+30EC_U+30A4_U+30E4_U+30FC 1
 62
   179
420
  2234388
370
     9
  0
INSERT
  5
99
330
1F
100
AcDbEntity
  8
_U+30EC_U+30A4_U+30E4_U+30FC 1
100
AcDbBlockReference
  2
block 4
 10
0.0
 20
0.0
 30
0.0
  0
POLYLINE
  5
A2
330
1F
100
AcDbEntity
  8
_U+30EC_U+30A4_U+30E4_U+30FC 1
 62
   179
420
  2234388
370
     9
100
AcDb2dPolyline
 66
     1
 10
0.0
 20
0.0
 30
0.0
  0
VERTEX
  5
A3
330
A2
100
AcDbEntity
  8
_U+30EC_U+30A4_U+30E4_U+30FC 1
 62
   179
420
  2234388
370
     9
100
AcDbVertex
100
AcDb2dVertex
 10
102.3972046098519
 20
-135.5683019105523
 30
0.0
  0
VERTEX
  5
A4
330
A2
100
AcDbEntity
  8
_U+30EC_U+30A4_U+30E4_U+30FC 1
 62
   179
420
  2234388
370
     9
100
AcDbVertex
100
AcDb2dVertex
 10
102.3972046098519
 20
-124.0726852467598
 30
0.0
  0
SEQEND
  5
A5
330
A2
100
AcDbEntity
  8
_U+30EC_U+30A4_U+30E4_U+30FC 1
 62
   179
420
  2234388
370
     9
  0
POLYLINE
  5
A6
330
1F
100
AcDbEntity
  8
_U+30EC_U+30A4_U+30E4_U+30FC 1
 62
   179
420
  2234388
370
     9
100
AcDb2dPolyline
 66
     1
 10
0.0
 20
0.0
 30
0.0
  0
VERTEX
  5
A7
330
A6
100
AcDbEntity
  8
_U+30EC_U+30A4_U+30E4_U+30FC 1
 62
   179
420
  2234388
370
     9
100
AcDbVertex
100
AcDb2dVertex
 10
100.9254510362884
 20
-134.5733627441346
 30
0.0
  0
VERTEX
  5
A8
330
A6
100
AcDbEntity
  8
_U+30EC_U+30A4_U+30E4_U+30FC 1
 62
   179
420
  2234388
370
     9
100
AcDbVertex
100
AcDb2dVertex
 10
103.3976470843285
 20
-134.5733627441346
 30
0.0
  0
SEQEND
  5
A9
330
A6
100
AcDbEntity
  8
_U+30EC_U+30A4_U+30E4_U+30FC 1
 62
   179
420
  2234388
370
     9
  0
POLYLINE
  5
AA
330
1F
100
AcDbEntity
  8
_U+30EC_U+30A4_U+30E4_U+30FC 1
 62
   179
420
  2234388
370
     9
100
AcDb2dPolyline
 66
     1
 10
0.0
 20
0.0
 30
0.0
  0
VERTEX
  5
AB
330
AA
100
AcDbEntity
  8
_U+30EC_U+30A4_U+30E4_U+30FC 1
 62
   179
420
  2234388
370
     9
100
AcDbVertex
100
AcDb2dVertex
 10
100.9254510362884
 20
-135.5683019105523
 30
0.0
  0
VERTEX
  5
AC
330
AA
100
AcDbEntity
  8
_U+30EC_U+30A4_U+30E4_U+30FC 1
 62
   179
420
  2234388
370
     9
100
AcDbVertex
100
AcDb2dVertex
 10
103.3976470843285
 20
-135.5683019105523
 30
0.0
  0
SEQEND
  5
AD
330
AA
100
AcDbEntity
  8
_U+30EC_U+30A4_U+30E4_U+30FC 1
 62
   179
420
  2234388
370
     9
  0
POLYLINE
  5
AE
330
1F
100
AcDbEntity
  8
_U+30EC_U+30A4_U+30E4_U+30FC 1
 62
   179
420
  2234388
370
     9
100
AcDb2dPolyline
 66
     1
 10
0.0
 20
0.0
 30
0.0
  0
VERTEX
  5
AF
330
AE
100
AcDbEntity
  8
_U+30EC_U+30A4_U+30E4_U+30FC 1
 62
   179
420
  2234388
370
     9
100
AcDbVertex
100
AcDb2dVertex
 10
100.9371632582118
 20
-124.0726852467598
 30
0.0
  0
VERTEX
  5
B0
330
AE
100
AcDbEntity
  8
_U+30EC_U+30A4_U+30E4_U+30FC 1
 62
   179
420
  2234388
370
     9
100
AcDbVertex
100
AcDb2dVertex
 10
103.3976470843285
 20
-124.0726852467598
 30
0.0
  0
SEQEND
  5
B1
330
AE
100
AcDbEntity
  8
_U+30EC_U+30A4_U+30E4_U+30FC 1
 62
   179
420
  2234388
370
     9
  0
INSERT
  5
B3
330
1F
100
AcDbEntity
  8
_U+30EC_U+30A4_U+30E4_U+30FC 1
100
AcDbBlockReference
  2
block 5
 10
0.0
 20
0.0
 30
0.0
  0
SPLINE
  5
C5
330
1F
100
AcDbEntity
  8
_U+30EC_U+30A4_U+30E4_U+30FC 1
 62
   179
420
  2234388
370
     9
100
AcDbSpline
210
0.0
220
0.0
230
1.0
 70
    11
 71
     3
 72
    17
 73
    13
 74
     0
 42
0.0000000001
 43
0.0000000001
 12
1.0
 22
0.0
 32
0.0
 13
1.0
 23
0.0
 33
0.0
 40
0.0
 40
0.0
 40
0.0
 40
0.0
 40
1.0
 40
1.0
 40
1.0
 40
2.0
 40
2.0
 40
2.0
 40
3.0
 40
3.0
 40
3.0
 40
4.0
 40
4.0
 40
4.0
 40
4.0
 10
80.60506349914907
 20
-129.223134967694
 30
0.0
 10
80.60506349914907
 20
-129.1679958010415
 30
0.0
 10
80.56029600029117
 20
-129.1232283010523
 30
0.0
 10
80.50515683503123
 20
-129.1232283010523
 30
0.0
 10
80.45005294754816
 20
-129.1232283010523
 30
0.0
 10
80.40525017091339
 20
-129.1679958010415
 30
0.0
 10
80.40525017091339
 20
-129.223134967694
 30
0.0
 10
80.40525017091339
 20
-129.2782388565695
 30
0.0
 10
80.45005294754816
 20
-129.3230416343356
 30
0.0
 10
80.50515683503123
 20
-129.3230416343356
 30
0.0
 10
80.56029600029117
 20
-129.3230416343356
 30
0.0
 10
80.60506349914907
 20
-129.2782388565695
 30
0.0
 10
80.60506349914907
 20
-129.223134967694
 30
0.0
  0
SPLINE
  5
C6
330
1F
100
AcDbEntity
  8
_U+30EC_U+30A4_U+30E4_U+30FC 1
 62
   179
420
  2234388
370
     9
100
AcDbSpline
210
0.0
220
0.0
230
1.0
 70
    11
 71
     3
 72
    17
 73
    13
 74
     0
 42
0.0000000001
 43
0.0000000001
 12
1.0
 22
0.0
 32
0.0
 13
1.0
 23
0.0
 33
0.0
 40
0.0
 40
0.0
 40
0.0
 40
0.0
 40
1.0
 40
1.0
 40
1.0
 40
2.0
 40
2.0
 40
2.0
 40
3.0
 40
3.0
 40
3.0
 40
4.0
 40
4.0
 40
4.0
 40
4.0
 10
81.60483569586498
 20
-129.223134967694
 30
0.0
 10
81.60483569586498
 20
-129.1679958010415
 30
0.0
 10
81.56003291923021
 20
-129.1232283010523
 30
0.0
 10
81.50492903174714
 20
-129.1232283010523
 30
0.0
 10
81.4497898664872
 20
-129.1232283010523
 30
0.0
 10
81.4050223676293
 20
-129.1679958010415
 30
0.0
 10
81.4050223676293
 20
-129.223134967694
 30
0.0
 10
81.4050223676293
 20
-129.2782388565695
 30
0.0
 10
81.4497898664872
 20
-129.3230416343356
 30
0.0
 10
81.50492903174714
 20
-129.3230416343356
 30
0.0
 10
81.56003291923021
 20
-129.3230416343356
 30
0.0
 10
81.60483569586498
 20
-129.2782388565695
 30
0.0
 10
81.60483569586498
 20
-129.223134967694
 30
0.0
  0
INSERT
  5
C8
330
1F
100
AcDbEntity
  8
_U+30EC_U+30A4_U+30E4_U+30FC 1
100
AcDbBlockReference
  2
block 6
 10
0.0
 20
0.0
 30
0.0
  0
POLYLINE
  5
CD
330
1F
100
AcDbEntity
  8
_U+30EC_U+30A4_U+30E4_U+30FC 1
 62
   179
420
  2234388
370
     9
100
AcDb2dPolyline
 66
     1
 10
0.0
 20
0.0
 30
0.0
  0
VERTEX
  5
CE
330
CD
100
AcDbEntity
  8
_U+30EC_U+30A4_U+30E4_U+30FC 1
 62
   179
420
  2234388
370
     9
100
AcDbVertex
100
AcDb2dVertex
 10
82.36620275718633
 20
-129.223134967694
 30
0.0
  0
VERTEX
  5
CF
330
CD
100
AcDbEntity
  8
_U+30EC_U+30A4_U+30E4_U+30FC 1
 62
   179
420
  2234388
370
     9
100
AcDbVertex
100
AcDb2dVertex
 10
78.52699077438734
 20
-129.223134967694
 30
0.0
  0
SEQEND
  5
D0
330
CD
100
AcDbEntity
  8
_U+30EC_U+30A4_U+30E4_U+30FC 1
 62
   179
420
  2234388
370
     9
  0
ENDSEC
  0
SECTION
  2
OBJECTS
  0
DICTIONARY
  5
C
330
0
100
AcDbDictionary
281
     1
  3
ACAD_GROUP
350
D
  3
ACAD_LAYOUT
350
1A
  3
ACAD_MATERIAL
350
3B
  3
ACAD_MLEADERSTYLE
350
D2
  3
ACAD_MLINESTYLE
350
17
  3
ACAD_PLOTSETTINGS
350
19
  3
ACAD_PLOTSTYLENAME
350
E
  3
ACAD_TABLESTYLE
350
D1
  3
ACAD_VISUALSTYLE
350
2A
  0
SUN
  5
3F
330
29
100
AcDbSun
 90
        1
290
     0
 63
     7
421
 16777215
 40
1.0
291
     1
 91
  2455826
 92
 54000000
292
     0
 70
     2
 71
   256
280
     1
  0
DICTIONARY
  5
D
102
{ACAD_REACTORS
330
C
102
}
330
C
100
AcDbDictionary
281
     1
  0
DICTIONARY
  5
1A
102
{ACAD_REACTORS
330
C
102
}
330
C
100
AcDbDictionary
281
     1
  3
Layout1
350
1E
  3
Layout2
350
26
  3
Model
350
22
  0
DICTIONARY
  5
3B
102
{ACAD_REACTORS
330
C
102
}
330
C
100
AcDbDictionary
281
     1
  3
ByBlock
350
3D
  3
ByLayer
350
3C
  3
Global
350
3E
  0
DICTIONARY
  5
D2
102
{ACAD_REACTORS
330
C
102
}
330
C
100
AcDbDictionary
281
     1
  0
DICTIONARY
  5
17
102
{ACAD_REACTORS
330
C
102
}
330
C
100
AcDbDictionary
281
     1
  3
Standard
350
18
  0
DICTIONARY
  5
19
102
{ACAD_REACTORS
330
C
102
}
330
C
100
AcDbDictionary
281
     1
  0
ACDBDICTIONARYWDFLT
  5
E
102
{ACAD_REACTORS
330
C
102
}
330
C
100
AcDbDictionary
281
     1
  3
Normal
350
F
100
AcDbDictionaryWithDefault
340
F
  0
DICTIONARY
  5
D1
102
{ACAD_REACTORS
330
C
102
}
330
C
100
AcDbDictionary
281
     1
  0
DICTIONARY
  5
2A
102
{ACAD_REACTORS
330
C
102
}
330
C
100
AcDbDictionary
281
     1
  3
2dWireframe
350
2F
  3
3D Hidden
350
31
  3
3dWireframe
350
30
  3
Basic
350
32
  3
Brighten
350
36
  3
ColorChange
350
3A
  3
Conceptual
350
34
  3
Dim
350
35
  3
Facepattern
350
39
  3
Flat
350
2B
  3
FlatWithEdges
350
2C
  3
Gouraud
350
2D
  3
GouraudWithEdges
350
2E
  3
Linepattern
350
38
  3
Realistic
350
33
  3
Thicken
350
37
  0
LAYOUT
  5
1E
102
{ACAD_REACTORS
330
1A
102
}
330
1A
100
AcDbPlotSettings
  1

  2
none_device
  4

  6

 40
0.0
 41
0.0
 42
0.0
 43
0.0
 44
0.0
 45
0.0
 46
0.0
 47
0.0
 48
0.0
 49
0.0
140
0.0
141
0.0
142
1.0
143
1.0
 70
   688
 72
     0
 73
     0
 74
     5
  7

 75
    16
 76
     0
 77
     2
 78
   300
147
1.0
148
0.0
149
0.0
100
AcDbLayout
  1
Layout1
 70
     1
 71
     1
 10
0.0
 20
0.0
 11
12.0
 21
9.0
 12
0.0
 22
0.0
 32
0.0
 14
1.000000000000000E+20
 24
1.000000000000000E+20
 34
1.000000000000000E+20
 15
-1.000000000000000E+20
 25
-1.000000000000000E+20
 35
-1.000000000000000E+20
146
0.0
 13
0.0
 23
0.0
 33
0.0
 16
1.0
 26
0.0
 36
0.0
 17
0.0
 27
1.0
 37
0.0
 76
     0
330
1B
  0
LAYOUT
  5
26
102
{ACAD_REACTORS
330
1A
102
}
330
1A
100
AcDbPlotSettings
  1

  2
none_device
  4

  6

 40
0.0
 41
0.0
 42
0.0
 43
0.0
 44
0.0
 45
0.0
 46
0.0
 47
0.0
 48
0.0
 49
0.0
140
0.0
141
0.0
142
1.0
143
1.0
 70
   688
 72
     0
 73
     0
 74
     5
  7

 75
    16
 76
     0
 77
     2
 78
   300
147
1.0
148
0.0
149
0.0
100
AcDbLayout
  1
Layout2
 70
     1
 71
     2
 10
0.0
 20
0.0
 11
0.0
 21
0.0
 12
0.0
 22
0.0
 32
0.0
 14
0.0
 24
0.0
 34
0.0
 15
0.0
 25
0.0
 35
0.0
146
0.0
 13
0.0
 23
0.0
 33
0.0
 16
1.0
 26
0.0
 36
0.0
 17
0.0
 27
1.0
 37
0.0
 76
     0
330
23
  0
LAYOUT
  5
22
102
{ACAD_REACTORS
330
1A
102
}
330
1A
100
AcDbPlotSettings
  1

  2
none_device
  4

  6

 40
0.0
 41
0.0
 42
0.0
 43
0.0
 44
0.0
 45
0.0
 46
0.0
 47
0.0
 48
0.0
 49
0.0
140
0.0
141
0.0
142
1.0
143
1.0
 70
  1712
 72
     0
 73
     0
 74
     0
  7

 75
     0
 76
     0
 77
     2
 78
   300
147
1.0
148
0.0
149
0.0
100
AcDbLayout
  1
Model
 70
     1
 71
     0
 10
0.0
 20
0.0
 11
12.0
 21
9.0
 12
0.0
 22
0.0
 32
0.0
 14
1.000000000000000E+20
 24
1.000000000000000E+20
 34
1.000000000000000E+20
 15
-1.000000000000000E+20
 25
-1.000000000000000E+20
 35
-1.000000000000000E+20
146
0.0
 13
0.0
 23
0.0
 33
0.0
 16
1.0
 26
0.0
 36
0.0
 17
0.0
 27
1.0
 37
0.0
 76
     0
330
1F
331
29
  0
MATERIAL
  5
3D
102
{ACAD_REACTORS
330
3B
102
}
330
3B
100
AcDbMaterial
  1
ByBlock
 72
     1
 94
      127
  0
MATERIAL
  5
3C
102
{ACAD_REACTORS
330
3B
102
}
330
3B
100
AcDbMaterial
  1
ByLayer
 72
     1
 94
      127
  0
MATERIAL
  5
3E
102
{ACAD_REACTORS
330
3B
102
}
330
3B
100
AcDbMaterial
  1
Global
 72
     1
 94
      127
  0
MLINESTYLE
  5
18
102
{ACAD_REACTORS
330
17
102
}
330
17
100
AcDbMlineStyle
  2
Standard
 70
     0
  3

 62
   256
 51
90.0
 52
90.0
 71
     2
 49
0.5
 62
   256
  6
BYLAYER
 49
-0.5
 62
   256
  6
BYLAYER
  0
ACDBPLACEHOLDER
  5
F
102
{ACAD_REACTORS
330
E
102
}
330
E
  0
VISUALSTYLE
  5
2F
102
{ACAD_REACTORS
330
2A
102
}
330
2A
100
AcDbVisualStyle
  2
2dWireframe
 70
     4
177
     2
291
     0
 71
     0
176
     1
 72
     2
176
     1
 73
     0
176
     1
 90
        0
176
     1
 40
-0.6
176
     1
 41
-30.0
176
     1
 62
     5
 63
     7
421
 16777215
176
     1
 74
     1
176
     1
 91
        4
176
     1
 64
     7
176
     1
 65
   257
176
     1
 75
     1
176
     1
175
     1
176
     1
 42
1.0
176
     1
 92
        0
176
     1
 66
   257
176
     1
 43
1.0
176
     1
 76
     1
176
     1
 77
     6
176
     1
 78
     2
176
     1
 67
     7
176
     1
 79
     5
176
     1
170
     0
176
     1
171
     0
176
     1
290
     0
176
     1
 93
        1
176
     1
 44
0.0
176
     1
173
     0
176
     1
  0
VISUALSTYLE
  5
31
102
{ACAD_REACTORS
330
2A
102
}
330
2A
100
AcDbVisualStyle
  2
3D Hidden
 70
     6
177
     2
291
     0
 71
     1
176
     1
 72
     2
176
     1
 73
     2
176
     1
 90
        0
176
     1
 40
-0.6
176
     1
 41
-30.0
176
     1
 62
     5
 63
     7
421
 16777215
176
     1
 74
     2
176
     1
 91
        2
176
     1
 64
     7
176
     1
 65
   257
176
     1
 75
     2
176
     1
175
     1
176
     1
 42
40.0
176
     1
 92
        0
176
     1
 66
   257
176
     1
 43
1.0
176
     1
 76
     1
176
     1
 77
     6
176
     1
 78
     2
176
     1
 67
     7
176
     1
 79
     3
176
     1
170
     0
176
     1
171
     0
176
     1
290
     0
176
     1
 93
        1
176
     1
 44
0.0
176
     1
173
     0
176
     1
  0
VISUALSTYLE
  5
30
102
{ACAD_REACTORS
330
2A
102
}
330
2A
100
AcDbVisualStyle
  2
3dWireframe
 70
     5
177
     2
291
     0
 71
     0
176
     1
 72
     2
176
     1
 73
     0
176
     1
 90
        0
176
     1
 40
-0.6
176
     1
 41
-30.0
176
     1
 62
     5
 63
     7
421
 16777215
176
     1
 74
     1
176
     1
 91
        4
176
     1
 64
     7
176
     1
 65
   257
176
     1
 75
     1
176
     1
175
     1
176
     1
 42
1.0
176
     1
 92
        0
176
     1
 66
   257
176
     1
 43
1.0
176
     1
 76
     1
176
     1
 77
     6
176
     1
 78
     2
176
     1
 67
     7
176
     1
 79
     5
176
     1
170
     0
176
     1
171
     0
176
     1
290
     0
176
     1
 93
        1
176
     1
 44
0.0
176
     1
173
     0
176
     1
  0
VISUALSTYLE
  5
32
102
{ACAD_REACTORS
330
2A
102
}
330
2A
100
AcDbVisualStyle
  2
Basic
 70
     7
177
     2
291
     1
 71
     1
176
     1
 72
     0
176
     1
 73
     1
176
     1
 90
        0
176
     1
 40
-0.6
176
     1
 41
-30.0
176
     1
 62
     5
 63
     7
421
 16777215
176
     1
 74
     0
176
     1
 91
        4
176
     1
 64
     7
176
     1
 65
   257
176
     1
 75
     1
176
     1
175
     1
176
     1
 42
1.0
176
     1
 92
        8
176
     1
 66
     7
176
     1
 43
1.0
176
     1
 76
     1
176
     1
 77
     6
176
     1
 78
     2
176
     1
 67
     7
176
     1
 79
     5
176
     1
170
     0
176
     1
171
     0
176
     1
290
     0
176
     1
 93
        1
176
     1
 44
0.0
176
     1
173
     0
176
     1
  0
VISUALSTYLE
  5
36
102
{ACAD_REACTORS
330
2A
102
}
330
2A
100
AcDbVisualStyle
  2
Brighten
 70
    12
177
     2
291
     1
 71
     2
176
     1
 72
     2
176
     1
 73
     0
176
     1
 90
        0
176
     1
 40
-0.6
176
     1
 41
-30.0
176
     1
 62
     5
 63
     7
421
 16777215
176
     1
 74
     1
176
     1
 91
        4
176
     1
 64
     7
176
     1
 65
   257
176
     1
 75
     1
176
     1
175
     1
176
     1
 42
1.0
176
     1
 92
        8
176
     1
 66
     7
176
     1
 43
1.0
176
     1
 76
     1
176
     1
 77
     6
176
     1
 78
     2
176
     1
 67
     7
176
     1
 79
     5
176
     1
170
     0
176
     1
171
     0
176
     1
290
     0
176
     1
 93
        1
176
     1
 44
50.0
176
     1
173
     0
176
     1
  0
VISUALSTYLE
  5
3A
102
{ACAD_REACTORS
330
2A
102
}
330
2A
100
AcDbVisualStyle
  2
ColorChange
 70
    16
177
     2
291
     1
 71
     2
176
     1
 72
     2
176
     1
 73
     3
176
     1
 90
        0
176
     1
 40
-0.6
176
     1
 41
-30.0
176
     1
 62
     5
 63
     8
421
  8421504
176
     1
 74
     1
176
     1
 91
        4
176
     1
 64
     7
176
     1
 65
   257
176
     1
 75
     1
176
     1
175
     1
176
     1
 42
1.0
176
     1
 92
        8
176
     1
 66
     8
424
  8421504
176
     1
 43
1.0
176
     1
 76
     1
176
     1
 77
     6
176
     1
 78
     2
176
     1
 67
     7
176
     1
 79
     5
176
     1
170
     0
176
     1
171
     0
176
     1
290
     0
176
     1
 93
        1
176
     1
 44
0.0
176
     1
173
     0
176
     1
  0
VISUALSTYLE
  5
34
102
{ACAD_REACTORS
330
2A
102
}
330
2A
100
AcDbVisualStyle
  2
Conceptual
 70
     9
177
     2
291
     0
 71
     3
176
     1
 72
     2
176
     1
 73
     0
176
     1
 90
        0
176
     1
 40
-0.6
176
     1
 41
-30.0
176
     1
 62
     5
 63
     7
421
 16777215
176
     1
 74
     2
176
     1
 91
        2
176
     1
 64
     7
176
     1
 65
   257
176
     1
 75
     1
176
     1
175
     1
176
     1
 42
40.0
176
     1
 92
        8
176
     1
 66
     7
176
     1
 43
1.0
176
     1
 76
     1
176
     1
 77
     6
176
     1
 78
     2
176
     1
 67
     7
176
     1
 79
     3
176
     1
170
     0
176
     1
171
     0
176
     1
290
     0
176
     1
 93
        1
176
     1
 44
0.0
176
     1
173
     0
176
     1
  0
VISUALSTYLE
  5
35
102
{ACAD_REACTORS
330
2A
102
}
330
2A
100
AcDbVisualStyle
  2
Dim
 70
    11
177
     2
291
     1
 71
     2
176
     1
 72
     2
176
     1
 73
     0
176
     1
 90
        0
176
     1
 40
-0.6
176
     1
 41
-30.0
176
     1
 62
     5
 63
     7
421
 16777215
176
     1
 74
     1
176
     1
 91
        4
176
     1
 64
     7
176
     1
 65
   257
176
     1
 75
     1
176
     1
175
     1
176
     1
 42
1.0
176
     1
 92
        8
176
     1
 66
     7
176
     1
 43
1.0
176
     1
 76
     1
176
     1
 77
     6
176
     1
 78
     2
176
     1
 67
     7
176
     1
 79
     5
176
     1
170
     0
176
     1
171
     0
176
     1
290
     0
176
     1
 93
        1
176
     1
 44
-50.0
176
     1
173
     0
176
     1
  0
VISUALSTYLE
  5
39
102
{ACAD_REACTORS
330
2A
102
}
330
2A
100
AcDbVisualStyle
  2
Facepattern
 70
    15
177
     2
291
     1
 71
     2
176
     1
 72
     2
176
     1
 73
     0
176
     1
 90
        0
176
     1
 40
-0.6
176
     1
 41
-30.0
176
     1
 62
     5
 63
     7
421
 16777215
176
     1
 74
     1
176
     1
 91
        4
176
     1
 64
     7
176
     1
 65
   257
176
     1
 75
     1
176
     1
175
     1
176
     1
 42
1.0
176
     1
 92
        8
176
     1
 66
     7
176
     1
 43
1.0
176
     1
 76
     1
176
     1
 77
     6
176
     1
 78
     2
176
     1
 67
     7
176
     1
 79
     5
176
     1
170
     0
176
     1
171
     0
176
     1
290
     0
176
     1
 93
        1
176
     1
 44
0.0
176
     1
173
     0
176
     1
  0
VISUALSTYLE
  5
2B
102
{ACAD_REACTORS
330
2A
102
}
330
2A
100
AcDbVisualStyle
  2
Flat
 70
     0
177
     2
291
     1
 71
     2
176
     1
 72
     1
176
     1
 73
     1
176
     1
 90
        2
176
     1
 40
-0.6
176
     1
 41
30.0
176
     1
 62
     5
 63
     7
421
 16777215
176
     1
 74
     0
176
     1
 91
        4
176
     1
 64
     7
176
     1
 65
   257
176
     1
 75
     1
176
     1
175
     1
176
     1
 42
1.0
176
     1
 92
        8
176
     1
 66
     7
176
     1
 43
1.0
176
     1
 76
     1
176
     1
 77
     6
176
     1
 78
     2
176
     1
 67
     7
176
     1
 79
     5
176
     1
170
     0
176
     1
171
     0
176
     1
290
     0
176
     1
 93
       13
176
     1
 44
0.0
176
     1
173
     0
176
     1
  0
VISUALSTYLE
  5
2C
102
{ACAD_REACTORS
330
2A
102
}
330
2A
100
AcDbVisualStyle
  2
FlatWithEdges
 70
     1
177
     2
291
     1
 71
     2
176
     1
 72
     1
176
     1
 73
     1
176
     1
 90
        2
176
     1
 40
-0.6
176
     1
 41
30.0
176
     1
 62
     5
 63
     7
421
 16777215
176
     1
 74
     1
176
     1
 91
        4
176
     1
 64
     7
176
     1
 65
   257
176
     1
 75
     1
176
     1
175
     1
176
     1
 42
1.0
176
     1
 92
        0
176
     1
 66
   257
176
     1
 43
1.0
176
     1
 76
     1
176
     1
 77
     6
176
     1
 78
     2
176
     1
 67
     7
176
     1
 79
     5
176
     1
170
     0
176
     1
171
     0
176
     1
290
     0
176
     1
 93
       13
176
     1
 44
0.0
176
     1
173
     0
176
     1
  0
VISUALSTYLE
  5
2D
102
{ACAD_REACTORS
330
2A
102
}
330
2A
100
AcDbVisualStyle
  2
Gouraud
 70
     2
177
     2
291
     1
 71
     2
176
     1
 72
     2
176
     1
 73
     1
176
     1
 90
        2
176
     1
 40
-0.6
176
     1
 41
30.0
176
     1
 62
     5
 63
     7
421
 16777215
176
     1
 74
     0
176
     1
 91
        4
176
     1
 64
     7
176
     1
 65
   257
176
     1
 75
     1
176
     1
175
     1
176
     1
 42
1.0
176
     1
 92
        0
176
     1
 66
     7
176
     1
 43
1.0
176
     1
 76
     1
176
     1
 77
     6
176
     1
 78
     2
176
     1
 67
     7
176
     1
 79
     5
176
     1
170
     0
176
     1
171
     0
176
     1
290
     0
176
     1
 93
       13
176
     1
 44
0.0
176
     1
173
     0
176
     1
  0
VISUALSTYLE
  5
2E
102
{ACAD_REACTORS
330
2A
102
}
330
2A
100
AcDbVisualStyle
  2
GouraudWithEdges
 70
     3
177
     2
291
     1
 71
     2
176
     1
 72
     2
176
     1
 73
     1
176
     1
 90
        2
176
     1
 40
-0.6
176
     1
 41
30.0
176
     1
 62
     5
 63
     7
421
 16777215
176
     1
 74
     1
176
     1
 91
        4
176
     1
 64
     7
176
     1
 65
   257
176
     1
 75
     1
176
     1
175
     1
176
     1
 42
1.0
176
     1
 92
        0
176
     1
 66
   257
176
     1
 43
1.0
176
     1
 76
     1
176
     1
 77
     6
176
     1
 78
     2
176
     1
 67
     7
176
     1
 79
     5
176
     1
170
     0
176
     1
171
     0
176
     1
290
     0
176
     1
 93
       13
176
     1
 44
0.0
176
     1
173
     0
176
     1
  0
VISUALSTYLE
  5
38
102
{ACAD_REACTORS
330
2A
102
}
330
2A
100
AcDbVisualStyle
  2
Linepattern
 70
    14
177
     2
291
     1
 71
     2
176
     1
 72
     2
176
     1
 73
     0
176
     1
 90
        0
176
     1
 40
-0.6
176
     1
 41
-30.0
176
     1
 62
     5
 63
     7
421
 16777215
176
     1
 74
     1
176
     1
 91
        4
176
     1
 64
     7
176
     1
 65
   257
176
     1
 75
     7
176
     1
175
     7
176
     1
 42
1.0
176
     1
 92
        8
176
     1
 66
     7
176
     1
 43
1.0
176
     1
 76
     1
176
     1
 77
     6
176
     1
 78
     2
176
     1
 67
     7
176
     1
 79
     5
176
     1
170
     0
176
     1
171
     0
176
     1
290
     0
176
     1
 93
        1
176
     1
 44
0.0
176
     1
173
     0
176
     1
  0
VISUALSTYLE
  5
33
102
{ACAD_REACTORS
330
2A
102
}
330
2A
100
AcDbVisualStyle
  2
Realistic
 70
     8
177
     2
291
     0
 71
     2
176
     1
 72
     2
176
     1
 73
     0
176
     1
 90
        0
176
     1
 40
-0.6
176
     1
 41
-30.0
176
     1
 62
     5
 63
     7
421
 16777215
176
     1
 74
     1
176
     1
 91
        0
176
     1
 64
     7
176
     1
 65
   257
176
     1
 75
     1
176
     1
175
     1
176
     1
 42
1.0
176
     1
 92
        8
176
     1
 66
     8
424
  7895160
176
     1
 43
1.0
176
     1
 76
     1
176
     1
 77
     6
176
     1
 78
     2
176
     1
 67
     7
176
     1
 79
     5
176
     1
170
     0
176
     1
171
     0
176
     1
290
     0
176
     1
 93
       13
176
     1
 44
0.0
176
     1
173
     0
176
     1
  0
VISUALSTYLE
  5
37
102
{ACAD_REACTORS
330
2A
102
}
330
2A
100
AcDbVisualStyle
  2
Thicken
 70
    13
177
     2
291
     1
 71
     2
176
     1
 72
     2
176
     1
 73
     0
176
     1
 90
        0
176
     1
 40
-0.6
176
     1
 41
-30.0
176
     1
 62
     5
 63
     7
421
 16777215
176
     1
 74
     1
176
     1
 91
        4
176
     1
 64
     7
176
     1
 65
   257
176
     1
 75
     1
176
     1
175
     1
176
     1
 42
1.0
176
     1
 92
       12
176
     1
 66
     7
176
     1
 43
1.0
176
     1
 76
     1
176
     1
 77
     6
176
     1
 78
     2
176
     1
 67
     7
176
     1
 79
     5
176
     1
170
     0
176
     1
171
     0
176
     1
290
     0
176
     1
 93
        1
176
     1
 44
0.0
176
     1
173
     0
176
     1
  0
ENDSEC
  0
EOF
