  0
SECTION
  2
HEADER
  9
$ACADVER
  1
AC1024
  9
$ACADMAINTVER
 70
     6
  9
$DWGCODEPAGE
  3
UNDEFINED
  9
$INSBASE
 10
0.0
 20
0.0
 30
0.0
  9
$EXTMIN
 10
1.000000000000000E+20
 20
1.000000000000000E+20
 30
1.000000000000000E+20
  9
$EXTMAX
 10
-1.000000000000000E+20
 20
-1.000000000000000E+20
 30
-1.000000000000000E+20
  9
$LIMMIN
 10
0.0
 20
0.0
  9
$LIMMAX
 10
12.0
 20
9.0
  9
$ORTHOMODE
 70
     0
  9
$REGENMODE
 70
     1
  9
$FILLMODE
 70
     1
  9
$QTEXTMODE
 70
     0
  9
$MIRRTEXT
 70
     1
  9
$LTSCALE
 40
1.0
  9
$ATTMODE
 70
     1
  9
$TEXTSIZE
 40
0.2
  9
$TRACEWID
 40
0.05
  9
$TEXTSTYLE
  7
Standard
  9
$CLAYER
  8
0
  9
$CELTYPE
  6
ByLayer
  9
$CECOLOR
 62
   256
  9
$CELTSCALE
 40
1.0
  9
$DISPSILH
 70
     0
  9
$DIMSCALE
 40
1.0
  9
$DIMASZ
 40
0.18
  9
$DIMEXO
 40
0.0625
  9
$DIMDLI
 40
0.38
  9
$DIMRND
 40
0.0
  9
$DIMDLE
 40
0.0
  9
$DIMEXE
 40
0.18
  9
$DIMTP
 40
0.0
  9
$DIMTM
 40
0.0
  9
$DIMTXT
 40
0.18
  9
$DIMCEN
 40
0.09
  9
$DIMTSZ
 40
0.0
  9
$DIMTOL
 70
     0
  9
$DIMLIM
 70
     0
  9
$DIMTIH
 70
     1
  9
$DIMTOH
 70
     1
  9
$DIMSE1
 70
     0
  9
$DIMSE2
 70
     0
  9
$DIMTAD
 70
     0
  9
$DIMZIN
 70
     0
  9
$DIMBLK
  1

  9
$DIMASO
 70
     1
  9
$DIMSHO
 70
     1
  9
$DIMPOST
  1

  9
$DIMAPOST
  1

  9
$DIMALT
 70
     0
  9
$DIMALTD
 70
     2
  9
$DIMALTF
 40
25.4
  9
$DIMLFAC
 40
1.0
  9
$DIMTOFL
 70
     0
  9
$DIMTVP
 40
0.0
  9
$DIMTIX
 70
     0
  9
$DIMSOXD
 70
     0
  9
$DIMSAH
 70
     0
  9
$DIMBLK1
  1

  9
$DIMBLK2
  1

  9
$DIMSTYLE
  2
Standard
  9
$DIMCLRD
 70
     0
  9
$DIMCLRE
 70
     0
  9
$DIMCLRT
 70
     0
  9
$DIMTFAC
 40
1.0
  9
$DIMGAP
 40
0.09
  9
$DIMJUST
 70
     0
  9
$DIMSD1
 70
     0
  9
$DIMSD2
 70
     0
  9
$DIMTOLJ
 70
     1
  9
$DIMTZIN
 70
     0
  9
$DIMALTZ
 70
     0
  9
$DIMALTTZ
 70
     0
  9
$DIMUPT
 70
     0
  9
$DIMDEC
 70
     4
  9
$DIMTDEC
 70
     4
  9
$DIMALTU
 70
     2
  9
$DIMALTTD
 70
     2
  9
$DIMTXSTY
  7
Standard
  9
$DIMAUNIT
 70
     0
  9
$DIMADEC
 70
     0
  9
$DIMALTRND
 40
0.0
  9
$DIMAZIN
 70
     0
  9
$DIMDSEP
 70
    46
  9
$DIMATFIT
 70
     3
  9
$DIMFRAC
 70
     0
  9
$DIMLDRBLK
  1

  9
$DIMLUNIT
 70
     2
  9
$DIMLWD
 70
    -2
  9
$DIMLWE
 70
    -2
  9
$DIMTMOVE
 70
     0
  9
$DIMFXL
 40
1.0
  9
$DIMFXLON
 70
     0
  9
$DIMJOGANG
 40
0.7853981633974483
  9
$DIMTFILL
 70
     0
  9
$DIMTFILLCLR
 70
     0
  9
$DIMARCSYM
 70
     0
  9
$DIMLTYPE
  6

  9
$DIMLTEX1
  6

  9
$DIMLTEX2
  6

  9
$DIMTXTDIRECTION
 70
     0
  9
$LUNITS
 70
     2
  9
$LUPREC
 70
     4
  9
$SKETCHINC
 40
0.1
  9
$FILLETRAD
 40
0.5
  9
$AUNITS
 70
     0
  9
$AUPREC
 70
     0
  9
$MENU
  1
.
  9
$ELEVATION
 40
0.0
  9
$PELEVATION
 40
0.0
  9
$THICKNESS
 40
0.0
  9
$LIMCHECK
 70
     0
  9
$CHAMFERA
 40
0.5
  9
$CHAMFERB
 40
0.5
  9
$CHAMFERC
 40
1.0
  9
$CHAMFERD
 40
0.0
  9
$SKPOLY
 70
     0
  9
$TDCREATE
 40
2457917.617951389
  9
$TDUCREATE
 40
2457917.242951389
  9
$TDUPDATE
 40
2457917.617951389
  9
$TDUUPDATE
 40
2457917.242951389
  9
$TDINDWG
 40
0.0000000116
  9
$TDUSRTIMER
 40
0.0000000116
  9
$USRTIMER
 70
     1
  9
$ANGBASE
 50
0.0
  9
$ANGDIR
 70
     0
  9
$PDMODE
 70
     0
  9
$PDSIZE
 40
0.0
  9
$PLINEWID
 40
0.0
  9
$SPLFRAME
 70
     0
  9
$SPLINETYPE
 70
     6
  9
$SPLINESEGS
 70
     8
  9
$HANDSEED
  5
A9
  9
$SURFTAB1
 70
     6
  9
$SURFTAB2
 70
     6
  9
$SURFTYPE
 70
     6
  9
$SURFU
 70
     6
  9
$SURFV
 70
     6
  9
$UCSBASE
  2

  9
$UCSNAME
  2

  9
$UCSORG
 10
0.0
 20
0.0
 30
0.0
  9
$UCSXDIR
 10
1.0
 20
0.0
 30
0.0
  9
$UCSYDIR
 10
0.0
 20
1.0
 30
0.0
  9
$UCSORTHOREF
  2

  9
$UCSORTHOVIEW
 70
     0
  9
$UCSORGTOP
 10
0.0
 20
0.0
 30
0.0
  9
$UCSORGBOTTOM
 10
0.0
 20
0.0
 30
0.0
  9
$UCSORGLEFT
 10
0.0
 20
0.0
 30
0.0
  9
$UCSORGRIGHT
 10
0.0
 20
0.0
 30
0.0
  9
$UCSORGFRONT
 10
0.0
 20
0.0
 30
0.0
  9
$UCSORGBACK
 10
0.0
 20
0.0
 30
0.0
  9
$PUCSBASE
  2

  9
$PUCSNAME
  2

  9
$PUCSORG
 10
0.0
 20
0.0
 30
0.0
  9
$PUCSXDIR
 10
1.0
 20
0.0
 30
0.0
  9
$PUCSYDIR
 10
0.0
 20
1.0
 30
0.0
  9
$PUCSORTHOREF
  2

  9
$PUCSORTHOVIEW
 70
     0
  9
$PUCSORGTOP
 10
0.0
 20
0.0
 30
0.0
  9
$PUCSORGBOTTOM
 10
0.0
 20
0.0
 30
0.0
  9
$PUCSORGLEFT
 10
0.0
 20
0.0
 30
0.0
  9
$PUCSORGRIGHT
 10
0.0
 20
0.0
 30
0.0
  9
$PUCSORGFRONT
 10
0.0
 20
0.0
 30
0.0
  9
$PUCSORGBACK
 10
0.0
 20
0.0
 30
0.0
  9
$USERI1
 70
     0
  9
$USERI2
 70
     0
  9
$USERI3
 70
     0
  9
$USERI4
 70
     0
  9
$USERI5
 70
     0
  9
$USERR1
 40
0.0
  9
$USERR2
 40
0.0
  9
$USERR3
 40
0.0
  9
$USERR4
 40
0.0
  9
$USERR5
 40
0.0
  9
$WORLDVIEW
 70
     1
  9
$SHADEDGE
 70
     3
  9
$SHADEDIF
 70
    70
  9
$TILEMODE
 70
     1
  9
$MAXACTVP
 70
    64
  9
$PINSBASE
 10
0.0
 20
0.0
 30
0.0
  9
$PLIMCHECK
 70
     0
  9
$PEXTMIN
 10
1.000000000000000E+20
 20
1.000000000000000E+20
 30
1.000000000000000E+20
  9
$PEXTMAX
 10
-1.000000000000000E+20
 20
-1.000000000000000E+20
 30
-1.000000000000000E+20
  9
$PLIMMIN
 10
0.0
 20
0.0
  9
$PLIMMAX
 10
12.0
 20
9.0
  9
$UNITMODE
 70
     0
  9
$VISRETAIN
 70
     1
  9
$PLINEGEN
 70
     0
  9
$PSLTSCALE
 70
     1
  9
$TREEDEPTH
 70
  3020
  9
$CMLSTYLE
  2
Standard
  9
$CMLJUST
 70
     0
  9
$CMLSCALE
 40
1.0
  9
$PROXYGRAPHICS
 70
     1
  9
$MEASUREMENT
 70
     0
  9
$CELWEIGHT
370
    -1
  9
$ENDCAPS
280
     0
  9
$JOINSTYLE
280
     0
  9
$LWDISPLAY
290
     1
  9
$INSUNITS
 70
     1
  9
$HYPERLINKBASE
  1

  9
$STYLESHEET
  1

  9
$XEDIT
290
     1
  9
$CEPSNTYPE
380
     0
  9
$PSTYLEMODE
290
     1
  9
$FINGERPRINTGUID
  2
{50B3769C-1DC8-1E96-0DC5-5AF22F77E380}
  9
$VERSIONGUID
  2
{FAEB1C32-E019-11D5-929B-00C0DF256EC4}
  9
$EXTNAMES
290
     1
  9
$PSVPSCALE
 40
0.0
  9
$OLESTARTUP
290
     0
  9
$SORTENTS
280
   127
  9
$INDEXCTL
280
     0
  9
$HIDETEXT
280
     1
  9
$XCLIPFRAME
280
     2
  9
$HALOGAP
280
     0
  9
$OBSCOLOR
 70
   257
  9
$OBSLTYPE
280
     0
  9
$INTERSECTIONDISPLAY
280
     0
  9
$INTERSECTIONCOLOR
 70
   257
  9
$DIMASSOC
280
     2
  9
$PROJECTNAME
  1

  9
$CAMERADISPLAY
290
     0
  9
$LENSLENGTH
 40
50.0
  9
$CAMERAHEIGHT
 40
0.0
  9
$STEPSPERSEC
 40
2.0
  9
$STEPSIZE
 40
6.0
  9
$3DDWFPREC
 40
2.0
  9
$PSOLWIDTH
 40
0.25
  9
$PSOLHEIGHT
 40
4.0
  9
$LOFTANG1
 40
1.570796326794897
  9
$LOFTANG2
 40
1.570796326794897
  9
$LOFTMAG1
 40
0.0
  9
$LOFTMAG2
 40
0.0
  9
$LOFTPARAM
 70
     7
  9
$LOFTNORMALS
280
     1
  9
$LATITUDE
 40
37.795
  9
$LONGITUDE
 40
-122.394
  9
$NORTHDIRECTION
 40
0.0
  9
$TIMEZONE
 70
 -8000
  9
$LIGHTGLYPHDISPLAY
280
     1
  9
$TILEMODELIGHTSYNCH
280
     1
  9
$CMATERIAL
347
3C
  9
$SOLIDHIST
280
     1
  9
$SHOWHIST
280
     1
  9
$DWFFRAME
280
     2
  9
$DGNFRAME
280
     2
  9
$REALWORLDSCALE
290
     1
  9
$INTERFERECOLOR
 62
   256
  9
$CSHADOW
280
     0
  9
$SHADOWPLANELOCATION
 40
0.0
  0
ENDSEC
  0
SECTION
  2
CLASSES
  0
CLASS
  1
ACDBDICTIONARYWDFLT
  2
AcDbDictionaryWithDefault
  3
ObjectDBX Classes
 90
        0
 91
        4
280
     0
281
     0
  0
CLASS
  1
VISUALSTYLE
  2
AcDbVisualStyle
  3
ObjectDBX Classes
 90
     4095
 91
        4
280
     0
281
     0
  0
CLASS
  1
MATERIAL
  2
AcDbMaterial
  3
ObjectDBX Classes
 90
     1153
 91
        4
280
     0
281
     0
  0
CLASS
  1
SUN
  2
AcDbSun
  3
SCENEOE
 90
     1024
 91
        4
280
     0
281
     0
  0
ENDSEC
  0
SECTION
  2
TABLES
  0
TABLE
  2
VPORT
  5
8
330
0
100
AcDbSymbolTable
 70
     1
  0
VPORT
  5
29
330
8
100
AcDbSymbolTableRecord
100
AcDbViewportTableRecord
  2
*Active
 70
     0
 10
0.0
 20
0.0
 11
1.0
 21
1.0
 12
0.0
 22
0.0
 13
0.0
 23
0.0
 14
0.5
 24
0.5
 15
0.5
 25
0.5
 16
0.0
 26
0.0
 36
1.0
 17
91.00082462281999
 27
-128.4993055234307
 37
0.0
 40
256.9986110468615
 41
0.7081814508812795
 42
50.0
 43
0.0
 44
0.0
 50
0.0
 51
0.0
 71
     0
 72
   100
 73
     1
 74
     3
 75
     0
 76
     0
 77
     0
 78
     0
281
     0
 65
     1
110
0.0
120
0.0
130
0.0
111
1.0
121
0.0
131
0.0
112
0.0
122
1.0
132
0.0
 79
     0
146
0.0
 60
     3
 61
     5
292
     1
282
     1
141
0.0
142
0.0
 63
   250
361
3F
  0
ENDTAB
  0
TABLE
  2
LTYPE
  5
5
330
0
100
AcDbSymbolTable
 70
     2
  0
LTYPE
  5
14
330
5
100
AcDbSymbolTableRecord
100
AcDbLinetypeTableRecord
  2
ByBlock
 70
     0
  3

 72
    65
 73
     0
 40
0.0
  0
LTYPE
  5
15
330
5
100
AcDbSymbolTableRecord
100
AcDbLinetypeTableRecord
  2
ByLayer
 70
     0
  3

 72
    65
 73
     0
 40
0.0
  0
LTYPE
  5
16
330
5
100
AcDbSymbolTableRecord
100
AcDbLinetypeTableRecord
  2
Continuous
 70
     0
  3
Solid line
 72
    65
 73
     0
 40
0.0
  0
LTYPE
  5
A5
330
5
100
AcDbSymbolTableRecord
100
AcDbLinetypeTableRecord
  2
AI-Linetype-1
 70
     0
  3
Adobe Illustrator Linetype No. 1
 72
    65
 73
     2
 40
1.411111110758333
 49
0.7055555553791667
 74
     0
 49
-0.7055555553791667
 74
     0
  0
ENDTAB
  0
TABLE
  2
LAYER
  5
2
330
0
100
AcDbSymbolTable
 70
     2
  0
LAYER
  5
10
330
2
100
AcDbSymbolTableRecord
100
AcDbLayerTableRecord
  2
0
 70
     0
 62
     7
  6
Continuous
370
    -3
390
F
347
3E
  0
LAYER
  5
40
330
2
100
AcDbSymbolTableRecord
100
AcDbLayerTableRecord
  2
_U+30EC_U+30A4_U+30E4_U+30FC 1
 70
     0
 62
     7
  6
Continuous
370
    -3
390
F
347
3E
  0
ENDTAB
  0
TABLE
  2
STYLE
  5
3
330
0
100
AcDbSymbolTable
 70
     1
  0
STYLE
  5
11
330
3
100
AcDbSymbolTableRecord
100
AcDbTextStyleTableRecord
  2
Standard
 70
     0
 40
0.0
 41
1.0
 50
0.0
 71
     0
 42
0.2
  3
txt
  4

  0
ENDTAB
  0
TABLE
  2
VIEW
  5
6
330
0
100
AcDbSymbolTable
 70
     0
  0
ENDTAB
  0
TABLE
  2
UCS
  5
7
330
0
100
AcDbSymbolTable
 70
     0
  0
ENDTAB
  0
TABLE
  2
APPID
  5
9
330
0
100
AcDbSymbolTable
 70
     1
  0
APPID
  5
12
330
9
100
AcDbSymbolTableRecord
100
AcDbRegAppTableRecord
  2
ACAD
 70
     0
  0
ENDTAB
  0
TABLE
  2
DIMSTYLE
  5
A
330
0
100
AcDbSymbolTable
 70
     1
100
AcDbDimStyleTable
  0
DIMSTYLE
105
27
330
A
100
AcDbSymbolTableRecord
100
AcDbDimStyleTableRecord
  2
Standard
 70
     0
178
     0
340
11
  0
ENDTAB
  0
TABLE
  2
BLOCK_RECORD
  5
1
330
0
100
AcDbSymbolTable
 70
     6
  0
BLOCK_RECORD
  5
1F
330
1
100
AcDbSymbolTableRecord
100
AcDbBlockTableRecord
  2
*Model_Space
340
22
 70
     0
280
     1
281
     0
  0
BLOCK_RECORD
  5
1B
330
1
100
AcDbSymbolTableRecord
100
AcDbBlockTableRecord
  2
*Paper_Space
340
1E
 70
     0
280
     1
281
     0
  0
BLOCK_RECORD
  5
23
330
1
100
AcDbSymbolTableRecord
100
AcDbBlockTableRecord
  2
*Paper_Space0
340
26
 70
     0
280
     1
281
     0
  0
BLOCK_RECORD
  5
57
330
1
100
AcDbSymbolTableRecord
100
AcDbBlockTableRecord
  2
block 2
340
0
102
{BLKREFS
331
58
102
}
 70
     0
280
     1
281
     0
  0
BLOCK_RECORD
  5
6B
330
1
100
AcDbSymbolTableRecord
100
AcDbBlockTableRecord
  2
block 3
340
0
102
{BLKREFS
331
6C
102
}
 70
     0
280
     1
281
     0
  0
BLOCK_RECORD
  5
85
330
1
100
AcDbSymbolTableRecord
100
AcDbBlockTableRecord
  2
block 4
340
0
102
{BLKREFS
331
86
102
}
 70
     0
280
     1
281
     0
  0
BLOCK_RECORD
  5
8E
330
1
100
AcDbSymbolTableRecord
100
AcDbBlockTableRecord
  2
block 5
340
0
102
{BLKREFS
331
8F
102
}
 70
     0
280
     1
281
     0
  0
BLOCK_RECORD
  5
96
330
1
100
AcDbSymbolTableRecord
100
AcDbBlockTableRecord
  2
block 6
340
0
102
{BLKREFS
331
97
102
}
 70
     0
280
     1
281
     0
  0
ENDTAB
  0
ENDSEC
  0
SECTION
  2
BLOCKS
  0
BLOCK
  5
20
330
1F
100
AcDbEntity
  8
0
100
AcDbBlockBegin
  2
*Model_Space
 70
     0
 10
0.0
 20
0.0
 30
0.0
  3
*Model_Space
  1

  0
ENDBLK
  5
21
330
1F
100
AcDbEntity
  8
0
100
AcDbBlockEnd
  0
BLOCK
  5
1C
330
1B
100
AcDbEntity
 67
     1
  8
0
100
AcDbBlockBegin
  2
*Paper_Space
 70
     0
 10
0.0
 20
0.0
 30
0.0
  3
*Paper_Space
  1

  0
ENDBLK
  5
1D
330
1B
100
AcDbEntity
 67
     1
  8
0
100
AcDbBlockEnd
  0
BLOCK
  5
24
330
23
100
AcDbEntity
  8
0
100
AcDbBlockBegin
  2
*Paper_Space0
 70
     0
 10
0.0
 20
0.0
 30
0.0
  3
*Paper_Space0
  1

  0
ENDBLK
  5
25
330
23
100
AcDbEntity
  8
0
100
AcDbBlockEnd
  0
BLOCK
  5
59
330
57
100
AcDbEntity
  8
0
100
AcDbBlockBegin
  2
block 2
 70
     0
 10
0.0
 20
0.0
 30
0.0
  3
block 2
  1

  0
SPLINE
  5
5B
330
57
100
AcDbEntity
  8
_U+30EC_U+30A4_U+30E4_U+30FC 1
370
     0
100
AcDbSpline
210
0.0
220
0.0
230
1.0
 70
    11
 71
     3
 72
    29
 73
    25
 74
     0
 42
0.0000000001
 43
0.0000000001
 12
1.0
 22
0.0
 32
0.0
 13
1.0
 23
0.0
 33
0.0
 40
0.0
 40
0.0
 40
0.0
 40
0.0
 40
1.0
 40
1.0
 40
1.0
 40
2.0
 40
2.0
 40
2.0
 40
3.0
 40
3.0
 40
3.0
 40
4.0
 40
4.0
 40
4.0
 40
5.0
 40
5.0
 40
5.0
 40
6.0
 40
6.0
 40
6.0
 40
7.0
 40
7.0
 40
7.0
 40
8.0
 40
8.0
 40
8.0
 40
8.0
 10
84.67200654350214
 20
-118.571401608812
 30
0.0
 10
84.38709714687198
 20
-118.571401608812
 30
0.0
 10
84.11579587740856
 20
-118.4337700441763
 30
0.0
 10
84.11579587740856
 20
-118.0847818715205
 30
0.0
 10
84.11579587740856
 20
-117.8288112769664
 30
0.0
 10
84.26720782398529
 20
-117.7335543867993
 30
0.0
 10
84.38037921067574
 20
-117.6722316871618
 30
0.0
 10
84.24688176062232
 20
-117.6129760448155
 30
0.0
 10
84.16557750717041
 20
-117.4987711294795
 30
0.0
 10
84.16557750717041
 20
-117.3380574250926
 30
0.0
 10
84.16557750717041
 20
-117.0629665505954
 30
0.0
 10
84.37796764383607
 20
-116.927574298025
 30
0.0
 10
84.67200654350214
 20
-116.927574298025
 30
0.0
 10
84.97500269142986
 20
-116.927574298025
 30
0.0
 10
85.17843557983387
 20
-117.0714070345342
 30
0.0
 10
85.17843557983387
 20
-117.3380574250926
 30
0.0
 10
85.17843557983387
 20
-117.4987711294795
 30
0.0
 10
85.0947197595423
 20
-117.6129760448155
 30
0.0
 10
84.96139456426313
 20
-117.6722316871618
 30
0.0
 10
85.05630694488175
 20
-117.7230468455692
 30
0.0
 10
85.22580564275606
 20
-117.8183037357364
 30
0.0
 10
85.22580564275606
 20
-118.0806477569382
 30
0.0
 10
85.22580564275606
 20
-118.4549573814106
 30
0.0
 10
84.92746037373341
 20
-118.571401608812
 30
0.0
 10
84.67200654350214
 20
-118.571401608812
 30
0.0
  0
SPLINE
  5
5C
330
57
100
AcDbEntity
  8
_U+30EC_U+30A4_U+30E4_U+30FC 1
370
     0
100
AcDbSpline
210
0.0
220
0.0
230
1.0
 70
    11
 71
     3
 72
    17
 73
    13
 74
     0
 42
0.0000000001
 43
0.0000000001
 12
1.0
 22
0.0
 32
0.0
 13
1.0
 23
0.0
 33
0.0
 40
0.0
 40
0.0
 40
0.0
 40
0.0
 40
1.0
 40
1.0
 40
1.0
 40
2.0
 40
2.0
 40
2.0
 40
3.0
 40
3.0
 40
3.0
 40
4.0
 40
4.0
 40
4.0
 40
4.0
 10
84.67200654350214
 20
-117.7802354306244
 30
0.0
 10
84.51818303008574
 20
-117.7802354306244
 30
0.0
 10
84.35540226840769
 20
-117.8668795820784
 30
0.0
 10
84.35540226840769
 20
-118.0699679609339
 30
0.0
 10
84.35540226840769
 20
-118.2751233970805
 30
0.0
 10
84.49113903052653
 20
-118.3767537138954
 30
0.0
 10
84.67200654350214
 20
-118.3767537138954
 30
0.0
 10
84.87096080777532
 20
-118.3767537138954
 30
0.0
 10
84.98843856382234
 20
-118.2541083146205
 30
0.0
 10
84.98843856382234
 20
-118.0763413875816
 30
0.0
 10
84.98843856382234
 20
-117.854132728783
 30
0.0
 10
84.81446124181723
 20
-117.7802354306244
 30
0.0
 10
84.67200654350214
 20
-117.7802354306244
 30
0.0
  0
SPLINE
  5
5D
330
57
100
AcDbEntity
  8
_U+30EC_U+30A4_U+30E4_U+30FC 1
370
     0
100
AcDbSpline
210
0.0
220
0.0
230
1.0
 70
    11
 71
     3
 72
    17
 73
    13
 74
     0
 42
0.0000000001
 43
0.0000000001
 12
1.0
 22
0.0
 32
0.0
 13
1.0
 23
0.0
 33
0.0
 40
0.0
 40
0.0
 40
0.0
 40
0.0
 40
1.0
 40
1.0
 40
1.0
 40
2.0
 40
2.0
 40
2.0
 40
3.0
 40
3.0
 40
3.0
 40
4.0
 40
4.0
 40
4.0
 40
4.0
 10
84.67200654350214
 20
-117.1201551356505
 30
0.0
 10
84.49561765465735
 20
-117.1201551356505
 30
0.0
 10
84.40518389816954
 20
-117.2152397710434
 30
0.0
 10
84.40518389816954
 20
-117.3506320236137
 30
0.0
 10
84.40518389816954
 20
-117.4734496776629
 30
0.0
 10
84.48200952749062
 20
-117.5919609623555
 30
0.0
 10
84.67200654350214
 20
-117.5919609623555
 30
0.0
 10
84.86183130473941
 20
-117.5919609623555
 30
0.0
 10
84.93882918883475
 20
-117.4734496776629
 30
0.0
 10
84.93882918883475
 20
-117.3506320236137
 30
0.0
 10
84.93882918883475
 20
-117.2152397710434
 30
0.0
 10
84.84598386550726
 20
-117.1201551356505
 30
0.0
 10
84.67200654350214
 20
-117.1201551356505
 30
0.0
  0
HATCH
  5
5E
330
57
100
AcDbEntity
  8
_U+30EC_U+30A4_U+30E4_U+30FC 1
 62
     7
420
 16777215
100
AcDbHatch
 10
0.0
 20
0.0
 30
0.0
210
0.0
220
0.0
230
1.0
  2
SOLID
 70
     1
 71
     0
 91
        3
 92
        1
 93
        1
 72
     4
 94
        3
 73
     0
 74
     1
 95
       29
 96
       25
 40
0.0
 40
0.0
 40
0.0
 40
0.0
 40
1.0
 40
1.0
 40
1.0
 40
2.0
 40
2.0
 40
2.0
 40
3.0
 40
3.0
 40
3.0
 40
4.0
 40
4.0
 40
4.0
 40
5.0
 40
5.0
 40
5.0
 40
6.0
 40
6.0
 40
6.0
 40
7.0
 40
7.0
 40
7.0
 40
8.0
 40
8.0
 40
8.0
 40
8.0
 10
84.67200654350214
 20
-118.571401608812
 10
84.38709714687198
 20
-118.571401608812
 10
84.11579587740856
 20
-118.4337700441763
 10
84.11579587740856
 20
-118.0847818715205
 10
84.11579587740856
 20
-117.8288112769664
 10
84.26720782398529
 20
-117.7335543867993
 10
84.38037921067574
 20
-117.6722316871618
 10
84.24688176062232
 20
-117.6129760448155
 10
84.16557750717041
 20
-117.4987711294795
 10
84.16557750717041
 20
-117.3380574250926
 10
84.16557750717041
 20
-117.0629665505954
 10
84.37796764383607
 20
-116.927574298025
 10
84.67200654350214
 20
-116.927574298025
 10
84.97500269142986
 20
-116.927574298025
 10
85.17843557983387
 20
-117.0714070345342
 10
85.17843557983387
 20
-117.3380574250926
 10
85.17843557983387
 20
-117.4987711294795
 10
85.0947197595423
 20
-117.6129760448155
 10
84.96139456426313
 20
-117.6722316871618
 10
85.05630694488175
 20
-117.7230468455692
 10
85.22580564275606
 20
-117.8183037357364
 10
85.22580564275606
 20
-118.0806477569382
 10
85.22580564275606
 20
-118.4549573814106
 10
84.92746037373341
 20
-118.571401608812
 10
84.67200654350214
 20
-118.571401608812
 97
        0
 97
        0
 92
        1
 93
        1
 72
     4
 94
        3
 73
     0
 74
     1
 95
       17
 96
       13
 40
0.0
 40
0.0
 40
0.0
 40
0.0
 40
1.0
 40
1.0
 40
1.0
 40
2.0
 40
2.0
 40
2.0
 40
3.0
 40
3.0
 40
3.0
 40
4.0
 40
4.0
 40
4.0
 40
4.0
 10
84.67200654350214
 20
-117.7802354306244
 10
84.51818303008574
 20
-117.7802354306244
 10
84.35540226840769
 20
-117.8668795820784
 10
84.35540226840769
 20
-118.0699679609339
 10
84.35540226840769
 20
-118.2751233970805
 10
84.49113903052653
 20
-118.3767537138954
 10
84.67200654350214
 20
-118.3767537138954
 10
84.87096080777532
 20
-118.3767537138954
 10
84.98843856382234
 20
-118.2541083146205
 10
84.98843856382234
 20
-118.0763413875816
 10
84.98843856382234
 20
-117.854132728783
 10
84.81446124181723
 20
-117.7802354306244
 10
84.67200654350214
 20
-117.7802354306244
 97
        0
 97
        0
 92
        1
 93
        1
 72
     4
 94
        3
 73
     0
 74
     1
 95
       17
 96
       13
 40
0.0
 40
0.0
 40
0.0
 40
0.0
 40
1.0
 40
1.0
 40
1.0
 40
2.0
 40
2.0
 40
2.0
 40
3.0
 40
3.0
 40
3.0
 40
4.0
 40
4.0
 40
4.0
 40
4.0
 10
84.67200654350214
 20
-117.1201551356505
 10
84.49561765465735
 20
-117.1201551356505
 10
84.40518389816954
 20
-117.2152397710434
 10
84.40518389816954
 20
-117.3506320236137
 10
84.40518389816954
 20
-117.4734496776629
 10
84.48200952749062
 20
-117.5919609623555
 10
84.67200654350214
 20
-117.5919609623555
 10
84.86183130473941
 20
-117.5919609623555
 10
84.93882918883475
 20
-117.4734496776629
 10
84.93882918883475
 20
-117.3506320236137
 10
84.93882918883475
 20
-117.2152397710434
 10
84.84598386550726
 20
-117.1201551356505
 10
84.67200654350214
 20
-117.1201551356505
 97
        0
 97
        0
 75
     2
 76
     1
 98
        0
  0
ENDBLK
  5
5A
330
57
100
AcDbEntity
  8
0
100
AcDbBlockEnd
  0
BLOCK
  5
6D
330
6B
100
AcDbEntity
  8
0
100
AcDbBlockBegin
  2
block 3
 70
     0
 10
0.0
 20
0.0
 30
0.0
  3
block 3
  1

  0
SPLINE
  5
6F
330
6B
100
AcDbEntity
  8
_U+30EC_U+30A4_U+30E4_U+30FC 1
370
     0
100
AcDbSpline
210
0.0
220
0.0
230
1.0
 70
    11
 71
     3
 72
    26
 73
    22
 74
     0
 42
0.0000000001
 43
0.0000000001
 12
1.0
 22
0.0
 32
0.0
 13
1.0
 23
0.0
 33
0.0
 40
0.0
 40
0.0
 40
0.0
 40
0.0
 40
1.0
 40
1.0
 40
1.0
 40
2.0
 40
2.0
 40
2.0
 40
3.0
 40
3.0
 40
3.0
 40
4.0
 40
4.0
 40
4.0
 40
5.0
 40
5.0
 40
5.0
 40
6.0
 40
6.0
 40
6.0
 40
7.0
 40
7.0
 40
7.0
 40
7.0
 10
88.95305444824785
 20
-138.520743780474
 30
0.0
 10
88.95305444824785
 20
-138.520743780474
 30
0.0
 10
88.95305444824785
 20
-137.4165906774514
 30
0.0
 10
88.95305444824785
 20
-137.4165906774514
 30
0.0
 10
88.95305444824785
 20
-137.4165906774514
 30
0.0
 10
88.6006211801068
 20
-137.4165906774514
 30
0.0
 10
88.6006211801068
 20
-137.4165906774514
 30
0.0
 10
88.6006211801068
 20
-137.4165906774514
 30
0.0
 10
88.6006211801068
 20
-137.2684515715857
 30
0.0
 10
88.6006211801068
 20
-137.2684515715857
 30
0.0
 10
88.95546601508752
 20
-137.2536376609991
 30
0.0
 10
89.00507539007512
 20
-137.0906846445468
 30
0.0
 10
89.03677026853943
 20
-136.9763074744365
 30
0.0
 10
89.03677026853943
 20
-136.9763074744365
 30
0.0
 10
89.19283309402124
 20
-136.9763074744365
 30
0.0
 10
89.19283309402124
 20
-136.9763074744365
 30
0.0
 10
89.19283309402124
 20
-136.9763074744365
 30
0.0
 10
89.19283309402124
 20
-138.520743780474
 30
0.0
 10
89.19283309402124
 20
-138.520743780474
 30
0.0
 10
89.19283309402124
 20
-138.520743780474
 30
0.0
 10
88.95305444824785
 20
-138.520743780474
 30
0.0
 10
88.95305444824785
 20
-138.520743780474
 30
0.0
  0
HATCH
  5
70
330
6B
100
AcDbEntity
  8
_U+30EC_U+30A4_U+30E4_U+30FC 1
 62
     7
420
 16777215
100
AcDbHatch
 10
0.0
 20
0.0
 30
0.0
210
0.0
220
0.0
230
1.0
  2
SOLID
 70
     1
 71
     0
 91
        1
 92
        1
 93
        1
 72
     4
 94
        3
 73
     0
 74
     1
 95
       26
 96
       22
 40
0.0
 40
0.0
 40
0.0
 40
0.0
 40
1.0
 40
1.0
 40
1.0
 40
2.0
 40
2.0
 40
2.0
 40
3.0
 40
3.0
 40
3.0
 40
4.0
 40
4.0
 40
4.0
 40
5.0
 40
5.0
 40
5.0
 40
6.0
 40
6.0
 40
6.0
 40
7.0
 40
7.0
 40
7.0
 40
7.0
 10
88.95305444824785
 20
-138.520743780474
 10
88.95305444824785
 20
-138.520743780474
 10
88.95305444824785
 20
-137.4165906774514
 10
88.95305444824785
 20
-137.4165906774514
 10
88.95305444824785
 20
-137.4165906774514
 10
88.6006211801068
 20
-137.4165906774514
 10
88.6006211801068
 20
-137.4165906774514
 10
88.6006211801068
 20
-137.4165906774514
 10
88.6006211801068
 20
-137.2684515715857
 10
88.6006211801068
 20
-137.2684515715857
 10
88.95546601508752
 20
-137.2536376609991
 10
89.00507539007512
 20
-137.0906846445468
 10
89.03677026853943
 20
-136.9763074744365
 10
89.03677026853943
 20
-136.9763074744365
 10
89.19283309402124
 20
-136.9763074744365
 10
89.19283309402124
 20
-136.9763074744365
 10
89.19283309402124
 20
-136.9763074744365
 10
89.19283309402124
 20
-138.520743780474
 10
89.19283309402124
 20
-138.520743780474
 10
89.19283309402124
 20
-138.520743780474
 10
88.95305444824785
 20
-138.520743780474
 10
88.95305444824785
 20
-138.520743780474
 97
        0
 97
        0
 75
     2
 76
     1
 98
        0
  0
SPLINE
  5
71
330
6B
100
AcDbEntity
  8
_U+30EC_U+30A4_U+30E4_U+30FC 1
370
     0
100
AcDbSpline
210
0.0
220
0.0
230
1.0
 70
    11
 71
     3
 72
    29
 73
    25
 74
     0
 42
0.0000000001
 43
0.0000000001
 12
1.0
 22
0.0
 32
0.0
 13
1.0
 23
0.0
 33
0.0
 40
0.0
 40
0.0
 40
0.0
 40
0.0
 40
1.0
 40
1.0
 40
1.0
 40
2.0
 40
2.0
 40
2.0
 40
3.0
 40
3.0
 40
3.0
 40
4.0
 40
4.0
 40
4.0
 40
5.0
 40
5.0
 40
5.0
 40
6.0
 40
6.0
 40
6.0
 40
7.0
 40
7.0
 40
7.0
 40
8.0
 40
8.0
 40
8.0
 40
8.0
 10
90.26287975173985
 20
-138.5713866841072
 30
0.0
 10
89.97797035510968
 20
-138.5713866841072
 30
0.0
 10
89.70684134042051
 20
-138.4339273742457
 30
0.0
 10
89.70684134042051
 20
-138.0849392015899
 30
0.0
 10
89.70684134042051
 20
-137.8289686070358
 30
0.0
 10
89.85842554177151
 20
-137.7338839716429
 30
0.0
 10
89.97142467368771
 20
-137.6725612720055
 30
0.0
 10
89.83809947840854
 20
-137.6133056296592
 30
0.0
 10
89.7564507154081
 20
-137.4989284595489
 30
0.0
 10
89.7564507154081
 20
-137.3380425003877
 30
0.0
 10
89.7564507154081
 20
-137.0631238806648
 30
0.0
 10
89.96901310684802
 20
-136.9277316280944
 30
0.0
 10
90.26287975173985
 20
-136.9277316280944
 30
0.0
 10
90.56604815444183
 20
-136.9277316280944
 30
0.0
 10
90.76930878807157
 20
-137.0717366193779
 30
0.0
 10
90.76930878807157
 20
-137.3380425003877
 30
0.0
 10
90.76930878807157
 20
-137.4989284595489
 30
0.0
 10
90.68593747732852
 20
-137.6133056296592
 30
0.0
 10
90.55226777250083
 20
-137.6725612720055
 30
0.0
 10
90.64735240789372
 20
-137.7232041756386
 30
0.0
 10
90.81685110576801
 20
-137.8182888110316
 30
0.0
 10
90.81685110576801
 20
-138.0808050870076
 30
0.0
 10
90.81685110576801
 20
-138.4552869662542
 30
0.0
 10
90.51850583674538
 20
-138.5713866841072
 30
0.0
 10
90.26287975173985
 20
-138.5713866841072
 30
0.0
  0
SPLINE
  5
72
330
6B
100
AcDbEntity
  8
_U+30EC_U+30A4_U+30E4_U+30FC 1
370
     0
100
AcDbSpline
210
0.0
220
0.0
230
1.0
 70
    11
 71
     3
 72
    17
 73
    13
 74
     0
 42
0.0000000001
 43
0.0000000001
 12
1.0
 22
0.0
 32
0.0
 13
1.0
 23
0.0
 33
0.0
 40
0.0
 40
0.0
 40
0.0
 40
0.0
 40
1.0
 40
1.0
 40
1.0
 40
2.0
 40
2.0
 40
2.0
 40
3.0
 40
3.0
 40
3.0
 40
4.0
 40
4.0
 40
4.0
 40
4.0
 10
90.26287975173985
 20
-137.7803927606938
 30
0.0
 10
90.1092284930977
 20
-137.7803927606938
 30
0.0
 10
89.94661998619391
 20
-137.8672091669221
 30
0.0
 10
89.94661998619391
 20
-138.0701252910033
 30
0.0
 10
89.94661998619391
 20
-138.2754529819242
 30
0.0
 10
90.08201223876422
 20
-138.3767387891905
 30
0.0
 10
90.26287975173985
 20
-138.3767387891905
 30
0.0
 10
90.46200627078728
 20
-138.3767387891905
 30
0.0
 10
90.5794840268343
 20
-138.2540933899157
 30
0.0
 10
90.5794840268343
 20
-138.0763264628768
 30
0.0
 10
90.5794840268343
 20
-137.8544623136267
 30
0.0
 10
90.40550670482918
 20
-137.7803927606938
 30
0.0
 10
90.26287975173985
 20
-137.7803927606938
 30
0.0
  0
SPLINE
  5
73
330
6B
100
AcDbEntity
  8
_U+30EC_U+30A4_U+30E4_U+30FC 1
370
     0
100
AcDbSpline
210
0.0
220
0.0
230
1.0
 70
    11
 71
     3
 72
    17
 73
    13
 74
     0
 42
0.0000000001
 43
0.0000000001
 12
1.0
 22
0.0
 32
0.0
 13
1.0
 23
0.0
 33
0.0
 40
0.0
 40
0.0
 40
0.0
 40
0.0
 40
1.0
 40
1.0
 40
1.0
 40
2.0
 40
2.0
 40
2.0
 40
3.0
 40
3.0
 40
3.0
 40
4.0
 40
4.0
 40
4.0
 40
4.0
 10
90.26287975173985
 20
-137.1203124657199
 30
0.0
 10
90.08683537244357
 20
-137.1203124657199
 30
0.0
 10
89.9962293611815
 20
-137.2153971011128
 30
0.0
 10
89.9962293611815
 20
-137.3507893536832
 30
0.0
 10
89.9962293611815
 20
-137.473434752958
 30
0.0
 10
90.07305499050257
 20
-137.5919460376506
 30
0.0
 10
90.26287975173985
 20
-137.5919460376506
 30
0.0
 10
90.45304902252563
 20
-137.5919460376506
 30
0.0
 10
90.5298746518467
 20
-137.473434752958
 30
0.0
 10
90.5298746518467
 20
-137.3507893536832
 30
0.0
 10
90.5298746518467
 20
-137.2153971011128
 30
0.0
 10
90.43720158329349
 20
-137.1203124657199
 30
0.0
 10
90.26287975173985
 20
-137.1203124657199
 30
0.0
  0
HATCH
  5
74
330
6B
100
AcDbEntity
  8
_U+30EC_U+30A4_U+30E4_U+30FC 1
 62
     7
420
 16777215
100
AcDbHatch
 10
0.0
 20
0.0
 30
0.0
210
0.0
220
0.0
230
1.0
  2
SOLID
 70
     1
 71
     0
 91
        3
 92
        1
 93
        1
 72
     4
 94
        3
 73
     0
 74
     1
 95
       29
 96
       25
 40
0.0
 40
0.0
 40
0.0
 40
0.0
 40
1.0
 40
1.0
 40
1.0
 40
2.0
 40
2.0
 40
2.0
 40
3.0
 40
3.0
 40
3.0
 40
4.0
 40
4.0
 40
4.0
 40
5.0
 40
5.0
 40
5.0
 40
6.0
 40
6.0
 40
6.0
 40
7.0
 40
7.0
 40
7.0
 40
8.0
 40
8.0
 40
8.0
 40
8.0
 10
90.26287975173985
 20
-138.5713866841072
 10
89.97797035510968
 20
-138.5713866841072
 10
89.70684134042051
 20
-138.4339273742457
 10
89.70684134042051
 20
-138.0849392015899
 10
89.70684134042051
 20
-137.8289686070358
 10
89.85842554177151
 20
-137.7338839716429
 10
89.97142467368771
 20
-137.6725612720055
 10
89.83809947840854
 20
-137.6133056296592
 10
89.7564507154081
 20
-137.4989284595489
 10
89.7564507154081
 20
-137.3380425003877
 10
89.7564507154081
 20
-137.0631238806648
 10
89.96901310684802
 20
-136.9277316280944
 10
90.26287975173985
 20
-136.9277316280944
 10
90.56604815444183
 20
-136.9277316280944
 10
90.76930878807157
 20
-137.0717366193779
 10
90.76930878807157
 20
-137.3380425003877
 10
90.76930878807157
 20
-137.4989284595489
 10
90.68593747732852
 20
-137.6133056296592
 10
90.55226777250083
 20
-137.6725612720055
 10
90.64735240789372
 20
-137.7232041756386
 10
90.81685110576801
 20
-137.8182888110316
 10
90.81685110576801
 20
-138.0808050870076
 10
90.81685110576801
 20
-138.4552869662542
 10
90.51850583674538
 20
-138.5713866841072
 10
90.26287975173985
 20
-138.5713866841072
 97
        0
 97
        0
 92
        1
 93
        1
 72
     4
 94
        3
 73
     0
 74
     1
 95
       17
 96
       13
 40
0.0
 40
0.0
 40
0.0
 40
0.0
 40
1.0
 40
1.0
 40
1.0
 40
2.0
 40
2.0
 40
2.0
 40
3.0
 40
3.0
 40
3.0
 40
4.0
 40
4.0
 40
4.0
 40
4.0
 10
90.26287975173985
 20
-137.7803927606938
 10
90.1092284930977
 20
-137.7803927606938
 10
89.94661998619391
 20
-137.8672091669221
 10
89.94661998619391
 20
-138.0701252910033
 10
89.94661998619391
 20
-138.2754529819242
 10
90.08201223876422
 20
-138.3767387891905
 10
90.26287975173985
 20
-138.3767387891905
 10
90.46200627078728
 20
-138.3767387891905
 10
90.5794840268343
 20
-138.2540933899157
 10
90.5794840268343
 20
-138.0763264628768
 10
90.5794840268343
 20
-137.8544623136267
 10
90.40550670482918
 20
-137.7803927606938
 10
90.26287975173985
 20
-137.7803927606938
 97
        0
 97
        0
 92
        1
 93
        1
 72
     4
 94
        3
 73
     0
 74
     1
 95
       17
 96
       13
 40
0.0
 40
0.0
 40
0.0
 40
0.0
 40
1.0
 40
1.0
 40
1.0
 40
2.0
 40
2.0
 40
2.0
 40
3.0
 40
3.0
 40
3.0
 40
4.0
 40
4.0
 40
4.0
 40
4.0
 10
90.26287975173985
 20
-137.1203124657199
 10
90.08683537244357
 20
-137.1203124657199
 10
89.9962293611815
 20
-137.2153971011128
 10
89.9962293611815
 20
-137.3507893536832
 10
89.9962293611815
 20
-137.473434752958
 10
90.07305499050257
 20
-137.5919460376506
 10
90.26287975173985
 20
-137.5919460376506
 10
90.45304902252563
 20
-137.5919460376506
 10
90.5298746518467
 20
-137.473434752958
 10
90.5298746518467
 20
-137.3507893536832
 10
90.5298746518467
 20
-137.2153971011128
 10
90.43720158329349
 20
-137.1203124657199
 10
90.26287975173985
 20
-137.1203124657199
 97
        0
 97
        0
 75
     2
 76
     1
 98
        0
  0
ENDBLK
  5
6E
330
6B
100
AcDbEntity
  8
0
100
AcDbBlockEnd
  0
BLOCK
  5
87
330
85
100
AcDbEntity
  8
0
100
AcDbBlockBegin
  2
block 4
 70
     0
 10
0.0
 20
0.0
 30
0.0
  3
block 4
  1

  0
SPLINE
  5
89
330
85
100
AcDbEntity
  8
_U+30EC_U+30A4_U+30E4_U+30FC 1
370
     0
100
AcDbSpline
210
0.0
220
0.0
230
1.0
 70
    11
 71
     3
 72
    26
 73
    22
 74
     0
 42
0.0000000001
 43
0.0000000001
 12
1.0
 22
0.0
 32
0.0
 13
1.0
 23
0.0
 33
0.0
 40
0.0
 40
0.0
 40
0.0
 40
0.0
 40
1.0
 40
1.0
 40
1.0
 40
2.0
 40
2.0
 40
2.0
 40
3.0
 40
3.0
 40
3.0
 40
4.0
 40
4.0
 40
4.0
 40
5.0
 40
5.0
 40
5.0
 40
6.0
 40
6.0
 40
6.0
 40
7.0
 40
7.0
 40
7.0
 40
7.0
 10
100.9805718063521
 20
-129.7932833876906
 30
0.0
 10
100.9805718063521
 20
-129.7932833876906
 30
0.0
 10
99.8764187033295
 20
-129.7932833876906
 30
0.0
 10
99.8764187033295
 20
-129.7932833876906
 30
0.0
 10
99.8764187033295
 20
-129.7932833876906
 30
0.0
 10
99.8764187033295
 20
-130.1457166558316
 30
0.0
 10
99.8764187033295
 20
-130.1457166558316
 30
0.0
 10
99.8764187033295
 20
-130.1457166558316
 30
0.0
 10
99.72827959746377
 20
-130.1457166558316
 30
0.0
 10
99.72827959746377
 20
-130.1457166558316
 30
0.0
 10
99.7134656868772
 20
-129.7908718208509
 30
0.0
 10
99.55051267042488
 20
-129.7412624458633
 30
0.0
 10
99.43613550031458
 20
-129.709567567399
 30
0.0
 10
99.43613550031458
 20
-129.709567567399
 30
0.0
 10
99.43613550031458
 20
-129.5535047419172
 30
0.0
 10
99.43613550031458
 20
-129.5535047419172
 30
0.0
 10
99.43613550031458
 20
-129.5535047419172
 30
0.0
 10
100.9805718063521
 20
-129.5535047419172
 30
0.0
 10
100.9805718063521
 20
-129.5535047419172
 30
0.0
 10
100.9805718063521
 20
-129.5535047419172
 30
0.0
 10
100.9805718063521
 20
-129.7932833876906
 30
0.0
 10
100.9805718063521
 20
-129.7932833876906
 30
0.0
  0
HATCH
  5
8A
330
85
100
AcDbEntity
  8
_U+30EC_U+30A4_U+30E4_U+30FC 1
 62
     7
420
 16777215
100
AcDbHatch
 10
0.0
 20
0.0
 30
0.0
210
0.0
220
0.0
230
1.0
  2
SOLID
 70
     1
 71
     0
 91
        1
 92
        1
 93
        1
 72
     4
 94
        3
 73
     0
 74
     1
 95
       26
 96
       22
 40
0.0
 40
0.0
 40
0.0
 40
0.0
 40
1.0
 40
1.0
 40
1.0
 40
2.0
 40
2.0
 40
2.0
 40
3.0
 40
3.0
 40
3.0
 40
4.0
 40
4.0
 40
4.0
 40
5.0
 40
5.0
 40
5.0
 40
6.0
 40
6.0
 40
6.0
 40
7.0
 40
7.0
 40
7.0
 40
7.0
 10
100.9805718063521
 20
-129.7932833876906
 10
100.9805718063521
 20
-129.7932833876906
 10
99.8764187033295
 20
-129.7932833876906
 10
99.8764187033295
 20
-129.7932833876906
 10
99.8764187033295
 20
-129.7932833876906
 10
99.8764187033295
 20
-130.1457166558316
 10
99.8764187033295
 20
-130.1457166558316
 10
99.8764187033295
 20
-130.1457166558316
 10
99.72827959746377
 20
-130.1457166558316
 10
99.72827959746377
 20
-130.1457166558316
 10
99.7134656868772
 20
-129.7908718208509
 10
99.55051267042488
 20
-129.7412624458633
 10
99.43613550031458
 20
-129.709567567399
 10
99.43613550031458
 20
-129.709567567399
 10
99.43613550031458
 20
-129.5535047419172
 10
99.43613550031458
 20
-129.5535047419172
 10
99.43613550031458
 20
-129.5535047419172
 10
100.9805718063521
 20
-129.5535047419172
 10
100.9805718063521
 20
-129.5535047419172
 10
100.9805718063521
 20
-129.5535047419172
 10
100.9805718063521
 20
-129.7932833876906
 10
100.9805718063521
 20
-129.7932833876906
 97
        0
 97
        0
 75
     2
 76
     1
 98
        0
  0
SPLINE
  5
8B
330
85
100
AcDbEntity
  8
_U+30EC_U+30A4_U+30E4_U+30FC 1
370
     0
100
AcDbSpline
210
0.0
220
0.0
230
1.0
 70
    11
 71
     3
 72
    29
 73
    25
 74
     0
 42
0.0000000001
 43
0.0000000001
 12
1.0
 22
0.0
 32
0.0
 13
1.0
 23
0.0
 33
0.0
 40
0.0
 40
0.0
 40
0.0
 40
0.0
 40
1.0
 40
1.0
 40
1.0
 40
2.0
 40
2.0
 40
2.0
 40
3.0
 40
3.0
 40
3.0
 40
4.0
 40
4.0
 40
4.0
 40
5.0
 40
5.0
 40
5.0
 40
6.0
 40
6.0
 40
6.0
 40
7.0
 40
7.0
 40
7.0
 40
8.0
 40
8.0
 40
8.0
 40
8.0
 10
100.8028048793132
 20
-128.0583333013188
 30
0.0
 10
101.0122666848164
 20
-128.1737440000746
 30
0.0
 10
101.0312147099852
 20
-128.3590901371811
 30
0.0
 10
101.0312147099852
 20
-128.4834580841986
 30
0.0
 10
101.0312147099852
 20
-128.655023839364
 30
0.0
 10
100.9847059209344
 20
-128.806608040715
 30
0.0
 10
100.8028048793132
 20
-128.9082383575299
 30
0.0
 10
100.6081569843966
 20
-129.0191704321549
 30
0.0
 10
100.3711344150114
 20
-129.0394964955179
 30
0.0
 10
100.2085259081076
 20
-129.0394964955179
 30
0.0
 10
100.0645209168242
 20
-129.0394964955179
 30
0.0
 10
99.8126844368524
 20
-129.0212374894461
 30
0.0
 10
99.61390242735348
 20
-128.9082383575299
 30
0.0
 10
99.41098630327225
 20
-128.7931721683225
 30
0.0
 10
99.38755965397256
 20
-128.6212619036086
 30
0.0
 10
99.38755965397256
 20
-128.4834580841986
 30
0.0
 10
99.38755965397256
 20
-128.3136148767758
 30
0.0
 10
99.43200138573228
 20
-128.1599636181336
 30
0.0
 10
99.61390242735348
 20
-128.0583333013188
 30
0.0
 10
99.80648326497894
 20
-127.9518798508245
 30
0.0
 10
100.034893095651
 20
-127.9270751633307
 30
0.0
 10
100.2085259081076
 20
-127.9270751633307
 30
0.0
 10
100.3797471537245
 20
-127.9270751633307
 30
0.0
 10
100.6102240416877
 20
-127.9498127935334
 30
0.0
 10
100.8028048793132
 20
-128.0583333013188
 30
0.0
  0
SPLINE
  5
8C
330
85
100
AcDbEntity
  8
_U+30EC_U+30A4_U+30E4_U+30FC 1
370
     0
100
AcDbSpline
210
0.0
220
0.0
230
1.0
 70
    11
 71
     3
 72
    17
 73
    13
 74
     0
 42
0.0000000001
 43
0.0000000001
 12
1.0
 22
0.0
 32
0.0
 13
1.0
 23
0.0
 33
0.0
 40
0.0
 40
0.0
 40
0.0
 40
0.0
 40
1.0
 40
1.0
 40
1.0
 40
2.0
 40
2.0
 40
2.0
 40
3.0
 40
3.0
 40
3.0
 40
4.0
 40
4.0
 40
4.0
 40
4.0
 10
99.58014049159803
 20
-128.4834580841986
 30
0.0
 10
99.58014049159803
 20
-128.7501084747569
 30
0.0
 10
99.86367185003408
 20
-128.7997178497445
 30
0.0
 10
100.2085259081076
 20
-128.7997178497445
 30
0.0
 10
100.5278862595903
 20
-128.7997178497445
 30
0.0
 10
100.8365668150686
 20
-128.7614772898582
 30
0.0
 10
100.8365668150686
 20
-128.4834580841986
 30
0.0
 10
100.8365668150686
 20
-128.2188747509314
 30
0.0
 10
100.5554470234723
 20
-128.1668538091041
 30
0.0
 10
100.2085259081076
 20
-128.1668538091041
 30
0.0
 10
99.8888210470764
 20
-128.1668538091041
 30
0.0
 10
99.58014049159803
 20
-128.2075059358301
 30
0.0
 10
99.58014049159803
 20
-128.4834580841986
 30
0.0
  0
HATCH
  5
8D
330
85
100
AcDbEntity
  8
_U+30EC_U+30A4_U+30E4_U+30FC 1
 62
     7
420
 16777215
100
AcDbHatch
 10
0.0
 20
0.0
 30
0.0
210
0.0
220
0.0
230
1.0
  2
SOLID
 70
     1
 71
     0
 91
        2
 92
        1
 93
        1
 72
     4
 94
        3
 73
     0
 74
     1
 95
       29
 96
       25
 40
0.0
 40
0.0
 40
0.0
 40
0.0
 40
1.0
 40
1.0
 40
1.0
 40
2.0
 40
2.0
 40
2.0
 40
3.0
 40
3.0
 40
3.0
 40
4.0
 40
4.0
 40
4.0
 40
5.0
 40
5.0
 40
5.0
 40
6.0
 40
6.0
 40
6.0
 40
7.0
 40
7.0
 40
7.0
 40
8.0
 40
8.0
 40
8.0
 40
8.0
 10
100.8028048793132
 20
-128.0583333013188
 10
101.0122666848164
 20
-128.1737440000746
 10
101.0312147099852
 20
-128.3590901371811
 10
101.0312147099852
 20
-128.4834580841986
 10
101.0312147099852
 20
-128.655023839364
 10
100.9847059209344
 20
-128.806608040715
 10
100.8028048793132
 20
-128.9082383575299
 10
100.6081569843966
 20
-129.0191704321549
 10
100.3711344150114
 20
-129.0394964955179
 10
100.2085259081076
 20
-129.0394964955179
 10
100.0645209168242
 20
-129.0394964955179
 10
99.8126844368524
 20
-129.0212374894461
 10
99.61390242735348
 20
-128.9082383575299
 10
99.41098630327225
 20
-128.7931721683225
 10
99.38755965397256
 20
-128.6212619036086
 10
99.38755965397256
 20
-128.4834580841986
 10
99.38755965397256
 20
-128.3136148767758
 10
99.43200138573228
 20
-128.1599636181336
 10
99.61390242735348
 20
-128.0583333013188
 10
99.80648326497894
 20
-127.9518798508245
 10
100.034893095651
 20
-127.9270751633307
 10
100.2085259081076
 20
-127.9270751633307
 10
100.3797471537245
 20
-127.9270751633307
 10
100.6102240416877
 20
-127.9498127935334
 10
100.8028048793132
 20
-128.0583333013188
 97
        0
 97
        0
 92
        1
 93
        1
 72
     4
 94
        3
 73
     0
 74
     1
 95
       17
 96
       13
 40
0.0
 40
0.0
 40
0.0
 40
0.0
 40
1.0
 40
1.0
 40
1.0
 40
2.0
 40
2.0
 40
2.0
 40
3.0
 40
3.0
 40
3.0
 40
4.0
 40
4.0
 40
4.0
 40
4.0
 10
99.58014049159803
 20
-128.4834580841986
 10
99.58014049159803
 20
-128.7501084747569
 10
99.86367185003408
 20
-128.7997178497445
 10
100.2085259081076
 20
-128.7997178497445
 10
100.5278862595903
 20
-128.7997178497445
 10
100.8365668150686
 20
-128.7614772898582
 10
100.8365668150686
 20
-128.4834580841986
 10
100.8365668150686
 20
-128.2188747509314
 10
100.5554470234723
 20
-128.1668538091041
 10
100.2085259081076
 20
-128.1668538091041
 10
99.8888210470764
 20
-128.1668538091041
 10
99.58014049159803
 20
-128.2075059358301
 10
99.58014049159803
 20
-128.4834580841986
 97
        0
 97
        0
 75
     2
 76
     1
 98
        0
  0
ENDBLK
  5
88
330
85
100
AcDbEntity
  8
0
100
AcDbBlockEnd
  0
BLOCK
  5
90
330
8E
100
AcDbEntity
  8
0
100
AcDbBlockBegin
  2
block 5
 70
     0
 10
0.0
 20
0.0
 30
0.0
  3
block 5
  1

  0
SPLINE
  5
92
330
8E
100
AcDbEntity
  8
_U+30EC_U+30A4_U+30E4_U+30FC 1
370
     0
100
AcDbSpline
210
0.0
220
0.0
230
1.0
 70
    11
 71
     3
 72
    26
 73
    22
 74
     0
 42
0.0000000001
 43
0.0000000001
 12
1.0
 22
0.0
 32
0.0
 13
1.0
 23
0.0
 33
0.0
 40
0.0
 40
0.0
 40
0.0
 40
0.0
 40
1.0
 40
1.0
 40
1.0
 40
2.0
 40
2.0
 40
2.0
 40
3.0
 40
3.0
 40
3.0
 40
4.0
 40
4.0
 40
4.0
 40
5.0
 40
5.0
 40
5.0
 40
6.0
 40
6.0
 40
6.0
 40
7.0
 40
7.0
 40
7.0
 40
7.0
 10
100.9805718063521
 20
-134.6360541113063
 30
0.0
 10
100.9805718063521
 20
-134.6360541113063
 30
0.0
 10
99.8764187033295
 20
-134.6360541113063
 30
0.0
 10
99.8764187033295
 20
-134.6360541113063
 30
0.0
 10
99.8764187033295
 20
-134.6360541113063
 30
0.0
 10
99.8764187033295
 20
-134.9884873794473
 30
0.0
 10
99.8764187033295
 20
-134.9884873794473
 30
0.0
 10
99.8764187033295
 20
-134.9884873794473
 30
0.0
 10
99.72827959746377
 20
-134.9884873794473
 30
0.0
 10
99.72827959746377
 20
-134.9884873794473
 30
0.0
 10
99.7134656868772
 20
-134.6336425444666
 30
0.0
 10
99.55051267042488
 20
-134.584033169479
 30
0.0
 10
99.43613550031458
 20
-134.5523382910147
 30
0.0
 10
99.43613550031458
 20
-134.5523382910147
 30
0.0
 10
99.43613550031458
 20
-134.3962754655329
 30
0.0
 10
99.43613550031458
 20
-134.3962754655329
 30
0.0
 10
99.43613550031458
 20
-134.3962754655329
 30
0.0
 10
100.9805718063521
 20
-134.3962754655329
 30
0.0
 10
100.9805718063521
 20
-134.3962754655329
 30
0.0
 10
100.9805718063521
 20
-134.3962754655329
 30
0.0
 10
100.9805718063521
 20
-134.6360541113063
 30
0.0
 10
100.9805718063521
 20
-134.6360541113063
 30
0.0
  0
HATCH
  5
93
330
8E
100
AcDbEntity
  8
_U+30EC_U+30A4_U+30E4_U+30FC 1
 62
     7
420
 16777215
100
AcDbHatch
 10
0.0
 20
0.0
 30
0.0
210
0.0
220
0.0
230
1.0
  2
SOLID
 70
     1
 71
     0
 91
        1
 92
        1
 93
        1
 72
     4
 94
        3
 73
     0
 74
     1
 95
       26
 96
       22
 40
0.0
 40
0.0
 40
0.0
 40
0.0
 40
1.0
 40
1.0
 40
1.0
 40
2.0
 40
2.0
 40
2.0
 40
3.0
 40
3.0
 40
3.0
 40
4.0
 40
4.0
 40
4.0
 40
5.0
 40
5.0
 40
5.0
 40
6.0
 40
6.0
 40
6.0
 40
7.0
 40
7.0
 40
7.0
 40
7.0
 10
100.9805718063521
 20
-134.6360541113063
 10
100.9805718063521
 20
-134.6360541113063
 10
99.8764187033295
 20
-134.6360541113063
 10
99.8764187033295
 20
-134.6360541113063
 10
99.8764187033295
 20
-134.6360541113063
 10
99.8764187033295
 20
-134.9884873794473
 10
99.8764187033295
 20
-134.9884873794473
 10
99.8764187033295
 20
-134.9884873794473
 10
99.72827959746377
 20
-134.9884873794473
 10
99.72827959746377
 20
-134.9884873794473
 10
99.7134656868772
 20
-134.6336425444666
 10
99.55051267042488
 20
-134.584033169479
 10
99.43613550031458
 20
-134.5523382910147
 10
99.43613550031458
 20
-134.5523382910147
 10
99.43613550031458
 20
-134.3962754655329
 10
99.43613550031458
 20
-134.3962754655329
 10
99.43613550031458
 20
-134.3962754655329
 10
100.9805718063521
 20
-134.3962754655329
 10
100.9805718063521
 20
-134.3962754655329
 10
100.9805718063521
 20
-134.3962754655329
 10
100.9805718063521
 20
-134.6360541113063
 10
100.9805718063521
 20
-134.6360541113063
 97
        0
 97
        0
 75
     2
 76
     1
 98
        0
  0
ENDBLK
  5
91
330
8E
100
AcDbEntity
  8
0
100
AcDbBlockEnd
  0
BLOCK
  5
98
330
96
100
AcDbEntity
  8
0
100
AcDbBlockBegin
  2
block 6
 70
     0
 10
0.0
 20
0.0
 30
0.0
  3
block 6
  1

  0
SPLINE
  5
9A
330
96
100
AcDbEntity
  8
_U+30EC_U+30A4_U+30E4_U+30FC 1
370
     0
100
AcDbSpline
210
0.0
220
0.0
230
1.0
 70
    11
 71
     3
 72
    26
 73
    22
 74
     0
 42
0.0000000001
 43
0.0000000001
 12
1.0
 22
0.0
 32
0.0
 13
1.0
 23
0.0
 33
0.0
 40
0.0
 40
0.0
 40
0.0
 40
0.0
 40
1.0
 40
1.0
 40
1.0
 40
2.0
 40
2.0
 40
2.0
 40
3.0
 40
3.0
 40
3.0
 40
4.0
 40
4.0
 40
4.0
 40
5.0
 40
5.0
 40
5.0
 40
6.0
 40
6.0
 40
6.0
 40
7.0
 40
7.0
 40
7.0
 40
7.0
 10
78.77434758230295
 20
-128.5597669491969
 30
0.0
 10
78.77434758230295
 20
-128.5597669491969
 30
0.0
 10
78.77434758230295
 20
-127.4554415914
 30
0.0
 10
78.77434758230295
 20
-127.4554415914
 30
0.0
 10
78.77434758230295
 20
-127.4554415914
 30
0.0
 10
78.44430743481601
 20
-127.4554415914
 30
0.0
 10
78.44430743481601
 20
-127.4554415914
 30
0.0
 10
78.44430743481601
 20
-127.4554415914
 30
0.0
 10
78.44430743481601
 20
-127.3073024855343
 30
0.0
 10
78.44430743481601
 20
-127.3073024855343
 30
0.0
 10
78.7764146395941
 20
-127.292660829722
 30
0.0
 10
78.82292342864497
 20
-127.1297078132697
 30
0.0
 10
78.85255124981812
 20
-127.0155028979336
 30
0.0
 10
78.85255124981812
 20
-127.0155028979336
 30
0.0
 10
78.99862329839272
 20
-127.0155028979336
 30
0.0
 10
78.99862329839272
 20
-127.0155028979336
 30
0.0
 10
78.99862329839272
 20
-127.0155028979336
 30
0.0
 10
78.99862329839272
 20
-128.5597669491969
 30
0.0
 10
78.99862329839272
 20
-128.5597669491969
 30
0.0
 10
78.99862329839272
 20
-128.5597669491969
 30
0.0
 10
78.77434758230295
 20
-128.5597669491969
 30
0.0
 10
78.77434758230295
 20
-128.5597669491969
 30
0.0
  0
HATCH
  5
9B
330
96
100
AcDbEntity
  8
_U+30EC_U+30A4_U+30E4_U+30FC 1
 62
     7
420
 16777215
100
AcDbHatch
 10
0.0
 20
0.0
 30
0.0
210
0.0
220
0.0
230
1.0
  2
SOLID
 70
     1
 71
     0
 91
        1
 92
        1
 93
        1
 72
     4
 94
        3
 73
     0
 74
     1
 95
       26
 96
       22
 40
0.0
 40
0.0
 40
0.0
 40
0.0
 40
1.0
 40
1.0
 40
1.0
 40
2.0
 40
2.0
 40
2.0
 40
3.0
 40
3.0
 40
3.0
 40
4.0
 40
4.0
 40
4.0
 40
5.0
 40
5.0
 40
5.0
 40
6.0
 40
6.0
 40
6.0
 40
7.0
 40
7.0
 40
7.0
 40
7.0
 10
78.77434758230295
 20
-128.5597669491969
 10
78.77434758230295
 20
-128.5597669491969
 10
78.77434758230295
 20
-127.4554415914
 10
78.77434758230295
 20
-127.4554415914
 10
78.77434758230295
 20
-127.4554415914
 10
78.44430743481601
 20
-127.4554415914
 10
78.44430743481601
 20
-127.4554415914
 10
78.44430743481601
 20
-127.4554415914
 10
78.44430743481601
 20
-127.3073024855343
 10
78.44430743481601
 20
-127.3073024855343
 10
78.7764146395941
 20
-127.292660829722
 10
78.82292342864497
 20
-127.1297078132697
 10
78.85255124981812
 20
-127.0155028979336
 10
78.85255124981812
 20
-127.0155028979336
 10
78.99862329839272
 20
-127.0155028979336
 10
78.99862329839272
 20
-127.0155028979336
 10
78.99862329839272
 20
-127.0155028979336
 10
78.99862329839272
 20
-128.5597669491969
 10
78.99862329839272
 20
-128.5597669491969
 10
78.99862329839272
 20
-128.5597669491969
 10
78.77434758230295
 20
-128.5597669491969
 10
78.77434758230295
 20
-128.5597669491969
 97
        0
 97
        0
 75
     2
 76
     1
 98
        0
  0
ENDBLK
  5
99
330
96
100
AcDbEntity
  8
0
100
AcDbBlockEnd
  0
ENDSEC
  0
SECTION
  2
ENTITIES
  0
SPLINE
  5
41
330
1F
100
AcDbEntity
  8
_U+30EC_U+30A4_U+30E4_U+30FC 1
370
     0
100
AcDbSpline
210
0.0
220
0.0
230
1.0
 70
    11
 71
     3
 72
    44
 73
    40
 74
     0
 42
0.0000000001
 43
0.0000000001
 12
1.0
 22
0.0
 32
0.0
 13
1.0
 23
0.0
 33
0.0
 40
0.0
 40
0.0
 40
0.0
 40
0.0
 40
1.0
 40
1.0
 40
1.0
 40
2.0
 40
2.0
 40
2.0
 40
3.0
 40
3.0
 40
3.0
 40
4.0
 40
4.0
 40
4.0
 40
5.0
 40
5.0
 40
5.0
 40
6.0
 40
6.0
 40
6.0
 40
7.0
 40
7.0
 40
7.0
 40
8.0
 40
8.0
 40
8.0
 40
9.0
 40
9.0
 40
9.0
 40
10.0
 40
10.0
 40
10.0
 40
11.0
 40
11.0
 40
11.0
 40
12.0
 40
12.0
 40
12.0
 40
13.0
 40
13.0
 40
13.0
 40
13.0
 10
98.12940499651032
 20
-134.617107188568
 30
0.0
 10
98.12940499651032
 20
-134.617107188568
 30
0.0
 10
88.62920551665837
 20
-134.617107188568
 30
0.0
 10
88.62920551665837
 20
-134.617107188568
 30
0.0
 10
88.45077052121063
 20
-134.3077210775341
 30
0.0
 10
88.12071386685878
 20
-134.1175738553598
 30
0.0
 10
87.7634535943011
 20
-134.1175738553598
 30
0.0
 10
87.7634535943011
 20
-134.1175738553598
 30
0.0
 10
81.62910680635687
 20
-134.1175738553598
 30
0.0
 10
81.62910680635687
 20
-134.1175738553598
 30
0.0
 10
81.62910680635687
 20
-134.1175738553598
 30
0.0
 10
81.62910680635687
 20
-124.1169588578595
 30
0.0
 10
81.62910680635687
 20
-124.1169588578595
 30
0.0
 10
81.62910680635687
 20
-124.1169588578595
 30
0.0
 10
88.62920551665837
 20
-124.1169588578595
 30
0.0
 10
88.62920551665837
 20
-124.1169588578595
 30
0.0
 10
88.62920551665837
 20
-124.1169588578595
 30
0.0
 10
88.62920551665837
 20
-123.516848580232
 30
0.0
 10
88.62920551665837
 20
-123.516848580232
 30
0.0
 10
88.62920551665837
 20
-123.516848580232
 30
0.0
 10
86.61936001237824
 20
-123.3163296913932
 30
0.0
 10
86.61936001237824
 20
-123.3163296913932
 30
0.0
 10
85.29333893509676
 20
-123.1833677469819
 30
0.0
 10
83.96181664567636
 20
-123.1172219136651
 30
0.0
 10
82.62958455861035
 20
-123.1172219136651
 30
0.0
 10
82.62958455861035
 20
-123.1172219136651
 30
0.0
 10
80.62936988741785
 20
-123.1172219136651
 30
0.0
 10
80.62936988741785
 20
-123.1172219136651
 30
0.0
 10
80.62936988741785
 20
-123.1172219136651
 30
0.0
 10
80.62936988741785
 20
-134.3173871886431
 30
0.0
 10
80.62936988741785
 20
-134.3173871886431
 30
0.0
 10
80.62936988741785
 20
-134.7590296885324
 30
0.0
 10
80.98765098938844
 20
-135.1173460773317
 30
0.0
 10
81.42929347812121
 20
-135.1173460773317
 30
0.0
 10
81.42929347812121
 20
-135.1173460773317
 30
0.0
 10
98.62893831709948
 20
-135.1173460773317
 30
0.0
 10
98.62893831709948
 20
-135.1173460773317
 30
0.0
 10
98.62893831709948
 20
-134.8410505218453
 30
0.0
 10
98.40503026725631
 20
-134.617107188568
 30
0.0
 10
98.12940499651032
 20
-134.617107188568
 30
0.0
  0
HATCH
  5
42
330
1F
100
AcDbEntity
  8
_U+30EC_U+30A4_U+30E4_U+30FC 1
 62
   253
420
 11711154
100
AcDbHatch
 10
0.0
 20
0.0
 30
0.0
210
0.0
220
0.0
230
1.0
  2
SOLID
 70
     1
 71
     0
 91
        1
 92
        1
 93
        1
 72
     4
 94
        3
 73
     0
 74
     1
 95
       44
 96
       40
 40
0.0
 40
0.0
 40
0.0
 40
0.0
 40
1.0
 40
1.0
 40
1.0
 40
2.0
 40
2.0
 40
2.0
 40
3.0
 40
3.0
 40
3.0
 40
4.0
 40
4.0
 40
4.0
 40
5.0
 40
5.0
 40
5.0
 40
6.0
 40
6.0
 40
6.0
 40
7.0
 40
7.0
 40
7.0
 40
8.0
 40
8.0
 40
8.0
 40
9.0
 40
9.0
 40
9.0
 40
10.0
 40
10.0
 40
10.0
 40
11.0
 40
11.0
 40
11.0
 40
12.0
 40
12.0
 40
12.0
 40
13.0
 40
13.0
 40
13.0
 40
13.0
 10
98.12940499651032
 20
-134.617107188568
 10
98.12940499651032
 20
-134.617107188568
 10
88.62920551665837
 20
-134.617107188568
 10
88.62920551665837
 20
-134.617107188568
 10
88.45077052121063
 20
-134.3077210775341
 10
88.12071386685878
 20
-134.1175738553598
 10
87.7634535943011
 20
-134.1175738553598
 10
87.7634535943011
 20
-134.1175738553598
 10
81.62910680635687
 20
-134.1175738553598
 10
81.62910680635687
 20
-134.1175738553598
 10
81.62910680635687
 20
-134.1175738553598
 10
81.62910680635687
 20
-124.1169588578595
 10
81.62910680635687
 20
-124.1169588578595
 10
81.62910680635687
 20
-124.1169588578595
 10
88.62920551665837
 20
-124.1169588578595
 10
88.62920551665837
 20
-124.1169588578595
 10
88.62920551665837
 20
-124.1169588578595
 10
88.62920551665837
 20
-123.516848580232
 10
88.62920551665837
 20
-123.516848580232
 10
88.62920551665837
 20
-123.516848580232
 10
86.61936001237824
 20
-123.3163296913932
 10
86.61936001237824
 20
-123.3163296913932
 10
85.29333893509676
 20
-123.1833677469819
 10
83.96181664567636
 20
-123.1172219136651
 10
82.62958455861035
 20
-123.1172219136651
 10
82.62958455861035
 20
-123.1172219136651
 10
80.62936988741785
 20
-123.1172219136651
 10
80.62936988741785
 20
-123.1172219136651
 10
80.62936988741785
 20
-123.1172219136651
 10
80.62936988741785
 20
-134.3173871886431
 10
80.62936988741785
 20
-134.3173871886431
 10
80.62936988741785
 20
-134.7590296885324
 10
80.98765098938844
 20
-135.1173460773317
 10
81.42929347812121
 20
-135.1173460773317
 10
81.42929347812121
 20
-135.1173460773317
 10
98.62893831709948
 20
-135.1173460773317
 10
98.62893831709948
 20
-135.1173460773317
 10
98.62893831709948
 20
-134.8410505218453
 10
98.40503026725631
 20
-134.617107188568
 10
98.12940499651032
 20
-134.617107188568
 97
        0
 97
        0
 75
     2
 76
     1
 98
        0
  0
SPLINE
  5
43
330
1F
100
AcDbEntity
  8
_U+30EC_U+30A4_U+30E4_U+30FC 1
 62
     7
420
 16777215
370
    25
100
AcDbSpline
210
0.0
220
0.0
230
1.0
 70
    11
 71
     3
 72
    44
 73
    40
 74
     0
 42
0.0000000001
 43
0.0000000001
 12
1.0
 22
0.0
 32
0.0
 13
1.0
 23
0.0
 33
0.0
 40
0.0
 40
0.0
 40
0.0
 40
0.0
 40
1.0
 40
1.0
 40
1.0
 40
2.0
 40
2.0
 40
2.0
 40
3.0
 40
3.0
 40
3.0
 40
4.0
 40
4.0
 40
4.0
 40
5.0
 40
5.0
 40
5.0
 40
6.0
 40
6.0
 40
6.0
 40
7.0
 40
7.0
 40
7.0
 40
8.0
 40
8.0
 40
8.0
 40
9.0
 40
9.0
 40
9.0
 40
10.0
 40
10.0
 40
10.0
 40
11.0
 40
11.0
 40
11.0
 40
12.0
 40
12.0
 40
12.0
 40
13.0
 40
13.0
 40
13.0
 40
13.0
 10
82.62958455861035
 20
-123.1172219136651
 30
0.0
 10
83.96181664567636
 20
-123.1172219136651
 30
0.0
 10
85.29333893509676
 20
-123.1833677469819
 30
0.0
 10
86.61936001237824
 20
-123.3163296913932
 30
0.0
 10
86.61936001237824
 20
-123.3163296913932
 30
0.0
 10
88.62920551665837
 20
-123.516848580232
 30
0.0
 10
88.62920551665837
 20
-123.516848580232
 30
0.0
 10
88.62920551665837
 20
-123.516848580232
 30
0.0
 10
88.62920551665837
 20
-124.1169588578595
 30
0.0
 10
88.62920551665837
 20
-124.1169588578595
 30
0.0
 10
88.62920551665837
 20
-124.1169588578595
 30
0.0
 10
81.62910680635687
 20
-124.1169588578595
 30
0.0
 10
81.62910680635687
 20
-124.1169588578595
 30
0.0
 10
81.62910680635687
 20
-124.1169588578595
 30
0.0
 10
81.62910680635687
 20
-134.1175738553598
 30
0.0
 10
81.62910680635687
 20
-134.1175738553598
 30
0.0
 10
81.62910680635687
 20
-134.1175738553598
 30
0.0
 10
87.7634535943011
 20
-134.1175738553598
 30
0.0
 10
87.7634535943011
 20
-134.1175738553598
 30
0.0
 10
88.12071386685878
 20
-134.1175738553598
 30
0.0
 10
88.45077052121063
 20
-134.3077210775341
 30
0.0
 10
88.62920551665837
 20
-134.617107188568
 30
0.0
 10
88.62920551665837
 20
-134.617107188568
 30
0.0
 10
98.12940499651032
 20
-134.617107188568
 30
0.0
 10
98.12940499651032
 20
-134.617107188568
 30
0.0
 10
98.40503026725631
 20
-134.617107188568
 30
0.0
 10
98.62893831709948
 20
-134.8410505218453
 30
0.0
 10
98.62893831709948
 20
-135.1173460773317
 30
0.0
 10
98.62893831709948
 20
-135.1173460773317
 30
0.0
 10
81.42929347812121
 20
-135.1173460773317
 30
0.0
 10
81.42929347812121
 20
-135.1173460773317
 30
0.0
 10
80.98765098938844
 20
-135.1173460773317
 30
0.0
 10
80.62936988741785
 20
-134.7590296885324
 30
0.0
 10
80.62936988741785
 20
-134.3173871886431
 30
0.0
 10
80.62936988741785
 20
-134.3173871886431
 30
0.0
 10
80.62936988741785
 20
-123.1172219136651
 30
0.0
 10
80.62936988741785
 20
-123.1172219136651
 30
0.0
 10
80.62936988741785
 20
-123.1172219136651
 30
0.0
 10
82.62958455861035
 20
-123.1172219136651
 30
0.0
 10
82.62958455861035
 20
-123.1172219136651
 30
0.0
  0
SPLINE
  5
44
330
1F
100
AcDbEntity
  8
_U+30EC_U+30A4_U+30E4_U+30FC 1
 62
     7
420
 16777215
370
     9
100
AcDbSpline
210
0.0
220
0.0
230
1.0
 70
    11
 71
     3
 72
    17
 73
    13
 74
     0
 42
0.0000000001
 43
0.0000000001
 12
1.0
 22
0.0
 32
0.0
 13
1.0
 23
0.0
 33
0.0
 40
0.0
 40
0.0
 40
0.0
 40
0.0
 40
1.0
 40
1.0
 40
1.0
 40
2.0
 40
2.0
 40
2.0
 40
3.0
 40
3.0
 40
3.0
 40
4.0
 40
4.0
 40
4.0
 40
4.0
 10
80.72927655153568
 20
-119.1167571924431
 30
0.0
 10
80.72927655153568
 20
-119.0616533035678
 30
0.0
 10
80.68447377490092
 20
-119.0168505258014
 30
0.0
 10
80.62936988741785
 20
-119.0168505258014
 30
0.0
 10
80.57423072215789
 20
-119.0168505258014
 30
0.0
 10
80.52946322330001
 20
-119.0616533035678
 30
0.0
 10
80.52946322330001
 20
-119.1167571924431
 30
0.0
 10
80.52946322330001
 20
-119.1725666368735
 30
0.0
 10
80.57423072215789
 20
-119.2173694146402
 30
0.0
 10
80.62936988741785
 20
-119.2173694146402
 30
0.0
 10
80.68447377490092
 20
-119.2173694146402
 30
0.0
 10
80.72927655153568
 20
-119.1725666368735
 30
0.0
 10
80.72927655153568
 20
-119.1167571924431
 30
0.0
  0
SPLINE
  5
45
330
1F
100
AcDbEntity
  8
_U+30EC_U+30A4_U+30E4_U+30FC 1
 62
     7
420
 16777215
370
     9
100
AcDbSpline
210
0.0
220
0.0
230
1.0
 70
    11
 71
     3
 72
    17
 73
    13
 74
     0
 42
0.0000000001
 43
0.0000000001
 12
1.0
 22
0.0
 32
0.0
 13
1.0
 23
0.0
 33
0.0
 40
0.0
 40
0.0
 40
0.0
 40
0.0
 40
1.0
 40
1.0
 40
1.0
 40
2.0
 40
2.0
 40
2.0
 40
3.0
 40
3.0
 40
3.0
 40
4.0
 40
4.0
 40
4.0
 40
4.0
 10
88.72946495854498
 20
-119.1167571924431
 30
0.0
 10
88.72946495854498
 20
-119.0616533035678
 30
0.0
 10
88.68466218191021
 20
-119.0168505258014
 30
0.0
 10
88.62920551665837
 20
-119.0168505258014
 30
0.0
 10
88.5741016291753
 20
-119.0168505258014
 30
0.0
 10
88.52929885254053
 20
-119.0616533035678
 30
0.0
 10
88.52929885254053
 20
-119.1167571924431
 30
0.0
 10
88.52929885254053
 20
-119.1725666368735
 30
0.0
 10
88.5741016291753
 20
-119.2173694146402
 30
0.0
 10
88.62920551665837
 20
-119.2173694146402
 30
0.0
 10
88.68466218191021
 20
-119.2173694146402
 30
0.0
 10
88.72946495854498
 20
-119.1725666368735
 30
0.0
 10
88.72946495854498
 20
-119.1167571924431
 30
0.0
  0
SPLINE
  5
46
330
1F
100
AcDbEntity
  8
_U+30EC_U+30A4_U+30E4_U+30FC 1
 62
     7
420
 16777215
370
     9
100
AcDbSpline
210
0.0
220
0.0
230
1.0
 70
    11
 71
     3
 72
    17
 73
    13
 74
     0
 42
0.0000000001
 43
0.0000000001
 12
1.0
 22
0.0
 32
0.0
 13
1.0
 23
0.0
 33
0.0
 40
0.0
 40
0.0
 40
0.0
 40
0.0
 40
1.0
 40
1.0
 40
1.0
 40
2.0
 40
2.0
 40
2.0
 40
3.0
 40
3.0
 40
3.0
 40
4.0
 40
4.0
 40
4.0
 40
4.0
 10
102.607001548944
 20
-124.1169588578595
 30
0.0
 10
102.607001548944
 20
-124.0618549689846
 30
0.0
 10
102.5621987723092
 20
-124.0170521912179
 30
0.0
 10
102.5070948848261
 20
-124.0170521912179
 30
0.0
 10
102.4519583077207
 20
-124.0170521912179
 30
0.0
 10
102.4071882207083
 20
-124.0618549689846
 30
0.0
 10
102.4071882207083
 20
-124.1169588578595
 30
0.0
 10
102.4071882207083
 20
-124.1720980245126
 30
0.0
 10
102.4519583077207
 20
-124.2168655245015
 30
0.0
 10
102.5070948848261
 20
-124.2168655245015
 30
0.0
 10
102.5621987723092
 20
-124.2168655245015
 30
0.0
 10
102.607001548944
 20
-124.1720980245126
 30
0.0
 10
102.607001548944
 20
-124.1169588578595
 30
0.0
  0
SPLINE
  5
47
330
1F
100
AcDbEntity
  8
_U+30EC_U+30A4_U+30E4_U+30FC 1
 62
     7
420
 16777215
370
     9
100
AcDbSpline
210
0.0
220
0.0
230
1.0
 70
    11
 71
     3
 72
    17
 73
    13
 74
     0
 42
0.0000000001
 43
0.0000000001
 12
1.0
 22
0.0
 32
0.0
 13
1.0
 23
0.0
 33
0.0
 40
0.0
 40
0.0
 40
0.0
 40
0.0
 40
1.0
 40
1.0
 40
1.0
 40
2.0
 40
2.0
 40
2.0
 40
3.0
 40
3.0
 40
3.0
 40
4.0
 40
4.0
 40
4.0
 40
4.0
 10
102.607001548944
 20
-134.1175738553598
 30
0.0
 10
102.607001548944
 20
-134.0617644109287
 30
0.0
 10
102.5621987723092
 20
-134.0169616331627
 30
0.0
 10
102.5070948848261
 20
-134.0169616331627
 30
0.0
 10
102.4519583077207
 20
-134.0169616331627
 30
0.0
 10
102.4071882207083
 20
-134.0617644109287
 30
0.0
 10
102.4071882207083
 20
-134.1175738553598
 30
0.0
 10
102.4071882207083
 20
-134.1726777442347
 30
0.0
 10
102.4519583077207
 20
-134.2174805220015
 30
0.0
 10
102.5070948848261
 20
-134.2174805220015
 30
0.0
 10
102.5621987723092
 20
-134.2174805220015
 30
0.0
 10
102.607001548944
 20
-134.1726777442347
 30
0.0
 10
102.607001548944
 20
-134.1175738553598
 30
0.0
  0
SPLINE
  5
48
330
1F
100
AcDbEntity
  8
_U+30EC_U+30A4_U+30E4_U+30FC 1
 62
     7
420
 16777215
370
     9
100
AcDbSpline
210
0.0
220
0.0
230
1.0
 70
    11
 71
     3
 72
    17
 73
    13
 74
     0
 42
0.0000000001
 43
0.0000000001
 12
1.0
 22
0.0
 32
0.0
 13
1.0
 23
0.0
 33
0.0
 40
0.0
 40
0.0
 40
0.0
 40
0.0
 40
1.0
 40
1.0
 40
1.0
 40
2.0
 40
2.0
 40
2.0
 40
3.0
 40
3.0
 40
3.0
 40
4.0
 40
4.0
 40
4.0
 40
4.0
 10
102.607001548944
 20
-135.1125130217775
 30
0.0
 10
102.607001548944
 20
-135.0567035773471
 30
0.0
 10
102.5621987723092
 20
-135.0119007995804
 30
0.0
 10
102.5070948848261
 20
-135.0119007995804
 30
0.0
 10
102.4519583077207
 20
-135.0119007995804
 30
0.0
 10
102.4071882207083
 20
-135.0567035773471
 30
0.0
 10
102.4071882207083
 20
-135.1125130217775
 30
0.0
 10
102.4071882207083
 20
-135.1676169106524
 30
0.0
 10
102.4519583077207
 20
-135.2124196884192
 30
0.0
 10
102.5070948848261
 20
-135.2124196884192
 30
0.0
 10
102.5621987723092
 20
-135.2124196884192
 30
0.0
 10
102.607001548944
 20
-135.1676169106524
 30
0.0
 10
102.607001548944
 20
-135.1125130217775
 30
0.0
  0
SPLINE
  5
49
330
1F
100
AcDbEntity
  8
_U+30EC_U+30A4_U+30E4_U+30FC 1
 62
     7
420
 16777215
370
     9
100
AcDbSpline
210
0.0
220
0.0
230
1.0
 70
    11
 71
     3
 72
    17
 73
    13
 74
     0
 42
0.0000000001
 43
0.0000000001
 12
1.0
 22
0.0
 32
0.0
 13
1.0
 23
0.0
 33
0.0
 40
0.0
 40
0.0
 40
0.0
 40
0.0
 40
1.0
 40
1.0
 40
1.0
 40
2.0
 40
2.0
 40
2.0
 40
3.0
 40
3.0
 40
3.0
 40
4.0
 40
4.0
 40
4.0
 40
4.0
 10
80.72927655153568
 20
-139.1171052429986
 30
0.0
 10
80.72927655153568
 20
-139.0619660763455
 30
0.0
 10
80.68447377490092
 20
-139.017198576357
 30
0.0
 10
80.62936988741785
 20
-139.017198576357
 30
0.0
 10
80.57423072215789
 20
-139.017198576357
 30
0.0
 10
80.52946322330001
 20
-139.0619660763455
 30
0.0
 10
80.52946322330001
 20
-139.1171052429986
 30
0.0
 10
80.52946322330001
 20
-139.1722091318735
 30
0.0
 10
80.57423072215789
 20
-139.2170119096402
 30
0.0
 10
80.62936988741785
 20
-139.2170119096402
 30
0.0
 10
80.68447377490092
 20
-139.2170119096402
 30
0.0
 10
80.72927655153568
 20
-139.1722091318735
 30
0.0
 10
80.72927655153568
 20
-139.1171052429986
 30
0.0
  0
SPLINE
  5
4A
330
1F
100
AcDbEntity
  8
_U+30EC_U+30A4_U+30E4_U+30FC 1
 62
     7
420
 16777215
370
     9
100
AcDbSpline
210
0.0
220
0.0
230
1.0
 70
    11
 71
     3
 72
    17
 73
    13
 74
     0
 42
0.0000000001
 43
0.0000000001
 12
1.0
 22
0.0
 32
0.0
 13
1.0
 23
0.0
 33
0.0
 40
0.0
 40
0.0
 40
0.0
 40
0.0
 40
1.0
 40
1.0
 40
1.0
 40
2.0
 40
2.0
 40
2.0
 40
3.0
 40
3.0
 40
3.0
 40
4.0
 40
4.0
 40
4.0
 40
4.0
 10
98.72884498121732
 20
-139.1171052429986
 30
0.0
 10
98.72884498121732
 20
-139.0619660763455
 30
0.0
 10
98.68407748235944
 20
-139.017198576357
 30
0.0
 10
98.62893831709948
 20
-139.017198576357
 30
0.0
 10
98.57383442961641
 20
-139.017198576357
 30
0.0
 10
98.52903165298166
 20
-139.0619660763455
 30
0.0
 10
98.52903165298166
 20
-139.1171052429986
 30
0.0
 10
98.52903165298166
 20
-139.1722091318735
 30
0.0
 10
98.57383442961641
 20
-139.2170119096402
 30
0.0
 10
98.62893831709948
 20
-139.2170119096402
 30
0.0
 10
98.68407748235944
 20
-139.2170119096402
 30
0.0
 10
98.72884498121732
 20
-139.1722091318735
 30
0.0
 10
98.72884498121732
 20
-139.1171052429986
 30
0.0
  0
POLYLINE
  5
4B
330
1F
100
AcDbEntity
  8
_U+30EC_U+30A4_U+30E4_U+30FC 1
 62
     7
420
 16777215
370
     9
100
AcDb2dPolyline
 66
     1
 10
0.0
 20
0.0
 30
0.0
  0
VERTEX
  5
4C
330
4B
100
AcDbEntity
  8
_U+30EC_U+30A4_U+30E4_U+30FC 1
 62
     7
420
 16777215
370
     9
100
AcDbVertex
100
AcDb2dVertex
 10
80.62936988741785
 20
-119.1167571924431
 30
0.0
  0
VERTEX
  5
4D
330
4B
100
AcDbEntity
  8
_U+30EC_U+30A4_U+30E4_U+30FC 1
 62
     7
420
 16777215
370
     9
100
AcDbVertex
100
AcDb2dVertex
 10
88.62920551665837
 20
-119.1167571924431
 30
0.0
  0
SEQEND
  5
4E
330
4B
100
AcDbEntity
  8
_U+30EC_U+30A4_U+30E4_U+30FC 1
 62
     7
420
 16777215
370
     9
  0
POLYLINE
  5
4F
330
1F
100
AcDbEntity
  8
_U+30EC_U+30A4_U+30E4_U+30FC 1
 62
     7
420
 16777215
370
     9
100
AcDb2dPolyline
 66
     1
 10
0.0
 20
0.0
 30
0.0
  0
VERTEX
  5
50
330
4F
100
AcDbEntity
  8
_U+30EC_U+30A4_U+30E4_U+30FC 1
 62
     7
420
 16777215
370
     9
100
AcDbVertex
100
AcDb2dVertex
 10
80.62936988741785
 20
-120.5767985809668
 30
0.0
  0
VERTEX
  5
51
330
4F
100
AcDbEntity
  8
_U+30EC_U+30A4_U+30E4_U+30FC 1
 62
     7
420
 16777215
370
     9
100
AcDbVertex
100
AcDb2dVertex
 10
80.62936988741785
 20
-118.1169849704708
 30
0.0
  0
SEQEND
  5
52
330
4F
100
AcDbEntity
  8
_U+30EC_U+30A4_U+30E4_U+30FC 1
 62
     7
420
 16777215
370
     9
  0
POLYLINE
  5
53
330
1F
100
AcDbEntity
  8
_U+30EC_U+30A4_U+30E4_U+30FC 1
 62
     7
420
 16777215
370
     9
100
AcDb2dPolyline
 66
     1
 10
0.0
 20
0.0
 30
0.0
  0
VERTEX
  5
54
330
53
100
AcDbEntity
  8
_U+30EC_U+30A4_U+30E4_U+30FC 1
 62
     7
420
 16777215
370
     9
100
AcDbVertex
100
AcDb2dVertex
 10
88.62920551665837
 20
-120.9770955253113
 30
0.0
  0
VERTEX
  5
55
330
53
100
AcDbEntity
  8
_U+30EC_U+30A4_U+30E4_U+30FC 1
 62
     7
420
 16777215
370
     9
100
AcDbVertex
100
AcDb2dVertex
 10
88.62920551665837
 20
-118.1169849704708
 30
0.0
  0
SEQEND
  5
56
330
53
100
AcDbEntity
  8
_U+30EC_U+30A4_U+30E4_U+30FC 1
 62
     7
420
 16777215
370
     9
  0
INSERT
  5
58
330
1F
100
AcDbEntity
  8
_U+30EC_U+30A4_U+30E4_U+30FC 1
100
AcDbBlockReference
  2
block 2
 10
0.0
 20
0.0
 30
0.0
  0
POLYLINE
  5
5F
330
1F
100
AcDbEntity
  8
_U+30EC_U+30A4_U+30E4_U+30FC 1
 62
     7
420
 16777215
370
     9
100
AcDb2dPolyline
 66
     1
 10
0.0
 20
0.0
 30
0.0
  0
VERTEX
  5
60
330
5F
100
AcDbEntity
  8
_U+30EC_U+30A4_U+30E4_U+30FC 1
 62
     7
420
 16777215
370
     9
100
AcDbVertex
100
AcDb2dVertex
 10
80.62936988741785
 20
-139.1171052429986
 30
0.0
  0
VERTEX
  5
61
330
5F
100
AcDbEntity
  8
_U+30EC_U+30A4_U+30E4_U+30FC 1
 62
     7
420
 16777215
370
     9
100
AcDbVertex
100
AcDb2dVertex
 10
98.62893831709948
 20
-139.1171052429986
 30
0.0
  0
SEQEND
  5
62
330
5F
100
AcDbEntity
  8
_U+30EC_U+30A4_U+30E4_U+30FC 1
 62
     7
420
 16777215
370
     9
  0
POLYLINE
  5
63
330
1F
100
AcDbEntity
  8
_U+30EC_U+30A4_U+30E4_U+30FC 1
 62
     7
420
 16777215
370
     9
100
AcDb2dPolyline
 66
     1
 10
0.0
 20
0.0
 30
0.0
  0
VERTEX
  5
64
330
63
100
AcDbEntity
  8
_U+30EC_U+30A4_U+30E4_U+30FC 1
 62
     7
420
 16777215
370
     9
100
AcDbVertex
100
AcDb2dVertex
 10
80.62936988741785
 20
-136.8571049657856
 30
0.0
  0
VERTEX
  5
65
330
63
100
AcDbEntity
  8
_U+30EC_U+30A4_U+30E4_U+30FC 1
 62
     7
420
 16777215
370
     9
100
AcDbVertex
100
AcDb2dVertex
 10
80.62936988741785
 20
-140.116842187193
 30
0.0
  0
SEQEND
  5
66
330
63
100
AcDbEntity
  8
_U+30EC_U+30A4_U+30E4_U+30FC 1
 62
     7
420
 16777215
370
     9
  0
POLYLINE
  5
67
330
1F
100
AcDbEntity
  8
_U+30EC_U+30A4_U+30E4_U+30FC 1
 62
     7
420
 16777215
370
     9
100
AcDb2dPolyline
 66
     1
 10
0.0
 20
0.0
 30
0.0
  0
VERTEX
  5
68
330
67
100
AcDbEntity
  8
_U+30EC_U+30A4_U+30E4_U+30FC 1
 62
     7
420
 16777215
370
     9
100
AcDbVertex
100
AcDb2dVertex
 10
98.62893831709948
 20
-137.6570638544749
 30
0.0
  0
VERTEX
  5
69
330
67
100
AcDbEntity
  8
_U+30EC_U+30A4_U+30E4_U+30FC 1
 62
     7
420
 16777215
370
     9
100
AcDbVertex
100
AcDb2dVertex
 10
98.62893831709948
 20
-140.116842187193
 30
0.0
  0
SEQEND
  5
6A
330
67
100
AcDbEntity
  8
_U+30EC_U+30A4_U+30E4_U+30FC 1
 62
     7
420
 16777215
370
     9
  0
INSERT
  5
6C
330
1F
100
AcDbEntity
  8
_U+30EC_U+30A4_U+30E4_U+30FC 1
100
AcDbBlockReference
  2
block 3
 10
0.0
 20
0.0
 30
0.0
  0
POLYLINE
  5
75
330
1F
100
AcDbEntity
  8
_U+30EC_U+30A4_U+30E4_U+30FC 1
 62
     7
420
 16777215
370
     9
100
AcDb2dPolyline
 66
     1
 10
0.0
 20
0.0
 30
0.0
  0
VERTEX
  5
76
330
75
100
AcDbEntity
  8
_U+30EC_U+30A4_U+30E4_U+30FC 1
 62
     7
420
 16777215
370
     9
100
AcDbVertex
100
AcDb2dVertex
 10
102.5070948848261
 20
-135.1125130217775
 30
0.0
  0
VERTEX
  5
77
330
75
100
AcDbEntity
  8
_U+30EC_U+30A4_U+30E4_U+30FC 1
 62
     7
420
 16777215
370
     9
100
AcDbVertex
100
AcDb2dVertex
 10
102.5070948848261
 20
-124.1169588578595
 30
0.0
  0
SEQEND
  5
78
330
75
100
AcDbEntity
  8
_U+30EC_U+30A4_U+30E4_U+30FC 1
 62
     7
420
 16777215
370
     9
  0
POLYLINE
  5
79
330
1F
100
AcDbEntity
  8
_U+30EC_U+30A4_U+30E4_U+30FC 1
 62
     7
420
 16777215
370
     9
100
AcDb2dPolyline
 66
     1
 10
0.0
 20
0.0
 30
0.0
  0
VERTEX
  5
7A
330
79
100
AcDbEntity
  8
_U+30EC_U+30A4_U+30E4_U+30FC 1
 62
     7
420
 16777215
370
     9
100
AcDbVertex
100
AcDb2dVertex
 10
101.0263833080767
 20
-134.1175738553598
 30
0.0
  0
VERTEX
  5
7B
330
79
100
AcDbEntity
  8
_U+30EC_U+30A4_U+30E4_U+30FC 1
 62
     7
420
 16777215
370
     9
100
AcDbVertex
100
AcDb2dVertex
 10
103.5072198593108
 20
-134.1175738553598
 30
0.0
  0
SEQEND
  5
7C
330
79
100
AcDbEntity
  8
_U+30EC_U+30A4_U+30E4_U+30FC 1
 62
     7
420
 16777215
370
     9
  0
POLYLINE
  5
7D
330
1F
100
AcDbEntity
  8
_U+30EC_U+30A4_U+30E4_U+30FC 1
 62
     7
420
 16777215
370
     9
100
AcDb2dPolyline
 66
     1
 10
0.0
 20
0.0
 30
0.0
  0
VERTEX
  5
7E
330
7D
100
AcDbEntity
  8
_U+30EC_U+30A4_U+30E4_U+30FC 1
 62
     7
420
 16777215
370
     9
100
AcDbVertex
100
AcDb2dVertex
 10
101.0263833080767
 20
-135.1125130217775
 30
0.0
  0
VERTEX
  5
7F
330
7D
100
AcDbEntity
  8
_U+30EC_U+30A4_U+30E4_U+30FC 1
 62
     7
420
 16777215
370
     9
100
AcDbVertex
100
AcDb2dVertex
 10
103.5072198593108
 20
-135.1125130217775
 30
0.0
  0
SEQEND
  5
80
330
7D
100
AcDbEntity
  8
_U+30EC_U+30A4_U+30E4_U+30FC 1
 62
     7
420
 16777215
370
     9
  0
POLYLINE
  5
81
330
1F
100
AcDbEntity
  8
_U+30EC_U+30A4_U+30E4_U+30FC 1
 62
     7
420
 16777215
370
     9
100
AcDb2dPolyline
 66
     1
 10
0.0
 20
0.0
 30
0.0
  0
VERTEX
  5
82
330
81
100
AcDbEntity
  8
_U+30EC_U+30A4_U+30E4_U+30FC 1
 62
     7
420
 16777215
370
     9
100
AcDbVertex
100
AcDb2dVertex
 10
101.047053533186
 20
-124.1169588578595
 30
0.0
  0
VERTEX
  5
83
330
81
100
AcDbEntity
  8
_U+30EC_U+30A4_U+30E4_U+30FC 1
 62
     7
420
 16777215
370
     9
100
AcDbVertex
100
AcDb2dVertex
 10
103.5072198593108
 20
-124.1169588578595
 30
0.0
  0
SEQEND
  5
84
330
81
100
AcDbEntity
  8
_U+30EC_U+30A4_U+30E4_U+30FC 1
 62
     7
420
 16777215
370
     9
  0
INSERT
  5
86
330
1F
100
AcDbEntity
  8
_U+30EC_U+30A4_U+30E4_U+30FC 1
100
AcDbBlockReference
  2
block 4
 10
0.0
 20
0.0
 30
0.0
  0
INSERT
  5
8F
330
1F
100
AcDbEntity
  8
_U+30EC_U+30A4_U+30E4_U+30FC 1
100
AcDbBlockReference
  2
block 5
 10
0.0
 20
0.0
 30
0.0
  0
SPLINE
  5
94
330
1F
100
AcDbEntity
  8
_U+30EC_U+30A4_U+30E4_U+30FC 1
 62
     7
420
 16777215
370
     9
100
AcDbSpline
210
0.0
220
0.0
230
1.0
 70
    11
 71
     3
 72
    17
 73
    13
 74
     0
 42
0.0000000001
 43
0.0000000001
 12
1.0
 22
0.0
 32
0.0
 13
1.0
 23
0.0
 33
0.0
 40
0.0
 40
0.0
 40
0.0
 40
0.0
 40
1.0
 40
1.0
 40
1.0
 40
2.0
 40
2.0
 40
2.0
 40
3.0
 40
3.0
 40
3.0
 40
4.0
 40
4.0
 40
4.0
 40
4.0
 10
80.72342044057397
 20
-129.1483460788239
 30
0.0
 10
80.72342044057397
 20
-129.093242189949
 30
0.0
 10
80.6786176639392
 20
-129.0484394121823
 30
0.0
 10
80.62316099868735
 20
-129.0484394121823
 30
0.0
 10
80.56802183342741
 20
-129.0484394121823
 30
0.0
 10
80.52325433456953
 20
-129.093242189949
 30
0.0
 10
80.52325433456953
 20
-129.1483460788239
 30
0.0
 10
80.52325433456953
 20
-129.203485245477
 30
0.0
 10
80.56802183342741
 20
-129.2482527454656
 30
0.0
 10
80.62316099868735
 20
-129.2482527454656
 30
0.0
 10
80.6786176639392
 20
-129.2482527454656
 30
0.0
 10
80.72342044057397
 20
-129.203485245477
 30
0.0
 10
80.72342044057397
 20
-129.1483460788239
 30
0.0
  0
SPLINE
  5
95
330
1F
100
AcDbEntity
  8
_U+30EC_U+30A4_U+30E4_U+30FC 1
 62
     7
420
 16777215
370
     9
100
AcDbSpline
210
0.0
220
0.0
230
1.0
 70
    11
 71
     3
 72
    17
 73
    13
 74
     0
 42
0.0000000001
 43
0.0000000001
 12
1.0
 22
0.0
 32
0.0
 13
1.0
 23
0.0
 33
0.0
 40
0.0
 40
0.0
 40
0.0
 40
0.0
 40
1.0
 40
1.0
 40
1.0
 40
2.0
 40
2.0
 40
2.0
 40
3.0
 40
3.0
 40
3.0
 40
4.0
 40
4.0
 40
4.0
 40
4.0
 10
81.72319263728988
 20
-129.1483460788239
 30
0.0
 10
81.72319263728988
 20
-129.093242189949
 30
0.0
 10
81.67838986065512
 20
-129.0484394121823
 30
0.0
 10
81.62293319540326
 20
-129.0484394121823
 30
0.0
 10
81.56779403014332
 20
-129.0484394121823
 30
0.0
 10
81.52302653128544
 20
-129.093242189949
 30
0.0
 10
81.52302653128544
 20
-129.1483460788239
 30
0.0
 10
81.52302653128544
 20
-129.203485245477
 30
0.0
 10
81.56779403014332
 20
-129.2482527454656
 30
0.0
 10
81.62293319540326
 20
-129.2482527454656
 30
0.0
 10
81.67838986065512
 20
-129.2482527454656
 30
0.0
 10
81.72319263728988
 20
-129.203485245477
 30
0.0
 10
81.72319263728988
 20
-129.1483460788239
 30
0.0
  0
INSERT
  5
97
330
1F
100
AcDbEntity
  8
_U+30EC_U+30A4_U+30E4_U+30FC 1
100
AcDbBlockReference
  2
block 6
 10
0.0
 20
0.0
 30
0.0
  0
POLYLINE
  5
9C
330
1F
100
AcDbEntity
  8
_U+30EC_U+30A4_U+30E4_U+30FC 1
 62
     7
420
 16777215
370
     9
100
AcDb2dPolyline
 66
     1
 10
0.0
 20
0.0
 30
0.0
  0
VERTEX
  5
9D
330
9C
100
AcDbEntity
  8
_U+30EC_U+30A4_U+30E4_U+30FC 1
 62
     7
420
 16777215
370
     9
100
AcDbVertex
100
AcDb2dVertex
 10
82.48455761786585
 20
-129.1483460788239
 30
0.0
  0
VERTEX
  5
9E
330
9C
100
AcDbEntity
  8
_U+30EC_U+30A4_U+30E4_U+30FC 1
 62
     7
420
 16777215
370
     9
100
AcDbVertex
100
AcDb2dVertex
 10
77.9845596771148
 20
-129.1483460788239
 30
0.0
  0
SEQEND
  5
9F
330
9C
100
AcDbEntity
  8
_U+30EC_U+30A4_U+30E4_U+30FC 1
 62
     7
420
 16777215
370
     9
  0
POLYLINE
  5
A0
330
1F
100
AcDbEntity
  8
_U+30EC_U+30A4_U+30E4_U+30FC 1
  6
AI-Linetype-1
 62
   251
420
  5855577
370
    25
100
AcDb2dPolyline
 66
     1
 10
0.0
 20
0.0
 30
0.0
  0
VERTEX
  5
A1
330
A0
100
AcDbEntity
  8
_U+30EC_U+30A4_U+30E4_U+30FC 1
  6
AI-Linetype-1
 62
   251
420
  5855577
370
    25
100
AcDbVertex
100
AcDb2dVertex
 10
89.1897341134692
 20
-124.1755552467339
 30
0.0
  0
VERTEX
  5
A2
330
A0
100
AcDbEntity
  8
_U+30EC_U+30A4_U+30E4_U+30FC 1
  6
AI-Linetype-1
 62
   251
420
  5855577
370
    25
100
AcDbVertex
100
AcDb2dVertex
 10
89.1897341134692
 20
-122.5439580249196
 30
0.0
  0
VERTEX
  5
A3
330
A0
100
AcDbEntity
  8
_U+30EC_U+30A4_U+30E4_U+30FC 1
  6
AI-Linetype-1
 62
   251
420
  5855577
370
    25
100
AcDbVertex
100
AcDb2dVertex
 10
80.01751212524987
 20
-122.5439580249196
 30
0.0
  0
VERTEX
  5
A4
330
A0
100
AcDbEntity
  8
_U+30EC_U+30A4_U+30E4_U+30FC 1
  6
AI-Linetype-1
 62
   251
420
  5855577
370
    25
100
AcDbVertex
100
AcDb2dVertex
 10
80.01751212524987
 20
-135.117663577332
 30
0.0
  0
SEQEND
  5
A6
330
A0
100
AcDbEntity
  8
_U+30EC_U+30A4_U+30E4_U+30FC 1
  6
AI-Linetype-1
 62
   251
420
  5855577
370
    25
  0
ENDSEC
  0
SECTION
  2
OBJECTS
  0
DICTIONARY
  5
C
330
0
100
AcDbDictionary
281
     1
  3
ACAD_GROUP
350
D
  3
ACAD_LAYOUT
350
1A
  3
ACAD_MATERIAL
350
3B
  3
ACAD_MLEADERSTYLE
350
A8
  3
ACAD_MLINESTYLE
350
17
  3
ACAD_PLOTSETTINGS
350
19
  3
ACAD_PLOTSTYLENAME
350
E
  3
ACAD_TABLESTYLE
350
A7
  3
ACAD_VISUALSTYLE
350
2A
  0
SUN
  5
3F
330
29
100
AcDbSun
 90
        1
290
     0
 63
     7
421
 16777215
 40
1.0
291
     1
 91
  2455826
 92
 54000000
292
     0
 70
     2
 71
   256
280
     1
  0
DICTIONARY
  5
D
102
{ACAD_REACTORS
330
C
102
}
330
C
100
AcDbDictionary
281
     1
  0
DICTIONARY
  5
1A
102
{ACAD_REACTORS
330
C
102
}
330
C
100
AcDbDictionary
281
     1
  3
Layout1
350
1E
  3
Layout2
350
26
  3
Model
350
22
  0
DICTIONARY
  5
3B
102
{ACAD_REACTORS
330
C
102
}
330
C
100
AcDbDictionary
281
     1
  3
ByBlock
350
3D
  3
ByLayer
350
3C
  3
Global
350
3E
  0
DICTIONARY
  5
A8
102
{ACAD_REACTORS
330
C
102
}
330
C
100
AcDbDictionary
281
     1
  0
DICTIONARY
  5
17
102
{ACAD_REACTORS
330
C
102
}
330
C
100
AcDbDictionary
281
     1
  3
Standard
350
18
  0
DICTIONARY
  5
19
102
{ACAD_REACTORS
330
C
102
}
330
C
100
AcDbDictionary
281
     1
  0
ACDBDICTIONARYWDFLT
  5
E
102
{ACAD_REACTORS
330
C
102
}
330
C
100
AcDbDictionary
281
     1
  3
Normal
350
F
100
AcDbDictionaryWithDefault
340
F
  0
DICTIONARY
  5
A7
102
{ACAD_REACTORS
330
C
102
}
330
C
100
AcDbDictionary
281
     1
  0
DICTIONARY
  5
2A
102
{ACAD_REACTORS
330
C
102
}
330
C
100
AcDbDictionary
281
     1
  3
2dWireframe
350
2F
  3
3D Hidden
350
31
  3
3dWireframe
350
30
  3
Basic
350
32
  3
Brighten
350
36
  3
ColorChange
350
3A
  3
Conceptual
350
34
  3
Dim
350
35
  3
Facepattern
350
39
  3
Flat
350
2B
  3
FlatWithEdges
350
2C
  3
Gouraud
350
2D
  3
GouraudWithEdges
350
2E
  3
Linepattern
350
38
  3
Realistic
350
33
  3
Thicken
350
37
  0
LAYOUT
  5
1E
102
{ACAD_REACTORS
330
1A
102
}
330
1A
100
AcDbPlotSettings
  1

  2
none_device
  4

  6

 40
0.0
 41
0.0
 42
0.0
 43
0.0
 44
0.0
 45
0.0
 46
0.0
 47
0.0
 48
0.0
 49
0.0
140
0.0
141
0.0
142
1.0
143
1.0
 70
   688
 72
     0
 73
     0
 74
     5
  7

 75
    16
 76
     0
 77
     2
 78
   300
147
1.0
148
0.0
149
0.0
100
AcDbLayout
  1
Layout1
 70
     1
 71
     1
 10
0.0
 20
0.0
 11
12.0
 21
9.0
 12
0.0
 22
0.0
 32
0.0
 14
1.000000000000000E+20
 24
1.000000000000000E+20
 34
1.000000000000000E+20
 15
-1.000000000000000E+20
 25
-1.000000000000000E+20
 35
-1.000000000000000E+20
146
0.0
 13
0.0
 23
0.0
 33
0.0
 16
1.0
 26
0.0
 36
0.0
 17
0.0
 27
1.0
 37
0.0
 76
     0
330
1B
  0
LAYOUT
  5
26
102
{ACAD_REACTORS
330
1A
102
}
330
1A
100
AcDbPlotSettings
  1

  2
none_device
  4

  6

 40
0.0
 41
0.0
 42
0.0
 43
0.0
 44
0.0
 45
0.0
 46
0.0
 47
0.0
 48
0.0
 49
0.0
140
0.0
141
0.0
142
1.0
143
1.0
 70
   688
 72
     0
 73
     0
 74
     5
  7

 75
    16
 76
     0
 77
     2
 78
   300
147
1.0
148
0.0
149
0.0
100
AcDbLayout
  1
Layout2
 70
     1
 71
     2
 10
0.0
 20
0.0
 11
0.0
 21
0.0
 12
0.0
 22
0.0
 32
0.0
 14
0.0
 24
0.0
 34
0.0
 15
0.0
 25
0.0
 35
0.0
146
0.0
 13
0.0
 23
0.0
 33
0.0
 16
1.0
 26
0.0
 36
0.0
 17
0.0
 27
1.0
 37
0.0
 76
     0
330
23
  0
LAYOUT
  5
22
102
{ACAD_REACTORS
330
1A
102
}
330
1A
100
AcDbPlotSettings
  1

  2
none_device
  4

  6

 40
0.0
 41
0.0
 42
0.0
 43
0.0
 44
0.0
 45
0.0
 46
0.0
 47
0.0
 48
0.0
 49
0.0
140
0.0
141
0.0
142
1.0
143
1.0
 70
  1712
 72
     0
 73
     0
 74
     0
  7

 75
     0
 76
     0
 77
     2
 78
   300
147
1.0
148
0.0
149
0.0
100
AcDbLayout
  1
Model
 70
     1
 71
     0
 10
0.0
 20
0.0
 11
12.0
 21
9.0
 12
0.0
 22
0.0
 32
0.0
 14
1.000000000000000E+20
 24
1.000000000000000E+20
 34
1.000000000000000E+20
 15
-1.000000000000000E+20
 25
-1.000000000000000E+20
 35
-1.000000000000000E+20
146
0.0
 13
0.0
 23
0.0
 33
0.0
 16
1.0
 26
0.0
 36
0.0
 17
0.0
 27
1.0
 37
0.0
 76
     0
330
1F
331
29
  0
MATERIAL
  5
3D
102
{ACAD_REACTORS
330
3B
102
}
330
3B
100
AcDbMaterial
  1
ByBlock
 72
     1
 94
      127
  0
MATERIAL
  5
3C
102
{ACAD_REACTORS
330
3B
102
}
330
3B
100
AcDbMaterial
  1
ByLayer
 72
     1
 94
      127
  0
MATERIAL
  5
3E
102
{ACAD_REACTORS
330
3B
102
}
330
3B
100
AcDbMaterial
  1
Global
 72
     1
 94
      127
  0
MLINESTYLE
  5
18
102
{ACAD_REACTORS
330
17
102
}
330
17
100
AcDbMlineStyle
  2
Standard
 70
     0
  3

 62
   256
 51
90.0
 52
90.0
 71
     2
 49
0.5
 62
   256
  6
BYLAYER
 49
-0.5
 62
   256
  6
BYLAYER
  0
ACDBPLACEHOLDER
  5
F
102
{ACAD_REACTORS
330
E
102
}
330
E
  0
VISUALSTYLE
  5
2F
102
{ACAD_REACTORS
330
2A
102
}
330
2A
100
AcDbVisualStyle
  2
2dWireframe
 70
     4
177
     2
291
     0
 71
     0
176
     1
 72
     2
176
     1
 73
     0
176
     1
 90
        0
176
     1
 40
-0.6
176
     1
 41
-30.0
176
     1
 62
     5
 63
     7
421
 16777215
176
     1
 74
     1
176
     1
 91
        4
176
     1
 64
     7
176
     1
 65
   257
176
     1
 75
     1
176
     1
175
     1
176
     1
 42
1.0
176
     1
 92
        0
176
     1
 66
   257
176
     1
 43
1.0
176
     1
 76
     1
176
     1
 77
     6
176
     1
 78
     2
176
     1
 67
     7
176
     1
 79
     5
176
     1
170
     0
176
     1
171
     0
176
     1
290
     0
176
     1
 93
        1
176
     1
 44
0.0
176
     1
173
     0
176
     1
  0
VISUALSTYLE
  5
31
102
{ACAD_REACTORS
330
2A
102
}
330
2A
100
AcDbVisualStyle
  2
3D Hidden
 70
     6
177
     2
291
     0
 71
     1
176
     1
 72
     2
176
     1
 73
     2
176
     1
 90
        0
176
     1
 40
-0.6
176
     1
 41
-30.0
176
     1
 62
     5
 63
     7
421
 16777215
176
     1
 74
     2
176
     1
 91
        2
176
     1
 64
     7
176
     1
 65
   257
176
     1
 75
     2
176
     1
175
     1
176
     1
 42
40.0
176
     1
 92
        0
176
     1
 66
   257
176
     1
 43
1.0
176
     1
 76
     1
176
     1
 77
     6
176
     1
 78
     2
176
     1
 67
     7
176
     1
 79
     3
176
     1
170
     0
176
     1
171
     0
176
     1
290
     0
176
     1
 93
        1
176
     1
 44
0.0
176
     1
173
     0
176
     1
  0
VISUALSTYLE
  5
30
102
{ACAD_REACTORS
330
2A
102
}
330
2A
100
AcDbVisualStyle
  2
3dWireframe
 70
     5
177
     2
291
     0
 71
     0
176
     1
 72
     2
176
     1
 73
     0
176
     1
 90
        0
176
     1
 40
-0.6
176
     1
 41
-30.0
176
     1
 62
     5
 63
     7
421
 16777215
176
     1
 74
     1
176
     1
 91
        4
176
     1
 64
     7
176
     1
 65
   257
176
     1
 75
     1
176
     1
175
     1
176
     1
 42
1.0
176
     1
 92
        0
176
     1
 66
   257
176
     1
 43
1.0
176
     1
 76
     1
176
     1
 77
     6
176
     1
 78
     2
176
     1
 67
     7
176
     1
 79
     5
176
     1
170
     0
176
     1
171
     0
176
     1
290
     0
176
     1
 93
        1
176
     1
 44
0.0
176
     1
173
     0
176
     1
  0
VISUALSTYLE
  5
32
102
{ACAD_REACTORS
330
2A
102
}
330
2A
100
AcDbVisualStyle
  2
Basic
 70
     7
177
     2
291
     1
 71
     1
176
     1
 72
     0
176
     1
 73
     1
176
     1
 90
        0
176
     1
 40
-0.6
176
     1
 41
-30.0
176
     1
 62
     5
 63
     7
421
 16777215
176
     1
 74
     0
176
     1
 91
        4
176
     1
 64
     7
176
     1
 65
   257
176
     1
 75
     1
176
     1
175
     1
176
     1
 42
1.0
176
     1
 92
        8
176
     1
 66
     7
176
     1
 43
1.0
176
     1
 76
     1
176
     1
 77
     6
176
     1
 78
     2
176
     1
 67
     7
176
     1
 79
     5
176
     1
170
     0
176
     1
171
     0
176
     1
290
     0
176
     1
 93
        1
176
     1
 44
0.0
176
     1
173
     0
176
     1
  0
VISUALSTYLE
  5
36
102
{ACAD_REACTORS
330
2A
102
}
330
2A
100
AcDbVisualStyle
  2
Brighten
 70
    12
177
     2
291
     1
 71
     2
176
     1
 72
     2
176
     1
 73
     0
176
     1
 90
        0
176
     1
 40
-0.6
176
     1
 41
-30.0
176
     1
 62
     5
 63
     7
421
 16777215
176
     1
 74
     1
176
     1
 91
        4
176
     1
 64
     7
176
     1
 65
   257
176
     1
 75
     1
176
     1
175
     1
176
     1
 42
1.0
176
     1
 92
        8
176
     1
 66
     7
176
     1
 43
1.0
176
     1
 76
     1
176
     1
 77
     6
176
     1
 78
     2
176
     1
 67
     7
176
     1
 79
     5
176
     1
170
     0
176
     1
171
     0
176
     1
290
     0
176
     1
 93
        1
176
     1
 44
50.0
176
     1
173
     0
176
     1
  0
VISUALSTYLE
  5
3A
102
{ACAD_REACTORS
330
2A
102
}
330
2A
100
AcDbVisualStyle
  2
ColorChange
 70
    16
177
     2
291
     1
 71
     2
176
     1
 72
     2
176
     1
 73
     3
176
     1
 90
        0
176
     1
 40
-0.6
176
     1
 41
-30.0
176
     1
 62
     5
 63
     8
421
  8421504
176
     1
 74
     1
176
     1
 91
        4
176
     1
 64
     7
176
     1
 65
   257
176
     1
 75
     1
176
     1
175
     1
176
     1
 42
1.0
176
     1
 92
        8
176
     1
 66
     8
424
  8421504
176
     1
 43
1.0
176
     1
 76
     1
176
     1
 77
     6
176
     1
 78
     2
176
     1
 67
     7
176
     1
 79
     5
176
     1
170
     0
176
     1
171
     0
176
     1
290
     0
176
     1
 93
        1
176
     1
 44
0.0
176
     1
173
     0
176
     1
  0
VISUALSTYLE
  5
34
102
{ACAD_REACTORS
330
2A
102
}
330
2A
100
AcDbVisualStyle
  2
Conceptual
 70
     9
177
     2
291
     0
 71
     3
176
     1
 72
     2
176
     1
 73
     0
176
     1
 90
        0
176
     1
 40
-0.6
176
     1
 41
-30.0
176
     1
 62
     5
 63
     7
421
 16777215
176
     1
 74
     2
176
     1
 91
        2
176
     1
 64
     7
176
     1
 65
   257
176
     1
 75
     1
176
     1
175
     1
176
     1
 42
40.0
176
     1
 92
        8
176
     1
 66
     7
176
     1
 43
1.0
176
     1
 76
     1
176
     1
 77
     6
176
     1
 78
     2
176
     1
 67
     7
176
     1
 79
     3
176
     1
170
     0
176
     1
171
     0
176
     1
290
     0
176
     1
 93
        1
176
     1
 44
0.0
176
     1
173
     0
176
     1
  0
VISUALSTYLE
  5
35
102
{ACAD_REACTORS
330
2A
102
}
330
2A
100
AcDbVisualStyle
  2
Dim
 70
    11
177
     2
291
     1
 71
     2
176
     1
 72
     2
176
     1
 73
     0
176
     1
 90
        0
176
     1
 40
-0.6
176
     1
 41
-30.0
176
     1
 62
     5
 63
     7
421
 16777215
176
     1
 74
     1
176
     1
 91
        4
176
     1
 64
     7
176
     1
 65
   257
176
     1
 75
     1
176
     1
175
     1
176
     1
 42
1.0
176
     1
 92
        8
176
     1
 66
     7
176
     1
 43
1.0
176
     1
 76
     1
176
     1
 77
     6
176
     1
 78
     2
176
     1
 67
     7
176
     1
 79
     5
176
     1
170
     0
176
     1
171
     0
176
     1
290
     0
176
     1
 93
        1
176
     1
 44
-50.0
176
     1
173
     0
176
     1
  0
VISUALSTYLE
  5
39
102
{ACAD_REACTORS
330
2A
102
}
330
2A
100
AcDbVisualStyle
  2
Facepattern
 70
    15
177
     2
291
     1
 71
     2
176
     1
 72
     2
176
     1
 73
     0
176
     1
 90
        0
176
     1
 40
-0.6
176
     1
 41
-30.0
176
     1
 62
     5
 63
     7
421
 16777215
176
     1
 74
     1
176
     1
 91
        4
176
     1
 64
     7
176
     1
 65
   257
176
     1
 75
     1
176
     1
175
     1
176
     1
 42
1.0
176
     1
 92
        8
176
     1
 66
     7
176
     1
 43
1.0
176
     1
 76
     1
176
     1
 77
     6
176
     1
 78
     2
176
     1
 67
     7
176
     1
 79
     5
176
     1
170
     0
176
     1
171
     0
176
     1
290
     0
176
     1
 93
        1
176
     1
 44
0.0
176
     1
173
     0
176
     1
  0
VISUALSTYLE
  5
2B
102
{ACAD_REACTORS
330
2A
102
}
330
2A
100
AcDbVisualStyle
  2
Flat
 70
     0
177
     2
291
     1
 71
     2
176
     1
 72
     1
176
     1
 73
     1
176
     1
 90
        2
176
     1
 40
-0.6
176
     1
 41
30.0
176
     1
 62
     5
 63
     7
421
 16777215
176
     1
 74
     0
176
     1
 91
        4
176
     1
 64
     7
176
     1
 65
   257
176
     1
 75
     1
176
     1
175
     1
176
     1
 42
1.0
176
     1
 92
        8
176
     1
 66
     7
176
     1
 43
1.0
176
     1
 76
     1
176
     1
 77
     6
176
     1
 78
     2
176
     1
 67
     7
176
     1
 79
     5
176
     1
170
     0
176
     1
171
     0
176
     1
290
     0
176
     1
 93
       13
176
     1
 44
0.0
176
     1
173
     0
176
     1
  0
VISUALSTYLE
  5
2C
102
{ACAD_REACTORS
330
2A
102
}
330
2A
100
AcDbVisualStyle
  2
FlatWithEdges
 70
     1
177
     2
291
     1
 71
     2
176
     1
 72
     1
176
     1
 73
     1
176
     1
 90
        2
176
     1
 40
-0.6
176
     1
 41
30.0
176
     1
 62
     5
 63
     7
421
 16777215
176
     1
 74
     1
176
     1
 91
        4
176
     1
 64
     7
176
     1
 65
   257
176
     1
 75
     1
176
     1
175
     1
176
     1
 42
1.0
176
     1
 92
        0
176
     1
 66
   257
176
     1
 43
1.0
176
     1
 76
     1
176
     1
 77
     6
176
     1
 78
     2
176
     1
 67
     7
176
     1
 79
     5
176
     1
170
     0
176
     1
171
     0
176
     1
290
     0
176
     1
 93
       13
176
     1
 44
0.0
176
     1
173
     0
176
     1
  0
VISUALSTYLE
  5
2D
102
{ACAD_REACTORS
330
2A
102
}
330
2A
100
AcDbVisualStyle
  2
Gouraud
 70
     2
177
     2
291
     1
 71
     2
176
     1
 72
     2
176
     1
 73
     1
176
     1
 90
        2
176
     1
 40
-0.6
176
     1
 41
30.0
176
     1
 62
     5
 63
     7
421
 16777215
176
     1
 74
     0
176
     1
 91
        4
176
     1
 64
     7
176
     1
 65
   257
176
     1
 75
     1
176
     1
175
     1
176
     1
 42
1.0
176
     1
 92
        0
176
     1
 66
     7
176
     1
 43
1.0
176
     1
 76
     1
176
     1
 77
     6
176
     1
 78
     2
176
     1
 67
     7
176
     1
 79
     5
176
     1
170
     0
176
     1
171
     0
176
     1
290
     0
176
     1
 93
       13
176
     1
 44
0.0
176
     1
173
     0
176
     1
  0
VISUALSTYLE
  5
2E
102
{ACAD_REACTORS
330
2A
102
}
330
2A
100
AcDbVisualStyle
  2
GouraudWithEdges
 70
     3
177
     2
291
     1
 71
     2
176
     1
 72
     2
176
     1
 73
     1
176
     1
 90
        2
176
     1
 40
-0.6
176
     1
 41
30.0
176
     1
 62
     5
 63
     7
421
 16777215
176
     1
 74
     1
176
     1
 91
        4
176
     1
 64
     7
176
     1
 65
   257
176
     1
 75
     1
176
     1
175
     1
176
     1
 42
1.0
176
     1
 92
        0
176
     1
 66
   257
176
     1
 43
1.0
176
     1
 76
     1
176
     1
 77
     6
176
     1
 78
     2
176
     1
 67
     7
176
     1
 79
     5
176
     1
170
     0
176
     1
171
     0
176
     1
290
     0
176
     1
 93
       13
176
     1
 44
0.0
176
     1
173
     0
176
     1
  0
VISUALSTYLE
  5
38
102
{ACAD_REACTORS
330
2A
102
}
330
2A
100
AcDbVisualStyle
  2
Linepattern
 70
    14
177
     2
291
     1
 71
     2
176
     1
 72
     2
176
     1
 73
     0
176
     1
 90
        0
176
     1
 40
-0.6
176
     1
 41
-30.0
176
     1
 62
     5
 63
     7
421
 16777215
176
     1
 74
     1
176
     1
 91
        4
176
     1
 64
     7
176
     1
 65
   257
176
     1
 75
     7
176
     1
175
     7
176
     1
 42
1.0
176
     1
 92
        8
176
     1
 66
     7
176
     1
 43
1.0
176
     1
 76
     1
176
     1
 77
     6
176
     1
 78
     2
176
     1
 67
     7
176
     1
 79
     5
176
     1
170
     0
176
     1
171
     0
176
     1
290
     0
176
     1
 93
        1
176
     1
 44
0.0
176
     1
173
     0
176
     1
  0
VISUALSTYLE
  5
33
102
{ACAD_REACTORS
330
2A
102
}
330
2A
100
AcDbVisualStyle
  2
Realistic
 70
     8
177
     2
291
     0
 71
     2
176
     1
 72
     2
176
     1
 73
     0
176
     1
 90
        0
176
     1
 40
-0.6
176
     1
 41
-30.0
176
     1
 62
     5
 63
     7
421
 16777215
176
     1
 74
     1
176
     1
 91
        0
176
     1
 64
     7
176
     1
 65
   257
176
     1
 75
     1
176
     1
175
     1
176
     1
 42
1.0
176
     1
 92
        8
176
     1
 66
     8
424
  7895160
176
     1
 43
1.0
176
     1
 76
     1
176
     1
 77
     6
176
     1
 78
     2
176
     1
 67
     7
176
     1
 79
     5
176
     1
170
     0
176
     1
171
     0
176
     1
290
     0
176
     1
 93
       13
176
     1
 44
0.0
176
     1
173
     0
176
     1
  0
VISUALSTYLE
  5
37
102
{ACAD_REACTORS
330
2A
102
}
330
2A
100
AcDbVisualStyle
  2
Thicken
 70
    13
177
     2
291
     1
 71
     2
176
     1
 72
     2
176
     1
 73
     0
176
     1
 90
        0
176
     1
 40
-0.6
176
     1
 41
-30.0
176
     1
 62
     5
 63
     7
421
 16777215
176
     1
 74
     1
176
     1
 91
        4
176
     1
 64
     7
176
     1
 65
   257
176
     1
 75
     1
176
     1
175
     1
176
     1
 42
1.0
176
     1
 92
       12
176
     1
 66
     7
176
     1
 43
1.0
176
     1
 76
     1
176
     1
 77
     6
176
     1
 78
     2
176
     1
 67
     7
176
     1
 79
     5
176
     1
170
     0
176
     1
171
     0
176
     1
290
     0
176
     1
 93
        1
176
     1
 44
0.0
176
     1
173
     0
176
     1
  0
ENDSEC
  0
EOF
