  0
SECTION
  2
HEADER
  9
$ACADVER
  1
AC1024
  9
$ACADMAINTVER
 70
     6
  9
$DWGCODEPAGE
  3
UNDEFINED
  9
$INSBASE
 10
0.0
 20
0.0
 30
0.0
  9
$EXTMIN
 10
1.000000000000000E+20
 20
1.000000000000000E+20
 30
1.000000000000000E+20
  9
$EXTMAX
 10
-1.000000000000000E+20
 20
-1.000000000000000E+20
 30
-1.000000000000000E+20
  9
$LIMMIN
 10
0.0
 20
0.0
  9
$LIMMAX
 10
12.0
 20
9.0
  9
$ORTHOMODE
 70
     0
  9
$REGENMODE
 70
     1
  9
$FILLMODE
 70
     1
  9
$QTEXTMODE
 70
     0
  9
$MIRRTEXT
 70
     1
  9
$LTSCALE
 40
1.0
  9
$ATTMODE
 70
     1
  9
$TEXTSIZE
 40
0.2
  9
$TRACEWID
 40
0.05
  9
$TEXTSTYLE
  7
Standard
  9
$CLAYER
  8
0
  9
$CELTYPE
  6
ByLayer
  9
$CECOLOR
 62
   256
  9
$CELTSCALE
 40
1.0
  9
$DISPSILH
 70
     0
  9
$DIMSCALE
 40
1.0
  9
$DIMASZ
 40
0.18
  9
$DIMEXO
 40
0.0625
  9
$DIMDLI
 40
0.38
  9
$DIMRND
 40
0.0
  9
$DIMDLE
 40
0.0
  9
$DIMEXE
 40
0.18
  9
$DIMTP
 40
0.0
  9
$DIMTM
 40
0.0
  9
$DIMTXT
 40
0.18
  9
$DIMCEN
 40
0.09
  9
$DIMTSZ
 40
0.0
  9
$DIMTOL
 70
     0
  9
$DIMLIM
 70
     0
  9
$DIMTIH
 70
     1
  9
$DIMTOH
 70
     1
  9
$DIMSE1
 70
     0
  9
$DIMSE2
 70
     0
  9
$DIMTAD
 70
     0
  9
$DIMZIN
 70
     0
  9
$DIMBLK
  1

  9
$DIMASO
 70
     1
  9
$DIMSHO
 70
     1
  9
$DIMPOST
  1

  9
$DIMAPOST
  1

  9
$DIMALT
 70
     0
  9
$DIMALTD
 70
     2
  9
$DIMALTF
 40
25.4
  9
$DIMLFAC
 40
1.0
  9
$DIMTOFL
 70
     0
  9
$DIMTVP
 40
0.0
  9
$DIMTIX
 70
     0
  9
$DIMSOXD
 70
     0
  9
$DIMSAH
 70
     0
  9
$DIMBLK1
  1

  9
$DIMBLK2
  1

  9
$DIMSTYLE
  2
Standard
  9
$DIMCLRD
 70
     0
  9
$DIMCLRE
 70
     0
  9
$DIMCLRT
 70
     0
  9
$DIMTFAC
 40
1.0
  9
$DIMGAP
 40
0.09
  9
$DIMJUST
 70
     0
  9
$DIMSD1
 70
     0
  9
$DIMSD2
 70
     0
  9
$DIMTOLJ
 70
     1
  9
$DIMTZIN
 70
     0
  9
$DIMALTZ
 70
     0
  9
$DIMALTTZ
 70
     0
  9
$DIMUPT
 70
     0
  9
$DIMDEC
 70
     4
  9
$DIMTDEC
 70
     4
  9
$DIMALTU
 70
     2
  9
$DIMALTTD
 70
     2
  9
$DIMTXSTY
  7
Standard
  9
$DIMAUNIT
 70
     0
  9
$DIMADEC
 70
     0
  9
$DIMALTRND
 40
0.0
  9
$DIMAZIN
 70
     0
  9
$DIMDSEP
 70
    46
  9
$DIMATFIT
 70
     3
  9
$DIMFRAC
 70
     0
  9
$DIMLDRBLK
  1

  9
$DIMLUNIT
 70
     2
  9
$DIMLWD
 70
    -2
  9
$DIMLWE
 70
    -2
  9
$DIMTMOVE
 70
     0
  9
$DIMFXL
 40
1.0
  9
$DIMFXLON
 70
     0
  9
$DIMJOGANG
 40
0.7853981633974483
  9
$DIMTFILL
 70
     0
  9
$DIMTFILLCLR
 70
     0
  9
$DIMARCSYM
 70
     0
  9
$DIMLTYPE
  6

  9
$DIMLTEX1
  6

  9
$DIMLTEX2
  6

  9
$DIMTXTDIRECTION
 70
     0
  9
$LUNITS
 70
     2
  9
$LUPREC
 70
     4
  9
$SKETCHINC
 40
0.1
  9
$FILLETRAD
 40
0.5
  9
$AUNITS
 70
     0
  9
$AUPREC
 70
     0
  9
$MENU
  1
.
  9
$ELEVATION
 40
0.0
  9
$PELEVATION
 40
0.0
  9
$THICKNESS
 40
0.0
  9
$LIMCHECK
 70
     0
  9
$CHAMFERA
 40
0.5
  9
$CHAMFERB
 40
0.5
  9
$CHAMFERC
 40
1.0
  9
$CHAMFERD
 40
0.0
  9
$SKPOLY
 70
     0
  9
$TDCREATE
 40
2457917.617928241
  9
$TDUCREATE
 40
2457917.242928241
  9
$TDUPDATE
 40
2457917.617928241
  9
$TDUUPDATE
 40
2457917.242928241
  9
$TDINDWG
 40
0.0000000116
  9
$TDUSRTIMER
 40
0.0000000116
  9
$USRTIMER
 70
     1
  9
$ANGBASE
 50
0.0
  9
$ANGDIR
 70
     0
  9
$PDMODE
 70
     0
  9
$PDSIZE
 40
0.0
  9
$PLINEWID
 40
0.0
  9
$SPLFRAME
 70
     0
  9
$SPLINETYPE
 70
     6
  9
$SPLINESEGS
 70
     8
  9
$HANDSEED
  5
C9
  9
$SURFTAB1
 70
     6
  9
$SURFTAB2
 70
     6
  9
$SURFTYPE
 70
     6
  9
$SURFU
 70
     6
  9
$SURFV
 70
     6
  9
$UCSBASE
  2

  9
$UCSNAME
  2

  9
$UCSORG
 10
0.0
 20
0.0
 30
0.0
  9
$UCSXDIR
 10
1.0
 20
0.0
 30
0.0
  9
$UCSYDIR
 10
0.0
 20
1.0
 30
0.0
  9
$UCSORTHOREF
  2

  9
$UCSORTHOVIEW
 70
     0
  9
$UCSORGTOP
 10
0.0
 20
0.0
 30
0.0
  9
$UCSORGBOTTOM
 10
0.0
 20
0.0
 30
0.0
  9
$UCSORGLEFT
 10
0.0
 20
0.0
 30
0.0
  9
$UCSORGRIGHT
 10
0.0
 20
0.0
 30
0.0
  9
$UCSORGFRONT
 10
0.0
 20
0.0
 30
0.0
  9
$UCSORGBACK
 10
0.0
 20
0.0
 30
0.0
  9
$PUCSBASE
  2

  9
$PUCSNAME
  2

  9
$PUCSORG
 10
0.0
 20
0.0
 30
0.0
  9
$PUCSXDIR
 10
1.0
 20
0.0
 30
0.0
  9
$PUCSYDIR
 10
0.0
 20
1.0
 30
0.0
  9
$PUCSORTHOREF
  2

  9
$PUCSORTHOVIEW
 70
     0
  9
$PUCSORGTOP
 10
0.0
 20
0.0
 30
0.0
  9
$PUCSORGBOTTOM
 10
0.0
 20
0.0
 30
0.0
  9
$PUCSORGLEFT
 10
0.0
 20
0.0
 30
0.0
  9
$PUCSORGRIGHT
 10
0.0
 20
0.0
 30
0.0
  9
$PUCSORGFRONT
 10
0.0
 20
0.0
 30
0.0
  9
$PUCSORGBACK
 10
0.0
 20
0.0
 30
0.0
  9
$USERI1
 70
     0
  9
$USERI2
 70
     0
  9
$USERI3
 70
     0
  9
$USERI4
 70
     0
  9
$USERI5
 70
     0
  9
$USERR1
 40
0.0
  9
$USERR2
 40
0.0
  9
$USERR3
 40
0.0
  9
$USERR4
 40
0.0
  9
$USERR5
 40
0.0
  9
$WORLDVIEW
 70
     1
  9
$SHADEDGE
 70
     3
  9
$SHADEDIF
 70
    70
  9
$TILEMODE
 70
     1
  9
$MAXACTVP
 70
    64
  9
$PINSBASE
 10
0.0
 20
0.0
 30
0.0
  9
$PLIMCHECK
 70
     0
  9
$PEXTMIN
 10
1.000000000000000E+20
 20
1.000000000000000E+20
 30
1.000000000000000E+20
  9
$PEXTMAX
 10
-1.000000000000000E+20
 20
-1.000000000000000E+20
 30
-1.000000000000000E+20
  9
$PLIMMIN
 10
0.0
 20
0.0
  9
$PLIMMAX
 10
12.0
 20
9.0
  9
$UNITMODE
 70
     0
  9
$VISRETAIN
 70
     1
  9
$PLINEGEN
 70
     0
  9
$PSLTSCALE
 70
     1
  9
$TREEDEPTH
 70
  3020
  9
$CMLSTYLE
  2
Standard
  9
$CMLJUST
 70
     0
  9
$CMLSCALE
 40
1.0
  9
$PROXYGRAPHICS
 70
     1
  9
$MEASUREMENT
 70
     0
  9
$CELWEIGHT
370
    -1
  9
$ENDCAPS
280
     0
  9
$JOINSTYLE
280
     0
  9
$LWDISPLAY
290
     1
  9
$INSUNITS
 70
     1
  9
$HYPERLINKBASE
  1

  9
$STYLESHEET
  1

  9
$XEDIT
290
     1
  9
$CEPSNTYPE
380
     0
  9
$PSTYLEMODE
290
     1
  9
$FINGERPRINTGUID
  2
{15D9630D-DE57-4472-3540-5C422982020F}
  9
$VERSIONGUID
  2
{FAEB1C32-E019-11D5-929B-00C0DF256EC4}
  9
$EXTNAMES
290
     1
  9
$PSVPSCALE
 40
0.0
  9
$OLESTARTUP
290
     0
  9
$SORTENTS
280
   127
  9
$INDEXCTL
280
     0
  9
$HIDETEXT
280
     1
  9
$XCLIPFRAME
280
     2
  9
$HALOGAP
280
     0
  9
$OBSCOLOR
 70
   257
  9
$OBSLTYPE
280
     0
  9
$INTERSECTIONDISPLAY
280
     0
  9
$INTERSECTIONCOLOR
 70
   257
  9
$DIMASSOC
280
     2
  9
$PROJECTNAME
  1

  9
$CAMERADISPLAY
290
     0
  9
$LENSLENGTH
 40
50.0
  9
$CAMERAHEIGHT
 40
0.0
  9
$STEPSPERSEC
 40
2.0
  9
$STEPSIZE
 40
6.0
  9
$3DDWFPREC
 40
2.0
  9
$PSOLWIDTH
 40
0.25
  9
$PSOLHEIGHT
 40
4.0
  9
$LOFTANG1
 40
1.570796326794897
  9
$LOFTANG2
 40
1.570796326794897
  9
$LOFTMAG1
 40
0.0
  9
$LOFTMAG2
 40
0.0
  9
$LOFTPARAM
 70
     7
  9
$LOFTNORMALS
280
     1
  9
$LATITUDE
 40
37.795
  9
$LONGITUDE
 40
-122.394
  9
$NORTHDIRECTION
 40
0.0
  9
$TIMEZONE
 70
 -8000
  9
$LIGHTGLYPHDISPLAY
280
     1
  9
$TILEMODELIGHTSYNCH
280
     1
  9
$CMATERIAL
347
3C
  9
$SOLIDHIST
280
     1
  9
$SHOWHIST
280
     1
  9
$DWFFRAME
280
     2
  9
$DGNFRAME
280
     2
  9
$REALWORLDSCALE
290
     1
  9
$INTERFERECOLOR
 62
   256
  9
$CSHADOW
280
     0
  9
$SHADOWPLANELOCATION
 40
0.0
  0
ENDSEC
  0
SECTION
  2
CLASSES
  0
CLASS
  1
ACDBDICTIONARYWDFLT
  2
AcDbDictionaryWithDefault
  3
ObjectDBX Classes
 90
        0
 91
        4
280
     0
281
     0
  0
CLASS
  1
VISUALSTYLE
  2
AcDbVisualStyle
  3
ObjectDBX Classes
 90
     4095
 91
        4
280
     0
281
     0
  0
CLASS
  1
MATERIAL
  2
AcDbMaterial
  3
ObjectDBX Classes
 90
     1153
 91
        4
280
     0
281
     0
  0
CLASS
  1
SUN
  2
AcDbSun
  3
SCENEOE
 90
     1024
 91
        4
280
     0
281
     0
  0
ENDSEC
  0
SECTION
  2
TABLES
  0
TABLE
  2
VPORT
  5
8
330
0
100
AcDbSymbolTable
 70
     1
  0
VPORT
  5
29
330
8
100
AcDbSymbolTableRecord
100
AcDbViewportTableRecord
  2
*Active
 70
     0
 10
0.0
 20
0.0
 11
1.0
 21
1.0
 12
0.0
 22
0.0
 13
0.0
 23
0.0
 14
0.5
 24
0.5
 15
0.5
 25
0.5
 16
0.0
 26
0.0
 36
1.0
 17
91.00082462281999
 27
-128.4993055234307
 37
0.0
 40
256.9986110468615
 41
0.7081814508812795
 42
50.0
 43
0.0
 44
0.0
 50
0.0
 51
0.0
 71
     0
 72
   100
 73
     1
 74
     3
 75
     0
 76
     0
 77
     0
 78
     0
281
     0
 65
     1
110
0.0
120
0.0
130
0.0
111
1.0
121
0.0
131
0.0
112
0.0
122
1.0
132
0.0
 79
     0
146
0.0
 60
     3
 61
     5
292
     1
282
     1
141
0.0
142
0.0
 63
   250
361
3F
  0
ENDTAB
  0
TABLE
  2
LTYPE
  5
5
330
0
100
AcDbSymbolTable
 70
     1
  0
LTYPE
  5
14
330
5
100
AcDbSymbolTableRecord
100
AcDbLinetypeTableRecord
  2
ByBlock
 70
     0
  3

 72
    65
 73
     0
 40
0.0
  0
LTYPE
  5
15
330
5
100
AcDbSymbolTableRecord
100
AcDbLinetypeTableRecord
  2
ByLayer
 70
     0
  3

 72
    65
 73
     0
 40
0.0
  0
LTYPE
  5
16
330
5
100
AcDbSymbolTableRecord
100
AcDbLinetypeTableRecord
  2
Continuous
 70
     0
  3
Solid line
 72
    65
 73
     0
 40
0.0
  0
ENDTAB
  0
TABLE
  2
LAYER
  5
2
330
0
100
AcDbSymbolTable
 70
     2
  0
LAYER
  5
10
330
2
100
AcDbSymbolTableRecord
100
AcDbLayerTableRecord
  2
0
 70
     0
 62
     7
  6
Continuous
370
    -3
390
F
347
3E
  0
LAYER
  5
40
330
2
100
AcDbSymbolTableRecord
100
AcDbLayerTableRecord
  2
_U+30EC_U+30A4_U+30E4_U+30FC 1
 70
     0
 62
     7
  6
Continuous
370
    -3
390
F
347
3E
  0
ENDTAB
  0
TABLE
  2
STYLE
  5
3
330
0
100
AcDbSymbolTable
 70
     1
  0
STYLE
  5
11
330
3
100
AcDbSymbolTableRecord
100
AcDbTextStyleTableRecord
  2
Standard
 70
     0
 40
0.0
 41
1.0
 50
0.0
 71
     0
 42
0.2
  3
txt
  4

  0
ENDTAB
  0
TABLE
  2
VIEW
  5
6
330
0
100
AcDbSymbolTable
 70
     0
  0
ENDTAB
  0
TABLE
  2
UCS
  5
7
330
0
100
AcDbSymbolTable
 70
     0
  0
ENDTAB
  0
TABLE
  2
APPID
  5
9
330
0
100
AcDbSymbolTable
 70
     1
  0
APPID
  5
12
330
9
100
AcDbSymbolTableRecord
100
AcDbRegAppTableRecord
  2
ACAD
 70
     0
  0
ENDTAB
  0
TABLE
  2
DIMSTYLE
  5
A
330
0
100
AcDbSymbolTable
 70
     1
100
AcDbDimStyleTable
  0
DIMSTYLE
105
27
330
A
100
AcDbSymbolTableRecord
100
AcDbDimStyleTableRecord
  2
Standard
 70
     0
178
     0
340
11
  0
ENDTAB
  0
TABLE
  2
BLOCK_RECORD
  5
1
330
0
100
AcDbSymbolTable
 70
     6
  0
BLOCK_RECORD
  5
1F
330
1
100
AcDbSymbolTableRecord
100
AcDbBlockTableRecord
  2
*Model_Space
340
22
 70
     0
280
     1
281
     0
  0
BLOCK_RECORD
  5
1B
330
1
100
AcDbSymbolTableRecord
100
AcDbBlockTableRecord
  2
*Paper_Space
340
1E
 70
     0
280
     1
281
     0
  0
BLOCK_RECORD
  5
23
330
1
100
AcDbSymbolTableRecord
100
AcDbBlockTableRecord
  2
*Paper_Space0
340
26
 70
     0
280
     1
281
     0
  0
BLOCK_RECORD
  5
7E
330
1
100
AcDbSymbolTableRecord
100
AcDbBlockTableRecord
  2
block 2
340
0
102
{BLKREFS
331
7F
102
}
 70
     0
280
     1
281
     0
  0
BLOCK_RECORD
  5
92
330
1
100
AcDbSymbolTableRecord
100
AcDbBlockTableRecord
  2
block 3
340
0
102
{BLKREFS
331
93
102
}
 70
     0
280
     1
281
     0
  0
BLOCK_RECORD
  5
AC
330
1
100
AcDbSymbolTableRecord
100
AcDbBlockTableRecord
  2
block 4
340
0
102
{BLKREFS
331
AD
102
}
 70
     0
280
     1
281
     0
  0
BLOCK_RECORD
  5
B5
330
1
100
AcDbSymbolTableRecord
100
AcDbBlockTableRecord
  2
block 5
340
0
102
{BLKREFS
331
B6
102
}
 70
     0
280
     1
281
     0
  0
BLOCK_RECORD
  5
BD
330
1
100
AcDbSymbolTableRecord
100
AcDbBlockTableRecord
  2
block 6
340
0
102
{BLKREFS
331
BE
102
}
 70
     0
280
     1
281
     0
  0
ENDTAB
  0
ENDSEC
  0
SECTION
  2
BLOCKS
  0
BLOCK
  5
20
330
1F
100
AcDbEntity
  8
0
100
AcDbBlockBegin
  2
*Model_Space
 70
     0
 10
0.0
 20
0.0
 30
0.0
  3
*Model_Space
  1

  0
ENDBLK
  5
21
330
1F
100
AcDbEntity
  8
0
100
AcDbBlockEnd
  0
BLOCK
  5
1C
330
1B
100
AcDbEntity
 67
     1
  8
0
100
AcDbBlockBegin
  2
*Paper_Space
 70
     0
 10
0.0
 20
0.0
 30
0.0
  3
*Paper_Space
  1

  0
ENDBLK
  5
1D
330
1B
100
AcDbEntity
 67
     1
  8
0
100
AcDbBlockEnd
  0
BLOCK
  5
24
330
23
100
AcDbEntity
  8
0
100
AcDbBlockBegin
  2
*Paper_Space0
 70
     0
 10
0.0
 20
0.0
 30
0.0
  3
*Paper_Space0
  1

  0
ENDBLK
  5
25
330
23
100
AcDbEntity
  8
0
100
AcDbBlockEnd
  0
BLOCK
  5
80
330
7E
100
AcDbEntity
  8
0
100
AcDbBlockBegin
  2
block 2
 70
     0
 10
0.0
 20
0.0
 30
0.0
  3
block 2
  1

  0
SPLINE
  5
82
330
7E
100
AcDbEntity
  8
_U+30EC_U+30A4_U+30E4_U+30FC 1
370
     0
100
AcDbSpline
210
0.0
220
0.0
230
1.0
 70
    11
 71
     3
 72
    29
 73
    25
 74
     0
 42
0.0000000001
 43
0.0000000001
 12
1.0
 22
0.0
 32
0.0
 13
1.0
 23
0.0
 33
0.0
 40
0.0
 40
0.0
 40
0.0
 40
0.0
 40
1.0
 40
1.0
 40
1.0
 40
2.0
 40
2.0
 40
2.0
 40
3.0
 40
3.0
 40
3.0
 40
4.0
 40
4.0
 40
4.0
 40
5.0
 40
5.0
 40
5.0
 40
6.0
 40
6.0
 40
6.0
 40
7.0
 40
7.0
 40
7.0
 40
8.0
 40
8.0
 40
8.0
 40
8.0
 10
84.39260929964838
 20
-118.7178181669351
 30
0.0
 10
84.10769990301822
 20
-118.7178181669351
 30
0.0
 10
83.8363986335548
 20
-118.5801866022994
 30
0.0
 10
83.8363986335548
 20
-118.2311984296436
 30
0.0
 10
83.8363986335548
 20
-117.9752278350895
 30
0.0
 10
83.98781058013152
 20
-117.8799709449224
 30
0.0
 10
84.10098196682198
 20
-117.8186482452849
 30
0.0
 10
83.96748451676855
 20
-117.7593926029386
 30
0.0
 10
83.88618026331665
 20
-117.6451876876026
 30
0.0
 10
83.88618026331665
 20
-117.4844739832157
 30
0.0
 10
83.88618026331665
 20
-117.2093831087185
 30
0.0
 10
84.09857039998231
 20
-117.0739908561482
 30
0.0
 10
84.39260929964838
 20
-117.0739908561482
 30
0.0
 10
84.6956054475761
 20
-117.0739908561482
 30
0.0
 10
84.89903833598011
 20
-117.2178235926574
 30
0.0
 10
84.89903833598011
 20
-117.4844739832157
 30
0.0
 10
84.89903833598011
 20
-117.6451876876026
 30
0.0
 10
84.81532251568854
 20
-117.7593926029386
 30
0.0
 10
84.68199732040937
 20
-117.8186482452849
 30
0.0
 10
84.776909701028
 20
-117.8694634036924
 30
0.0
 10
84.94640839890229
 20
-117.9647202938595
 30
0.0
 10
84.94640839890229
 20
-118.2270643150613
 30
0.0
 10
84.94640839890229
 20
-118.6013739395337
 30
0.0
 10
84.64806312987966
 20
-118.7178181669351
 30
0.0
 10
84.39260929964838
 20
-118.7178181669351
 30
0.0
  0
SPLINE
  5
83
330
7E
100
AcDbEntity
  8
_U+30EC_U+30A4_U+30E4_U+30FC 1
370
     0
100
AcDbSpline
210
0.0
220
0.0
230
1.0
 70
    11
 71
     3
 72
    17
 73
    13
 74
     0
 42
0.0000000001
 43
0.0000000001
 12
1.0
 22
0.0
 32
0.0
 13
1.0
 23
0.0
 33
0.0
 40
0.0
 40
0.0
 40
0.0
 40
0.0
 40
1.0
 40
1.0
 40
1.0
 40
2.0
 40
2.0
 40
2.0
 40
3.0
 40
3.0
 40
3.0
 40
4.0
 40
4.0
 40
4.0
 40
4.0
 10
84.39260929964838
 20
-117.9266519887475
 30
0.0
 10
84.23878578623197
 20
-117.9266519887475
 30
0.0
 10
84.07600502455392
 20
-118.0132961402015
 30
0.0
 10
84.07600502455392
 20
-118.216384519057
 30
0.0
 10
84.07600502455392
 20
-118.4215399552036
 30
0.0
 10
84.21174178667276
 20
-118.5231702720185
 30
0.0
 10
84.39260929964838
 20
-118.5231702720185
 30
0.0
 10
84.59156356392155
 20
-118.5231702720185
 30
0.0
 10
84.70904131996858
 20
-118.4005248727436
 30
0.0
 10
84.70904131996858
 20
-118.2227579457047
 30
0.0
 10
84.70904131996858
 20
-118.0005492869061
 30
0.0
 10
84.53506399796346
 20
-117.9266519887475
 30
0.0
 10
84.39260929964838
 20
-117.9266519887475
 30
0.0
  0
SPLINE
  5
84
330
7E
100
AcDbEntity
  8
_U+30EC_U+30A4_U+30E4_U+30FC 1
370
     0
100
AcDbSpline
210
0.0
220
0.0
230
1.0
 70
    11
 71
     3
 72
    17
 73
    13
 74
     0
 42
0.0000000001
 43
0.0000000001
 12
1.0
 22
0.0
 32
0.0
 13
1.0
 23
0.0
 33
0.0
 40
0.0
 40
0.0
 40
0.0
 40
0.0
 40
1.0
 40
1.0
 40
1.0
 40
2.0
 40
2.0
 40
2.0
 40
3.0
 40
3.0
 40
3.0
 40
4.0
 40
4.0
 40
4.0
 40
4.0
 10
84.39260929964838
 20
-117.2665716937736
 30
0.0
 10
84.21622041080359
 20
-117.2665716937736
 30
0.0
 10
84.12578665431577
 20
-117.3616563291665
 30
0.0
 10
84.12578665431577
 20
-117.4970485817368
 30
0.0
 10
84.12578665431577
 20
-117.619866235786
 30
0.0
 10
84.20261228363685
 20
-117.7383775204786
 30
0.0
 10
84.39260929964838
 20
-117.7383775204786
 30
0.0
 10
84.58243406088565
 20
-117.7383775204786
 30
0.0
 10
84.65943194498098
 20
-117.619866235786
 30
0.0
 10
84.65943194498098
 20
-117.4970485817368
 30
0.0
 10
84.65943194498098
 20
-117.3616563291665
 30
0.0
 10
84.5665866216535
 20
-117.2665716937736
 30
0.0
 10
84.39260929964838
 20
-117.2665716937736
 30
0.0
  0
HATCH
  5
85
330
7E
100
AcDbEntity
  8
_U+30EC_U+30A4_U+30E4_U+30FC 1
 62
   179
420
  2234388
100
AcDbHatch
 10
0.0
 20
0.0
 30
0.0
210
0.0
220
0.0
230
1.0
  2
SOLID
 70
     1
 71
     0
 91
        3
 92
        1
 93
        1
 72
     4
 94
        3
 73
     0
 74
     1
 95
       29
 96
       25
 40
0.0
 40
0.0
 40
0.0
 40
0.0
 40
1.0
 40
1.0
 40
1.0
 40
2.0
 40
2.0
 40
2.0
 40
3.0
 40
3.0
 40
3.0
 40
4.0
 40
4.0
 40
4.0
 40
5.0
 40
5.0
 40
5.0
 40
6.0
 40
6.0
 40
6.0
 40
7.0
 40
7.0
 40
7.0
 40
8.0
 40
8.0
 40
8.0
 40
8.0
 10
84.39260929964838
 20
-118.7178181669351
 10
84.10769990301822
 20
-118.7178181669351
 10
83.8363986335548
 20
-118.5801866022994
 10
83.8363986335548
 20
-118.2311984296436
 10
83.8363986335548
 20
-117.9752278350895
 10
83.98781058013152
 20
-117.8799709449224
 10
84.10098196682198
 20
-117.8186482452849
 10
83.96748451676855
 20
-117.7593926029386
 10
83.88618026331665
 20
-117.6451876876026
 10
83.88618026331665
 20
-117.4844739832157
 10
83.88618026331665
 20
-117.2093831087185
 10
84.09857039998231
 20
-117.0739908561482
 10
84.39260929964838
 20
-117.0739908561482
 10
84.6956054475761
 20
-117.0739908561482
 10
84.89903833598011
 20
-117.2178235926574
 10
84.89903833598011
 20
-117.4844739832157
 10
84.89903833598011
 20
-117.6451876876026
 10
84.81532251568854
 20
-117.7593926029386
 10
84.68199732040937
 20
-117.8186482452849
 10
84.776909701028
 20
-117.8694634036924
 10
84.94640839890229
 20
-117.9647202938595
 10
84.94640839890229
 20
-118.2270643150613
 10
84.94640839890229
 20
-118.6013739395337
 10
84.64806312987966
 20
-118.7178181669351
 10
84.39260929964838
 20
-118.7178181669351
 97
        0
 97
        0
 92
        1
 93
        1
 72
     4
 94
        3
 73
     0
 74
     1
 95
       17
 96
       13
 40
0.0
 40
0.0
 40
0.0
 40
0.0
 40
1.0
 40
1.0
 40
1.0
 40
2.0
 40
2.0
 40
2.0
 40
3.0
 40
3.0
 40
3.0
 40
4.0
 40
4.0
 40
4.0
 40
4.0
 10
84.39260929964838
 20
-117.9266519887475
 10
84.23878578623197
 20
-117.9266519887475
 10
84.07600502455392
 20
-118.0132961402015
 10
84.07600502455392
 20
-118.216384519057
 10
84.07600502455392
 20
-118.4215399552036
 10
84.21174178667276
 20
-118.5231702720185
 10
84.39260929964838
 20
-118.5231702720185
 10
84.59156356392155
 20
-118.5231702720185
 10
84.70904131996858
 20
-118.4005248727436
 10
84.70904131996858
 20
-118.2227579457047
 10
84.70904131996858
 20
-118.0005492869061
 10
84.53506399796346
 20
-117.9266519887475
 10
84.39260929964838
 20
-117.9266519887475
 97
        0
 97
        0
 92
        1
 93
        1
 72
     4
 94
        3
 73
     0
 74
     1
 95
       17
 96
       13
 40
0.0
 40
0.0
 40
0.0
 40
0.0
 40
1.0
 40
1.0
 40
1.0
 40
2.0
 40
2.0
 40
2.0
 40
3.0
 40
3.0
 40
3.0
 40
4.0
 40
4.0
 40
4.0
 40
4.0
 10
84.39260929964838
 20
-117.2665716937736
 10
84.21622041080359
 20
-117.2665716937736
 10
84.12578665431577
 20
-117.3616563291665
 10
84.12578665431577
 20
-117.4970485817368
 10
84.12578665431577
 20
-117.619866235786
 10
84.20261228363685
 20
-117.7383775204786
 10
84.39260929964838
 20
-117.7383775204786
 10
84.58243406088565
 20
-117.7383775204786
 10
84.65943194498098
 20
-117.619866235786
 10
84.65943194498098
 20
-117.4970485817368
 10
84.65943194498098
 20
-117.3616563291665
 10
84.5665866216535
 20
-117.2665716937736
 10
84.39260929964838
 20
-117.2665716937736
 97
        0
 97
        0
 75
     2
 76
     1
 98
        0
  0
ENDBLK
  5
81
330
7E
100
AcDbEntity
  8
0
100
AcDbBlockEnd
  0
BLOCK
  5
94
330
92
100
AcDbEntity
  8
0
100
AcDbBlockBegin
  2
block 3
 70
     0
 10
0.0
 20
0.0
 30
0.0
  3
block 3
  1

  0
SPLINE
  5
96
330
92
100
AcDbEntity
  8
_U+30EC_U+30A4_U+30E4_U+30FC 1
370
     0
100
AcDbSpline
210
0.0
220
0.0
230
1.0
 70
    11
 71
     3
 72
    26
 73
    22
 74
     0
 42
0.0000000001
 43
0.0000000001
 12
1.0
 22
0.0
 32
0.0
 13
1.0
 23
0.0
 33
0.0
 40
0.0
 40
0.0
 40
0.0
 40
0.0
 40
1.0
 40
1.0
 40
1.0
 40
2.0
 40
2.0
 40
2.0
 40
3.0
 40
3.0
 40
3.0
 40
4.0
 40
4.0
 40
4.0
 40
5.0
 40
5.0
 40
5.0
 40
6.0
 40
6.0
 40
6.0
 40
7.0
 40
7.0
 40
7.0
 40
7.0
 10
88.67365720439409
 20
-138.6668158290486
 30
0.0
 10
88.67365720439409
 20
-138.6668158290486
 30
0.0
 10
88.67365720439409
 20
-137.562662726026
 30
0.0
 10
88.67365720439409
 20
-137.562662726026
 30
0.0
 10
88.67365720439409
 20
-137.562662726026
 30
0.0
 10
88.32122393625303
 20
-137.562662726026
 30
0.0
 10
88.32122393625303
 20
-137.562662726026
 30
0.0
 10
88.32122393625303
 20
-137.562662726026
 30
0.0
 10
88.32122393625303
 20
-137.4145236201603
 30
0.0
 10
88.32122393625303
 20
-137.4145236201603
 30
0.0
 10
88.67606877123376
 20
-137.3997097095737
 30
0.0
 10
88.72567814622136
 20
-137.2367566931214
 30
0.0
 10
88.75737302468566
 20
-137.1223795230111
 30
0.0
 10
88.75737302468566
 20
-137.1223795230111
 30
0.0
 10
88.91343585016747
 20
-137.1223795230111
 30
0.0
 10
88.91343585016747
 20
-137.1223795230111
 30
0.0
 10
88.91343585016747
 20
-137.1223795230111
 30
0.0
 10
88.91343585016747
 20
-138.6668158290486
 30
0.0
 10
88.91343585016747
 20
-138.6668158290486
 30
0.0
 10
88.91343585016747
 20
-138.6668158290486
 30
0.0
 10
88.67365720439409
 20
-138.6668158290486
 30
0.0
 10
88.67365720439409
 20
-138.6668158290486
 30
0.0
  0
HATCH
  5
97
330
92
100
AcDbEntity
  8
_U+30EC_U+30A4_U+30E4_U+30FC 1
 62
   179
420
  2234388
100
AcDbHatch
 10
0.0
 20
0.0
 30
0.0
210
0.0
220
0.0
230
1.0
  2
SOLID
 70
     1
 71
     0
 91
        1
 92
        1
 93
        1
 72
     4
 94
        3
 73
     0
 74
     1
 95
       26
 96
       22
 40
0.0
 40
0.0
 40
0.0
 40
0.0
 40
1.0
 40
1.0
 40
1.0
 40
2.0
 40
2.0
 40
2.0
 40
3.0
 40
3.0
 40
3.0
 40
4.0
 40
4.0
 40
4.0
 40
5.0
 40
5.0
 40
5.0
 40
6.0
 40
6.0
 40
6.0
 40
7.0
 40
7.0
 40
7.0
 40
7.0
 10
88.67365720439409
 20
-138.6668158290486
 10
88.67365720439409
 20
-138.6668158290486
 10
88.67365720439409
 20
-137.562662726026
 10
88.67365720439409
 20
-137.562662726026
 10
88.67365720439409
 20
-137.562662726026
 10
88.32122393625303
 20
-137.562662726026
 10
88.32122393625303
 20
-137.562662726026
 10
88.32122393625303
 20
-137.562662726026
 10
88.32122393625303
 20
-137.4145236201603
 10
88.32122393625303
 20
-137.4145236201603
 10
88.67606877123376
 20
-137.3997097095737
 10
88.72567814622136
 20
-137.2367566931214
 10
88.75737302468566
 20
-137.1223795230111
 10
88.75737302468566
 20
-137.1223795230111
 10
88.91343585016747
 20
-137.1223795230111
 10
88.91343585016747
 20
-137.1223795230111
 10
88.91343585016747
 20
-137.1223795230111
 10
88.91343585016747
 20
-138.6668158290486
 10
88.91343585016747
 20
-138.6668158290486
 10
88.91343585016747
 20
-138.6668158290486
 10
88.67365720439409
 20
-138.6668158290486
 10
88.67365720439409
 20
-138.6668158290486
 97
        0
 97
        0
 75
     2
 76
     1
 98
        0
  0
SPLINE
  5
98
330
92
100
AcDbEntity
  8
_U+30EC_U+30A4_U+30E4_U+30FC 1
370
     0
100
AcDbSpline
210
0.0
220
0.0
230
1.0
 70
    11
 71
     3
 72
    29
 73
    25
 74
     0
 42
0.0000000001
 43
0.0000000001
 12
1.0
 22
0.0
 32
0.0
 13
1.0
 23
0.0
 33
0.0
 40
0.0
 40
0.0
 40
0.0
 40
0.0
 40
1.0
 40
1.0
 40
1.0
 40
2.0
 40
2.0
 40
2.0
 40
3.0
 40
3.0
 40
3.0
 40
4.0
 40
4.0
 40
4.0
 40
5.0
 40
5.0
 40
5.0
 40
6.0
 40
6.0
 40
6.0
 40
7.0
 40
7.0
 40
7.0
 40
8.0
 40
8.0
 40
8.0
 40
8.0
 10
89.98348250788608
 20
-138.7174587326818
 30
0.0
 10
89.69857311125591
 20
-138.7174587326818
 30
0.0
 10
89.42744409656676
 20
-138.5799994228203
 30
0.0
 10
89.42744409656676
 20
-138.2310112501645
 30
0.0
 10
89.42744409656676
 20
-137.9750406556104
 30
0.0
 10
89.57902829791774
 20
-137.8799560202175
 30
0.0
 10
89.69202742983394
 20
-137.8186333205801
 30
0.0
 10
89.55870223455477
 20
-137.7593776782338
 30
0.0
 10
89.47705347155436
 20
-137.6450005081235
 30
0.0
 10
89.47705347155436
 20
-137.4841145489623
 30
0.0
 10
89.47705347155436
 20
-137.2091959292394
 30
0.0
 10
89.68961586299427
 20
-137.0738036766691
 30
0.0
 10
89.98348250788608
 20
-137.0738036766691
 30
0.0
 10
90.28665091058807
 20
-137.0738036766691
 30
0.0
 10
90.4899115442178
 20
-137.2178086679525
 30
0.0
 10
90.4899115442178
 20
-137.4841145489623
 30
0.0
 10
90.4899115442178
 20
-137.6450005081235
 30
0.0
 10
90.40654023347476
 20
-137.7593776782338
 30
0.0
 10
90.27287052864706
 20
-137.8186333205801
 30
0.0
 10
90.36795516403996
 20
-137.8692762242133
 30
0.0
 10
90.53745386191426
 20
-137.9643608596061
 30
0.0
 10
90.53745386191426
 20
-138.2268771355822
 30
0.0
 10
90.53745386191426
 20
-138.6013590148288
 30
0.0
 10
90.23910859289161
 20
-138.7174587326818
 30
0.0
 10
89.98348250788608
 20
-138.7174587326818
 30
0.0
  0
SPLINE
  5
99
330
92
100
AcDbEntity
  8
_U+30EC_U+30A4_U+30E4_U+30FC 1
370
     0
100
AcDbSpline
210
0.0
220
0.0
230
1.0
 70
    11
 71
     3
 72
    17
 73
    13
 74
     0
 42
0.0000000001
 43
0.0000000001
 12
1.0
 22
0.0
 32
0.0
 13
1.0
 23
0.0
 33
0.0
 40
0.0
 40
0.0
 40
0.0
 40
0.0
 40
1.0
 40
1.0
 40
1.0
 40
2.0
 40
2.0
 40
2.0
 40
3.0
 40
3.0
 40
3.0
 40
4.0
 40
4.0
 40
4.0
 40
4.0
 10
89.98348250788608
 20
-137.9264648092684
 30
0.0
 10
89.82983124924394
 20
-137.9264648092684
 30
0.0
 10
89.66722274234014
 20
-138.0132812154967
 30
0.0
 10
89.66722274234014
 20
-138.2161973395779
 30
0.0
 10
89.66722274234014
 20
-138.4215250304988
 30
0.0
 10
89.80261499491046
 20
-138.5228108377651
 30
0.0
 10
89.98348250788608
 20
-138.5228108377651
 30
0.0
 10
90.18260902693352
 20
-138.5228108377651
 30
0.0
 10
90.30008678298054
 20
-138.4001654384902
 30
0.0
 10
90.30008678298054
 20
-138.2223985114514
 30
0.0
 10
90.30008678298054
 20
-138.0005343622013
 30
0.0
 10
90.12610946097543
 20
-137.9264648092684
 30
0.0
 10
89.98348250788608
 20
-137.9264648092684
 30
0.0
  0
SPLINE
  5
9A
330
92
100
AcDbEntity
  8
_U+30EC_U+30A4_U+30E4_U+30FC 1
370
     0
100
AcDbSpline
210
0.0
220
0.0
230
1.0
 70
    11
 71
     3
 72
    17
 73
    13
 74
     0
 42
0.0000000001
 43
0.0000000001
 12
1.0
 22
0.0
 32
0.0
 13
1.0
 23
0.0
 33
0.0
 40
0.0
 40
0.0
 40
0.0
 40
0.0
 40
1.0
 40
1.0
 40
1.0
 40
2.0
 40
2.0
 40
2.0
 40
3.0
 40
3.0
 40
3.0
 40
4.0
 40
4.0
 40
4.0
 40
4.0
 10
89.98348250788608
 20
-137.2663845142945
 30
0.0
 10
89.80743812858981
 20
-137.2663845142945
 30
0.0
 10
89.71683211732774
 20
-137.3614691496874
 30
0.0
 10
89.71683211732774
 20
-137.4968614022577
 30
0.0
 10
89.71683211732774
 20
-137.6195068015326
 30
0.0
 10
89.79365774664882
 20
-137.7380180862252
 30
0.0
 10
89.98348250788608
 20
-137.7380180862252
 30
0.0
 10
90.17365177867187
 20
-137.7380180862252
 30
0.0
 10
90.25047740799295
 20
-137.6195068015326
 30
0.0
 10
90.25047740799295
 20
-137.4968614022577
 30
0.0
 10
90.25047740799295
 20
-137.3614691496874
 30
0.0
 10
90.15780433943972
 20
-137.2663845142945
 30
0.0
 10
89.98348250788608
 20
-137.2663845142945
 30
0.0
  0
HATCH
  5
9B
330
92
100
AcDbEntity
  8
_U+30EC_U+30A4_U+30E4_U+30FC 1
 62
   179
420
  2234388
100
AcDbHatch
 10
0.0
 20
0.0
 30
0.0
210
0.0
220
0.0
230
1.0
  2
SOLID
 70
     1
 71
     0
 91
        3
 92
        1
 93
        1
 72
     4
 94
        3
 73
     0
 74
     1
 95
       29
 96
       25
 40
0.0
 40
0.0
 40
0.0
 40
0.0
 40
1.0
 40
1.0
 40
1.0
 40
2.0
 40
2.0
 40
2.0
 40
3.0
 40
3.0
 40
3.0
 40
4.0
 40
4.0
 40
4.0
 40
5.0
 40
5.0
 40
5.0
 40
6.0
 40
6.0
 40
6.0
 40
7.0
 40
7.0
 40
7.0
 40
8.0
 40
8.0
 40
8.0
 40
8.0
 10
89.98348250788608
 20
-138.7174587326818
 10
89.69857311125591
 20
-138.7174587326818
 10
89.42744409656676
 20
-138.5799994228203
 10
89.42744409656676
 20
-138.2310112501645
 10
89.42744409656676
 20
-137.9750406556104
 10
89.57902829791774
 20
-137.8799560202175
 10
89.69202742983394
 20
-137.8186333205801
 10
89.55870223455477
 20
-137.7593776782338
 10
89.47705347155436
 20
-137.6450005081235
 10
89.47705347155436
 20
-137.4841145489623
 10
89.47705347155436
 20
-137.2091959292394
 10
89.68961586299427
 20
-137.0738036766691
 10
89.98348250788608
 20
-137.0738036766691
 10
90.28665091058807
 20
-137.0738036766691
 10
90.4899115442178
 20
-137.2178086679525
 10
90.4899115442178
 20
-137.4841145489623
 10
90.4899115442178
 20
-137.6450005081235
 10
90.40654023347476
 20
-137.7593776782338
 10
90.27287052864706
 20
-137.8186333205801
 10
90.36795516403996
 20
-137.8692762242133
 10
90.53745386191426
 20
-137.9643608596061
 10
90.53745386191426
 20
-138.2268771355822
 10
90.53745386191426
 20
-138.6013590148288
 10
90.23910859289161
 20
-138.7174587326818
 10
89.98348250788608
 20
-138.7174587326818
 97
        0
 97
        0
 92
        1
 93
        1
 72
     4
 94
        3
 73
     0
 74
     1
 95
       17
 96
       13
 40
0.0
 40
0.0
 40
0.0
 40
0.0
 40
1.0
 40
1.0
 40
1.0
 40
2.0
 40
2.0
 40
2.0
 40
3.0
 40
3.0
 40
3.0
 40
4.0
 40
4.0
 40
4.0
 40
4.0
 10
89.98348250788608
 20
-137.9264648092684
 10
89.82983124924394
 20
-137.9264648092684
 10
89.66722274234014
 20
-138.0132812154967
 10
89.66722274234014
 20
-138.2161973395779
 10
89.66722274234014
 20
-138.4215250304988
 10
89.80261499491046
 20
-138.5228108377651
 10
89.98348250788608
 20
-138.5228108377651
 10
90.18260902693352
 20
-138.5228108377651
 10
90.30008678298054
 20
-138.4001654384902
 10
90.30008678298054
 20
-138.2223985114514
 10
90.30008678298054
 20
-138.0005343622013
 10
90.12610946097543
 20
-137.9264648092684
 10
89.98348250788608
 20
-137.9264648092684
 97
        0
 97
        0
 92
        1
 93
        1
 72
     4
 94
        3
 73
     0
 74
     1
 95
       17
 96
       13
 40
0.0
 40
0.0
 40
0.0
 40
0.0
 40
1.0
 40
1.0
 40
1.0
 40
2.0
 40
2.0
 40
2.0
 40
3.0
 40
3.0
 40
3.0
 40
4.0
 40
4.0
 40
4.0
 40
4.0
 10
89.98348250788608
 20
-137.2663845142945
 10
89.80743812858981
 20
-137.2663845142945
 10
89.71683211732774
 20
-137.3614691496874
 10
89.71683211732774
 20
-137.4968614022577
 10
89.71683211732774
 20
-137.6195068015326
 10
89.79365774664882
 20
-137.7380180862252
 10
89.98348250788608
 20
-137.7380180862252
 10
90.17365177867187
 20
-137.7380180862252
 10
90.25047740799295
 20
-137.6195068015326
 10
90.25047740799295
 20
-137.4968614022577
 10
90.25047740799295
 20
-137.3614691496874
 10
90.15780433943972
 20
-137.2663845142945
 10
89.98348250788608
 20
-137.2663845142945
 97
        0
 97
        0
 75
     2
 76
     1
 98
        0
  0
ENDBLK
  5
95
330
92
100
AcDbEntity
  8
0
100
AcDbBlockEnd
  0
BLOCK
  5
AE
330
AC
100
AcDbEntity
  8
0
100
AcDbBlockBegin
  2
block 4
 70
     0
 10
0.0
 20
0.0
 30
0.0
  3
block 4
  1

  0
SPLINE
  5
B0
330
AC
100
AcDbEntity
  8
_U+30EC_U+30A4_U+30E4_U+30FC 1
370
     0
100
AcDbSpline
210
0.0
220
0.0
230
1.0
 70
    11
 71
     3
 72
    26
 73
    22
 74
     0
 42
0.0000000001
 43
0.0000000001
 12
1.0
 22
0.0
 32
0.0
 13
1.0
 23
0.0
 33
0.0
 40
0.0
 40
0.0
 40
0.0
 40
0.0
 40
1.0
 40
1.0
 40
1.0
 40
2.0
 40
2.0
 40
2.0
 40
3.0
 40
3.0
 40
3.0
 40
4.0
 40
4.0
 40
4.0
 40
5.0
 40
5.0
 40
5.0
 40
6.0
 40
6.0
 40
6.0
 40
7.0
 40
7.0
 40
7.0
 40
7.0
 10
100.7011745624983
 20
-129.9393554362652
 30
0.0
 10
100.7011745624983
 20
-129.9393554362652
 30
0.0
 10
99.59702145947576
 20
-129.9393554362652
 30
0.0
 10
99.59702145947576
 20
-129.9393554362652
 30
0.0
 10
99.59702145947576
 20
-129.9393554362652
 30
0.0
 10
99.59702145947576
 20
-130.2917887044062
 30
0.0
 10
99.59702145947576
 20
-130.2917887044062
 30
0.0
 10
99.59702145947576
 20
-130.2917887044062
 30
0.0
 10
99.44888235361
 20
-130.2917887044062
 30
0.0
 10
99.44888235361
 20
-130.2917887044062
 30
0.0
 10
99.43406844302343
 20
-129.9369438694255
 30
0.0
 10
99.27111542657111
 20
-129.8873344944379
 30
0.0
 10
99.15673825646083
 20
-129.8556396159736
 30
0.0
 10
99.15673825646083
 20
-129.8556396159736
 30
0.0
 10
99.15673825646083
 20
-129.6995767904918
 30
0.0
 10
99.15673825646083
 20
-129.6995767904918
 30
0.0
 10
99.15673825646083
 20
-129.6995767904918
 30
0.0
 10
100.7011745624983
 20
-129.6995767904918
 30
0.0
 10
100.7011745624983
 20
-129.6995767904918
 30
0.0
 10
100.7011745624983
 20
-129.6995767904918
 30
0.0
 10
100.7011745624983
 20
-129.9393554362652
 30
0.0
 10
100.7011745624983
 20
-129.9393554362652
 30
0.0
  0
HATCH
  5
B1
330
AC
100
AcDbEntity
  8
_U+30EC_U+30A4_U+30E4_U+30FC 1
 62
   179
420
  2234388
100
AcDbHatch
 10
0.0
 20
0.0
 30
0.0
210
0.0
220
0.0
230
1.0
  2
SOLID
 70
     1
 71
     0
 91
        1
 92
        1
 93
        1
 72
     4
 94
        3
 73
     0
 74
     1
 95
       26
 96
       22
 40
0.0
 40
0.0
 40
0.0
 40
0.0
 40
1.0
 40
1.0
 40
1.0
 40
2.0
 40
2.0
 40
2.0
 40
3.0
 40
3.0
 40
3.0
 40
4.0
 40
4.0
 40
4.0
 40
5.0
 40
5.0
 40
5.0
 40
6.0
 40
6.0
 40
6.0
 40
7.0
 40
7.0
 40
7.0
 40
7.0
 10
100.7011745624983
 20
-129.9393554362652
 10
100.7011745624983
 20
-129.9393554362652
 10
99.59702145947576
 20
-129.9393554362652
 10
99.59702145947576
 20
-129.9393554362652
 10
99.59702145947576
 20
-129.9393554362652
 10
99.59702145947576
 20
-130.2917887044062
 10
99.59702145947576
 20
-130.2917887044062
 10
99.59702145947576
 20
-130.2917887044062
 10
99.44888235361
 20
-130.2917887044062
 10
99.44888235361
 20
-130.2917887044062
 10
99.43406844302343
 20
-129.9369438694255
 10
99.27111542657111
 20
-129.8873344944379
 10
99.15673825646083
 20
-129.8556396159736
 10
99.15673825646083
 20
-129.8556396159736
 10
99.15673825646083
 20
-129.6995767904918
 10
99.15673825646083
 20
-129.6995767904918
 10
99.15673825646083
 20
-129.6995767904918
 10
100.7011745624983
 20
-129.6995767904918
 10
100.7011745624983
 20
-129.6995767904918
 10
100.7011745624983
 20
-129.6995767904918
 10
100.7011745624983
 20
-129.9393554362652
 10
100.7011745624983
 20
-129.9393554362652
 97
        0
 97
        0
 75
     2
 76
     1
 98
        0
  0
SPLINE
  5
B2
330
AC
100
AcDbEntity
  8
_U+30EC_U+30A4_U+30E4_U+30FC 1
370
     0
100
AcDbSpline
210
0.0
220
0.0
230
1.0
 70
    11
 71
     3
 72
    29
 73
    25
 74
     0
 42
0.0000000001
 43
0.0000000001
 12
1.0
 22
0.0
 32
0.0
 13
1.0
 23
0.0
 33
0.0
 40
0.0
 40
0.0
 40
0.0
 40
0.0
 40
1.0
 40
1.0
 40
1.0
 40
2.0
 40
2.0
 40
2.0
 40
3.0
 40
3.0
 40
3.0
 40
4.0
 40
4.0
 40
4.0
 40
5.0
 40
5.0
 40
5.0
 40
6.0
 40
6.0
 40
6.0
 40
7.0
 40
7.0
 40
7.0
 40
8.0
 40
8.0
 40
8.0
 40
8.0
 10
100.5234076354594
 20
-128.2044053498933
 30
0.0
 10
100.7328694409626
 20
-128.3198160486492
 30
0.0
 10
100.7518174661315
 20
-128.5051621857557
 30
0.0
 10
100.7518174661315
 20
-128.6295301327732
 30
0.0
 10
100.7518174661315
 20
-128.8010958879386
 30
0.0
 10
100.7053086770806
 20
-128.9526800892896
 30
0.0
 10
100.5234076354594
 20
-129.0543104061045
 30
0.0
 10
100.3287597405428
 20
-129.1652424807295
 30
0.0
 10
100.0917371711576
 20
-129.1855685440925
 30
0.0
 10
99.92912866425384
 20
-129.1855685440925
 30
0.0
 10
99.78512367297039
 20
-129.1855685440925
 30
0.0
 10
99.53328719299863
 20
-129.1673095380207
 30
0.0
 10
99.33450518349972
 20
-129.0543104061045
 30
0.0
 10
99.1315890594185
 20
-128.9392442168972
 30
0.0
 10
99.1081624101188
 20
-128.7673339521832
 30
0.0
 10
99.1081624101188
 20
-128.6295301327732
 30
0.0
 10
99.1081624101188
 20
-128.4596869253504
 30
0.0
 10
99.15260414187853
 20
-128.3060356667082
 30
0.0
 10
99.33450518349972
 20
-128.2044053498933
 30
0.0
 10
99.52708602112517
 20
-128.0979518993991
 30
0.0
 10
99.75549585179724
 20
-128.0731472119053
 30
0.0
 10
99.92912866425384
 20
-128.0731472119053
 30
0.0
 10
100.1003499098707
 20
-128.0731472119053
 30
0.0
 10
100.330826797834
 20
-128.095884842108
 30
0.0
 10
100.5234076354594
 20
-128.2044053498933
 30
0.0
  0
SPLINE
  5
B3
330
AC
100
AcDbEntity
  8
_U+30EC_U+30A4_U+30E4_U+30FC 1
370
     0
100
AcDbSpline
210
0.0
220
0.0
230
1.0
 70
    11
 71
     3
 72
    17
 73
    13
 74
     0
 42
0.0000000001
 43
0.0000000001
 12
1.0
 22
0.0
 32
0.0
 13
1.0
 23
0.0
 33
0.0
 40
0.0
 40
0.0
 40
0.0
 40
0.0
 40
1.0
 40
1.0
 40
1.0
 40
2.0
 40
2.0
 40
2.0
 40
3.0
 40
3.0
 40
3.0
 40
4.0
 40
4.0
 40
4.0
 40
4.0
 10
99.30074324774426
 20
-128.6295301327732
 30
0.0
 10
99.30074324774426
 20
-128.8961805233315
 30
0.0
 10
99.58427460618033
 20
-128.9457898983191
 30
0.0
 10
99.92912866425384
 20
-128.9457898983191
 30
0.0
 10
100.2484890157365
 20
-128.9457898983191
 30
0.0
 10
100.5571695712149
 20
-128.9075493384328
 30
0.0
 10
100.5571695712149
 20
-128.6295301327732
 30
0.0
 10
100.5571695712149
 20
-128.364946799506
 30
0.0
 10
100.2760497796185
 20
-128.3129258576787
 30
0.0
 10
99.92912866425384
 20
-128.3129258576787
 30
0.0
 10
99.60942380322265
 20
-128.3129258576787
 30
0.0
 10
99.30074324774426
 20
-128.3535779844047
 30
0.0
 10
99.30074324774426
 20
-128.6295301327732
 30
0.0
  0
HATCH
  5
B4
330
AC
100
AcDbEntity
  8
_U+30EC_U+30A4_U+30E4_U+30FC 1
 62
   179
420
  2234388
100
AcDbHatch
 10
0.0
 20
0.0
 30
0.0
210
0.0
220
0.0
230
1.0
  2
SOLID
 70
     1
 71
     0
 91
        2
 92
        1
 93
        1
 72
     4
 94
        3
 73
     0
 74
     1
 95
       29
 96
       25
 40
0.0
 40
0.0
 40
0.0
 40
0.0
 40
1.0
 40
1.0
 40
1.0
 40
2.0
 40
2.0
 40
2.0
 40
3.0
 40
3.0
 40
3.0
 40
4.0
 40
4.0
 40
4.0
 40
5.0
 40
5.0
 40
5.0
 40
6.0
 40
6.0
 40
6.0
 40
7.0
 40
7.0
 40
7.0
 40
8.0
 40
8.0
 40
8.0
 40
8.0
 10
100.5234076354594
 20
-128.2044053498933
 10
100.7328694409626
 20
-128.3198160486492
 10
100.7518174661315
 20
-128.5051621857557
 10
100.7518174661315
 20
-128.6295301327732
 10
100.7518174661315
 20
-128.8010958879386
 10
100.7053086770806
 20
-128.9526800892896
 10
100.5234076354594
 20
-129.0543104061045
 10
100.3287597405428
 20
-129.1652424807295
 10
100.0917371711576
 20
-129.1855685440925
 10
99.92912866425384
 20
-129.1855685440925
 10
99.78512367297039
 20
-129.1855685440925
 10
99.53328719299863
 20
-129.1673095380207
 10
99.33450518349972
 20
-129.0543104061045
 10
99.1315890594185
 20
-128.9392442168972
 10
99.1081624101188
 20
-128.7673339521832
 10
99.1081624101188
 20
-128.6295301327732
 10
99.1081624101188
 20
-128.4596869253504
 10
99.15260414187853
 20
-128.3060356667082
 10
99.33450518349972
 20
-128.2044053498933
 10
99.52708602112517
 20
-128.0979518993991
 10
99.75549585179724
 20
-128.0731472119053
 10
99.92912866425384
 20
-128.0731472119053
 10
100.1003499098707
 20
-128.0731472119053
 10
100.330826797834
 20
-128.095884842108
 10
100.5234076354594
 20
-128.2044053498933
 97
        0
 97
        0
 92
        1
 93
        1
 72
     4
 94
        3
 73
     0
 74
     1
 95
       17
 96
       13
 40
0.0
 40
0.0
 40
0.0
 40
0.0
 40
1.0
 40
1.0
 40
1.0
 40
2.0
 40
2.0
 40
2.0
 40
3.0
 40
3.0
 40
3.0
 40
4.0
 40
4.0
 40
4.0
 40
4.0
 10
99.30074324774426
 20
-128.6295301327732
 10
99.30074324774426
 20
-128.8961805233315
 10
99.58427460618033
 20
-128.9457898983191
 10
99.92912866425384
 20
-128.9457898983191
 10
100.2484890157365
 20
-128.9457898983191
 10
100.5571695712149
 20
-128.9075493384328
 10
100.5571695712149
 20
-128.6295301327732
 10
100.5571695712149
 20
-128.364946799506
 10
100.2760497796185
 20
-128.3129258576787
 10
99.92912866425384
 20
-128.3129258576787
 10
99.60942380322265
 20
-128.3129258576787
 10
99.30074324774426
 20
-128.3535779844047
 10
99.30074324774426
 20
-128.6295301327732
 97
        0
 97
        0
 75
     2
 76
     1
 98
        0
  0
ENDBLK
  5
AF
330
AC
100
AcDbEntity
  8
0
100
AcDbBlockEnd
  0
BLOCK
  5
B7
330
B5
100
AcDbEntity
  8
0
100
AcDbBlockBegin
  2
block 5
 70
     0
 10
0.0
 20
0.0
 30
0.0
  3
block 5
  1

  0
SPLINE
  5
B9
330
B5
100
AcDbEntity
  8
_U+30EC_U+30A4_U+30E4_U+30FC 1
370
     0
100
AcDbSpline
210
0.0
220
0.0
230
1.0
 70
    11
 71
     3
 72
    26
 73
    22
 74
     0
 42
0.0000000001
 43
0.0000000001
 12
1.0
 22
0.0
 32
0.0
 13
1.0
 23
0.0
 33
0.0
 40
0.0
 40
0.0
 40
0.0
 40
0.0
 40
1.0
 40
1.0
 40
1.0
 40
2.0
 40
2.0
 40
2.0
 40
3.0
 40
3.0
 40
3.0
 40
4.0
 40
4.0
 40
4.0
 40
5.0
 40
5.0
 40
5.0
 40
6.0
 40
6.0
 40
6.0
 40
7.0
 40
7.0
 40
7.0
 40
7.0
 10
100.7011745624983
 20
-134.7821261598809
 30
0.0
 10
100.7011745624983
 20
-134.7821261598809
 30
0.0
 10
99.59702145947576
 20
-134.7821261598809
 30
0.0
 10
99.59702145947576
 20
-134.7821261598809
 30
0.0
 10
99.59702145947576
 20
-134.7821261598809
 30
0.0
 10
99.59702145947576
 20
-135.1345594280219
 30
0.0
 10
99.59702145947576
 20
-135.1345594280219
 30
0.0
 10
99.59702145947576
 20
-135.1345594280219
 30
0.0
 10
99.44888235361
 20
-135.1345594280219
 30
0.0
 10
99.44888235361
 20
-135.1345594280219
 30
0.0
 10
99.43406844302343
 20
-134.7797145930412
 30
0.0
 10
99.27111542657111
 20
-134.7301052180536
 30
0.0
 10
99.15673825646083
 20
-134.6984103395893
 30
0.0
 10
99.15673825646083
 20
-134.6984103395893
 30
0.0
 10
99.15673825646083
 20
-134.5423475141075
 30
0.0
 10
99.15673825646083
 20
-134.5423475141075
 30
0.0
 10
99.15673825646083
 20
-134.5423475141075
 30
0.0
 10
100.7011745624983
 20
-134.5423475141075
 30
0.0
 10
100.7011745624983
 20
-134.5423475141075
 30
0.0
 10
100.7011745624983
 20
-134.5423475141075
 30
0.0
 10
100.7011745624983
 20
-134.7821261598809
 30
0.0
 10
100.7011745624983
 20
-134.7821261598809
 30
0.0
  0
HATCH
  5
BA
330
B5
100
AcDbEntity
  8
_U+30EC_U+30A4_U+30E4_U+30FC 1
 62
   179
420
  2234388
100
AcDbHatch
 10
0.0
 20
0.0
 30
0.0
210
0.0
220
0.0
230
1.0
  2
SOLID
 70
     1
 71
     0
 91
        1
 92
        1
 93
        1
 72
     4
 94
        3
 73
     0
 74
     1
 95
       26
 96
       22
 40
0.0
 40
0.0
 40
0.0
 40
0.0
 40
1.0
 40
1.0
 40
1.0
 40
2.0
 40
2.0
 40
2.0
 40
3.0
 40
3.0
 40
3.0
 40
4.0
 40
4.0
 40
4.0
 40
5.0
 40
5.0
 40
5.0
 40
6.0
 40
6.0
 40
6.0
 40
7.0
 40
7.0
 40
7.0
 40
7.0
 10
100.7011745624983
 20
-134.7821261598809
 10
100.7011745624983
 20
-134.7821261598809
 10
99.59702145947576
 20
-134.7821261598809
 10
99.59702145947576
 20
-134.7821261598809
 10
99.59702145947576
 20
-134.7821261598809
 10
99.59702145947576
 20
-135.1345594280219
 10
99.59702145947576
 20
-135.1345594280219
 10
99.59702145947576
 20
-135.1345594280219
 10
99.44888235361
 20
-135.1345594280219
 10
99.44888235361
 20
-135.1345594280219
 10
99.43406844302343
 20
-134.7797145930412
 10
99.27111542657111
 20
-134.7301052180536
 10
99.15673825646083
 20
-134.6984103395893
 10
99.15673825646083
 20
-134.6984103395893
 10
99.15673825646083
 20
-134.5423475141075
 10
99.15673825646083
 20
-134.5423475141075
 10
99.15673825646083
 20
-134.5423475141075
 10
100.7011745624983
 20
-134.5423475141075
 10
100.7011745624983
 20
-134.5423475141075
 10
100.7011745624983
 20
-134.5423475141075
 10
100.7011745624983
 20
-134.7821261598809
 10
100.7011745624983
 20
-134.7821261598809
 97
        0
 97
        0
 75
     2
 76
     1
 98
        0
  0
ENDBLK
  5
B8
330
B5
100
AcDbEntity
  8
0
100
AcDbBlockEnd
  0
BLOCK
  5
BF
330
BD
100
AcDbEntity
  8
0
100
AcDbBlockBegin
  2
block 6
 70
     0
 10
0.0
 20
0.0
 30
0.0
  3
block 6
  1

  0
SPLINE
  5
C1
330
BD
100
AcDbEntity
  8
_U+30EC_U+30A4_U+30E4_U+30FC 1
370
     0
100
AcDbSpline
210
0.0
220
0.0
230
1.0
 70
    11
 71
     3
 72
    26
 73
    22
 74
     0
 42
0.0000000001
 43
0.0000000001
 12
1.0
 22
0.0
 32
0.0
 13
1.0
 23
0.0
 33
0.0
 40
0.0
 40
0.0
 40
0.0
 40
0.0
 40
1.0
 40
1.0
 40
1.0
 40
2.0
 40
2.0
 40
2.0
 40
3.0
 40
3.0
 40
3.0
 40
4.0
 40
4.0
 40
4.0
 40
5.0
 40
5.0
 40
5.0
 40
6.0
 40
6.0
 40
6.0
 40
7.0
 40
7.0
 40
7.0
 40
7.0
 10
79.16846650581553
 20
-128.7058389977715
 30
0.0
 10
79.16846650581553
 20
-128.7058389977715
 30
0.0
 10
79.16846650581553
 20
-127.6015136399746
 30
0.0
 10
79.16846650581553
 20
-127.6015136399746
 30
0.0
 10
79.16846650581553
 20
-127.6015136399746
 30
0.0
 10
78.83842635832859
 20
-127.6015136399746
 30
0.0
 10
78.83842635832859
 20
-127.6015136399746
 30
0.0
 10
78.83842635832859
 20
-127.6015136399746
 30
0.0
 10
78.83842635832859
 20
-127.4533745341089
 30
0.0
 10
78.83842635832859
 20
-127.4533745341089
 30
0.0
 10
79.17053356310667
 20
-127.4387328782966
 30
0.0
 10
79.21704235215755
 20
-127.2757798618443
 30
0.0
 10
79.2466701733307
 20
-127.1615749465082
 30
0.0
 10
79.2466701733307
 20
-127.1615749465082
 30
0.0
 10
79.3927422219053
 20
-127.1615749465082
 30
0.0
 10
79.3927422219053
 20
-127.1615749465082
 30
0.0
 10
79.3927422219053
 20
-127.1615749465082
 30
0.0
 10
79.3927422219053
 20
-128.7058389977715
 30
0.0
 10
79.3927422219053
 20
-128.7058389977715
 30
0.0
 10
79.3927422219053
 20
-128.7058389977715
 30
0.0
 10
79.16846650581553
 20
-128.7058389977715
 30
0.0
 10
79.16846650581553
 20
-128.7058389977715
 30
0.0
  0
HATCH
  5
C2
330
BD
100
AcDbEntity
  8
_U+30EC_U+30A4_U+30E4_U+30FC 1
 62
   179
420
  2234388
100
AcDbHatch
 10
0.0
 20
0.0
 30
0.0
210
0.0
220
0.0
230
1.0
  2
SOLID
 70
     1
 71
     0
 91
        1
 92
        1
 93
        1
 72
     4
 94
        3
 73
     0
 74
     1
 95
       26
 96
       22
 40
0.0
 40
0.0
 40
0.0
 40
0.0
 40
1.0
 40
1.0
 40
1.0
 40
2.0
 40
2.0
 40
2.0
 40
3.0
 40
3.0
 40
3.0
 40
4.0
 40
4.0
 40
4.0
 40
5.0
 40
5.0
 40
5.0
 40
6.0
 40
6.0
 40
6.0
 40
7.0
 40
7.0
 40
7.0
 40
7.0
 10
79.16846650581553
 20
-128.7058389977715
 10
79.16846650581553
 20
-128.7058389977715
 10
79.16846650581553
 20
-127.6015136399746
 10
79.16846650581553
 20
-127.6015136399746
 10
79.16846650581553
 20
-127.6015136399746
 10
78.83842635832859
 20
-127.6015136399746
 10
78.83842635832859
 20
-127.6015136399746
 10
78.83842635832859
 20
-127.6015136399746
 10
78.83842635832859
 20
-127.4533745341089
 10
78.83842635832859
 20
-127.4533745341089
 10
79.17053356310667
 20
-127.4387328782966
 10
79.21704235215755
 20
-127.2757798618443
 10
79.2466701733307
 20
-127.1615749465082
 10
79.2466701733307
 20
-127.1615749465082
 10
79.3927422219053
 20
-127.1615749465082
 10
79.3927422219053
 20
-127.1615749465082
 10
79.3927422219053
 20
-127.1615749465082
 10
79.3927422219053
 20
-128.7058389977715
 10
79.3927422219053
 20
-128.7058389977715
 10
79.3927422219053
 20
-128.7058389977715
 10
79.16846650581553
 20
-128.7058389977715
 10
79.16846650581553
 20
-128.7058389977715
 97
        0
 97
        0
 75
     2
 76
     1
 98
        0
  0
ENDBLK
  5
C0
330
BD
100
AcDbEntity
  8
0
100
AcDbBlockEnd
  0
ENDSEC
  0
SECTION
  2
ENTITIES
  0
SPLINE
  5
41
330
1F
100
AcDbEntity
  8
_U+30EC_U+30A4_U+30E4_U+30FC 1
370
     0
100
AcDbSpline
210
0.0
220
0.0
230
1.0
 70
    11
 71
     3
 72
    44
 73
    40
 74
     0
 42
0.0000000001
 43
0.0000000001
 12
1.0
 22
0.0
 32
0.0
 13
1.0
 23
0.0
 33
0.0
 40
0.0
 40
0.0
 40
0.0
 40
0.0
 40
1.0
 40
1.0
 40
1.0
 40
2.0
 40
2.0
 40
2.0
 40
3.0
 40
3.0
 40
3.0
 40
4.0
 40
4.0
 40
4.0
 40
5.0
 40
5.0
 40
5.0
 40
6.0
 40
6.0
 40
6.0
 40
7.0
 40
7.0
 40
7.0
 40
8.0
 40
8.0
 40
8.0
 40
9.0
 40
9.0
 40
9.0
 40
10.0
 40
10.0
 40
10.0
 40
11.0
 40
11.0
 40
11.0
 40
12.0
 40
12.0
 40
12.0
 40
13.0
 40
13.0
 40
13.0
 40
13.0
 10
97.8500050036384
 20
-134.7631924663092
 30
0.0
 10
97.8500050036384
 20
-134.7631924663092
 30
0.0
 10
88.34980552378646
 20
-134.7631924663092
 30
0.0
 10
88.34980552378646
 20
-134.7631924663092
 30
0.0
 10
88.17137052833871
 20
-134.4538063552753
 30
0.0
 10
87.84131386692849
 20
-134.2636238553229
 30
0.0
 10
87.48405360142918
 20
-134.2636238553229
 30
0.0
 10
87.48405360142918
 20
-134.2636238553229
 30
0.0
 10
81.34974209126185
 20
-134.2636238553229
 30
0.0
 10
81.34974209126185
 20
-134.2636238553229
 30
0.0
 10
81.34974209126185
 20
-134.2636238553229
 30
0.0
 10
81.34974209126185
 20
-124.2632205244896
 30
0.0
 10
81.34974209126185
 20
-124.2632205244896
 30
0.0
 10
81.34974209126185
 20
-124.2632205244896
 30
0.0
 10
88.34980552378646
 20
-124.2632205244896
 30
0.0
 10
88.34980552378646
 20
-124.2632205244896
 30
0.0
 10
88.34980552378646
 20
-124.2632205244896
 30
0.0
 10
88.34980552378646
 20
-123.6630749690843
 30
0.0
 10
88.34980552378646
 20
-123.6630749690843
 30
0.0
 10
88.34980552378646
 20
-123.6630749690843
 30
0.0
 10
86.33996001950634
 20
-123.4625913580233
 30
0.0
 10
86.33996001950634
 20
-123.4625913580233
 30
0.0
 10
85.01393894222484
 20
-123.3295941358342
 30
0.0
 10
83.68241664574607
 20
-123.2634483025174
 30
0.0
 10
82.35018456573843
 20
-123.2634483025174
 30
0.0
 10
82.35018456573843
 20
-123.2634483025174
 30
0.0
 10
80.34996989454594
 20
-123.2634483025174
 30
0.0
 10
80.34996989454594
 20
-123.2634483025174
 30
0.0
 10
80.34996989454594
 20
-123.2634483025174
 30
0.0
 10
80.34996989454594
 20
-134.4634724663843
 30
0.0
 10
80.34996989454594
 20
-134.4634724663843
 30
0.0
 10
80.34996989454594
 20
-134.9051149662737
 30
0.0
 10
80.70825099651653
 20
-135.2633960772954
 30
0.0
 10
81.14992876302617
 20
-135.2633960772954
 30
0.0
 10
81.14992876302617
 20
-135.2633960772954
 30
0.0
 10
98.34953832422758
 20
-135.2633960772954
 30
0.0
 10
98.34953832422758
 20
-135.2633960772954
 30
0.0
 10
98.34953832422758
 20
-134.987100521809
 30
0.0
 10
98.12563027438439
 20
-134.7631924663092
 30
0.0
 10
97.8500050036384
 20
-134.7631924663092
 30
0.0
  0
HATCH
  5
42
330
1F
100
AcDbEntity
  8
_U+30EC_U+30A4_U+30E4_U+30FC 1
 62
   253
420
 11711154
100
AcDbHatch
 10
0.0
 20
0.0
 30
0.0
210
0.0
220
0.0
230
1.0
  2
SOLID
 70
     1
 71
     0
 91
        1
 92
        1
 93
        1
 72
     4
 94
        3
 73
     0
 74
     1
 95
       44
 96
       40
 40
0.0
 40
0.0
 40
0.0
 40
0.0
 40
1.0
 40
1.0
 40
1.0
 40
2.0
 40
2.0
 40
2.0
 40
3.0
 40
3.0
 40
3.0
 40
4.0
 40
4.0
 40
4.0
 40
5.0
 40
5.0
 40
5.0
 40
6.0
 40
6.0
 40
6.0
 40
7.0
 40
7.0
 40
7.0
 40
8.0
 40
8.0
 40
8.0
 40
9.0
 40
9.0
 40
9.0
 40
10.0
 40
10.0
 40
10.0
 40
11.0
 40
11.0
 40
11.0
 40
12.0
 40
12.0
 40
12.0
 40
13.0
 40
13.0
 40
13.0
 40
13.0
 10
97.8500050036384
 20
-134.7631924663092
 10
97.8500050036384
 20
-134.7631924663092
 10
88.34980552378646
 20
-134.7631924663092
 10
88.34980552378646
 20
-134.7631924663092
 10
88.17137052833871
 20
-134.4538063552753
 10
87.84131386692849
 20
-134.2636238553229
 10
87.48405360142918
 20
-134.2636238553229
 10
87.48405360142918
 20
-134.2636238553229
 10
81.34974209126185
 20
-134.2636238553229
 10
81.34974209126185
 20
-134.2636238553229
 10
81.34974209126185
 20
-134.2636238553229
 10
81.34974209126185
 20
-124.2632205244896
 10
81.34974209126185
 20
-124.2632205244896
 10
81.34974209126185
 20
-124.2632205244896
 10
88.34980552378646
 20
-124.2632205244896
 10
88.34980552378646
 20
-124.2632205244896
 10
88.34980552378646
 20
-124.2632205244896
 10
88.34980552378646
 20
-123.6630749690843
 10
88.34980552378646
 20
-123.6630749690843
 10
88.34980552378646
 20
-123.6630749690843
 10
86.33996001950634
 20
-123.4625913580233
 10
86.33996001950634
 20
-123.4625913580233
 10
85.01393894222484
 20
-123.3295941358342
 10
83.68241664574607
 20
-123.2634483025174
 10
82.35018456573843
 20
-123.2634483025174
 10
82.35018456573843
 20
-123.2634483025174
 10
80.34996989454594
 20
-123.2634483025174
 10
80.34996989454594
 20
-123.2634483025174
 10
80.34996989454594
 20
-123.2634483025174
 10
80.34996989454594
 20
-134.4634724663843
 10
80.34996989454594
 20
-134.4634724663843
 10
80.34996989454594
 20
-134.9051149662737
 10
80.70825099651653
 20
-135.2633960772954
 10
81.14992876302617
 20
-135.2633960772954
 10
81.14992876302617
 20
-135.2633960772954
 10
98.34953832422758
 20
-135.2633960772954
 10
98.34953832422758
 20
-135.2633960772954
 10
98.34953832422758
 20
-134.987100521809
 10
98.12563027438439
 20
-134.7631924663092
 10
97.8500050036384
 20
-134.7631924663092
 97
        0
 97
        0
 75
     2
 76
     1
 98
        0
  0
POLYLINE
  5
43
330
1F
100
AcDbEntity
  8
_U+30EC_U+30A4_U+30E4_U+30FC 1
 62
   179
420
  2234388
370
    25
100
AcDb2dPolyline
 66
     1
 10
0.0
 20
0.0
 30
0.0
  0
VERTEX
  5
44
330
43
100
AcDbEntity
  8
_U+30EC_U+30A4_U+30E4_U+30FC 1
 62
   179
420
  2234388
370
    25
100
AcDbVertex
100
AcDb2dVertex
 10
81.34974209126185
 20
-124.2632205244896
 30
0.0
  0
VERTEX
  5
45
330
43
100
AcDbEntity
  8
_U+30EC_U+30A4_U+30E4_U+30FC 1
 62
   179
420
  2234388
370
    25
100
AcDbVertex
100
AcDb2dVertex
 10
88.34980552378646
 20
-124.2632205244896
 30
0.0
  0
SEQEND
  5
46
330
43
100
AcDbEntity
  8
_U+30EC_U+30A4_U+30E4_U+30FC 1
 62
   179
420
  2234388
370
    25
  0
POLYLINE
  5
47
330
1F
100
AcDbEntity
  8
_U+30EC_U+30A4_U+30E4_U+30FC 1
 62
   179
420
  2234388
370
    25
100
AcDb2dPolyline
 66
     1
 10
0.0
 20
0.0
 30
0.0
  0
VERTEX
  5
48
330
47
100
AcDbEntity
  8
_U+30EC_U+30A4_U+30E4_U+30FC 1
 62
   179
420
  2234388
370
    25
100
AcDbVertex
100
AcDb2dVertex
 10
80.34996989454594
 20
-123.2634483025174
 30
0.0
  0
VERTEX
  5
49
330
47
100
AcDbEntity
  8
_U+30EC_U+30A4_U+30E4_U+30FC 1
 62
   179
420
  2234388
370
    25
100
AcDbVertex
100
AcDb2dVertex
 10
82.35018456573843
 20
-123.2634483025174
 30
0.0
  0
SEQEND
  5
4A
330
47
100
AcDbEntity
  8
_U+30EC_U+30A4_U+30E4_U+30FC 1
 62
   179
420
  2234388
370
    25
  0
POLYLINE
  5
4B
330
1F
100
AcDbEntity
  8
_U+30EC_U+30A4_U+30E4_U+30FC 1
 62
   179
420
  2234388
370
    25
100
AcDb2dPolyline
 66
     1
 10
0.0
 20
0.0
 30
0.0
  0
VERTEX
  5
4C
330
4B
100
AcDbEntity
  8
_U+30EC_U+30A4_U+30E4_U+30FC 1
 62
   179
420
  2234388
370
    25
100
AcDbVertex
100
AcDb2dVertex
 10
81.34974209126185
 20
-134.2636238553229
 30
0.0
  0
VERTEX
  5
4D
330
4B
100
AcDbEntity
  8
_U+30EC_U+30A4_U+30E4_U+30FC 1
 62
   179
420
  2234388
370
    25
100
AcDbVertex
100
AcDb2dVertex
 10
87.48405360142918
 20
-134.2636238553229
 30
0.0
  0
SEQEND
  5
4E
330
4B
100
AcDbEntity
  8
_U+30EC_U+30A4_U+30E4_U+30FC 1
 62
   179
420
  2234388
370
    25
  0
POLYLINE
  5
4F
330
1F
100
AcDbEntity
  8
_U+30EC_U+30A4_U+30E4_U+30FC 1
 62
   179
420
  2234388
370
    25
100
AcDb2dPolyline
 66
     1
 10
0.0
 20
0.0
 30
0.0
  0
VERTEX
  5
50
330
4F
100
AcDbEntity
  8
_U+30EC_U+30A4_U+30E4_U+30FC 1
 62
   179
420
  2234388
370
    25
100
AcDbVertex
100
AcDb2dVertex
 10
81.14992876302617
 20
-135.2633960772954
 30
0.0
  0
VERTEX
  5
51
330
4F
100
AcDbEntity
  8
_U+30EC_U+30A4_U+30E4_U+30FC 1
 62
   179
420
  2234388
370
    25
100
AcDbVertex
100
AcDb2dVertex
 10
98.34953832422758
 20
-135.2633960772954
 30
0.0
  0
SEQEND
  5
52
330
4F
100
AcDbEntity
  8
_U+30EC_U+30A4_U+30E4_U+30FC 1
 62
   179
420
  2234388
370
    25
  0
POLYLINE
  5
53
330
1F
100
AcDbEntity
  8
_U+30EC_U+30A4_U+30E4_U+30FC 1
 62
   179
420
  2234388
370
    25
100
AcDb2dPolyline
 66
     1
 10
0.0
 20
0.0
 30
0.0
  0
VERTEX
  5
54
330
53
100
AcDbEntity
  8
_U+30EC_U+30A4_U+30E4_U+30FC 1
 62
   179
420
  2234388
370
    25
100
AcDbVertex
100
AcDb2dVertex
 10
88.34980552378646
 20
-123.6630749690843
 30
0.0
  0
VERTEX
  5
55
330
53
100
AcDbEntity
  8
_U+30EC_U+30A4_U+30E4_U+30FC 1
 62
   179
420
  2234388
370
    25
100
AcDbVertex
100
AcDb2dVertex
 10
88.34980552378646
 20
-124.2632205244896
 30
0.0
  0
SEQEND
  5
56
330
53
100
AcDbEntity
  8
_U+30EC_U+30A4_U+30E4_U+30FC 1
 62
   179
420
  2234388
370
    25
  0
POLYLINE
  5
57
330
1F
100
AcDbEntity
  8
_U+30EC_U+30A4_U+30E4_U+30FC 1
 62
   179
420
  2234388
370
    25
100
AcDb2dPolyline
 66
     1
 10
0.0
 20
0.0
 30
0.0
  0
VERTEX
  5
58
330
57
100
AcDbEntity
  8
_U+30EC_U+30A4_U+30E4_U+30FC 1
 62
   179
420
  2234388
370
    25
100
AcDbVertex
100
AcDb2dVertex
 10
80.34996989454594
 20
-123.2634483025174
 30
0.0
  0
VERTEX
  5
59
330
57
100
AcDbEntity
  8
_U+30EC_U+30A4_U+30E4_U+30FC 1
 62
   179
420
  2234388
370
    25
100
AcDbVertex
100
AcDb2dVertex
 10
80.34996989454594
 20
-134.4634724663843
 30
0.0
  0
SEQEND
  5
5A
330
57
100
AcDbEntity
  8
_U+30EC_U+30A4_U+30E4_U+30FC 1
 62
   179
420
  2234388
370
    25
  0
POLYLINE
  5
5B
330
1F
100
AcDbEntity
  8
_U+30EC_U+30A4_U+30E4_U+30FC 1
 62
   179
420
  2234388
370
    25
100
AcDb2dPolyline
 66
     1
 10
0.0
 20
0.0
 30
0.0
  0
VERTEX
  5
5C
330
5B
100
AcDbEntity
  8
_U+30EC_U+30A4_U+30E4_U+30FC 1
 62
   179
420
  2234388
370
    25
100
AcDbVertex
100
AcDb2dVertex
 10
81.34974209126185
 20
-124.2632205244896
 30
0.0
  0
VERTEX
  5
5D
330
5B
100
AcDbEntity
  8
_U+30EC_U+30A4_U+30E4_U+30FC 1
 62
   179
420
  2234388
370
    25
100
AcDbVertex
100
AcDb2dVertex
 10
81.34974209126185
 20
-134.2636238553229
 30
0.0
  0
SEQEND
  5
5E
330
5B
100
AcDbEntity
  8
_U+30EC_U+30A4_U+30E4_U+30FC 1
 62
   179
420
  2234388
370
    25
  0
POLYLINE
  5
5F
330
1F
100
AcDbEntity
  8
_U+30EC_U+30A4_U+30E4_U+30FC 1
 62
   179
420
  2234388
370
    25
100
AcDb2dPolyline
 66
     1
 10
0.0
 20
0.0
 30
0.0
  0
VERTEX
  5
60
330
5F
100
AcDbEntity
  8
_U+30EC_U+30A4_U+30E4_U+30FC 1
 62
   179
420
  2234388
370
    25
100
AcDbVertex
100
AcDb2dVertex
 10
86.33996001950634
 20
-123.4625913580233
 30
0.0
  0
VERTEX
  5
61
330
5F
100
AcDbEntity
  8
_U+30EC_U+30A4_U+30E4_U+30FC 1
 62
   179
420
  2234388
370
    25
100
AcDbVertex
100
AcDb2dVertex
 10
88.34980552378646
 20
-123.6630749690843
 30
0.0
  0
SEQEND
  5
62
330
5F
100
AcDbEntity
  8
_U+30EC_U+30A4_U+30E4_U+30FC 1
 62
   179
420
  2234388
370
    25
  0
POLYLINE
  5
63
330
1F
100
AcDbEntity
  8
_U+30EC_U+30A4_U+30E4_U+30FC 1
 62
   179
420
  2234388
370
    25
100
AcDb2dPolyline
 66
     1
 10
0.0
 20
0.0
 30
0.0
  0
VERTEX
  5
64
330
63
100
AcDbEntity
  8
_U+30EC_U+30A4_U+30E4_U+30FC 1
 62
   179
420
  2234388
370
    25
100
AcDbVertex
100
AcDb2dVertex
 10
88.34980552378646
 20
-134.7631924663092
 30
0.0
  0
VERTEX
  5
65
330
63
100
AcDbEntity
  8
_U+30EC_U+30A4_U+30E4_U+30FC 1
 62
   179
420
  2234388
370
    25
100
AcDbVertex
100
AcDb2dVertex
 10
97.8500050036384
 20
-134.7631924663092
 30
0.0
  0
SEQEND
  5
66
330
63
100
AcDbEntity
  8
_U+30EC_U+30A4_U+30E4_U+30FC 1
 62
   179
420
  2234388
370
    25
  0
SPLINE
  5
67
330
1F
100
AcDbEntity
  8
_U+30EC_U+30A4_U+30E4_U+30FC 1
 62
   179
420
  2234388
370
    25
100
AcDbSpline
210
0.0
220
0.0
230
1.0
 70
     8
 71
     3
 72
     8
 73
     4
 74
     0
 42
0.0000000001
 43
0.0000000001
 12
1.0
 22
0.0
 32
0.0
 13
1.0
 23
0.0
 33
0.0
 40
0.0
 40
0.0
 40
0.0
 40
0.0
 40
1.0
 40
1.0
 40
1.0
 40
1.0
 10
80.34996989454594
 20
-134.4634724663843
 30
0.0
 10
80.34996989454594
 20
-134.9051149662737
 30
0.0
 10
80.70825099651653
 20
-135.2633960772954
 30
0.0
 10
81.14992876302617
 20
-135.2633960772954
 30
0.0
  0
SPLINE
  5
68
330
1F
100
AcDbEntity
  8
_U+30EC_U+30A4_U+30E4_U+30FC 1
 62
   179
420
  2234388
370
    25
100
AcDbSpline
210
0.0
220
0.0
230
1.0
 70
     8
 71
     3
 72
     8
 73
     4
 74
     0
 42
0.0000000001
 43
0.0000000001
 12
1.0
 22
0.0
 32
0.0
 13
1.0
 23
0.0
 33
0.0
 40
0.0
 40
0.0
 40
0.0
 40
0.0
 40
1.0
 40
1.0
 40
1.0
 40
1.0
 10
98.34953832422758
 20
-135.2633960772954
 30
0.0
 10
98.34953832422758
 20
-134.987100521809
 30
0.0
 10
98.12563027438439
 20
-134.7631924663092
 30
0.0
 10
97.8500050036384
 20
-134.7631924663092
 30
0.0
  0
SPLINE
  5
69
330
1F
100
AcDbEntity
  8
_U+30EC_U+30A4_U+30E4_U+30FC 1
 62
   179
420
  2234388
370
    25
100
AcDbSpline
210
0.0
220
0.0
230
1.0
 70
     8
 71
     3
 72
     8
 73
     4
 74
     0
 42
0.0000000001
 43
0.0000000001
 12
1.0
 22
0.0
 32
0.0
 13
1.0
 23
0.0
 33
0.0
 40
0.0
 40
0.0
 40
0.0
 40
0.0
 40
1.0
 40
1.0
 40
1.0
 40
1.0
 10
88.34980552378646
 20
-134.7631924663092
 30
0.0
 10
88.17137052833871
 20
-134.4538063552753
 30
0.0
 10
87.84131386692849
 20
-134.2636238553229
 30
0.0
 10
87.48405360142918
 20
-134.2636238553229
 30
0.0
  0
SPLINE
  5
6A
330
1F
100
AcDbEntity
  8
_U+30EC_U+30A4_U+30E4_U+30FC 1
 62
   179
420
  2234388
370
    25
100
AcDbSpline
210
0.0
220
0.0
230
1.0
 70
     8
 71
     3
 72
     8
 73
     4
 74
     0
 42
0.0000000001
 43
0.0000000001
 12
1.0
 22
0.0
 32
0.0
 13
1.0
 23
0.0
 33
0.0
 40
0.0
 40
0.0
 40
0.0
 40
0.0
 40
1.0
 40
1.0
 40
1.0
 40
1.0
 10
86.33996001950634
 20
-123.4625913580233
 30
0.0
 10
85.01393894222484
 20
-123.3295941358342
 30
0.0
 10
83.68241664574607
 20
-123.2634483025174
 30
0.0
 10
82.35018456573843
 20
-123.2634483025174
 30
0.0
  0
SPLINE
  5
6B
330
1F
100
AcDbEntity
  8
_U+30EC_U+30A4_U+30E4_U+30FC 1
 62
   179
420
  2234388
370
     9
100
AcDbSpline
210
0.0
220
0.0
230
1.0
 70
    11
 71
     3
 72
    17
 73
    13
 74
     0
 42
0.0000000001
 43
0.0000000001
 12
1.0
 22
0.0
 32
0.0
 13
1.0
 23
0.0
 33
0.0
 40
0.0
 40
0.0
 40
0.0
 40
0.0
 40
1.0
 40
1.0
 40
1.0
 40
2.0
 40
2.0
 40
2.0
 40
3.0
 40
3.0
 40
3.0
 40
4.0
 40
4.0
 40
4.0
 40
4.0
 10
80.44987655866377
 20
-119.2630188590732
 30
0.0
 10
80.44987655866377
 20
-119.2078796924201
 30
0.0
 10
80.405073782029
 20
-119.1631121924315
 30
0.0
 10
80.34996989454594
 20
-119.1631121924315
 30
0.0
 10
80.29483072928599
 20
-119.1631121924315
 30
0.0
 10
80.2500632304281
 20
-119.2078796924201
 30
0.0
 10
80.2500632304281
 20
-119.2630188590732
 30
0.0
 10
80.2500632304281
 20
-119.3188283035036
 30
0.0
 10
80.29483072928599
 20
-119.3635958034925
 30
0.0
 10
80.34996989454594
 20
-119.3635958034925
 30
0.0
 10
80.405073782029
 20
-119.3635958034925
 30
0.0
 10
80.44987655866377
 20
-119.3188283035036
 30
0.0
 10
80.44987655866377
 20
-119.2630188590732
 30
0.0
  0
SPLINE
  5
6C
330
1F
100
AcDbEntity
  8
_U+30EC_U+30A4_U+30E4_U+30FC 1
 62
   179
420
  2234388
370
     9
100
AcDbSpline
210
0.0
220
0.0
230
1.0
 70
    11
 71
     3
 72
    17
 73
    13
 74
     0
 42
0.0000000001
 43
0.0000000001
 12
1.0
 22
0.0
 32
0.0
 13
1.0
 23
0.0
 33
0.0
 40
0.0
 40
0.0
 40
0.0
 40
0.0
 40
1.0
 40
1.0
 40
1.0
 40
2.0
 40
2.0
 40
2.0
 40
3.0
 40
3.0
 40
3.0
 40
4.0
 40
4.0
 40
4.0
 40
4.0
 10
88.45006496567306
 20
-119.2630188590732
 30
0.0
 10
88.45006496567306
 20
-119.2078796924201
 30
0.0
 10
88.40529746681518
 20
-119.1631121924315
 30
0.0
 10
88.34980552378646
 20
-119.1631121924315
 30
0.0
 10
88.29470163630339
 20
-119.1631121924315
 30
0.0
 10
88.24989885966862
 20
-119.2078796924201
 30
0.0
 10
88.24989885966862
 20
-119.2630188590732
 30
0.0
 10
88.24989885966862
 20
-119.3188283035036
 30
0.0
 10
88.29470163630339
 20
-119.3635958034925
 30
0.0
 10
88.34980552378646
 20
-119.3635958034925
 30
0.0
 10
88.40529746681518
 20
-119.3635958034925
 30
0.0
 10
88.45006496567306
 20
-119.3188283035036
 30
0.0
 10
88.45006496567306
 20
-119.2630188590732
 30
0.0
  0
SPLINE
  5
6D
330
1F
100
AcDbEntity
  8
_U+30EC_U+30A4_U+30E4_U+30FC 1
 62
   179
420
  2234388
370
     9
100
AcDbSpline
210
0.0
220
0.0
230
1.0
 70
    11
 71
     3
 72
    17
 73
    13
 74
     0
 42
0.0000000001
 43
0.0000000001
 12
1.0
 22
0.0
 32
0.0
 13
1.0
 23
0.0
 33
0.0
 40
0.0
 40
0.0
 40
0.0
 40
0.0
 40
1.0
 40
1.0
 40
1.0
 40
2.0
 40
2.0
 40
2.0
 40
3.0
 40
3.0
 40
3.0
 40
4.0
 40
4.0
 40
4.0
 40
4.0
 10
102.3276015560721
 20
-124.2632205244896
 30
0.0
 10
102.3276015560721
 20
-124.2080813578369
 30
0.0
 10
102.2827987794373
 20
-124.163313857848
 30
0.0
 10
102.2276948919542
 20
-124.163313857848
 30
0.0
 10
102.1725583077901
 20
-124.163313857848
 30
0.0
 10
102.1277882278364
 20
-124.2080813578369
 30
0.0
 10
102.1277882278364
 20
-124.2632205244896
 30
0.0
 10
102.1277882278364
 20
-124.3183244133649
 30
0.0
 10
102.1725583077901
 20
-124.3631271911316
 30
0.0
 10
102.2276948919542
 20
-124.3631271911316
 30
0.0
 10
102.2827987794373
 20
-124.3631271911316
 30
0.0
 10
102.3276015560721
 20
-124.3183244133649
 30
0.0
 10
102.3276015560721
 20
-124.2632205244896
 30
0.0
  0
SPLINE
  5
6E
330
1F
100
AcDbEntity
  8
_U+30EC_U+30A4_U+30E4_U+30FC 1
 62
   179
420
  2234388
370
     9
100
AcDbSpline
210
0.0
220
0.0
230
1.0
 70
    11
 71
     3
 72
    17
 73
    13
 74
     0
 42
0.0000000001
 43
0.0000000001
 12
1.0
 22
0.0
 32
0.0
 13
1.0
 23
0.0
 33
0.0
 40
0.0
 40
0.0
 40
0.0
 40
0.0
 40
1.0
 40
1.0
 40
1.0
 40
2.0
 40
2.0
 40
2.0
 40
3.0
 40
3.0
 40
3.0
 40
4.0
 40
4.0
 40
4.0
 40
4.0
 10
102.3276015560721
 20
-134.2636238553229
 30
0.0
 10
102.3276015560721
 20
-134.2078144108925
 30
0.0
 10
102.2827987794373
 20
-134.1630469109039
 30
0.0
 10
102.2276948919542
 20
-134.1630469109039
 30
0.0
 10
102.1725583077901
 20
-134.1630469109039
 30
0.0
 10
102.1277882278364
 20
-134.2078144108925
 30
0.0
 10
102.1277882278364
 20
-134.2636238553229
 30
0.0
 10
102.1277882278364
 20
-134.318763021976
 30
0.0
 10
102.1725583077901
 20
-134.3635305219645
 30
0.0
 10
102.2276948919542
 20
-134.3635305219645
 30
0.0
 10
102.2827987794373
 20
-134.3635305219645
 30
0.0
 10
102.3276015560721
 20
-134.318763021976
 30
0.0
 10
102.3276015560721
 20
-134.2636238553229
 30
0.0
  0
SPLINE
  5
6F
330
1F
100
AcDbEntity
  8
_U+30EC_U+30A4_U+30E4_U+30FC 1
 62
   179
420
  2234388
370
     9
100
AcDbSpline
210
0.0
220
0.0
230
1.0
 70
    11
 71
     3
 72
    17
 73
    13
 74
     0
 42
0.0000000001
 43
0.0000000001
 12
1.0
 22
0.0
 32
0.0
 13
1.0
 23
0.0
 33
0.0
 40
0.0
 40
0.0
 40
0.0
 40
0.0
 40
1.0
 40
1.0
 40
1.0
 40
2.0
 40
2.0
 40
2.0
 40
3.0
 40
3.0
 40
3.0
 40
4.0
 40
4.0
 40
4.0
 40
4.0
 10
102.3276015560721
 20
-135.2585982995188
 30
0.0
 10
102.3276015560721
 20
-135.2027888550883
 30
0.0
 10
102.2827987794373
 20
-135.1579860773216
 30
0.0
 10
102.2276948919542
 20
-135.1579860773216
 30
0.0
 10
102.1725583077901
 20
-135.1579860773216
 30
0.0
 10
102.1277882278364
 20
-135.2027888550883
 30
0.0
 10
102.1277882278364
 20
-135.2585982995188
 30
0.0
 10
102.1277882278364
 20
-135.3137021883937
 30
0.0
 10
102.1725583077901
 20
-135.3585049661604
 30
0.0
 10
102.2276948919542
 20
-135.3585049661604
 30
0.0
 10
102.2827987794373
 20
-135.3585049661604
 30
0.0
 10
102.3276015560721
 20
-135.3137021883937
 30
0.0
 10
102.3276015560721
 20
-135.2585982995188
 30
0.0
  0
SPLINE
  5
70
330
1F
100
AcDbEntity
  8
_U+30EC_U+30A4_U+30E4_U+30FC 1
 62
   179
420
  2234388
370
     9
100
AcDbSpline
210
0.0
220
0.0
230
1.0
 70
    11
 71
     3
 72
    17
 73
    13
 74
     0
 42
0.0000000001
 43
0.0000000001
 12
1.0
 22
0.0
 32
0.0
 13
1.0
 23
0.0
 33
0.0
 40
0.0
 40
0.0
 40
0.0
 40
0.0
 40
1.0
 40
1.0
 40
1.0
 40
2.0
 40
2.0
 40
2.0
 40
3.0
 40
3.0
 40
3.0
 40
4.0
 40
4.0
 40
4.0
 40
4.0
 10
80.44987655866377
 20
-139.2631552429617
 30
0.0
 10
80.44987655866377
 20
-139.2080513540868
 30
0.0
 10
80.405073782029
 20
-139.16324857632
 30
0.0
 10
80.34996989454594
 20
-139.16324857632
 30
0.0
 10
80.29483072928599
 20
-139.16324857632
 30
0.0
 10
80.2500632304281
 20
-139.2080513540868
 30
0.0
 10
80.2500632304281
 20
-139.2631552429617
 30
0.0
 10
80.2500632304281
 20
-139.3182944096148
 30
0.0
 10
80.29483072928599
 20
-139.363061909604
 30
0.0
 10
80.34996989454594
 20
-139.363061909604
 30
0.0
 10
80.405073782029
 20
-139.363061909604
 30
0.0
 10
80.44987655866377
 20
-139.3182944096148
 30
0.0
 10
80.44987655866377
 20
-139.2631552429617
 30
0.0
  0
SPLINE
  5
71
330
1F
100
AcDbEntity
  8
_U+30EC_U+30A4_U+30E4_U+30FC 1
 62
   179
420
  2234388
370
     9
100
AcDbSpline
210
0.0
220
0.0
230
1.0
 70
    11
 71
     3
 72
    17
 73
    13
 74
     0
 42
0.0000000001
 43
0.0000000001
 12
1.0
 22
0.0
 32
0.0
 13
1.0
 23
0.0
 33
0.0
 40
0.0
 40
0.0
 40
0.0
 40
0.0
 40
1.0
 40
1.0
 40
1.0
 40
2.0
 40
2.0
 40
2.0
 40
3.0
 40
3.0
 40
3.0
 40
4.0
 40
4.0
 40
4.0
 40
4.0
 10
98.4494449883454
 20
-139.2631552429617
 30
0.0
 10
98.4494449883454
 20
-139.2080513540868
 30
0.0
 10
98.40467748948753
 20
-139.16324857632
 30
0.0
 10
98.34953832422758
 20
-139.16324857632
 30
0.0
 10
98.29443443674451
 20
-139.16324857632
 30
0.0
 10
98.24963166010974
 20
-139.2080513540868
 30
0.0
 10
98.24963166010974
 20
-139.2631552429617
 30
0.0
 10
98.24963166010974
 20
-139.3182944096148
 30
0.0
 10
98.29443443674451
 20
-139.363061909604
 30
0.0
 10
98.34953832422758
 20
-139.363061909604
 30
0.0
 10
98.40467748948753
 20
-139.363061909604
 30
0.0
 10
98.4494449883454
 20
-139.3182944096148
 30
0.0
 10
98.4494449883454
 20
-139.2631552429617
 30
0.0
  0
POLYLINE
  5
72
330
1F
100
AcDbEntity
  8
_U+30EC_U+30A4_U+30E4_U+30FC 1
 62
   179
420
  2234388
370
     9
100
AcDb2dPolyline
 66
     1
 10
0.0
 20
0.0
 30
0.0
  0
VERTEX
  5
73
330
72
100
AcDbEntity
  8
_U+30EC_U+30A4_U+30E4_U+30FC 1
 62
   179
420
  2234388
370
     9
100
AcDbVertex
100
AcDb2dVertex
 10
80.34996989454594
 20
-119.2630188590732
 30
0.0
  0
VERTEX
  5
74
330
72
100
AcDbEntity
  8
_U+30EC_U+30A4_U+30E4_U+30FC 1
 62
   179
420
  2234388
370
     9
100
AcDbVertex
100
AcDb2dVertex
 10
88.34980552378646
 20
-119.2630188590732
 30
0.0
  0
SEQEND
  5
75
330
72
100
AcDbEntity
  8
_U+30EC_U+30A4_U+30E4_U+30FC 1
 62
   179
420
  2234388
370
     9
  0
POLYLINE
  5
76
330
1F
100
AcDbEntity
  8
_U+30EC_U+30A4_U+30E4_U+30FC 1
 62
   179
420
  2234388
370
     9
100
AcDb2dPolyline
 66
     1
 10
0.0
 20
0.0
 30
0.0
  0
VERTEX
  5
77
330
76
100
AcDbEntity
  8
_U+30EC_U+30A4_U+30E4_U+30FC 1
 62
   179
420
  2234388
370
     9
100
AcDbVertex
100
AcDb2dVertex
 10
80.34996989454594
 20
-120.7230249698194
 30
0.0
  0
VERTEX
  5
78
330
76
100
AcDbEntity
  8
_U+30EC_U+30A4_U+30E4_U+30FC 1
 62
   179
420
  2234388
370
     9
100
AcDbVertex
100
AcDb2dVertex
 10
80.34996989454594
 20
-118.263246637101
 30
0.0
  0
SEQEND
  5
79
330
76
100
AcDbEntity
  8
_U+30EC_U+30A4_U+30E4_U+30FC 1
 62
   179
420
  2234388
370
     9
  0
POLYLINE
  5
7A
330
1F
100
AcDbEntity
  8
_U+30EC_U+30A4_U+30E4_U+30FC 1
 62
   179
420
  2234388
370
     9
100
AcDb2dPolyline
 66
     1
 10
0.0
 20
0.0
 30
0.0
  0
VERTEX
  5
7B
330
7A
100
AcDbEntity
  8
_U+30EC_U+30A4_U+30E4_U+30FC 1
 62
   179
420
  2234388
370
     9
100
AcDbVertex
100
AcDb2dVertex
 10
88.34980552378646
 20
-121.1233571919414
 30
0.0
  0
VERTEX
  5
7C
330
7A
100
AcDbEntity
  8
_U+30EC_U+30A4_U+30E4_U+30FC 1
 62
   179
420
  2234388
370
     9
100
AcDbVertex
100
AcDb2dVertex
 10
88.34980552378646
 20
-118.263246637101
 30
0.0
  0
SEQEND
  5
7D
330
7A
100
AcDbEntity
  8
_U+30EC_U+30A4_U+30E4_U+30FC 1
 62
   179
420
  2234388
370
     9
  0
INSERT
  5
7F
330
1F
100
AcDbEntity
  8
_U+30EC_U+30A4_U+30E4_U+30FC 1
100
AcDbBlockReference
  2
block 2
 10
0.0
 20
0.0
 30
0.0
  0
POLYLINE
  5
86
330
1F
100
AcDbEntity
  8
_U+30EC_U+30A4_U+30E4_U+30FC 1
 62
   179
420
  2234388
370
     9
100
AcDb2dPolyline
 66
     1
 10
0.0
 20
0.0
 30
0.0
  0
VERTEX
  5
87
330
86
100
AcDbEntity
  8
_U+30EC_U+30A4_U+30E4_U+30FC 1
 62
   179
420
  2234388
370
     9
100
AcDbVertex
100
AcDb2dVertex
 10
80.34996989454594
 20
-139.2631552429617
 30
0.0
  0
VERTEX
  5
88
330
86
100
AcDbEntity
  8
_U+30EC_U+30A4_U+30E4_U+30FC 1
 62
   179
420
  2234388
370
     9
100
AcDbVertex
100
AcDb2dVertex
 10
98.34953832422758
 20
-139.2631552429617
 30
0.0
  0
SEQEND
  5
89
330
86
100
AcDbEntity
  8
_U+30EC_U+30A4_U+30E4_U+30FC 1
 62
   179
420
  2234388
370
     9
  0
POLYLINE
  5
8A
330
1F
100
AcDbEntity
  8
_U+30EC_U+30A4_U+30E4_U+30FC 1
 62
   179
420
  2234388
370
     9
100
AcDb2dPolyline
 66
     1
 10
0.0
 20
0.0
 30
0.0
  0
VERTEX
  5
8B
330
8A
100
AcDbEntity
  8
_U+30EC_U+30A4_U+30E4_U+30FC 1
 62
   179
420
  2234388
370
     9
100
AcDbVertex
100
AcDb2dVertex
 10
80.34996989454594
 20
-137.0031902435269
 30
0.0
  0
VERTEX
  5
8C
330
8A
100
AcDbEntity
  8
_U+30EC_U+30A4_U+30E4_U+30FC 1
 62
   179
420
  2234388
370
     9
100
AcDbVertex
100
AcDb2dVertex
 10
80.34996989454594
 20
-140.2629274649342
 30
0.0
  0
SEQEND
  5
8D
330
8A
100
AcDbEntity
  8
_U+30EC_U+30A4_U+30E4_U+30FC 1
 62
   179
420
  2234388
370
     9
  0
POLYLINE
  5
8E
330
1F
100
AcDbEntity
  8
_U+30EC_U+30A4_U+30E4_U+30FC 1
 62
   179
420
  2234388
370
     9
100
AcDb2dPolyline
 66
     1
 10
0.0
 20
0.0
 30
0.0
  0
VERTEX
  5
8F
330
8E
100
AcDbEntity
  8
_U+30EC_U+30A4_U+30E4_U+30FC 1
 62
   179
420
  2234388
370
     9
100
AcDbVertex
100
AcDb2dVertex
 10
98.34953832422758
 20
-137.803113854438
 30
0.0
  0
VERTEX
  5
90
330
8E
100
AcDbEntity
  8
_U+30EC_U+30A4_U+30E4_U+30FC 1
 62
   179
420
  2234388
370
     9
100
AcDbVertex
100
AcDb2dVertex
 10
98.34953832422758
 20
-140.2629274649342
 30
0.0
  0
SEQEND
  5
91
330
8E
100
AcDbEntity
  8
_U+30EC_U+30A4_U+30E4_U+30FC 1
 62
   179
420
  2234388
370
     9
  0
INSERT
  5
93
330
1F
100
AcDbEntity
  8
_U+30EC_U+30A4_U+30E4_U+30FC 1
100
AcDbBlockReference
  2
block 3
 10
0.0
 20
0.0
 30
0.0
  0
POLYLINE
  5
9C
330
1F
100
AcDbEntity
  8
_U+30EC_U+30A4_U+30E4_U+30FC 1
 62
   179
420
  2234388
370
     9
100
AcDb2dPolyline
 66
     1
 10
0.0
 20
0.0
 30
0.0
  0
VERTEX
  5
9D
330
9C
100
AcDbEntity
  8
_U+30EC_U+30A4_U+30E4_U+30FC 1
 62
   179
420
  2234388
370
     9
100
AcDbVertex
100
AcDb2dVertex
 10
102.2276948919542
 20
-135.2585982995188
 30
0.0
  0
VERTEX
  5
9E
330
9C
100
AcDbEntity
  8
_U+30EC_U+30A4_U+30E4_U+30FC 1
 62
   179
420
  2234388
370
     9
100
AcDbVertex
100
AcDb2dVertex
 10
102.2276948919542
 20
-124.2632205244896
 30
0.0
  0
SEQEND
  5
9F
330
9C
100
AcDbEntity
  8
_U+30EC_U+30A4_U+30E4_U+30FC 1
 62
   179
420
  2234388
370
     9
  0
POLYLINE
  5
A0
330
1F
100
AcDbEntity
  8
_U+30EC_U+30A4_U+30E4_U+30FC 1
 62
   179
420
  2234388
370
     9
100
AcDb2dPolyline
 66
     1
 10
0.0
 20
0.0
 30
0.0
  0
VERTEX
  5
A1
330
A0
100
AcDbEntity
  8
_U+30EC_U+30A4_U+30E4_U+30FC 1
 62
   179
420
  2234388
370
     9
100
AcDbVertex
100
AcDb2dVertex
 10
100.7469833081467
 20
-134.2636238553229
 30
0.0
  0
VERTEX
  5
A2
330
A0
100
AcDbEntity
  8
_U+30EC_U+30A4_U+30E4_U+30FC 1
 62
   179
420
  2234388
370
     9
100
AcDbVertex
100
AcDb2dVertex
 10
103.2278198664389
 20
-134.2636238553229
 30
0.0
  0
SEQEND
  5
A3
330
A0
100
AcDbEntity
  8
_U+30EC_U+30A4_U+30E4_U+30FC 1
 62
   179
420
  2234388
370
     9
  0
POLYLINE
  5
A4
330
1F
100
AcDbEntity
  8
_U+30EC_U+30A4_U+30E4_U+30FC 1
 62
   179
420
  2234388
370
     9
100
AcDb2dPolyline
 66
     1
 10
0.0
 20
0.0
 30
0.0
  0
VERTEX
  5
A5
330
A4
100
AcDbEntity
  8
_U+30EC_U+30A4_U+30E4_U+30FC 1
 62
   179
420
  2234388
370
     9
100
AcDbVertex
100
AcDb2dVertex
 10
100.7469833081467
 20
-135.2585982995188
 30
0.0
  0
VERTEX
  5
A6
330
A4
100
AcDbEntity
  8
_U+30EC_U+30A4_U+30E4_U+30FC 1
 62
   179
420
  2234388
370
     9
100
AcDbVertex
100
AcDb2dVertex
 10
103.2278198664389
 20
-135.2585982995188
 30
0.0
  0
SEQEND
  5
A7
330
A4
100
AcDbEntity
  8
_U+30EC_U+30A4_U+30E4_U+30FC 1
 62
   179
420
  2234388
370
     9
  0
POLYLINE
  5
A8
330
1F
100
AcDbEntity
  8
_U+30EC_U+30A4_U+30E4_U+30FC 1
 62
   179
420
  2234388
370
     9
100
AcDb2dPolyline
 66
     1
 10
0.0
 20
0.0
 30
0.0
  0
VERTEX
  5
A9
330
A8
100
AcDbEntity
  8
_U+30EC_U+30A4_U+30E4_U+30FC 1
 62
   179
420
  2234388
370
     9
100
AcDbVertex
100
AcDb2dVertex
 10
100.7676535403141
 20
-124.2632205244896
 30
0.0
  0
VERTEX
  5
AA
330
A8
100
AcDbEntity
  8
_U+30EC_U+30A4_U+30E4_U+30FC 1
 62
   179
420
  2234388
370
     9
100
AcDbVertex
100
AcDb2dVertex
 10
103.2278198664389
 20
-124.2632205244896
 30
0.0
  0
SEQEND
  5
AB
330
A8
100
AcDbEntity
  8
_U+30EC_U+30A4_U+30E4_U+30FC 1
 62
   179
420
  2234388
370
     9
  0
INSERT
  5
AD
330
1F
100
AcDbEntity
  8
_U+30EC_U+30A4_U+30E4_U+30FC 1
100
AcDbBlockReference
  2
block 4
 10
0.0
 20
0.0
 30
0.0
  0
INSERT
  5
B6
330
1F
100
AcDbEntity
  8
_U+30EC_U+30A4_U+30E4_U+30FC 1
100
AcDbBlockReference
  2
block 5
 10
0.0
 20
0.0
 30
0.0
  0
SPLINE
  5
BB
330
1F
100
AcDbEntity
  8
_U+30EC_U+30A4_U+30E4_U+30FC 1
 62
   179
420
  2234388
370
     9
100
AcDbSpline
210
0.0
220
0.0
230
1.0
 70
    11
 71
     3
 72
    17
 73
    13
 74
     0
 42
0.0000000001
 43
0.0000000001
 12
1.0
 22
0.0
 32
0.0
 13
1.0
 23
0.0
 33
0.0
 40
0.0
 40
0.0
 40
0.0
 40
0.0
 40
1.0
 40
1.0
 40
1.0
 40
2.0
 40
2.0
 40
2.0
 40
3.0
 40
3.0
 40
3.0
 40
4.0
 40
4.0
 40
4.0
 40
4.0
 10
80.44366766993328
 20
-129.2944313565652
 30
0.0
 10
80.44366766993328
 20
-129.2393274676903
 30
0.0
 10
80.39886489329852
 20
-129.1945246899236
 30
0.0
 10
80.34376100581545
 20
-129.1945246899236
 30
0.0
 10
80.28862184055549
 20
-129.1945246899236
 30
0.0
 10
80.24385434169761
 20
-129.2393274676903
 30
0.0
 10
80.24385434169761
 20
-129.2944313565652
 30
0.0
 10
80.24385434169761
 20
-129.3495705232183
 30
0.0
 10
80.28862184055549
 20
-129.3943380232068
 30
0.0
 10
80.34376100581545
 20
-129.3943380232068
 30
0.0
 10
80.39886489329852
 20
-129.3943380232068
 30
0.0
 10
80.44366766993328
 20
-129.3495705232183
 30
0.0
 10
80.44366766993328
 20
-129.2944313565652
 30
0.0
  0
SPLINE
  5
BC
330
1F
100
AcDbEntity
  8
_U+30EC_U+30A4_U+30E4_U+30FC 1
 62
   179
420
  2234388
370
     9
100
AcDbSpline
210
0.0
220
0.0
230
1.0
 70
    11
 71
     3
 72
    17
 73
    13
 74
     0
 42
0.0000000001
 43
0.0000000001
 12
1.0
 22
0.0
 32
0.0
 13
1.0
 23
0.0
 33
0.0
 40
0.0
 40
0.0
 40
0.0
 40
0.0
 40
1.0
 40
1.0
 40
1.0
 40
2.0
 40
2.0
 40
2.0
 40
3.0
 40
3.0
 40
3.0
 40
4.0
 40
4.0
 40
4.0
 40
4.0
 10
81.44343986664919
 20
-129.2944313565652
 30
0.0
 10
81.44343986664919
 20
-129.2393274676903
 30
0.0
 10
81.39863709001443
 20
-129.1945246899236
 30
0.0
 10
81.34353320253136
 20
-129.1945246899236
 30
0.0
 10
81.2883940372714
 20
-129.1945246899236
 30
0.0
 10
81.24362653841352
 20
-129.2393274676903
 30
0.0
 10
81.24362653841352
 20
-129.2944313565652
 30
0.0
 10
81.24362653841352
 20
-129.3495705232183
 30
0.0
 10
81.2883940372714
 20
-129.3943380232068
 30
0.0
 10
81.34353320253136
 20
-129.3943380232068
 30
0.0
 10
81.39863709001443
 20
-129.3943380232068
 30
0.0
 10
81.44343986664919
 20
-129.3495705232183
 30
0.0
 10
81.44343986664919
 20
-129.2944313565652
 30
0.0
  0
INSERT
  5
BE
330
1F
100
AcDbEntity
  8
_U+30EC_U+30A4_U+30E4_U+30FC 1
100
AcDbBlockReference
  2
block 6
 10
0.0
 20
0.0
 30
0.0
  0
POLYLINE
  5
C3
330
1F
100
AcDbEntity
  8
_U+30EC_U+30A4_U+30E4_U+30FC 1
 62
   179
420
  2234388
370
     9
100
AcDb2dPolyline
 66
     1
 10
0.0
 20
0.0
 30
0.0
  0
VERTEX
  5
C4
330
C3
100
AcDbEntity
  8
_U+30EC_U+30A4_U+30E4_U+30FC 1
 62
   179
420
  2234388
370
     9
100
AcDbVertex
100
AcDb2dVertex
 10
82.20480484722515
 20
-129.2944313565652
 30
0.0
  0
VERTEX
  5
C5
330
C3
100
AcDbEntity
  8
_U+30EC_U+30A4_U+30E4_U+30FC 1
 62
   179
420
  2234388
370
     9
100
AcDbVertex
100
AcDb2dVertex
 10
78.36591244516346
 20
-129.2944313565652
 30
0.0
  0
SEQEND
  5
C6
330
C3
100
AcDbEntity
  8
_U+30EC_U+30A4_U+30E4_U+30FC 1
 62
   179
420
  2234388
370
     9
  0
ENDSEC
  0
SECTION
  2
OBJECTS
  0
DICTIONARY
  5
C
330
0
100
AcDbDictionary
281
     1
  3
ACAD_GROUP
350
D
  3
ACAD_LAYOUT
350
1A
  3
ACAD_MATERIAL
350
3B
  3
ACAD_MLEADERSTYLE
350
C8
  3
ACAD_MLINESTYLE
350
17
  3
ACAD_PLOTSETTINGS
350
19
  3
ACAD_PLOTSTYLENAME
350
E
  3
ACAD_TABLESTYLE
350
C7
  3
ACAD_VISUALSTYLE
350
2A
  0
SUN
  5
3F
330
29
100
AcDbSun
 90
        1
290
     0
 63
     7
421
 16777215
 40
1.0
291
     1
 91
  2455826
 92
 54000000
292
     0
 70
     2
 71
   256
280
     1
  0
DICTIONARY
  5
D
102
{ACAD_REACTORS
330
C
102
}
330
C
100
AcDbDictionary
281
     1
  0
DICTIONARY
  5
1A
102
{ACAD_REACTORS
330
C
102
}
330
C
100
AcDbDictionary
281
     1
  3
Layout1
350
1E
  3
Layout2
350
26
  3
Model
350
22
  0
DICTIONARY
  5
3B
102
{ACAD_REACTORS
330
C
102
}
330
C
100
AcDbDictionary
281
     1
  3
ByBlock
350
3D
  3
ByLayer
350
3C
  3
Global
350
3E
  0
DICTIONARY
  5
C8
102
{ACAD_REACTORS
330
C
102
}
330
C
100
AcDbDictionary
281
     1
  0
DICTIONARY
  5
17
102
{ACAD_REACTORS
330
C
102
}
330
C
100
AcDbDictionary
281
     1
  3
Standard
350
18
  0
DICTIONARY
  5
19
102
{ACAD_REACTORS
330
C
102
}
330
C
100
AcDbDictionary
281
     1
  0
ACDBDICTIONARYWDFLT
  5
E
102
{ACAD_REACTORS
330
C
102
}
330
C
100
AcDbDictionary
281
     1
  3
Normal
350
F
100
AcDbDictionaryWithDefault
340
F
  0
DICTIONARY
  5
C7
102
{ACAD_REACTORS
330
C
102
}
330
C
100
AcDbDictionary
281
     1
  0
DICTIONARY
  5
2A
102
{ACAD_REACTORS
330
C
102
}
330
C
100
AcDbDictionary
281
     1
  3
2dWireframe
350
2F
  3
3D Hidden
350
31
  3
3dWireframe
350
30
  3
Basic
350
32
  3
Brighten
350
36
  3
ColorChange
350
3A
  3
Conceptual
350
34
  3
Dim
350
35
  3
Facepattern
350
39
  3
Flat
350
2B
  3
FlatWithEdges
350
2C
  3
Gouraud
350
2D
  3
GouraudWithEdges
350
2E
  3
Linepattern
350
38
  3
Realistic
350
33
  3
Thicken
350
37
  0
LAYOUT
  5
1E
102
{ACAD_REACTORS
330
1A
102
}
330
1A
100
AcDbPlotSettings
  1

  2
none_device
  4

  6

 40
0.0
 41
0.0
 42
0.0
 43
0.0
 44
0.0
 45
0.0
 46
0.0
 47
0.0
 48
0.0
 49
0.0
140
0.0
141
0.0
142
1.0
143
1.0
 70
   688
 72
     0
 73
     0
 74
     5
  7

 75
    16
 76
     0
 77
     2
 78
   300
147
1.0
148
0.0
149
0.0
100
AcDbLayout
  1
Layout1
 70
     1
 71
     1
 10
0.0
 20
0.0
 11
12.0
 21
9.0
 12
0.0
 22
0.0
 32
0.0
 14
1.000000000000000E+20
 24
1.000000000000000E+20
 34
1.000000000000000E+20
 15
-1.000000000000000E+20
 25
-1.000000000000000E+20
 35
-1.000000000000000E+20
146
0.0
 13
0.0
 23
0.0
 33
0.0
 16
1.0
 26
0.0
 36
0.0
 17
0.0
 27
1.0
 37
0.0
 76
     0
330
1B
  0
LAYOUT
  5
26
102
{ACAD_REACTORS
330
1A
102
}
330
1A
100
AcDbPlotSettings
  1

  2
none_device
  4

  6

 40
0.0
 41
0.0
 42
0.0
 43
0.0
 44
0.0
 45
0.0
 46
0.0
 47
0.0
 48
0.0
 49
0.0
140
0.0
141
0.0
142
1.0
143
1.0
 70
   688
 72
     0
 73
     0
 74
     5
  7

 75
    16
 76
     0
 77
     2
 78
   300
147
1.0
148
0.0
149
0.0
100
AcDbLayout
  1
Layout2
 70
     1
 71
     2
 10
0.0
 20
0.0
 11
0.0
 21
0.0
 12
0.0
 22
0.0
 32
0.0
 14
0.0
 24
0.0
 34
0.0
 15
0.0
 25
0.0
 35
0.0
146
0.0
 13
0.0
 23
0.0
 33
0.0
 16
1.0
 26
0.0
 36
0.0
 17
0.0
 27
1.0
 37
0.0
 76
     0
330
23
  0
LAYOUT
  5
22
102
{ACAD_REACTORS
330
1A
102
}
330
1A
100
AcDbPlotSettings
  1

  2
none_device
  4

  6

 40
0.0
 41
0.0
 42
0.0
 43
0.0
 44
0.0
 45
0.0
 46
0.0
 47
0.0
 48
0.0
 49
0.0
140
0.0
141
0.0
142
1.0
143
1.0
 70
  1712
 72
     0
 73
     0
 74
     0
  7

 75
     0
 76
     0
 77
     2
 78
   300
147
1.0
148
0.0
149
0.0
100
AcDbLayout
  1
Model
 70
     1
 71
     0
 10
0.0
 20
0.0
 11
12.0
 21
9.0
 12
0.0
 22
0.0
 32
0.0
 14
1.000000000000000E+20
 24
1.000000000000000E+20
 34
1.000000000000000E+20
 15
-1.000000000000000E+20
 25
-1.000000000000000E+20
 35
-1.000000000000000E+20
146
0.0
 13
0.0
 23
0.0
 33
0.0
 16
1.0
 26
0.0
 36
0.0
 17
0.0
 27
1.0
 37
0.0
 76
     0
330
1F
331
29
  0
MATERIAL
  5
3D
102
{ACAD_REACTORS
330
3B
102
}
330
3B
100
AcDbMaterial
  1
ByBlock
 72
     1
 94
      127
  0
MATERIAL
  5
3C
102
{ACAD_REACTORS
330
3B
102
}
330
3B
100
AcDbMaterial
  1
ByLayer
 72
     1
 94
      127
  0
MATERIAL
  5
3E
102
{ACAD_REACTORS
330
3B
102
}
330
3B
100
AcDbMaterial
  1
Global
 72
     1
 94
      127
  0
MLINESTYLE
  5
18
102
{ACAD_REACTORS
330
17
102
}
330
17
100
AcDbMlineStyle
  2
Standard
 70
     0
  3

 62
   256
 51
90.0
 52
90.0
 71
     2
 49
0.5
 62
   256
  6
BYLAYER
 49
-0.5
 62
   256
  6
BYLAYER
  0
ACDBPLACEHOLDER
  5
F
102
{ACAD_REACTORS
330
E
102
}
330
E
  0
VISUALSTYLE
  5
2F
102
{ACAD_REACTORS
330
2A
102
}
330
2A
100
AcDbVisualStyle
  2
2dWireframe
 70
     4
177
     2
291
     0
 71
     0
176
     1
 72
     2
176
     1
 73
     0
176
     1
 90
        0
176
     1
 40
-0.6
176
     1
 41
-30.0
176
     1
 62
     5
 63
     7
421
 16777215
176
     1
 74
     1
176
     1
 91
        4
176
     1
 64
     7
176
     1
 65
   257
176
     1
 75
     1
176
     1
175
     1
176
     1
 42
1.0
176
     1
 92
        0
176
     1
 66
   257
176
     1
 43
1.0
176
     1
 76
     1
176
     1
 77
     6
176
     1
 78
     2
176
     1
 67
     7
176
     1
 79
     5
176
     1
170
     0
176
     1
171
     0
176
     1
290
     0
176
     1
 93
        1
176
     1
 44
0.0
176
     1
173
     0
176
     1
  0
VISUALSTYLE
  5
31
102
{ACAD_REACTORS
330
2A
102
}
330
2A
100
AcDbVisualStyle
  2
3D Hidden
 70
     6
177
     2
291
     0
 71
     1
176
     1
 72
     2
176
     1
 73
     2
176
     1
 90
        0
176
     1
 40
-0.6
176
     1
 41
-30.0
176
     1
 62
     5
 63
     7
421
 16777215
176
     1
 74
     2
176
     1
 91
        2
176
     1
 64
     7
176
     1
 65
   257
176
     1
 75
     2
176
     1
175
     1
176
     1
 42
40.0
176
     1
 92
        0
176
     1
 66
   257
176
     1
 43
1.0
176
     1
 76
     1
176
     1
 77
     6
176
     1
 78
     2
176
     1
 67
     7
176
     1
 79
     3
176
     1
170
     0
176
     1
171
     0
176
     1
290
     0
176
     1
 93
        1
176
     1
 44
0.0
176
     1
173
     0
176
     1
  0
VISUALSTYLE
  5
30
102
{ACAD_REACTORS
330
2A
102
}
330
2A
100
AcDbVisualStyle
  2
3dWireframe
 70
     5
177
     2
291
     0
 71
     0
176
     1
 72
     2
176
     1
 73
     0
176
     1
 90
        0
176
     1
 40
-0.6
176
     1
 41
-30.0
176
     1
 62
     5
 63
     7
421
 16777215
176
     1
 74
     1
176
     1
 91
        4
176
     1
 64
     7
176
     1
 65
   257
176
     1
 75
     1
176
     1
175
     1
176
     1
 42
1.0
176
     1
 92
        0
176
     1
 66
   257
176
     1
 43
1.0
176
     1
 76
     1
176
     1
 77
     6
176
     1
 78
     2
176
     1
 67
     7
176
     1
 79
     5
176
     1
170
     0
176
     1
171
     0
176
     1
290
     0
176
     1
 93
        1
176
     1
 44
0.0
176
     1
173
     0
176
     1
  0
VISUALSTYLE
  5
32
102
{ACAD_REACTORS
330
2A
102
}
330
2A
100
AcDbVisualStyle
  2
Basic
 70
     7
177
     2
291
     1
 71
     1
176
     1
 72
     0
176
     1
 73
     1
176
     1
 90
        0
176
     1
 40
-0.6
176
     1
 41
-30.0
176
     1
 62
     5
 63
     7
421
 16777215
176
     1
 74
     0
176
     1
 91
        4
176
     1
 64
     7
176
     1
 65
   257
176
     1
 75
     1
176
     1
175
     1
176
     1
 42
1.0
176
     1
 92
        8
176
     1
 66
     7
176
     1
 43
1.0
176
     1
 76
     1
176
     1
 77
     6
176
     1
 78
     2
176
     1
 67
     7
176
     1
 79
     5
176
     1
170
     0
176
     1
171
     0
176
     1
290
     0
176
     1
 93
        1
176
     1
 44
0.0
176
     1
173
     0
176
     1
  0
VISUALSTYLE
  5
36
102
{ACAD_REACTORS
330
2A
102
}
330
2A
100
AcDbVisualStyle
  2
Brighten
 70
    12
177
     2
291
     1
 71
     2
176
     1
 72
     2
176
     1
 73
     0
176
     1
 90
        0
176
     1
 40
-0.6
176
     1
 41
-30.0
176
     1
 62
     5
 63
     7
421
 16777215
176
     1
 74
     1
176
     1
 91
        4
176
     1
 64
     7
176
     1
 65
   257
176
     1
 75
     1
176
     1
175
     1
176
     1
 42
1.0
176
     1
 92
        8
176
     1
 66
     7
176
     1
 43
1.0
176
     1
 76
     1
176
     1
 77
     6
176
     1
 78
     2
176
     1
 67
     7
176
     1
 79
     5
176
     1
170
     0
176
     1
171
     0
176
     1
290
     0
176
     1
 93
        1
176
     1
 44
50.0
176
     1
173
     0
176
     1
  0
VISUALSTYLE
  5
3A
102
{ACAD_REACTORS
330
2A
102
}
330
2A
100
AcDbVisualStyle
  2
ColorChange
 70
    16
177
     2
291
     1
 71
     2
176
     1
 72
     2
176
     1
 73
     3
176
     1
 90
        0
176
     1
 40
-0.6
176
     1
 41
-30.0
176
     1
 62
     5
 63
     8
421
  8421504
176
     1
 74
     1
176
     1
 91
        4
176
     1
 64
     7
176
     1
 65
   257
176
     1
 75
     1
176
     1
175
     1
176
     1
 42
1.0
176
     1
 92
        8
176
     1
 66
     8
424
  8421504
176
     1
 43
1.0
176
     1
 76
     1
176
     1
 77
     6
176
     1
 78
     2
176
     1
 67
     7
176
     1
 79
     5
176
     1
170
     0
176
     1
171
     0
176
     1
290
     0
176
     1
 93
        1
176
     1
 44
0.0
176
     1
173
     0
176
     1
  0
VISUALSTYLE
  5
34
102
{ACAD_REACTORS
330
2A
102
}
330
2A
100
AcDbVisualStyle
  2
Conceptual
 70
     9
177
     2
291
     0
 71
     3
176
     1
 72
     2
176
     1
 73
     0
176
     1
 90
        0
176
     1
 40
-0.6
176
     1
 41
-30.0
176
     1
 62
     5
 63
     7
421
 16777215
176
     1
 74
     2
176
     1
 91
        2
176
     1
 64
     7
176
     1
 65
   257
176
     1
 75
     1
176
     1
175
     1
176
     1
 42
40.0
176
     1
 92
        8
176
     1
 66
     7
176
     1
 43
1.0
176
     1
 76
     1
176
     1
 77
     6
176
     1
 78
     2
176
     1
 67
     7
176
     1
 79
     3
176
     1
170
     0
176
     1
171
     0
176
     1
290
     0
176
     1
 93
        1
176
     1
 44
0.0
176
     1
173
     0
176
     1
  0
VISUALSTYLE
  5
35
102
{ACAD_REACTORS
330
2A
102
}
330
2A
100
AcDbVisualStyle
  2
Dim
 70
    11
177
     2
291
     1
 71
     2
176
     1
 72
     2
176
     1
 73
     0
176
     1
 90
        0
176
     1
 40
-0.6
176
     1
 41
-30.0
176
     1
 62
     5
 63
     7
421
 16777215
176
     1
 74
     1
176
     1
 91
        4
176
     1
 64
     7
176
     1
 65
   257
176
     1
 75
     1
176
     1
175
     1
176
     1
 42
1.0
176
     1
 92
        8
176
     1
 66
     7
176
     1
 43
1.0
176
     1
 76
     1
176
     1
 77
     6
176
     1
 78
     2
176
     1
 67
     7
176
     1
 79
     5
176
     1
170
     0
176
     1
171
     0
176
     1
290
     0
176
     1
 93
        1
176
     1
 44
-50.0
176
     1
173
     0
176
     1
  0
VISUALSTYLE
  5
39
102
{ACAD_REACTORS
330
2A
102
}
330
2A
100
AcDbVisualStyle
  2
Facepattern
 70
    15
177
     2
291
     1
 71
     2
176
     1
 72
     2
176
     1
 73
     0
176
     1
 90
        0
176
     1
 40
-0.6
176
     1
 41
-30.0
176
     1
 62
     5
 63
     7
421
 16777215
176
     1
 74
     1
176
     1
 91
        4
176
     1
 64
     7
176
     1
 65
   257
176
     1
 75
     1
176
     1
175
     1
176
     1
 42
1.0
176
     1
 92
        8
176
     1
 66
     7
176
     1
 43
1.0
176
     1
 76
     1
176
     1
 77
     6
176
     1
 78
     2
176
     1
 67
     7
176
     1
 79
     5
176
     1
170
     0
176
     1
171
     0
176
     1
290
     0
176
     1
 93
        1
176
     1
 44
0.0
176
     1
173
     0
176
     1
  0
VISUALSTYLE
  5
2B
102
{ACAD_REACTORS
330
2A
102
}
330
2A
100
AcDbVisualStyle
  2
Flat
 70
     0
177
     2
291
     1
 71
     2
176
     1
 72
     1
176
     1
 73
     1
176
     1
 90
        2
176
     1
 40
-0.6
176
     1
 41
30.0
176
     1
 62
     5
 63
     7
421
 16777215
176
     1
 74
     0
176
     1
 91
        4
176
     1
 64
     7
176
     1
 65
   257
176
     1
 75
     1
176
     1
175
     1
176
     1
 42
1.0
176
     1
 92
        8
176
     1
 66
     7
176
     1
 43
1.0
176
     1
 76
     1
176
     1
 77
     6
176
     1
 78
     2
176
     1
 67
     7
176
     1
 79
     5
176
     1
170
     0
176
     1
171
     0
176
     1
290
     0
176
     1
 93
       13
176
     1
 44
0.0
176
     1
173
     0
176
     1
  0
VISUALSTYLE
  5
2C
102
{ACAD_REACTORS
330
2A
102
}
330
2A
100
AcDbVisualStyle
  2
FlatWithEdges
 70
     1
177
     2
291
     1
 71
     2
176
     1
 72
     1
176
     1
 73
     1
176
     1
 90
        2
176
     1
 40
-0.6
176
     1
 41
30.0
176
     1
 62
     5
 63
     7
421
 16777215
176
     1
 74
     1
176
     1
 91
        4
176
     1
 64
     7
176
     1
 65
   257
176
     1
 75
     1
176
     1
175
     1
176
     1
 42
1.0
176
     1
 92
        0
176
     1
 66
   257
176
     1
 43
1.0
176
     1
 76
     1
176
     1
 77
     6
176
     1
 78
     2
176
     1
 67
     7
176
     1
 79
     5
176
     1
170
     0
176
     1
171
     0
176
     1
290
     0
176
     1
 93
       13
176
     1
 44
0.0
176
     1
173
     0
176
     1
  0
VISUALSTYLE
  5
2D
102
{ACAD_REACTORS
330
2A
102
}
330
2A
100
AcDbVisualStyle
  2
Gouraud
 70
     2
177
     2
291
     1
 71
     2
176
     1
 72
     2
176
     1
 73
     1
176
     1
 90
        2
176
     1
 40
-0.6
176
     1
 41
30.0
176
     1
 62
     5
 63
     7
421
 16777215
176
     1
 74
     0
176
     1
 91
        4
176
     1
 64
     7
176
     1
 65
   257
176
     1
 75
     1
176
     1
175
     1
176
     1
 42
1.0
176
     1
 92
        0
176
     1
 66
     7
176
     1
 43
1.0
176
     1
 76
     1
176
     1
 77
     6
176
     1
 78
     2
176
     1
 67
     7
176
     1
 79
     5
176
     1
170
     0
176
     1
171
     0
176
     1
290
     0
176
     1
 93
       13
176
     1
 44
0.0
176
     1
173
     0
176
     1
  0
VISUALSTYLE
  5
2E
102
{ACAD_REACTORS
330
2A
102
}
330
2A
100
AcDbVisualStyle
  2
GouraudWithEdges
 70
     3
177
     2
291
     1
 71
     2
176
     1
 72
     2
176
     1
 73
     1
176
     1
 90
        2
176
     1
 40
-0.6
176
     1
 41
30.0
176
     1
 62
     5
 63
     7
421
 16777215
176
     1
 74
     1
176
     1
 91
        4
176
     1
 64
     7
176
     1
 65
   257
176
     1
 75
     1
176
     1
175
     1
176
     1
 42
1.0
176
     1
 92
        0
176
     1
 66
   257
176
     1
 43
1.0
176
     1
 76
     1
176
     1
 77
     6
176
     1
 78
     2
176
     1
 67
     7
176
     1
 79
     5
176
     1
170
     0
176
     1
171
     0
176
     1
290
     0
176
     1
 93
       13
176
     1
 44
0.0
176
     1
173
     0
176
     1
  0
VISUALSTYLE
  5
38
102
{ACAD_REACTORS
330
2A
102
}
330
2A
100
AcDbVisualStyle
  2
Linepattern
 70
    14
177
     2
291
     1
 71
     2
176
     1
 72
     2
176
     1
 73
     0
176
     1
 90
        0
176
     1
 40
-0.6
176
     1
 41
-30.0
176
     1
 62
     5
 63
     7
421
 16777215
176
     1
 74
     1
176
     1
 91
        4
176
     1
 64
     7
176
     1
 65
   257
176
     1
 75
     7
176
     1
175
     7
176
     1
 42
1.0
176
     1
 92
        8
176
     1
 66
     7
176
     1
 43
1.0
176
     1
 76
     1
176
     1
 77
     6
176
     1
 78
     2
176
     1
 67
     7
176
     1
 79
     5
176
     1
170
     0
176
     1
171
     0
176
     1
290
     0
176
     1
 93
        1
176
     1
 44
0.0
176
     1
173
     0
176
     1
  0
VISUALSTYLE
  5
33
102
{ACAD_REACTORS
330
2A
102
}
330
2A
100
AcDbVisualStyle
  2
Realistic
 70
     8
177
     2
291
     0
 71
     2
176
     1
 72
     2
176
     1
 73
     0
176
     1
 90
        0
176
     1
 40
-0.6
176
     1
 41
-30.0
176
     1
 62
     5
 63
     7
421
 16777215
176
     1
 74
     1
176
     1
 91
        0
176
     1
 64
     7
176
     1
 65
   257
176
     1
 75
     1
176
     1
175
     1
176
     1
 42
1.0
176
     1
 92
        8
176
     1
 66
     8
424
  7895160
176
     1
 43
1.0
176
     1
 76
     1
176
     1
 77
     6
176
     1
 78
     2
176
     1
 67
     7
176
     1
 79
     5
176
     1
170
     0
176
     1
171
     0
176
     1
290
     0
176
     1
 93
       13
176
     1
 44
0.0
176
     1
173
     0
176
     1
  0
VISUALSTYLE
  5
37
102
{ACAD_REACTORS
330
2A
102
}
330
2A
100
AcDbVisualStyle
  2
Thicken
 70
    13
177
     2
291
     1
 71
     2
176
     1
 72
     2
176
     1
 73
     0
176
     1
 90
        0
176
     1
 40
-0.6
176
     1
 41
-30.0
176
     1
 62
     5
 63
     7
421
 16777215
176
     1
 74
     1
176
     1
 91
        4
176
     1
 64
     7
176
     1
 65
   257
176
     1
 75
     1
176
     1
175
     1
176
     1
 42
1.0
176
     1
 92
       12
176
     1
 66
     7
176
     1
 43
1.0
176
     1
 76
     1
176
     1
 77
     6
176
     1
 78
     2
176
     1
 67
     7
176
     1
 79
     5
176
     1
170
     0
176
     1
171
     0
176
     1
290
     0
176
     1
 93
        1
176
     1
 44
0.0
176
     1
173
     0
176
     1
  0
ENDSEC
  0
EOF
